  0
SECTION
  2
HEADER
  9
$ACADVER
  1
AC1015
  9
$ACADMAINTVER
 70
     6
  9
$DWGCODEPAGE
  3
ANSI_1252
  9
$INSBASE
 10
0.0
 20
0.0
 30
0.0
  9
$EXTMIN
 10
0.082648702272
 20
0.0
 30
0.0
  9
$EXTMAX
 10
205.9498
 20
1008.0
 30
0.0
  9
$LIMMIN
 10
0.0
 20
0.0
  9
$LIMMAX
 10
12.0
 20
9.0
  9
$ORTHOMODE
 70
     0
  9
$REGENMODE
 70
     1
  9
$FILLMODE
 70
     1
  9
$QTEXTMODE
 70
     0
  9
$MIRRTEXT
 70
     1
  9
$LTSCALE
 40
1.0
  9
$ATTMODE
 70
     1
  9
$TEXTSIZE
 40
0.2
  9
$TRACEWID
 40
0.05
  9
$TEXTSTYLE
  7
Standard
  9
$CLAYER
  8
0
  9
$CELTYPE
  6
ByBlock
  9
$CECOLOR
 62
   256
  9
$CELTSCALE
 40
1.0
  9
$DISPSILH
 70
     0
  9
$DIMSCALE
 40
1.0
  9
$DIMASZ
 40
0.18
  9
$DIMEXO
 40
0.0625
  9
$DIMDLI
 40
0.38
  9
$DIMRND
 40
0.0
  9
$DIMDLE
 40
0.0
  9
$DIMEXE
 40
0.18
  9
$DIMTP
 40
0.0
  9
$DIMTM
 40
0.0
  9
$DIMTXT
 40
0.18
  9
$DIMCEN
 40
0.09
  9
$DIMTSZ
 40
0.0
  9
$DIMTOL
 70
     0
  9
$DIMLIM
 70
     0
  9
$DIMTIH
 70
     1
  9
$DIMTOH
 70
     1
  9
$DIMSE1
 70
     0
  9
$DIMSE2
 70
     0
  9
$DIMTAD
 70
     0
  9
$DIMZIN
 70
     0
  9
$DIMBLK
  1

  9
$DIMASO
 70
     1
  9
$DIMSHO
 70
     1
  9
$DIMPOST
  1

  9
$DIMAPOST
  1

  9
$DIMALT
 70
     0
  9
$DIMALTD
 70
     2
  9
$DIMALTF
 40
25.4
  9
$DIMLFAC
 40
1.0
  9
$DIMTOFL
 70
     0
  9
$DIMTVP
 40
0.0
  9
$DIMTIX
 70
     0
  9
$DIMSOXD
 70
     0
  9
$DIMSAH
 70
     0
  9
$DIMBLK1
  1

  9
$DIMBLK2
  1

  9
$DIMSTYLE
  2
Standard
  9
$DIMCLRD
 70
     0
  9
$DIMCLRE
 70
     0
  9
$DIMCLRT
 70
     0
  9
$DIMTFAC
 40
1.0
  9
$DIMGAP
 40
0.09
  9
$DIMJUST
 70
     0
  9
$DIMSD1
 70
     0
  9
$DIMSD2
 70
     0
  9
$DIMTOLJ
 70
     1
  9
$DIMTZIN
 70
     0
  9
$DIMALTZ
 70
     0
  9
$DIMALTTZ
 70
     0
  9
$DIMUPT
 70
     0
  9
$DIMDEC
 70
     4
  9
$DIMTDEC
 70
     4
  9
$DIMALTU
 70
     2
  9
$DIMALTTD
 70
     2
  9
$DIMTXSTY
  7
Standard
  9
$DIMAUNIT
 70
     0
  9
$DIMADEC
 70
     0
  9
$DIMALTRND
 40
0.0
  9
$DIMAZIN
 70
     0
  9
$DIMDSEP
 70
    46
  9
$DIMATFIT
 70
     3
  9
$DIMFRAC
 70
     0
  9
$DIMLDRBLK
  1

  9
$DIMLUNIT
 70
     2
  9
$DIMLWD
 70
    -2
  9
$DIMLWE
 70
    -2
  9
$DIMTMOVE
 70
     2
  9
$LUNITS
 70
     2
  9
$LUPREC
 70
     4
  9
$SKETCHINC
 40
0.1
  9
$FILLETRAD
 40
0.5
  9
$AUNITS
 70
     0
  9
$AUPREC
 70
     0
  9
$MENU
  1
.
  9
$ELEVATION
 40
0.0
  9
$PELEVATION
 40
0.0
  9
$THICKNESS
 40
0.0
  9
$LIMCHECK
 70
     0
  9
$CHAMFERA
 40
0.5
  9
$CHAMFERB
 40
0.5
  9
$CHAMFERC
 40
1.0
  9
$CHAMFERD
 40
0.0
  9
$SKPOLY
 70
     0
  9
$TDCREATE
 40
2456465.927650822
  9
$TDUCREATE
 40
2456465.844317488
  9
$TDUPDATE
 40
2456465.930063472
  9
$TDUUPDATE
 40
2456465.846730139
  9
$TDINDWG
 40
0.0024123032
  9
$TDUSRTIMER
 40
0.0024123032
  9
$USRTIMER
 70
     1
  9
$ANGBASE
 50
0.0
  9
$ANGDIR
 70
     0
  9
$PDMODE
 70
     0
  9
$PDSIZE
 40
0.0
  9
$PLINEWID
 40
0.0
  9
$SPLFRAME
 70
     0
  9
$SPLINETYPE
 70
     6
  9
$SPLINESEGS
 70
     8
  9
$HANDSEED
  5
1382
  9
$SURFTAB1
 70
     6
  9
$SURFTAB2
 70
     6
  9
$SURFTYPE
 70
     6
  9
$SURFU
 70
     6
  9
$SURFV
 70
     6
  9
$UCSBASE
  2

  9
$UCSNAME
  2

  9
$UCSORG
 10
0.0
 20
0.0
 30
0.0
  9
$UCSXDIR
 10
1.0
 20
0.0
 30
0.0
  9
$UCSYDIR
 10
0.0
 20
1.0
 30
0.0
  9
$UCSORTHOREF
  2

  9
$UCSORTHOVIEW
 70
     0
  9
$UCSORGTOP
 10
0.0
 20
0.0
 30
0.0
  9
$UCSORGBOTTOM
 10
0.0
 20
0.0
 30
0.0
  9
$UCSORGLEFT
 10
0.0
 20
0.0
 30
0.0
  9
$UCSORGRIGHT
 10
0.0
 20
0.0
 30
0.0
  9
$UCSORGFRONT
 10
0.0
 20
0.0
 30
0.0
  9
$UCSORGBACK
 10
0.0
 20
0.0
 30
0.0
  9
$PUCSBASE
  2

  9
$PUCSNAME
  2

  9
$PUCSORG
 10
0.0
 20
0.0
 30
0.0
  9
$PUCSXDIR
 10
1.0
 20
0.0
 30
0.0
  9
$PUCSYDIR
 10
0.0
 20
1.0
 30
0.0
  9
$PUCSORTHOREF
  2

  9
$PUCSORTHOVIEW
 70
     0
  9
$PUCSORGTOP
 10
0.0
 20
0.0
 30
0.0
  9
$PUCSORGBOTTOM
 10
0.0
 20
0.0
 30
0.0
  9
$PUCSORGLEFT
 10
0.0
 20
0.0
 30
0.0
  9
$PUCSORGRIGHT
 10
0.0
 20
0.0
 30
0.0
  9
$PUCSORGFRONT
 10
0.0
 20
0.0
 30
0.0
  9
$PUCSORGBACK
 10
0.0
 20
0.0
 30
0.0
  9
$USERI1
 70
     0
  9
$USERI2
 70
     0
  9
$USERI3
 70
     0
  9
$USERI4
 70
     0
  9
$USERI5
 70
     0
  9
$USERR1
 40
0.0
  9
$USERR2
 40
0.0
  9
$USERR3
 40
0.0
  9
$USERR4
 40
0.0
  9
$USERR5
 40
0.0
  9
$WORLDVIEW
 70
     1
  9
$SHADEDGE
 70
     3
  9
$SHADEDIF
 70
    70
  9
$TILEMODE
 70
     1
  9
$MAXACTVP
 70
    64
  9
$PINSBASE
 10
0.0
 20
0.0
 30
0.0
  9
$PLIMCHECK
 70
     0
  9
$PEXTMIN
 10
1.000000000000E+20
 20
1.000000000000E+20
 30
1.000000000000E+20
  9
$PEXTMAX
 10
-1.000000000000E+20
 20
-1.000000000000E+20
 30
-1.000000000000E+20
  9
$PLIMMIN
 10
0.0
 20
0.0
  9
$PLIMMAX
 10
12.0
 20
9.0
  9
$UNITMODE
 70
     0
  9
$VISRETAIN
 70
     1
  9
$PLINEGEN
 70
     0
  9
$PSLTSCALE
 70
     1
  9
$TREEDEPTH
 70
  3020
  9
$CMLSTYLE
  2
Standard
  9
$CMLJUST
 70
     0
  9
$CMLSCALE
 40
1.0
  9
$PROXYGRAPHICS
 70
     1
  9
$MEASUREMENT
 70
     0
  9
$CELWEIGHT
370
    -1
  9
$ENDCAPS
280
     0
  9
$JOINSTYLE
280
     0
  9
$LWDISPLAY
290
     0
  9
$INSUNITS
 70
     0
  9
$HYPERLINKBASE
  1

  9
$STYLESHEET
  1

  9
$XEDIT
290
     1
  9
$CEPSNTYPE
380
     0
  9
$PSTYLEMODE
290
     1
  9
$FINGERPRINTGUID
  2
{B8923BCF-2F2C-4D1D-8A93-E891E4B00B04}
  9
$VERSIONGUID
  2
{FAEB1C32-E019-11D5-929B-00C0DF256EC4}
  9
$EXTNAMES
290
     1
  9
$PSVPSCALE
 40
0.0
  9
$OLESTARTUP
290
     0
  0
ENDSEC
  0
SECTION
  2
CLASSES
  0
CLASS
  1
ACDBDICTIONARYWDFLT
  2
AcDbDictionaryWithDefault
  3
ObjectDBX Classes
 90
        0
280
     0
281
     0
  0
CLASS
  1
SCALE
  2
AcDbScale
  3
ObjectDBX Classes
 90
     1153
280
     0
281
     0
  0
CLASS
  1
DICTIONARYVAR
  2
AcDbDictionaryVar
  3
ObjectDBX Classes
 90
        0
280
     0
281
     0
  0
CLASS
  1
ACDBPLACEHOLDER
  2
AcDbPlaceHolder
  3
ObjectDBX Classes
 90
        0
280
     0
281
     0
  0
CLASS
  1
LAYOUT
  2
AcDbLayout
  3
ObjectDBX Classes
 90
        0
280
     0
281
     0
  0
ENDSEC
  0
SECTION
  2
TABLES
  0
TABLE
  2
VPORT
  5
8
330
0
100
AcDbSymbolTable
 70
     1
  0
VPORT
  5
7CA
330
8
100
AcDbSymbolTableRecord
100
AcDbViewportTableRecord
  2
*Active
 70
     0
 10
0.0
 20
0.0
 11
1.0
 21
1.0
 12
102.9749
 22
504.0
 13
0.0
 23
0.0
 14
0.5
 24
0.5
 15
0.5
 25
0.5
 16
0.0
 26
0.0
 36
1.0
 17
0.0
 27
0.0
 37
0.0
 40
1028.16
 41
1.863448275862
 42
50.0
 43
0.0
 44
0.0
 50
0.0
 51
0.0
 71
    16
 72
   100
 73
     1
 74
     3
 75
     0
 76
     0
 77
     0
 78
     0
281
     0
 65
     1
110
0.0
120
0.0
130
0.0
111
1.0
121
0.0
131
0.0
112
0.0
122
1.0
132
0.0
 79
     0
146
0.0
  0
ENDTAB
  0
TABLE
  2
LTYPE
  5
5
330
0
100
AcDbSymbolTable
 70
     1
  0
LTYPE
  5
14
330
5
100
AcDbSymbolTableRecord
100
AcDbLinetypeTableRecord
  2
ByBlock
 70
     0
  3

 72
    65
 73
     0
 40
0.0
  0
LTYPE
  5
15
330
5
100
AcDbSymbolTableRecord
100
AcDbLinetypeTableRecord
  2
ByLayer
 70
     0
  3

 72
    65
 73
     0
 40
0.0
  0
LTYPE
  5
16
330
5
100
AcDbSymbolTableRecord
100
AcDbLinetypeTableRecord
  2
Continuous
 70
     0
  3
Solid line
 72
    65
 73
     0
 40
0.0
  0
ENDTAB
  0
TABLE
  2
LAYER
  5
2
330
0
100
AcDbSymbolTable
 70
     1
  0
LAYER
  5
10
330
2
100
AcDbSymbolTableRecord
100
AcDbLayerTableRecord
  2
0
 70
     0
 62
     7
  6
Continuous
370
    -3
390
F
  0
ENDTAB
  0
TABLE
  2
STYLE
  5
3
330
0
100
AcDbSymbolTable
 70
     1
  0
STYLE
  5
11
330
3
100
AcDbSymbolTableRecord
100
AcDbTextStyleTableRecord
  2
Standard
 70
     0
 40
0.0
 41
1.0
 50
0.0
 71
     0
 42
0.2
  3
txt
  4

  0
ENDTAB
  0
TABLE
  2
VIEW
  5
6
330
0
100
AcDbSymbolTable
 70
     0
  0
ENDTAB
  0
TABLE
  2
UCS
  5
7
330
0
100
AcDbSymbolTable
 70
     0
  0
ENDTAB
  0
TABLE
  2
APPID
  5
9
330
0
100
AcDbSymbolTable
 70
     1
  0
APPID
  5
12
330
9
100
AcDbSymbolTableRecord
100
AcDbRegAppTableRecord
  2
ACAD
 70
     0
  0
ENDTAB
  0
TABLE
  2
DIMSTYLE
  5
A
330
0
100
AcDbSymbolTable
 70
     1
100
AcDbDimStyleTable
  0
DIMSTYLE
105
20
330
A
100
AcDbSymbolTableRecord
100
AcDbDimStyleTableRecord
  2
Standard
 70
     0
340
11
  0
ENDTAB
  0
TABLE
  2
BLOCK_RECORD
  5
1
330
0
100
AcDbSymbolTable
 70
     1
  0
BLOCK_RECORD
  5
1D
330
1
100
AcDbSymbolTableRecord
100
AcDbBlockTableRecord
  2
*Model_Space
340
1E
  0
BLOCK_RECORD
  5
1B
330
1
100
AcDbSymbolTableRecord
100
AcDbBlockTableRecord
  2
*Paper_Space
340
1C
  0
ENDTAB
  0
ENDSEC
  0
SECTION
  2
BLOCKS
  0
BLOCK
  5
7CD
330
1D
100
AcDbEntity
  8
0
100
AcDbBlockBegin
  2
*Model_Space
 70
     0
 10
0.0
 20
0.0
 30
0.0
  3
*Model_Space
  1
*Model_Space
  0
ENDBLK
  5
7CE
330
1D
100
AcDbEntity
  8
0
100
AcDbBlockEnd
  0
BLOCK
  5
7CB
330
1B
100
AcDbEntity
 67
     1
  8
0
100
AcDbBlockBegin
  2
*Paper_Space
 70
     0
 10
0.0
 20
0.0
 30
0.0
  3
*Paper_Space
  1
*Paper_Space
  0
ENDBLK
  5
7CC
330
1B
100
AcDbEntity
 67
     1
  8
0
100
AcDbBlockEnd
  0
ENDSEC
  0
SECTION
  2
ENTITIES
  0
LINE
  5
21
330
1D
100
AcDbEntity
  8
0
100
AcDbLine
 10
38.1908
 20
200.0
 30
0.0
 11
38.2658
 21
200.0
 31
0.0
  0
LINE
  5
22
330
1D
100
AcDbEntity
  8
0
100
AcDbLine
 10
38.1908
 20
200.0
 30
0.0
 11
38.1908
 21
220.0
 31
0.0
  0
LINE
  5
23
330
1D
100
AcDbEntity
  8
0
100
AcDbLine
 10
38.2658
 20
200.0
 30
0.0
 11
38.3267
 21
200.0
 31
0.0
  0
LINE
  5
24
330
1D
100
AcDbEntity
  8
0
100
AcDbLine
 10
38.3267
 20
200.0
 30
0.0
 11
38.4624
 21
200.0
 31
0.0
  0
LINE
  5
25
330
1D
100
AcDbEntity
  8
0
100
AcDbLine
 10
38.4624
 20
200.0
 30
0.0
 11
38.6229
 21
200.0
 31
0.0
  0
LINE
  5
26
330
1D
100
AcDbEntity
  8
0
100
AcDbLine
 10
38.6229
 20
200.0
 30
0.0
 11
38.8132
 21
200.0
 31
0.0
  0
LINE
  5
27
330
1D
100
AcDbEntity
  8
0
100
AcDbLine
 10
38.8132
 20
200.0
 30
0.0
 11
39.0564
 21
200.0
 31
0.0
  0
LINE
  5
28
330
1D
100
AcDbEntity
  8
0
100
AcDbLine
 10
39.0564
 20
200.0
 30
0.0
 11
39.2997
 21
200.0
 31
0.0
  0
LINE
  5
29
330
1D
100
AcDbEntity
  8
0
100
AcDbLine
 10
39.2997
 20
200.0
 30
0.0
 11
39.7862
 21
200.0
 31
0.0
  0
LINE
  5
2A
330
1D
100
AcDbEntity
  8
0
100
AcDbLine
 10
39.7862
 20
200.0
 30
0.0
 11
40.6376
 21
200.0
 31
0.0
  0
LINE
  5
2B
330
1D
100
AcDbEntity
  8
0
100
AcDbLine
 10
40.6376
 20
200.0
 30
0.0
 11
41.6715
 21
200.0
 31
0.0
  0
LINE
  5
2C
330
1D
100
AcDbEntity
  8
0
100
AcDbLine
 10
41.6715
 20
200.0
 30
0.0
 11
42.827
 21
200.0
 31
0.0
  0
LINE
  5
2D
330
1D
100
AcDbEntity
  8
0
100
AcDbLine
 10
38.2658
 20
220.0
 30
0.0
 11
38.3267
 21
220.0
 31
0.0
  0
LINE
  5
2E
330
1D
100
AcDbEntity
  8
0
100
AcDbLine
 10
38.3267
 20
220.0
 30
0.0
 11
38.4624
 21
220.0
 31
0.0
  0
LINE
  5
2F
330
1D
100
AcDbEntity
  8
0
100
AcDbLine
 10
38.4624
 20
220.0
 30
0.0
 11
38.6229
 21
220.0
 31
0.0
  0
LINE
  5
30
330
1D
100
AcDbEntity
  8
0
100
AcDbLine
 10
38.6229
 20
220.0
 30
0.0
 11
38.8132
 21
220.0
 31
0.0
  0
LINE
  5
31
330
1D
100
AcDbEntity
  8
0
100
AcDbLine
 10
38.8132
 20
220.0
 30
0.0
 11
39.0564
 21
220.0
 31
0.0
  0
LINE
  5
32
330
1D
100
AcDbEntity
  8
0
100
AcDbLine
 10
39.0564
 20
220.0
 30
0.0
 11
39.2997
 21
220.0
 31
0.0
  0
LINE
  5
33
330
1D
100
AcDbEntity
  8
0
100
AcDbLine
 10
39.2997
 20
220.0
 30
0.0
 11
39.7862
 21
220.0
 31
0.0
  0
LINE
  5
34
330
1D
100
AcDbEntity
  8
0
100
AcDbLine
 10
39.7862
 20
220.0
 30
0.0
 11
40.6376
 21
220.0
 31
0.0
  0
LINE
  5
35
330
1D
100
AcDbEntity
  8
0
100
AcDbLine
 10
40.6376
 20
220.0
 30
0.0
 11
41.6715
 21
220.0
 31
0.0
  0
LINE
  5
36
330
1D
100
AcDbEntity
  8
0
100
AcDbLine
 10
41.6715
 20
220.0
 30
0.0
 11
42.827
 21
220.0
 31
0.0
  0
LINE
  5
37
330
1D
100
AcDbEntity
  8
0
100
AcDbLine
 10
42.827
 20
220.0
 30
0.0
 11
44.1041
 21
220.0
 31
0.0
  0
LINE
  5
38
330
1D
100
AcDbEntity
  8
0
100
AcDbLine
 10
44.1041
 20
220.0
 30
0.0
 11
45.5908
 21
220.0
 31
0.0
  0
LINE
  5
39
330
1D
100
AcDbEntity
  8
0
100
AcDbLine
 10
42.827
 20
200.0
 30
0.0
 11
44.1041
 21
200.0
 31
0.0
  0
LINE
  5
3A
330
1D
100
AcDbEntity
  8
0
100
AcDbLine
 10
92.1908
 20
200.0
 30
0.0
 11
102.1908
 21
200.0
 31
0.0
  0
LINE
  5
3B
330
1D
100
AcDbEntity
  8
0
100
AcDbLine
 10
102.1908
 20
200.0
 30
0.0
 11
105.7898
 21
200.0
 31
0.0
  0
LINE
  5
3C
330
1D
100
AcDbEntity
  8
0
100
AcDbLine
 10
105.7898
 20
200.0
 30
0.0
 11
109.5018
 21
200.0
 31
0.0
  0
LINE
  5
3D
330
1D
100
AcDbEntity
  8
0
100
AcDbLine
 10
109.5018
 20
200.0
 30
0.0
 11
113.0678
 21
200.0
 31
0.0
  0
LINE
  5
3E
330
1D
100
AcDbEntity
  8
0
100
AcDbLine
 10
113.0678
 20
200.0
 30
0.0
 11
116.1708
 21
200.0
 31
0.0
  0
LINE
  5
3F
330
1D
100
AcDbEntity
  8
0
100
AcDbLine
 10
116.1708
 20
200.0
 30
0.0
 11
119.0568
 21
200.0
 31
0.0
  0
LINE
  5
40
330
1D
100
AcDbEntity
  8
0
100
AcDbLine
 10
119.0568
 20
200.0
 30
0.0
 11
122.1598
 21
200.0
 31
0.0
  0
LINE
  5
41
330
1D
100
AcDbEntity
  8
0
100
AcDbLine
 10
122.1598
 20
200.0
 30
0.0
 11
125.3248
 21
200.0
 31
0.0
  0
LINE
  5
42
330
1D
100
AcDbEntity
  8
0
100
AcDbLine
 10
125.3248
 20
200.0
 30
0.0
 11
128.2458
 21
200.0
 31
0.0
  0
LINE
  5
43
330
1D
100
AcDbEntity
  8
0
100
AcDbLine
 10
128.2458
 20
200.0
 30
0.0
 11
131.0458
 21
200.0
 31
0.0
  0
LINE
  5
44
330
1D
100
AcDbEntity
  8
0
100
AcDbLine
 10
131.0458
 20
200.0
 30
0.0
 11
133.3578
 21
200.0
 31
0.0
  0
LINE
  5
45
330
1D
100
AcDbEntity
  8
0
100
AcDbLine
 10
133.3578
 20
200.0
 30
0.0
 11
135.3058
 21
200.0
 31
0.0
  0
LINE
  5
46
330
1D
100
AcDbEntity
  8
0
100
AcDbLine
 10
138.7908
 20
200.0
 30
0.0
 11
140.2778
 21
200.0
 31
0.0
  0
LINE
  5
47
330
1D
100
AcDbEntity
  8
0
100
AcDbLine
 10
135.3058
 20
200.0
 30
0.0
 11
137.0708
 21
200.0
 31
0.0
  0
LINE
  5
48
330
1D
100
AcDbEntity
  8
0
100
AcDbLine
 10
137.0708
 20
200.0
 30
0.0
 11
138.7908
 21
200.0
 31
0.0
  0
LINE
  5
49
330
1D
100
AcDbEntity
  8
0
100
AcDbLine
 10
82.1908
 20
200.0
 30
0.0
 11
92.1908
 21
200.0
 31
0.0
  0
LINE
  5
4A
330
1D
100
AcDbEntity
  8
0
100
AcDbLine
 10
78.5922
 20
200.0
 30
0.0
 11
82.1908
 21
200.0
 31
0.0
  0
LINE
  5
4B
330
1D
100
AcDbEntity
  8
0
100
AcDbLine
 10
74.8799
 20
200.0
 30
0.0
 11
78.5922
 21
200.0
 31
0.0
  0
LINE
  5
4C
330
1D
100
AcDbEntity
  8
0
100
AcDbLine
 10
71.3141
 20
200.0
 30
0.0
 11
74.8799
 21
200.0
 31
0.0
  0
LINE
  5
4D
330
1D
100
AcDbEntity
  8
0
100
AcDbLine
 10
68.2103
 20
200.0
 30
0.0
 11
71.3141
 21
200.0
 31
0.0
  0
LINE
  5
4E
330
1D
100
AcDbEntity
  8
0
100
AcDbLine
 10
65.3251
 20
200.0
 30
0.0
 11
68.2103
 21
200.0
 31
0.0
  0
LINE
  5
4F
330
1D
100
AcDbEntity
  8
0
100
AcDbLine
 10
62.2214
 20
200.0
 30
0.0
 11
65.3251
 21
200.0
 31
0.0
  0
LINE
  5
50
330
1D
100
AcDbEntity
  8
0
100
AcDbLine
 10
59.0567
 20
200.0
 30
0.0
 11
62.2214
 21
200.0
 31
0.0
  0
LINE
  5
51
330
1D
100
AcDbEntity
  8
0
100
AcDbLine
 10
56.1355
 20
200.0
 30
0.0
 11
59.0567
 21
200.0
 31
0.0
  0
LINE
  5
52
330
1D
100
AcDbEntity
  8
0
100
AcDbLine
 10
53.3361
 20
200.0
 30
0.0
 11
56.1355
 21
200.0
 31
0.0
  0
LINE
  5
53
330
1D
100
AcDbEntity
  8
0
100
AcDbLine
 10
51.0234
 20
200.0
 30
0.0
 11
53.3361
 21
200.0
 31
0.0
  0
LINE
  5
54
330
1D
100
AcDbEntity
  8
0
100
AcDbLine
 10
49.076
 20
200.0
 30
0.0
 11
51.0234
 21
200.0
 31
0.0
  0
LINE
  5
55
330
1D
100
AcDbEntity
  8
0
100
AcDbLine
 10
47.3111
 20
200.0
 30
0.0
 11
49.076
 21
200.0
 31
0.0
  0
LINE
  5
56
330
1D
100
AcDbEntity
  8
0
100
AcDbLine
 10
82.1908
 20
220.0
 30
0.0
 11
92.1908
 21
220.0
 31
0.0
  0
LINE
  5
57
330
1D
100
AcDbEntity
  8
0
100
AcDbLine
 10
78.5922
 20
220.0
 30
0.0
 11
82.1908
 21
220.0
 31
0.0
  0
LINE
  5
58
330
1D
100
AcDbEntity
  8
0
100
AcDbLine
 10
74.8799
 20
220.0
 30
0.0
 11
78.5922
 21
220.0
 31
0.0
  0
LINE
  5
59
330
1D
100
AcDbEntity
  8
0
100
AcDbLine
 10
71.3141
 20
220.0
 30
0.0
 11
74.8799
 21
220.0
 31
0.0
  0
LINE
  5
5A
330
1D
100
AcDbEntity
  8
0
100
AcDbLine
 10
68.2103
 20
220.0
 30
0.0
 11
71.3141
 21
220.0
 31
0.0
  0
LINE
  5
5B
330
1D
100
AcDbEntity
  8
0
100
AcDbLine
 10
65.3251
 20
220.0
 30
0.0
 11
68.2103
 21
220.0
 31
0.0
  0
LINE
  5
5C
330
1D
100
AcDbEntity
  8
0
100
AcDbLine
 10
62.2214
 20
220.0
 30
0.0
 11
65.3251
 21
220.0
 31
0.0
  0
LINE
  5
5D
330
1D
100
AcDbEntity
  8
0
100
AcDbLine
 10
59.0567
 20
220.0
 30
0.0
 11
62.2214
 21
220.0
 31
0.0
  0
LINE
  5
5E
330
1D
100
AcDbEntity
  8
0
100
AcDbLine
 10
56.1355
 20
220.0
 30
0.0
 11
59.0567
 21
220.0
 31
0.0
  0
LINE
  5
5F
330
1D
100
AcDbEntity
  8
0
100
AcDbLine
 10
53.3361
 20
220.0
 30
0.0
 11
56.1355
 21
220.0
 31
0.0
  0
LINE
  5
60
330
1D
100
AcDbEntity
  8
0
100
AcDbLine
 10
51.0234
 20
220.0
 30
0.0
 11
53.3361
 21
220.0
 31
0.0
  0
LINE
  5
61
330
1D
100
AcDbEntity
  8
0
100
AcDbLine
 10
49.076
 20
220.0
 30
0.0
 11
51.0234
 21
220.0
 31
0.0
  0
LINE
  5
62
330
1D
100
AcDbEntity
  8
0
100
AcDbLine
 10
47.3111
 20
220.0
 30
0.0
 11
49.076
 21
220.0
 31
0.0
  0
LINE
  5
63
330
1D
100
AcDbEntity
  8
0
100
AcDbLine
 10
45.5908
 20
220.0
 30
0.0
 11
47.3111
 21
220.0
 31
0.0
  0
LINE
  5
64
330
1D
100
AcDbEntity
  8
0
100
AcDbLine
 10
92.1908
 20
220.0
 30
0.0
 11
102.1908
 21
220.0
 31
0.0
  0
LINE
  5
65
330
1D
100
AcDbEntity
  8
0
100
AcDbLine
 10
102.1908
 20
220.0
 30
0.0
 11
105.7898
 21
220.0
 31
0.0
  0
LINE
  5
66
330
1D
100
AcDbEntity
  8
0
100
AcDbLine
 10
105.7898
 20
220.0
 30
0.0
 11
109.5018
 21
220.0
 31
0.0
  0
LINE
  5
67
330
1D
100
AcDbEntity
  8
0
100
AcDbLine
 10
109.5018
 20
220.0
 30
0.0
 11
113.0678
 21
220.0
 31
0.0
  0
LINE
  5
68
330
1D
100
AcDbEntity
  8
0
100
AcDbLine
 10
113.0678
 20
220.0
 30
0.0
 11
116.1708
 21
220.0
 31
0.0
  0
LINE
  5
69
330
1D
100
AcDbEntity
  8
0
100
AcDbLine
 10
116.1708
 20
220.0
 30
0.0
 11
119.0568
 21
220.0
 31
0.0
  0
LINE
  5
6A
330
1D
100
AcDbEntity
  8
0
100
AcDbLine
 10
119.0568
 20
220.0
 30
0.0
 11
122.1598
 21
220.0
 31
0.0
  0
LINE
  5
6B
330
1D
100
AcDbEntity
  8
0
100
AcDbLine
 10
122.1598
 20
220.0
 30
0.0
 11
125.3248
 21
220.0
 31
0.0
  0
LINE
  5
6C
330
1D
100
AcDbEntity
  8
0
100
AcDbLine
 10
125.3248
 20
220.0
 30
0.0
 11
128.2458
 21
220.0
 31
0.0
  0
LINE
  5
6D
330
1D
100
AcDbEntity
  8
0
100
AcDbLine
 10
128.2458
 20
220.0
 30
0.0
 11
131.0458
 21
220.0
 31
0.0
  0
LINE
  5
6E
330
1D
100
AcDbEntity
  8
0
100
AcDbLine
 10
131.0458
 20
220.0
 30
0.0
 11
133.3578
 21
220.0
 31
0.0
  0
LINE
  5
6F
330
1D
100
AcDbEntity
  8
0
100
AcDbLine
 10
133.3578
 20
220.0
 30
0.0
 11
135.3058
 21
220.0
 31
0.0
  0
LINE
  5
70
330
1D
100
AcDbEntity
  8
0
100
AcDbLine
 10
135.3058
 20
220.0
 30
0.0
 11
137.0708
 21
220.0
 31
0.0
  0
LINE
  5
71
330
1D
100
AcDbEntity
  8
0
100
AcDbLine
 10
137.0708
 20
220.0
 30
0.0
 11
138.7908
 21
220.0
 31
0.0
  0
LINE
  5
72
330
1D
100
AcDbEntity
  8
0
100
AcDbLine
 10
138.7908
 20
220.0
 30
0.0
 11
140.2778
 21
220.0
 31
0.0
  0
LINE
  5
73
330
1D
100
AcDbEntity
  8
0
100
AcDbLine
 10
45.5908
 20
200.0
 30
0.0
 11
47.3111
 21
200.0
 31
0.0
  0
LINE
  5
74
330
1D
100
AcDbEntity
  8
0
100
AcDbLine
 10
44.1041
 20
200.0
 30
0.0
 11
45.5908
 21
200.0
 31
0.0
  0
LINE
  5
75
330
1D
100
AcDbEntity
  8
0
100
AcDbLine
 10
38.1908
 20
220.0
 30
0.0
 11
38.1908
 21
200.0
 31
0.0
  0
LINE
  5
76
330
1D
100
AcDbEntity
  8
0
100
AcDbLine
 10
38.1908
 20
220.0
 30
0.0
 11
38.2658
 21
220.0
 31
0.0
  0
LINE
  5
77
330
1D
100
AcDbEntity
  8
0
100
AcDbLine
 10
140.2778
 20
220.0
 30
0.0
 11
141.5548
 21
220.0
 31
0.0
  0
LINE
  5
78
330
1D
100
AcDbEntity
  8
0
100
AcDbLine
 10
140.2778
 20
200.0
 30
0.0
 11
141.5548
 21
200.0
 31
0.0
  0
LINE
  5
79
330
1D
100
AcDbEntity
  8
0
100
AcDbLine
 10
139.2588
 20
696.979
 30
0.0
 11
155.5578
 21
671.747
 31
0.0
  0
LINE
  5
7A
330
1D
100
AcDbEntity
  8
0
100
AcDbLine
 10
139.2588
 20
696.979
 30
0.0
 11
139.6058
 21
697.178
 31
0.0
  0
LINE
  5
81
330
1D
100
AcDbEntity
  8
0
100
AcDbLine
 10
139.6058
 20
697.178
 30
0.0
 11
140.5578
 21
697.729
 31
0.0
  0
LINE
  5
82
330
1D
100
AcDbEntity
  8
0
100
AcDbLine
 10
141.5548
 20
220.0
 30
0.0
 11
142.7098
 21
220.0
 31
0.0
  0
LINE
  5
83
330
1D
100
AcDbEntity
  8
0
100
AcDbLine
 10
145.1908
 20
200.0
 30
0.0
 11
151.1908
 21
200.0
 31
0.0
  0
LINE
  5
84
330
1D
100
AcDbEntity
  8
0
100
AcDbLine
 10
151.1908
 20
200.0
 30
0.0
 11
151.1908
 21
219.0
 31
0.0
  0
LINE
  5
85
330
1D
100
AcDbEntity
  8
0
100
AcDbLine
 10
151.1908
 20
200.0
 30
0.0
 11
154.1908
 21
200.0
 31
0.0
  0
LINE
  5
86
330
1D
100
AcDbEntity
  8
0
100
AcDbLine
 10
151.1908
 20
200.0
 30
0.0
 11
165.1908
 21
200.0
 31
0.0
  0
LINE
  5
87
330
1D
100
AcDbEntity
  8
0
100
AcDbLine
 10
146.1158
 20
200.0
 30
0.0
 11
146.1908
 21
200.0
 31
0.0
  0
LINE
  5
88
330
1D
100
AcDbEntity
  8
0
100
AcDbLine
 10
146.0548
 20
200.0
 30
0.0
 11
146.1158
 21
200.0
 31
0.0
  0
LINE
  5
89
330
1D
100
AcDbEntity
  8
0
100
AcDbLine
 10
145.9188
 20
200.0
 30
0.0
 11
146.0548
 21
200.0
 31
0.0
  0
LINE
  5
8A
330
1D
100
AcDbEntity
  8
0
100
AcDbLine
 10
145.7588
 20
200.0
 30
0.0
 11
145.9188
 21
200.0
 31
0.0
  0
LINE
  5
8B
330
1D
100
AcDbEntity
  8
0
100
AcDbLine
 10
145.5688
 20
200.0
 30
0.0
 11
145.7588
 21
200.0
 31
0.0
  0
LINE
  5
8C
330
1D
100
AcDbEntity
  8
0
100
AcDbLine
 10
145.3248
 20
200.0
 30
0.0
 11
145.5688
 21
200.0
 31
0.0
  0
LINE
  5
8D
330
1D
100
AcDbEntity
  8
0
100
AcDbLine
 10
145.0818
 20
200.0
 30
0.0
 11
145.3248
 21
200.0
 31
0.0
  0
LINE
  5
8E
330
1D
100
AcDbEntity
  8
0
100
AcDbLine
 10
144.5958
 20
200.0
 30
0.0
 11
145.0818
 21
200.0
 31
0.0
  0
LINE
  5
8F
330
1D
100
AcDbEntity
  8
0
100
AcDbLine
 10
143.7438
 20
200.0
 30
0.0
 11
144.5958
 21
200.0
 31
0.0
  0
LINE
  5
90
330
1D
100
AcDbEntity
  8
0
100
AcDbLine
 10
151.1908
 20
218.0
 30
0.0
 11
165.1908
 21
218.0
 31
0.0
  0
LINE
  5
91
330
1D
100
AcDbEntity
  8
0
100
AcDbLine
 10
146.11275
 20
219.0
 30
0.0
 11
151.1908
 21
219.0
 31
0.0
  0
LINE
  5
92
330
1D
100
AcDbEntity
  8
0
100
AcDbLine
 10
151.1908
 20
219.0
 30
0.0
 11
151.1908
 21
200.0
 31
0.0
  0
LINE
  5
93
330
1D
100
AcDbEntity
  8
0
100
AcDbLine
 10
146.1908
 20
220.0
 30
0.0
 11
146.1908
 21
219.0
 31
0.0
  0
LINE
  5
94
330
1D
100
AcDbEntity
  8
0
100
AcDbLine
 10
146.1158
 20
220.0
 30
0.0
 11
146.1908
 21
220.0
 31
0.0
  0
LINE
  5
95
330
1D
100
AcDbEntity
  8
0
100
AcDbLine
 10
146.1908
 20
219.0
 30
0.0
 11
146.1908
 21
220.0
 31
0.0
  0
LINE
  5
96
330
1D
100
AcDbEntity
  8
0
100
AcDbLine
 10
146.0548
 20
220.0
 30
0.0
 11
146.1158
 21
220.0
 31
0.0
  0
LINE
  5
97
330
1D
100
AcDbEntity
  8
0
100
AcDbLine
 10
145.9188
 20
220.0
 30
0.0
 11
146.0548
 21
220.0
 31
0.0
  0
LINE
  5
98
330
1D
100
AcDbEntity
  8
0
100
AcDbLine
 10
145.7588
 20
220.0
 30
0.0
 11
145.9188
 21
220.0
 31
0.0
  0
LINE
  5
99
330
1D
100
AcDbEntity
  8
0
100
AcDbLine
 10
145.5688
 20
220.0
 30
0.0
 11
145.7588
 21
220.0
 31
0.0
  0
LINE
  5
9A
330
1D
100
AcDbEntity
  8
0
100
AcDbLine
 10
145.3248
 20
220.0
 30
0.0
 11
145.5688
 21
220.0
 31
0.0
  0
LINE
  5
9B
330
1D
100
AcDbEntity
  8
0
100
AcDbLine
 10
145.0818
 20
220.0
 30
0.0
 11
145.3248
 21
220.0
 31
0.0
  0
LINE
  5
9C
330
1D
100
AcDbEntity
  8
0
100
AcDbLine
 10
144.5958
 20
220.0
 30
0.0
 11
145.0818
 21
220.0
 31
0.0
  0
LINE
  5
9D
330
1D
100
AcDbEntity
  8
0
100
AcDbLine
 10
143.7438
 20
220.0
 30
0.0
 11
144.5958
 21
220.0
 31
0.0
  0
LINE
  5
9E
330
1D
100
AcDbEntity
  8
0
100
AcDbLine
 10
142.7098
 20
220.0
 30
0.0
 11
143.7438
 21
220.0
 31
0.0
  0
LINE
  5
9F
330
1D
100
AcDbEntity
  8
0
100
AcDbLine
 10
142.7098
 20
200.0
 30
0.0
 11
143.7438
 21
200.0
 31
0.0
  0
LINE
  5
A0
330
1D
100
AcDbEntity
  8
0
100
AcDbLine
 10
141.5548
 20
200.0
 30
0.0
 11
142.7098
 21
200.0
 31
0.0
  0
LINE
  5
A3
330
1D
100
AcDbEntity
  8
0
100
AcDbLine
 10
154.1908
 20
0.384615
 30
0.0
 11
154.4548
 21
0.0
 31
0.0
  0
LINE
  5
A4
330
1D
100
AcDbEntity
  8
0
100
AcDbLine
 10
154.1908
 20
0.384615
 30
0.0
 11
154.1908
 21
69.6154
 31
0.0
  0
LINE
  5
A5
330
1D
100
AcDbEntity
  8
0
100
AcDbLine
 10
154.1908
 20
0.384615
 30
0.0
 11
154.4548
 21
0.0
 31
0.0
  0
LINE
  5
A7
330
1D
100
AcDbEntity
  8
0
100
AcDbLine
 10
154.1908
 20
69.6154
 30
0.0
 11
154.4548
 21
70.0
 31
0.0
  0
LINE
  5
A8
330
1D
100
AcDbEntity
  8
0
100
AcDbLine
 10
154.1908
 20
69.6154
 30
0.0
 11
154.1908
 21
0.384615
 31
0.0
  0
LINE
  5
A9
330
1D
100
AcDbEntity
  8
0
100
AcDbLine
 10
154.1908
 20
218.0
 30
0.0
 11
154.1908
 21
504.0
 31
0.0
  0
LINE
  5
AA
330
1D
100
AcDbEntity
  8
0
100
AcDbLine
 10
154.1908
 20
70.6
 30
0.0
 11
154.4548
 21
70.0
 31
0.0
  0
LINE
  5
AB
330
1D
100
AcDbEntity
  8
0
100
AcDbLine
 10
154.1908
 20
70.6
 30
0.0
 11
154.1908
 21
200.0
 31
0.0
  0
LINE
  5
AC
330
1D
100
AcDbEntity
  8
0
100
AcDbLine
 10
154.4548
 20
0.0
 30
0.0
 11
154.8508
 21
0.0
 31
0.0
  0
LINE
  5
AD
330
1D
100
AcDbEntity
  8
0
100
AcDbLine
 10
154.8508
 20
0.0
 30
0.0
 11
155.9068
 21
0.0
 31
0.0
  0
LINE
  5
B0
330
1D
100
AcDbEntity
  8
0
100
AcDbLine
 10
154.4548
 20
70.0
 30
0.0
 11
154.8508
 21
70.0
 31
0.0
  0
LINE
  5
B1
330
1D
100
AcDbEntity
  8
0
100
AcDbLine
 10
154.1908
 20
200.0
 30
0.0
 11
160.1908
 21
200.0
 31
0.0
  0
LINE
  5
B2
330
1D
100
AcDbEntity
  8
0
100
AcDbLine
 10
154.8508
 20
70.0
 30
0.0
 11
155.9068
 21
70.0
 31
0.0
  0
LINE
  5
B3
330
1D
100
AcDbEntity
  8
0
100
AcDbLine
 10
154.1908
 20
200.0
 30
0.0
 11
154.1908
 21
70.6
 31
0.0
  0
LINE
  5
B4
330
1D
100
AcDbEntity
  8
0
100
AcDbLine
 10
154.1908
 20
504.0
 30
0.0
 11
154.1908
 21
673.863212282962
 31
0.0
  0
LINE
  5
B5
330
1D
100
AcDbEntity
  8
0
100
AcDbLine
 10
154.1908
 20
504.0
 30
0.0
 11
154.1908
 21
673.863212282962
 31
0.0
  0
LINE
  5
B6
330
1D
100
AcDbEntity
  8
0
100
AcDbLine
 10
154.1908
 20
218.0
 30
0.0
 11
154.1908
 21
504.0
 31
0.0
  0
LINE
  5
B9
330
1D
100
AcDbEntity
  8
0
100
AcDbLine
 10
149.5748
 20
661.0
 30
0.0
 11
150.1508
 21
656.968
 31
0.0
  0
LINE
  5
BA
330
1D
100
AcDbEntity
  8
0
100
AcDbLine
 10
149.5748
 20
661.0
 30
0.0
 11
150.1508
 21
665.032
 31
0.0
  0
LINE
  5
C2
330
1D
100
AcDbEntity
  8
0
100
AcDbLine
 10
150.1508
 20
665.032
 30
0.0
 11
151.6868
 21
668.744
 31
0.0
  0
LINE
  5
C3
330
1D
100
AcDbEntity
  8
0
100
AcDbLine
 10
151.6868
 20
668.744
 30
0.0
 11
154.1828
 21
672.008
 31
0.0
  0
LINE
  5
C5
330
1D
100
AcDbEntity
  8
0
100
AcDbLine
 10
150.1508
 20
656.968
 30
0.0
 11
151.6868
 21
653.256
 31
0.0
  0
LINE
  5
C7
330
1D
100
AcDbEntity
  8
0
100
AcDbLine
 10
151.6868
 20
653.256
 30
0.0
 11
154.1828
 21
649.992
 31
0.0
  0
LINE
  5
CC
330
1D
100
AcDbEntity
  8
0
100
AcDbLine
 10
155.9068
 20
0.0
 30
0.0
 11
157.6228
 21
0.0
 31
0.0
  0
LINE
  5
CE
330
1D
100
AcDbEntity
  8
0
100
AcDbLine
 10
155.9068
 20
70.0
 30
0.0
 11
157.6228
 21
70.0
 31
0.0
  0
LINE
  5
CF
330
1D
100
AcDbEntity
  8
0
100
AcDbLine
 10
157.6228
 20
0.0
 30
0.0
 11
159.8668
 21
0.0
 31
0.0
  0
LINE
  5
D2
330
1D
100
AcDbEntity
  8
0
100
AcDbLine
 10
157.6228
 20
70.0
 30
0.0
 11
159.8668
 21
70.0
 31
0.0
  0
LINE
  5
D3
330
1D
100
AcDbEntity
  8
0
100
AcDbLine
 10
158.7638
 20
667.732
 30
0.0
 11
161.1018
 21
669.082
 31
0.0
  0
LINE
  5
D5
330
1D
100
AcDbEntity
  8
0
100
AcDbLine
 10
158.696512050104
 20
667.848546574245
 30
0.0
 11
166.2418
 21
650.254
 31
0.0
  0
LINE
  5
D8
330
1D
100
AcDbEntity
  8
0
100
AcDbLine
 10
158.696512050104
 20
667.848546574245
 30
0.0
 11
166.2418
 21
650.254
 31
0.0
  0
LINE
  5
D9
330
1D
100
AcDbEntity
  8
0
100
AcDbLine
 10
155.5578
 20
671.747
 30
0.0
 11
155.9048
 21
671.948
 31
0.0
  0
LINE
  5
E0
330
1D
100
AcDbEntity
  8
0
100
AcDbLine
 10
142.2038
 20
698.678
 30
0.0
 11
144.2818
 21
699.878
 31
0.0
  0
LINE
  5
E3
330
1D
100
AcDbEntity
  8
0
100
AcDbLine
 10
144.2818
 20
699.878
 30
0.0
 11
146.6208
 21
701.229
 31
0.0
  0
LINE
  5
E8
330
1D
100
AcDbEntity
  8
0
100
AcDbLine
 10
156.223609364981
 20
672.131755333603
 30
0.0
 11
158.696512050104
 21
667.848546574245
 31
0.0
  0
LINE
  5
EE
330
1D
100
AcDbEntity
  8
0
100
AcDbLine
 10
154.1908
 20
723.063346785398
 30
0.0
 11
154.1908
 21
937.4
 31
0.0
  0
LINE
  5
EF
330
1D
100
AcDbEntity
  8
0
100
AcDbLine
 10
154.8598
 20
705.893
 30
0.0
 11
157.1988
 21
707.243
 31
0.0
  0
LINE
  5
F0
330
1D
100
AcDbEntity
  8
0
100
AcDbLine
 10
157.1988
 20
707.243
 30
0.0
 11
159.0178
 21
708.293
 31
0.0
  0
LINE
  5
F6
330
1D
100
AcDbEntity
  8
0
100
AcDbLine
 10
151.8168
 20
704.229
 30
0.0
 11
154.1548
 21
705.578
 31
0.0
  0
LINE
  5
F7
330
1D
100
AcDbEntity
  8
0
100
AcDbLine
 10
149.2188
 20
702.729
 30
0.0
 11
151.8168
 21
704.229
 31
0.0
  0
LINE
  5
F8
330
1D
100
AcDbEntity
  8
0
100
AcDbLine
 10
146.6208
 20
701.229
 30
0.0
 11
149.2188
 21
702.729
 31
0.0
  0
LINE
  5
F9
330
1D
100
AcDbEntity
  8
0
100
AcDbLine
 10
155.9048
 20
671.948
 30
0.0
 11
156.223609364981
 21
672.131755333603
 31
0.0
  0
LINE
  5
FA
330
1D
100
AcDbEntity
  8
0
100
AcDbLine
 10
140.5578
 20
697.729
 30
0.0
 11
141.71528471484
 21
698.396346898167
 31
0.0
  0
LINE
  5
FB
330
1D
100
AcDbEntity
  8
0
100
AcDbLine
 10
140.5578
 20
697.729
 30
0.0
 11
142.2038
 21
698.678
 31
0.0
  0
LINE
  5
707
330
1D
100
AcDbEntity
  8
0
100
AcDbLine
 10
154.4548
 20
938.0
 30
0.0
 11
154.8508
 21
938.0
 31
0.0
  0
LINE
  5
708
330
1D
100
AcDbEntity
  8
0
100
AcDbLine
 10
154.1908
 20
937.4
 30
0.0
 11
154.4548
 21
938.0
 31
0.0
  0
LINE
  5
709
330
1D
100
AcDbEntity
  8
0
100
AcDbLine
 10
154.8508
 20
938.0
 30
0.0
 11
155.9068
 21
938.0
 31
0.0
  0
LINE
  5
70B
330
1D
100
AcDbEntity
  8
0
100
AcDbLine
 10
154.1908
 20
938.385
 30
0.0
 11
154.4548
 21
938.0
 31
0.0
  0
LINE
  5
70C
330
1D
100
AcDbEntity
  8
0
100
AcDbLine
 10
154.1908
 20
938.385
 30
0.0
 11
154.1908
 21
1007.62
 31
0.0
  0
LINE
  5
70E
330
1D
100
AcDbEntity
  8
0
100
AcDbLine
 10
154.1908
 20
1007.62
 30
0.0
 11
154.1908
 21
938.385
 31
0.0
  0
LINE
  5
710
330
1D
100
AcDbEntity
  8
0
100
AcDbLine
 10
154.1908
 20
1007.62
 30
0.0
 11
154.4548
 21
1008.0
 31
0.0
  0
LINE
  5
712
330
1D
100
AcDbEntity
  8
0
100
AcDbLine
 10
154.4548
 20
1008.0
 30
0.0
 11
154.8508
 21
1008.0
 31
0.0
  0
LINE
  5
713
330
1D
100
AcDbEntity
  8
0
100
AcDbLine
 10
154.8508
 20
1008.0
 30
0.0
 11
155.9068
 21
1008.0
 31
0.0
  0
LINE
  5
714
330
1D
100
AcDbEntity
  8
0
100
AcDbLine
 10
155.9068
 20
1008.0
 30
0.0
 11
157.6228
 21
1008.0
 31
0.0
  0
LINE
  5
718
330
1D
100
AcDbEntity
  8
0
100
AcDbLine
 10
157.6228
 20
1008.0
 30
0.0
 11
159.8668
 21
1008.0
 31
0.0
  0
LINE
  5
71A
330
1D
100
AcDbEntity
  8
0
100
AcDbLine
 10
155.9068
 20
938.0
 30
0.0
 11
157.6228
 21
938.0
 31
0.0
  0
LINE
  5
71B
330
1D
100
AcDbEntity
  8
0
100
AcDbLine
 10
157.6228
 20
938.0
 30
0.0
 11
159.8668
 21
938.0
 31
0.0
  0
LINE
  5
71F
330
1D
100
AcDbEntity
  8
0
100
AcDbLine
 10
159.0178
 20
708.293
 30
0.0
 11
160.0568
 21
708.893
 31
0.0
  0
LINE
  5
724
330
1D
100
AcDbEntity
  8
0
100
AcDbLine
 10
159.8668
 20
0.0
 30
0.0
 11
162.4188
 21
0.0
 31
0.0
  0
LINE
  5
725
330
1D
100
AcDbEntity
  8
0
100
AcDbLine
 10
160.1908
 20
200.0
 30
0.0
 11
165.1908
 21
200.0
 31
0.0
  0
LINE
  5
726
330
1D
100
AcDbEntity
  8
0
100
AcDbLine
 10
159.8668
 20
70.0
 30
0.0
 11
162.4188
 21
70.0
 31
0.0
  0
LINE
  5
727
330
1D
100
AcDbEntity
  8
0
100
AcDbLine
 10
162.4188
 20
0.0
 30
0.0
 11
165.1908
 21
0.0
 31
0.0
  0
LINE
  5
72A
330
1D
100
AcDbEntity
  8
0
100
AcDbLine
 10
165.1908
 20
0.0
 30
0.0
 11
167.9628
 21
0.0
 31
0.0
  0
LINE
  5
72D
330
1D
100
AcDbEntity
  8
0
100
AcDbLine
 10
165.1908
 20
218.0
 30
0.0
 11
168.5188
 21
218.0
 31
0.0
  0
LINE
  5
72E
330
1D
100
AcDbEntity
  8
0
100
AcDbLine
 10
165.1908
 20
200.0
 30
0.0
 11
168.5188
 21
200.0
 31
0.0
  0
LINE
  5
72F
330
1D
100
AcDbEntity
  8
0
100
AcDbLine
 10
165.1908
 20
200.0
 30
0.0
 11
168.0068
 21
200.0
 31
0.0
  0
LINE
  5
730
330
1D
100
AcDbEntity
  8
0
100
AcDbLine
 10
165.1908
 20
70.0
 30
0.0
 11
167.9628
 21
70.0
 31
0.0
  0
LINE
  5
731
330
1D
100
AcDbEntity
  8
0
100
AcDbLine
 10
162.4188
 20
70.0
 30
0.0
 11
165.1908
 21
70.0
 31
0.0
  0
LINE
  5
734
330
1D
100
AcDbEntity
  8
0
100
AcDbLine
 10
166.2418
 20
650.254
 30
0.0
 11
174.1428
 21
627.458
 31
0.0
  0
LINE
  5
735
330
1D
100
AcDbEntity
  8
0
100
AcDbLine
 10
167.9628
 20
0.0
 30
0.0
 11
170.5148
 21
0.0
 31
0.0
  0
LINE
  5
736
330
1D
100
AcDbEntity
  8
0
100
AcDbLine
 10
172.7588
 20
0.0
 30
0.0
 11
174.4748
 21
0.0
 31
0.0
  0
LINE
  5
737
330
1D
100
AcDbEntity
  8
0
100
AcDbLine
 10
170.5148
 20
0.0
 30
0.0
 11
172.7588
 21
0.0
 31
0.0
  0
LINE
  5
739
330
1D
100
AcDbEntity
  8
0
100
AcDbLine
 10
169.708133532474
 20
25.0
 30
0.0
 11
190.027356259239
 21
25.0
 31
0.0
  0
LINE
  5
73C
330
1D
100
AcDbEntity
  8
0
100
AcDbLine
 10
170.6468
 20
200.0
 30
0.0
 11
172.9788
 21
200.0
 31
0.0
  0
LINE
  5
73D
330
1D
100
AcDbEntity
  8
0
100
AcDbLine
 10
168.0068
 20
200.0
 30
0.0
 11
170.6468
 21
200.0
 31
0.0
  0
LINE
  5
73E
330
1D
100
AcDbEntity
  8
0
100
AcDbLine
 10
172.9788
 20
200.0
 30
0.0
 11
174.7388
 21
200.0
 31
0.0
  0
LINE
  5
73F
330
1D
100
AcDbEntity
  8
0
100
AcDbLine
 10
171.6388
 20
200.0
 30
0.0
 11
174.3948
 21
200.0
 31
0.0
  0
LINE
  5
740
330
1D
100
AcDbEntity
  8
0
100
AcDbLine
 10
171.6388
 20
218.0
 30
0.0
 11
174.3948
 21
218.0
 31
0.0
  0
LINE
  5
741
330
1D
100
AcDbEntity
  8
0
100
AcDbLine
 10
168.5188
 20
218.0
 30
0.0
 11
171.6388
 21
218.0
 31
0.0
  0
LINE
  5
742
330
1D
100
AcDbEntity
  8
0
100
AcDbLine
 10
168.5188
 20
200.0
 30
0.0
 11
171.6388
 21
200.0
 31
0.0
  0
LINE
  5
743
330
1D
100
AcDbEntity
  8
0
100
AcDbLine
 10
167.9628
 20
70.0
 30
0.0
 11
189.992694739518
 21
70.0
 31
0.0
  0
LINE
  5
745
330
1D
100
AcDbEntity
  8
0
100
AcDbLine
 10
174.4748
 20
0.0
 30
0.0
 11
175.5308
 21
0.0
 31
0.0
  0
LINE
  5
746
330
1D
100
AcDbEntity
  8
0
100
AcDbLine
 10
175.5308
 20
0.0
 30
0.0
 11
175.9268
 21
0.0
 31
0.0
  0
LINE
  5
747
330
1D
100
AcDbEntity
  8
0
100
AcDbLine
 10
175.9268
 20
0.0
 30
0.0
 11
176.1908
 21
0.384615
 31
0.0
  0
LINE
  5
748
330
1D
100
AcDbEntity
  8
0
100
AcDbLine
 10
175.9268
 20
0.0
 30
0.0
 11
176.1908
 21
0.384615
 31
0.0
  0
LINE
  5
74A
330
1D
100
AcDbEntity
  8
0
100
AcDbLine
 10
176.1908
 20
25.0
 30
0.0
 11
176.1908
 21
0.384615
 31
0.0
  0
LINE
  5
74B
330
1D
100
AcDbEntity
  8
0
100
AcDbLine
 10
176.1908
 20
0.384615
 30
0.0
 11
176.1908
 21
25.0
 31
0.0
  0
LINE
  5
74D
330
1D
100
AcDbEntity
  8
0
100
AcDbLine
 10
175.7948
 20
200.0
 30
0.0
 11
176.1908
 21
200.0
 31
0.0
  0
LINE
  5
74E
330
1D
100
AcDbEntity
  8
0
100
AcDbLine
 10
174.7388
 20
200.0
 30
0.0
 11
175.7948
 21
200.0
 31
0.0
  0
LINE
  5
74F
330
1D
100
AcDbEntity
  8
0
100
AcDbLine
 10
174.3948
 20
218.0
 30
0.0
 11
176.4748
 21
218.0
 31
0.0
  0
LINE
  5
750
330
1D
100
AcDbEntity
  8
0
100
AcDbLine
 10
174.3948
 20
200.0
 30
0.0
 11
176.4748
 21
200.0
 31
0.0
  0
LINE
  5
751
330
1D
100
AcDbEntity
  8
0
100
AcDbLine
 10
176.1908
 20
200.0
 30
0.0
 11
176.4748
 21
200.0
 31
0.0
  0
LINE
  5
752
330
1D
100
AcDbEntity
  8
0
100
AcDbLine
 10
176.1908
 20
218.0
 30
0.0
 11
176.1908
 21
504.0
 31
0.0
  0
LINE
  5
753
330
1D
100
AcDbEntity
  8
0
100
AcDbLine
 10
176.1908
 20
70.6
 30
0.0
 11
176.1908
 21
200.0
 31
0.0
  0
LINE
  5
754
330
1D
100
AcDbEntity
  8
0
100
AcDbLine
 10
175.9268
 20
70.0
 30
0.0
 11
176.1908
 21
70.6
 31
0.0
  0
LINE
  5
755
330
1D
100
AcDbEntity
  8
0
100
AcDbLine
 10
178.1908
 20
200.0
 30
0.0
 11
178.1908
 21
218.0
 31
0.0
  0
LINE
  5
756
330
1D
100
AcDbEntity
  8
0
100
AcDbLine
 10
177.7228
 20
200.0
 30
0.0
 11
178.1908
 21
200.0
 31
0.0
  0
LINE
  5
757
330
1D
100
AcDbEntity
  8
0
100
AcDbLine
 10
177.7228
 20
218.0
 30
0.0
 11
178.1908
 21
218.0
 31
0.0
  0
LINE
  5
758
330
1D
100
AcDbEntity
  8
0
100
AcDbLine
 10
176.4748
 20
218.0
 30
0.0
 11
177.7228
 21
218.0
 31
0.0
  0
LINE
  5
759
330
1D
100
AcDbEntity
  8
0
100
AcDbLine
 10
178.1908
 20
218.0
 30
0.0
 11
178.1908
 21
200.0
 31
0.0
  0
LINE
  5
75A
330
1D
100
AcDbEntity
  8
0
100
AcDbLine
 10
176.4748
 20
200.0
 30
0.0
 11
177.7228
 21
200.0
 31
0.0
  0
LINE
  5
75B
330
1D
100
AcDbEntity
  8
0
100
AcDbLine
 10
176.1908
 20
200.0
 30
0.0
 11
176.1908
 21
70.6
 31
0.0
  0
LINE
  5
75C
330
1D
100
AcDbEntity
  8
0
100
AcDbLine
 10
176.1908
 20
504.0
 30
0.0
 11
176.1908
 21
619.39912
 31
0.0
  0
LINE
  5
75D
330
1D
100
AcDbEntity
  8
0
100
AcDbLine
 10
176.1908
 20
218.0
 30
0.0
 11
176.1908
 21
504.0
 31
0.0
  0
LINE
  5
75E
330
1D
100
AcDbEntity
  8
0
100
AcDbLine
 10
189.6418
 20
525.556
 30
0.0
 11
190.0438
 21
3.65159
 31
0.0
  0
LINE
  5
75F
330
1D
100
AcDbEntity
  8
0
100
AcDbLine
 10
189.6418
 20
525.556
 30
0.0
 11
190.0438
 21
3.65159
 31
0.0
  0
LINE
  5
760
330
1D
100
AcDbEntity
  8
0
100
AcDbLine
 10
198.9598
 20
0.214086
 30
0.0
 11
201.8658
 21
0.722386
 31
0.0
  0
LINE
  5
761
330
1D
100
AcDbEntity
  8
0
100
AcDbLine
 10
204.2578
 20
1.67339
 30
0.0
 11
205.6868
 21
3.04719
 31
0.0
  0
LINE
  5
762
330
1D
100
AcDbEntity
  8
0
100
AcDbLine
 10
201.8658
 20
0.722386
 30
0.0
 11
204.2578
 21
1.67339
 31
0.0
  0
LINE
  5
763
330
1D
100
AcDbEntity
  8
0
100
AcDbLine
 10
195.8168
 20
0.342986
 30
0.0
 11
198.9598
 21
0.214086
 31
0.0
  0
LINE
  5
764
330
1D
100
AcDbEntity
  8
0
100
AcDbLine
 10
193.0178
 20
1.04569
 30
0.0
 11
195.8168
 21
0.342986
 31
0.0
  0
LINE
  5
765
330
1D
100
AcDbEntity
  8
0
100
AcDbLine
 10
204.9198
 20
6.01659
 30
0.0
 11
205.9498
 21
4.58899
 31
0.0
  0
LINE
  5
766
330
1D
100
AcDbEntity
  8
0
100
AcDbLine
 10
202.9838
 20
7.19269
 30
0.0
 11
204.9198
 21
6.01659
 31
0.0
  0
LINE
  5
767
330
1D
100
AcDbEntity
  8
0
100
AcDbLine
 10
200.1898
 20
7.89649
 30
0.0
 11
202.9838
 21
7.19269
 31
0.0
  0
LINE
  5
768
330
1D
100
AcDbEntity
  8
0
100
AcDbLine
 10
197.0468
 20
8.02759
 30
0.0
 11
200.1898
 21
7.89649
 31
0.0
  0
LINE
  5
769
330
1D
100
AcDbEntity
  8
0
100
AcDbLine
 10
194.1368
 20
7.52239
 30
0.0
 11
197.0468
 21
8.02759
 31
0.0
  0
LINE
  5
76A
330
1D
100
AcDbEntity
  8
0
100
AcDbLine
 10
191.7418
 20
6.57029
 30
0.0
 11
194.1368
 21
7.52239
 31
0.0
  0
LINE
  5
76B
330
1D
100
AcDbEntity
  8
0
100
AcDbLine
 10
190.3088
 20
5.19659
 30
0.0
 11
191.7418
 21
6.57029
 31
0.0
  0
LINE
  5
76C
330
1D
100
AcDbEntity
  8
0
100
AcDbLine
 10
205.6418
 20
525.56
 30
0.0
 11
205.9498
 21
4.58899
 31
0.0
  0
LINE
  5
76D
330
1D
100
AcDbEntity
  8
0
100
AcDbLine
 10
205.6418
 20
525.56
 30
0.0
 11
205.9498
 21
4.58899
 31
0.0
  0
LINE
  5
76E
330
1D
100
AcDbEntity
  8
0
100
AcDbLine
 10
205.6868
 20
3.04719
 30
0.0
 11
205.9498
 21
4.58899
 31
0.0
  0
LINE
  5
76F
330
1D
100
AcDbEntity
  8
0
100
AcDbLine
 10
191.0778
 20
2.22189
 30
0.0
 11
193.0178
 21
1.04569
 31
0.0
  0
LINE
  5
770
330
1D
100
AcDbEntity
  8
0
100
AcDbLine
 10
190.0438
 20
3.65159
 30
0.0
 11
191.0778
 21
2.22189
 31
0.0
  0
LINE
  5
771
330
1D
100
AcDbEntity
  8
0
100
AcDbLine
 10
190.0438
 20
3.65159
 30
0.0
 11
190.3088
 21
5.19659
 31
0.0
  0
LINE
  5
772
330
1D
100
AcDbEntity
  8
0
100
AcDbLine
 10
203.6418
 20
559.961
 30
0.0
 11
205.6418
 21
525.56
 31
0.0
  0
LINE
  5
773
330
1D
100
AcDbEntity
  8
0
100
AcDbLine
 10
187.8408
 20
557.157
 30
0.0
 11
189.6418
 21
525.556
 31
0.0
  0
LINE
  5
774
330
1D
100
AcDbEntity
  8
0
100
AcDbLine
 10
199.9418
 20
584.359
 30
0.0
 11
203.6418
 21
559.961
 31
0.0
  0
LINE
  5
775
330
1D
100
AcDbEntity
  8
0
100
AcDbLine
 10
184.9418
 20
578.854
 30
0.0
 11
187.8408
 21
557.157
 31
0.0
  0
LINE
  5
776
330
1D
100
AcDbEntity
  8
0
100
AcDbLine
 10
194.8418
 20
609.756
 30
0.0
 11
199.9418
 21
584.359
 31
0.0
  0
LINE
  5
777
330
1D
100
AcDbEntity
  8
0
100
AcDbLine
 10
180.3428
 20
603.061
 30
0.0
 11
184.9418
 21
578.854
 31
0.0
  0
LINE
  5
778
330
1D
100
AcDbEntity
  8
0
100
AcDbLine
 10
188.0418
 20
635.464
 30
0.0
 11
194.8418
 21
609.756
 31
0.0
  0
LINE
  5
779
330
1D
100
AcDbEntity
  8
0
100
AcDbLine
 10
174.1428
 20
627.458
 30
0.0
 11
180.3428
 21
603.061
 31
0.0
  0
LINE
  5
77A
330
1D
100
AcDbEntity
  8
0
100
AcDbLine
 10
161.1018
 20
669.082
 30
0.0
 11
163.7868
 21
670.632
 31
0.0
  0
LINE
  5
77B
330
1D
100
AcDbEntity
  8
0
100
AcDbLine
 10
169.6758
 20
674.032
 30
0.0
 11
172.3598
 21
675.582
 31
0.0
  0
LINE
  5
77C
330
1D
100
AcDbEntity
  8
0
100
AcDbLine
 10
166.7308
 20
672.332
 30
0.0
 11
169.6758
 21
674.032
 31
0.0
  0
LINE
  5
77D
330
1D
100
AcDbEntity
  8
0
100
AcDbLine
 10
163.7868
 20
670.632
 30
0.0
 11
166.7308
 21
672.332
 31
0.0
  0
LINE
  5
77E
330
1D
100
AcDbEntity
  8
0
100
AcDbLine
 10
160.0568
 20
708.893
 30
0.0
 11
160.4898
 21
709.143
 31
0.0
  0
LINE
  5
780
330
1D
100
AcDbEntity
  8
0
100
AcDbLine
 10
180.265375364609
 20
657.210027552261
 30
0.0
 11
180.8068
 21
661.0
 31
0.0
  0
LINE
  5
786
330
1D
100
AcDbEntity
  8
0
100
AcDbLine
 10
172.091400000098
 20
675.427000000057
 30
0.0
 11
172.719646153545
 21
675.789692307519
 31
0.0
  0
LINE
  5
787
330
1D
100
AcDbEntity
  8
0
100
AcDbLine
 10
172.091400000098
 20
675.427000000057
 30
0.0
 11
172.719646153544
 21
675.789692307518
 31
0.0
  0
LINE
  5
788
330
1D
100
AcDbEntity
  8
0
100
AcDbLine
 10
174.406425000588
 20
676.763250000339
 30
0.0
 11
174.9588
 21
677.082
 31
0.0
  0
LINE
  5
789
330
1D
100
AcDbEntity
  8
0
100
AcDbLine
 10
174.40642500059
 20
676.76325000034
 30
0.0
 11
174.9588
 21
677.082
 31
0.0
  0
LINE
  5
78A
330
1D
100
AcDbEntity
  8
0
100
AcDbLine
 10
174.6988
 20
676.932
 30
0.0
 11
176.5178
 21
677.982
 31
0.0
  0
LINE
  5
78B
330
1D
100
AcDbEntity
  8
0
100
AcDbLine
 10
172.3598
 20
675.582
 30
0.0
 11
174.6988
 21
676.932
 31
0.0
  0
LINE
  5
78C
330
1D
100
AcDbEntity
  8
0
100
AcDbLine
 10
176.1908
 20
666.437818551991
 30
0.0
 11
176.1908
 21
677.793242440901
 31
0.0
  0
LINE
  5
78D
330
1D
100
AcDbEntity
  8
0
100
AcDbLine
 10
176.1988
 20
672.008
 30
0.0
 11
178.6948
 21
668.744
 31
0.0
  0
LINE
  5
78E
330
1D
100
AcDbEntity
  8
0
100
AcDbLine
 10
176.1908
 20
681.9479708
 30
0.0
 11
176.1908
 21
937.4
 31
0.0
  0
LINE
  5
78F
330
1D
100
AcDbEntity
  8
0
100
AcDbLine
 10
176.1908
 20
677.793242440901
 30
0.0
 11
176.1908
 21
666.437818551991
 31
0.0
  0
LINE
  5
790
330
1D
100
AcDbEntity
  8
0
100
AcDbLine
 10
176.1908
 20
681.9479708
 30
0.0
 11
176.1908
 21
937.4
 31
0.0
  0
LINE
  5
794
330
1D
100
AcDbEntity
  8
0
100
AcDbLine
 10
174.9588
 20
677.082
 30
0.0
 11
175.608299999948
 21
677.45699999997
 31
0.0
  0
LINE
  5
795
330
1D
100
AcDbEntity
  8
0
100
AcDbLine
 10
174.9588
 20
677.082
 30
0.0
 11
175.608299999949
 21
677.45699999997
 31
0.0
  0
LINE
  5
796
330
1D
100
AcDbEntity
  8
0
100
AcDbLine
 10
178.6948
 20
668.744
 30
0.0
 11
180.2308
 21
665.032
 31
0.0
  0
LINE
  5
798
330
1D
100
AcDbEntity
  8
0
100
AcDbLine
 10
180.2308
 20
665.032
 30
0.0
 11
180.8068
 21
661.0
 31
0.0
  0
LINE
  5
79D
330
1D
100
AcDbEntity
  8
0
100
AcDbLine
 10
177.5568
 20
678.582
 30
0.0
 11
177.9898
 21
678.832
 31
0.0
  0
LINE
  5
79E
330
1D
100
AcDbEntity
  8
0
100
AcDbLine
 10
176.5178
 20
677.982
 30
0.0
 11
177.5568
 21
678.582
 31
0.0
  0
LINE
  5
79F
330
1D
100
AcDbEntity
  8
0
100
AcDbLine
 10
179.6428
 20
658.951
 30
0.0
 11
188.0418
 21
635.464
 31
0.0
  0
LINE
  5
7A0
330
1D
100
AcDbEntity
  8
0
100
AcDbLine
 10
172.05562169029
 20
675.406338159445
 30
0.0
 11
179.6428
 21
658.951
 31
0.0
  0
LINE
  5
7A1
330
1D
100
AcDbEntity
  8
0
100
AcDbLine
 10
159.8668
 20
1008.0
 30
0.0
 11
162.4188
 21
1008.0
 31
0.0
  0
LINE
  5
7A4
330
1D
100
AcDbEntity
  8
0
100
AcDbLine
 10
159.8668
 20
938.0
 30
0.0
 11
162.4188
 21
938.0
 31
0.0
  0
LINE
  5
7A5
330
1D
100
AcDbEntity
  8
0
100
AcDbLine
 10
160.4898
 20
709.143
 30
0.0
 11
177.9898
 21
678.832
 31
0.0
  0
LINE
  5
7A6
330
1D
100
AcDbEntity
  8
0
100
AcDbLine
 10
175.5308
 20
938.0
 30
0.0
 11
175.9268
 21
938.0
 31
0.0
  0
LINE
  5
7A7
330
1D
100
AcDbEntity
  8
0
100
AcDbLine
 10
174.4748
 20
938.0
 30
0.0
 11
175.5308
 21
938.0
 31
0.0
  0
LINE
  5
7A8
330
1D
100
AcDbEntity
  8
0
100
AcDbLine
 10
172.7588
 20
938.0
 30
0.0
 11
174.4748
 21
938.0
 31
0.0
  0
LINE
  5
7A9
330
1D
100
AcDbEntity
  8
0
100
AcDbLine
 10
170.5148
 20
938.0
 30
0.0
 11
172.7588
 21
938.0
 31
0.0
  0
LINE
  5
7AA
330
1D
100
AcDbEntity
  8
0
100
AcDbLine
 10
167.9628
 20
938.0
 30
0.0
 11
170.5148
 21
938.0
 31
0.0
  0
LINE
  5
7AB
330
1D
100
AcDbEntity
  8
0
100
AcDbLine
 10
167.9628
 20
938.0
 30
0.0
 11
200.1908
 21
938.0
 31
0.0
  0
LINE
  5
7AC
330
1D
100
AcDbEntity
  8
0
100
AcDbLine
 10
165.1908
 20
938.0
 30
0.0
 11
167.9628
 21
938.0
 31
0.0
  0
LINE
  5
7AD
330
1D
100
AcDbEntity
  8
0
100
AcDbLine
 10
200.1908
 20
938.0
 30
0.0
 11
200.1908
 21
983.0
 31
0.0
  0
LINE
  5
7AE
330
1D
100
AcDbEntity
  8
0
100
AcDbLine
 10
175.9268
 20
938.0
 30
0.0
 11
176.1908
 21
937.4
 31
0.0
  0
LINE
  5
7AF
330
1D
100
AcDbEntity
  8
0
100
AcDbLine
 10
175.9268
 20
938.0
 30
0.0
 11
200.1908
 21
938.0
 31
0.0
  0
LINE
  5
7B2
330
1D
100
AcDbEntity
  8
0
100
AcDbLine
 10
168.945585296454
 20
983.0
 30
0.0
 11
200.1908
 21
983.0
 31
0.0
  0
LINE
  5
7B3
330
1D
100
AcDbEntity
  8
0
100
AcDbLine
 10
176.1908
 20
1007.62
 30
0.0
 11
176.1908
 21
983.0
 31
0.0
  0
LINE
  5
7B5
330
1D
100
AcDbEntity
  8
0
100
AcDbLine
 10
200.1908
 20
983.0
 30
0.0
 11
200.1908
 21
938.0
 31
0.0
  0
LINE
  5
7B6
330
1D
100
AcDbEntity
  8
0
100
AcDbLine
 10
176.1908
 20
983.0
 30
0.0
 11
176.1908
 21
1007.62
 31
0.0
  0
LINE
  5
7BB
330
1D
100
AcDbEntity
  8
0
100
AcDbLine
 10
175.9268
 20
1008.0
 30
0.0
 11
176.1908
 21
1007.62
 31
0.0
  0
LINE
  5
7BC
330
1D
100
AcDbEntity
  8
0
100
AcDbLine
 10
175.5308
 20
1008.0
 30
0.0
 11
175.9268
 21
1008.0
 31
0.0
  0
LINE
  5
7BD
330
1D
100
AcDbEntity
  8
0
100
AcDbLine
 10
174.4748
 20
1008.0
 30
0.0
 11
175.5308
 21
1008.0
 31
0.0
  0
LINE
  5
7BE
330
1D
100
AcDbEntity
  8
0
100
AcDbLine
 10
172.7588
 20
1008.0
 30
0.0
 11
174.4748
 21
1008.0
 31
0.0
  0
LINE
  5
7BF
330
1D
100
AcDbEntity
  8
0
100
AcDbLine
 10
170.5148
 20
1008.0
 30
0.0
 11
172.7588
 21
1008.0
 31
0.0
  0
LINE
  5
7C0
330
1D
100
AcDbEntity
  8
0
100
AcDbLine
 10
167.9628
 20
1008.0
 30
0.0
 11
170.5148
 21
1008.0
 31
0.0
  0
LINE
  5
7C1
330
1D
100
AcDbEntity
  8
0
100
AcDbLine
 10
165.1908
 20
1008.0
 30
0.0
 11
167.9628
 21
1008.0
 31
0.0
  0
LINE
  5
7C3
330
1D
100
AcDbEntity
  8
0
100
AcDbLine
 10
162.4188
 20
1008.0
 30
0.0
 11
165.1908
 21
1008.0
 31
0.0
  0
LINE
  5
7C6
330
1D
100
AcDbEntity
  8
0
100
AcDbLine
 10
162.4188
 20
938.0
 30
0.0
 11
165.1908
 21
938.0
 31
0.0
  0
LINE
  5
DB8
330
1D
100
AcDbEntity
  8
0
100
AcDbLine
 10
25.558923914367
 20
846.803645898644
 30
0.0
 11
25.809349277512
 21
846.515995351115
 31
0.0
  0
LINE
  5
DB9
330
1D
100
AcDbEntity
  8
0
100
AcDbLine
 10
25.809349277512
 20
846.515995351115
 30
0.0
 11
26.14168288334
 21
846.146414041473
 31
0.0
  0
LINE
  5
DBA
330
1D
100
AcDbEntity
  8
0
100
AcDbLine
 10
26.968220427941
 20
845.252019063085
 30
0.0
 11
27.410814319859
 21
844.783214171007
 31
0.0
  0
LINE
  5
DBB
330
1D
100
AcDbEntity
  8
0
100
AcDbLine
 10
26.534320764658
 20
845.717882800891
 30
0.0
 11
26.968220427941
 21
845.252019063085
 31
0.0
  0
LINE
  5
DBC
330
1D
100
AcDbEntity
  8
0
100
AcDbLine
 10
26.14168288334
 20
846.146414041473
 30
0.0
 11
26.534320764658
 21
845.717882800891
 31
0.0
  0
LINE
  5
DBD
330
1D
100
AcDbEntity
  8
0
100
AcDbLine
 10
0.242159356649
 20
885.742783401419
 30
0.0
 11
2.372229783638
 21
879.467753604664
 31
0.0
  0
LINE
  5
DBE
330
1D
100
AcDbEntity
  8
0
100
AcDbLine
 10
0.242159356649
 20
885.742783401419
 30
0.0
 11
2.372229783638
 21
879.467753604664
 31
0.0
  0
LINE
  5
DBF
330
1D
100
AcDbEntity
  8
0
100
AcDbLine
 10
0.082648702272
 20
890.109462843689
 30
0.0
 11
0.242159356649
 21
885.742783401419
 31
0.0
  0
LINE
  5
DC0
330
1D
100
AcDbEntity
  8
0
100
AcDbLine
 10
1.151637056395
 20
893.04414098573
 30
0.0
 11
1.820694130147
 21
893.787157830631
 31
0.0
  0
LINE
  5
DC1
330
1D
100
AcDbEntity
  8
0
100
AcDbLine
 10
1.151637056395
 20
893.04414098573
 30
0.0
 11
0.082648702272
 21
890.109462843689
 31
0.0
  0
LINE
  5
DC2
330
1D
100
AcDbEntity
  8
0
100
AcDbLine
 10
2.318238119681
 20
893.339397299505
 30
0.0
 11
2.907973018861
 21
892.80838810788
 31
0.0
  0
LINE
  5
DC3
330
1D
100
AcDbEntity
  8
0
100
AcDbLine
 10
2.907973018861
 20
892.80838810788
 30
0.0
 11
3.521686904103
 21
892.255451738429
 31
0.0
  0
LINE
  5
DC4
330
1D
100
AcDbEntity
  8
0
100
AcDbLine
 10
2.741575098851
 20
894.32935845615
 30
0.0
 11
5.65957607206
 21
893.051104398283
 31
0.0
  0
LINE
  5
DC5
330
1D
100
AcDbEntity
  8
0
100
AcDbLine
 10
2.741575098851
 20
894.32935845615
 30
0.0
 11
5.65957607206
 21
893.051104398283
 31
0.0
  0
LINE
  5
DC6
330
1D
100
AcDbEntity
  8
0
100
AcDbLine
 10
1.820694130147
 20
893.787157830631
 30
0.0
 11
1.975376606242
 21
893.648199738268
 31
0.0
  0
LINE
  5
DC7
330
1D
100
AcDbEntity
  8
0
100
AcDbLine
 10
1.820694130147
 20
893.787157830631
 30
0.0
 11
2.741575098851
 21
894.32935845615
 31
0.0
  0
LINE
  5
DC8
330
1D
100
AcDbEntity
  8
0
100
AcDbLine
 10
1.975376606242
 20
893.648199738268
 30
0.0
 11
2.318238119681
 21
893.339397299505
 31
0.0
  0
LINE
  5
DC9
330
1D
100
AcDbEntity
  8
0
100
AcDbLine
 10
3.521686904103
 20
892.255451738429
 30
0.0
 11
4.384679993656
 21
891.478919616117
 31
0.0
  0
LINE
  5
DCA
330
1D
100
AcDbEntity
  8
0
100
AcDbLine
 10
2.372229783638
 20
879.467753604664
 30
0.0
 11
3.690812787416
 21
877.232281048167
 31
0.0
  0
LINE
  5
DCB
330
1D
100
AcDbEntity
  8
0
100
AcDbLine
 10
7.143772491056
 20
888.994528004396
 30
0.0
 11
8.442970380165
 21
887.824124757418
 31
0.0
  0
LINE
  5
DCC
330
1D
100
AcDbEntity
  8
0
100
AcDbLine
 10
5.367314571419
 20
890.594052630077
 30
0.0
 11
6.228887379311
 21
889.818340507765
 31
0.0
  0
LINE
  5
DCD
330
1D
100
AcDbEntity
  8
0
100
AcDbLine
 10
6.228887379311
 20
889.818340507765
 30
0.0
 11
7.143772491056
 21
888.994528004396
 31
0.0
  0
LINE
  5
DCE
330
1D
100
AcDbEntity
  8
0
100
AcDbLine
 10
8.442970380165
 20
887.824124757418
 30
0.0
 11
10.069535506873
 21
886.359638198696
 31
0.0
  0
LINE
  5
DCF
330
1D
100
AcDbEntity
  8
0
100
AcDbLine
 10
5.65957607206
 20
893.051104398283
 30
0.0
 11
11.398201983652
 21
889.221756042791
 31
0.0
  0
LINE
  5
DD0
330
1D
100
AcDbEntity
  8
0
100
AcDbLine
 10
4.384679993656
 20
891.478919616117
 30
0.0
 11
5.367314571419
 21
890.594052630077
 31
0.0
  0
LINE
  5
DD1
330
1D
100
AcDbEntity
  8
0
100
AcDbLine
 10
3.188778623273
 20
876.936217681772
 30
0.0
 11
3.212902136648
 21
876.874600832596
 31
0.0
  0
LINE
  5
DD2
330
1D
100
AcDbEntity
  8
0
100
AcDbLine
 10
3.212902136648
 20
876.874600832596
 30
0.0
 11
3.271424738686
 21
876.755364952715
 31
0.0
  0
LINE
  5
DD3
330
1D
100
AcDbEntity
  8
0
100
AcDbLine
 10
3.23846668468
 20
876.891479928659
 30
0.0
 11
3.309127555308
 21
876.787868146693
 31
0.0
  0
LINE
  5
DD4
330
1D
100
AcDbEntity
  8
0
100
AcDbLine
 10
3.40871552915
 20
876.63175957721
 30
0.0
 11
3.528999070876
 21
876.435296782794
 31
0.0
  0
LINE
  5
DD5
330
1D
100
AcDbEntity
  8
0
100
AcDbLine
 10
3.309127555308
 20
876.787868146693
 30
0.0
 11
3.40871552915
 21
876.63175957721
 31
0.0
  0
LINE
  5
DD6
330
1D
100
AcDbEntity
  8
0
100
AcDbLine
 10
3.559482925855
 20
876.562496368429
 30
0.0
 11
3.570528940156
 21
876.486028626419
 31
0.0
  0
LINE
  5
DD7
330
1D
100
AcDbEntity
  8
0
100
AcDbLine
 10
3.271424738686
 20
876.755364952715
 30
0.0
 11
3.360551238857
 21
876.586936579312
 31
0.0
  0
LINE
  5
DD8
330
1D
100
AcDbEntity
  8
0
100
AcDbLine
 10
3.360551238857
 20
876.586936579312
 30
0.0
 11
3.46980035957
 21
876.388761607069
 31
0.0
  0
LINE
  5
DD9
330
1D
100
AcDbEntity
  8
0
100
AcDbLine
 10
9.14675643719
 20
867.745737965845
 30
0.0
 11
9.270097674071
 21
867.57857125479
 31
0.0
  0
LINE
  5
DDA
330
1D
100
AcDbEntity
  8
0
100
AcDbLine
 10
10.676317719526
 20
866.07421582014
 30
0.0
 11
10.752839170991
 21
866.013754861947
 31
0.0
  0
LINE
  5
DDB
330
1D
100
AcDbEntity
  8
0
100
AcDbLine
 10
10.636783883051
 20
866.087341206749
 30
0.0
 11
11.128445474665
 21
866.490010988723
 31
0.0
  0
LINE
  5
DDC
330
1D
100
AcDbEntity
  8
0
100
AcDbLine
 10
10.640818492742
 20
866.046329355722
 30
0.0
 11
10.691126804487
 21
865.951465907706
 31
0.0
  0
LINE
  5
DDD
330
1D
100
AcDbEntity
  8
0
100
AcDbLine
 10
11.674257610869
 20
864.725098414847
 30
0.0
 11
11.787988920512
 21
864.614286821559
 31
0.0
  0
LINE
  5
DDE
330
1D
100
AcDbEntity
  8
0
100
AcDbLine
 10
11.787988920512
 20
864.614286821559
 30
0.0
 11
11.864510371977
 21
864.553825863366
 31
0.0
  0
LINE
  5
DDF
330
1D
100
AcDbEntity
  8
0
100
AcDbLine
 10
11.849651287016
 20
864.67648917326
 30
0.0
 11
11.89992299622
 21
864.581762327785
 31
0.0
  0
LINE
  5
DE0
330
1D
100
AcDbEntity
  8
0
100
AcDbLine
 10
14.500012613621
 20
862.077049649355
 30
0.0
 11
14.646777432938
 21
861.888853773176
 31
0.0
  0
LINE
  5
DE1
330
1D
100
AcDbEntity
  8
0
100
AcDbLine
 10
14.378331184362
 20
862.246491231541
 30
0.0
 11
14.500012613621
 21
862.077049649355
 31
0.0
  0
LINE
  5
DE2
330
1D
100
AcDbEntity
  8
0
100
AcDbLine
 10
14.247654514018
 20
862.529552599141
 30
0.0
 11
14.248657777057
 21
862.479090301698
 31
0.0
  0
LINE
  5
DE3
330
1D
100
AcDbEntity
  8
0
100
AcDbLine
 10
14.247654514018
 20
862.529552599141
 30
0.0
 11
14.631306648243
 21
862.861802619045
 31
0.0
  0
LINE
  5
DE4
330
1D
100
AcDbEntity
  8
0
100
AcDbLine
 10
14.502487968178
 20
862.368337089215
 30
0.0
 11
14.651452856556
 21
862.225751844429
 31
0.0
  0
LINE
  5
DE5
330
1D
100
AcDbEntity
  8
0
100
AcDbLine
 10
14.382443261076
 20
862.468013557334
 30
0.0
 11
14.502487968178
 21
862.368337089215
 31
0.0
  0
LINE
  5
DE6
330
1D
100
AcDbEntity
  8
0
100
AcDbLine
 10
14.294840016542
 20
862.524480286894
 30
0.0
 11
14.382443261076
 21
862.468013557334
 31
0.0
  0
LINE
  5
DE7
330
1D
100
AcDbEntity
  8
0
100
AcDbLine
 10
14.248657777057
 20
862.479090301698
 30
0.0
 11
14.294514422751
 21
862.381716341905
 31
0.0
  0
LINE
  5
DE8
330
1D
100
AcDbEntity
  8
0
100
AcDbLine
 10
14.294514422751
 20
862.381716341905
 30
0.0
 11
14.378331184362
 21
862.246491231541
 31
0.0
  0
LINE
  5
DE9
330
1D
100
AcDbEntity
  8
0
100
AcDbLine
 10
11.903957605911
 20
864.540750476758
 30
0.0
 11
12.267350709516
 21
864.838368644001
 31
0.0
  0
LINE
  5
DEA
330
1D
100
AcDbEntity
  8
0
100
AcDbLine
 10
11.965803581766
 20
864.591402197451
 30
0.0
 11
14.30448024956
 21
861.263177660278
 31
0.0
  0
LINE
  5
DEB
330
1D
100
AcDbEntity
  8
0
100
AcDbLine
 10
11.373800404099
 20
865.055491267222
 30
0.0
 11
11.535398682535
 21
864.872587695888
 31
0.0
  0
LINE
  5
DEC
330
1D
100
AcDbEntity
  8
0
100
AcDbLine
 10
11.761124013629
 20
864.812355437898
 30
0.0
 11
11.849651287016
 21
864.67648917326
 31
0.0
  0
LINE
  5
DED
330
1D
100
AcDbEntity
  8
0
100
AcDbLine
 10
11.641987070742
 20
864.97940419976
 30
0.0
 11
11.761124013629
 21
864.812355437898
 31
0.0
  0
LINE
  5
DEE
330
1D
100
AcDbEntity
  8
0
100
AcDbLine
 10
11.496029431102
 20
865.17059815215
 30
0.0
 11
11.641987070742
 21
864.97940419976
 31
0.0
  0
LINE
  5
DEF
330
1D
100
AcDbEntity
  8
0
100
AcDbLine
 10
11.535398682535
 20
864.872587695888
 30
0.0
 11
11.674257610869
 21
864.725098414847
 31
0.0
  0
LINE
  5
DF0
330
1D
100
AcDbEntity
  8
0
100
AcDbLine
 10
11.204559116663
 20
865.257356758643
 30
0.0
 11
11.373800404099
 21
865.055491267222
 31
0.0
  0
LINE
  5
DF1
330
1D
100
AcDbEntity
  8
0
100
AcDbLine
 10
11.167027687403
 20
865.572550416285
 30
0.0
 11
11.3361323723
 21
865.370648322323
 31
0.0
  0
LINE
  5
DF2
330
1D
100
AcDbEntity
  8
0
100
AcDbLine
 10
11.3361323723
 20
865.370648322323
 30
0.0
 11
11.496029431102
 21
865.17059815215
 31
0.0
  0
LINE
  5
DF3
330
1D
100
AcDbEntity
  8
0
100
AcDbLine
 10
11.04466205786
 20
865.457406928816
 30
0.0
 11
11.204559116663
 21
865.257356758643
 31
0.0
  0
LINE
  5
DF4
330
1D
100
AcDbEntity
  8
0
100
AcDbLine
 10
10.898791020761
 20
865.648550881207
 30
0.0
 11
11.04466205786
 21
865.457406928816
 31
0.0
  0
LINE
  5
DF5
330
1D
100
AcDbEntity
  8
0
100
AcDbLine
 10
10.752839170991
 20
866.013754861947
 30
0.0
 11
10.866520480634
 21
865.902856666119
 31
0.0
  0
LINE
  5
DF6
330
1D
100
AcDbEntity
  8
0
100
AcDbLine
 10
10.866520480634
 20
865.902856666119
 30
0.0
 11
11.005429408968
 21
865.755453987619
 31
0.0
  0
LINE
  5
DF7
330
1D
100
AcDbEntity
  8
0
100
AcDbLine
 10
11.005429408968
 20
865.755453987619
 30
0.0
 11
11.167027687403
 21
865.572550416285
 31
0.0
  0
LINE
  5
DF8
330
1D
100
AcDbEntity
  8
0
100
AcDbLine
 10
10.779704077874
 20
865.815686245609
 30
0.0
 11
10.898791020761
 21
865.648550881207
 31
0.0
  0
LINE
  5
DF9
330
1D
100
AcDbEntity
  8
0
100
AcDbLine
 10
10.691126804487
 20
865.951465907706
 30
0.0
 11
10.779704077874
 21
865.815686245609
 31
0.0
  0
LINE
  5
DFA
330
1D
100
AcDbEntity
  8
0
100
AcDbLine
 10
10.161136728095
 20
866.551096167889
 30
0.0
 11
10.214809399193
 21
866.465259961209
 31
0.0
  0
LINE
  5
DFB
330
1D
100
AcDbEntity
  8
0
100
AcDbLine
 10
10.225396636828
 20
866.433397594705
 30
0.0
 11
10.513267198046
 21
866.661007296265
 31
0.0
  0
LINE
  5
DFC
330
1D
100
AcDbEntity
  8
0
100
AcDbLine
 10
10.225396636828
 20
866.433397594705
 30
0.0
 11
10.513267198046
 21
866.661007296265
 31
0.0
  0
LINE
  5
DFD
330
1D
100
AcDbEntity
  8
0
100
AcDbLine
 10
10.225396636828
 20
866.433397594705
 30
0.0
 11
10.576304475296
 21
866.710848779887
 31
0.0
  0
LINE
  5
DFE
330
1D
100
AcDbEntity
  8
0
100
AcDbLine
 10
10.126909744498
 20
866.522013293309
 30
0.0
 11
10.197414208665
 21
866.450130607406
 31
0.0
  0
LINE
  5
DFF
330
1D
100
AcDbEntity
  8
0
100
AcDbLine
 10
10.066662340391
 20
866.685661728371
 30
0.0
 11
10.161136728095
 21
866.551096167889
 31
0.0
  0
LINE
  5
E00
330
1D
100
AcDbEntity
  8
0
100
AcDbLine
 10
9.943407706051
 20
866.852778439425
 30
0.0
 11
10.066662340391
 21
866.685661728371
 31
0.0
  0
LINE
  5
E01
330
1D
100
AcDbEntity
  8
0
100
AcDbLine
 10
10.024050420303
 20
866.637055717771
 30
0.0
 11
10.126909744498
 21
866.522013293309
 31
0.0
  0
LINE
  5
E02
330
1D
100
AcDbEntity
  8
0
100
AcDbLine
 10
9.888716620838
 20
866.796250701117
 30
0.0
 11
10.024050420303
 21
866.637055717771
 31
0.0
  0
LINE
  5
E03
330
1D
100
AcDbEntity
  8
0
100
AcDbLine
 10
10.512152740759
 20
866.660126131865
 30
0.0
 11
10.813143459731
 21
866.231779319268
 31
0.0
  0
LINE
  5
E04
330
1D
100
AcDbEntity
  8
0
100
AcDbLine
 10
10.512152740759
 20
866.660126131865
 30
0.0
 11
10.813143459731
 21
866.231779319268
 31
0.0
  0
LINE
  5
E05
330
1D
100
AcDbEntity
  8
0
100
AcDbLine
 10
9.799018719758
 20
867.042489379114
 30
0.0
 11
9.943407706051
 21
866.852778439425
 31
0.0
  0
LINE
  5
E06
330
1D
100
AcDbEntity
  8
0
100
AcDbLine
 10
9.640954673658
 20
867.244714420418
 30
0.0
 11
9.799018719758
 21
867.042489379114
 31
0.0
  0
LINE
  5
E07
330
1D
100
AcDbEntity
  8
0
100
AcDbLine
 10
9.732744175428
 20
866.986298501084
 30
0.0
 11
9.888716620838
 21
866.796250701117
 31
0.0
  0
LINE
  5
E08
330
1D
100
AcDbEntity
  8
0
100
AcDbLine
 10
9.572550706464
 20
867.186635273798
 30
0.0
 11
9.732744175428
 21
866.986298501084
 31
0.0
  0
LINE
  5
E09
330
1D
100
AcDbEntity
  8
0
100
AcDbLine
 10
9.414350057822
 20
867.388823712561
 30
0.0
 11
9.572550706464
 21
867.186635273798
 31
0.0
  0
LINE
  5
E0A
330
1D
100
AcDbEntity
  8
0
100
AcDbLine
 10
13.89318662397
 20
860.788996203926
 30
0.0
 11
13.977596274964
 21
860.694998008098
 31
0.0
  0
LINE
  5
E0B
330
1D
100
AcDbEntity
  8
0
100
AcDbLine
 10
13.843535165103
 20
860.833597354498
 30
0.0
 11
13.881320856305
 21
860.781644091459
 31
0.0
  0
LINE
  5
E0C
330
1D
100
AcDbEntity
  8
0
100
AcDbLine
 10
13.881320856305
 20
860.781644091459
 30
0.0
 11
13.962625955566
 21
860.678468654295
 31
0.0
  0
LINE
  5
E0D
330
1D
100
AcDbEntity
  8
0
100
AcDbLine
 10
13.977596274964
 20
860.694998008098
 30
0.0
 11
14.100003348571
 21
860.55481327879
 31
0.0
  0
LINE
  5
E0E
330
1D
100
AcDbEntity
  8
0
100
AcDbLine
 10
13.962625955566
 20
860.678468654295
 30
0.0
 11
14.082012452036
 21
860.531252131918
 31
0.0
  0
LINE
  5
E0F
330
1D
100
AcDbEntity
  8
0
100
AcDbLine
 10
17.628656168467
 20
856.93421924512
 30
0.0
 11
17.702989024542
 21
856.822367528514
 31
0.0
  0
LINE
  5
E10
330
1D
100
AcDbEntity
  8
0
100
AcDbLine
 10
17.675854433356
 20
856.979369037938
 30
0.0
 11
17.773950429152
 21
856.897676286676
 31
0.0
  0
LINE
  5
E11
330
1D
100
AcDbEntity
  8
0
100
AcDbLine
 10
17.614387206824
 20
857.016704678584
 30
0.0
 11
17.675854433356
 21
856.979369037938
 31
0.0
  0
LINE
  5
E12
330
1D
100
AcDbEntity
  8
0
100
AcDbLine
 10
17.596995606134
 20
857.002381542564
 30
0.0
 11
17.628656168467
 21
856.93421924512
 31
0.0
  0
LINE
  5
E13
330
1D
100
AcDbEntity
  8
0
100
AcDbLine
 10
17.596995606134
 20
857.002381542564
 30
0.0
 11
17.734915778093
 21
857.124995545479
 31
0.0
  0
LINE
  5
E14
330
1D
100
AcDbEntity
  8
0
100
AcDbLine
 10
17.596995606134
 20
857.002381542564
 30
0.0
 11
18.071358672444
 21
857.424100523691
 31
0.0
  0
LINE
  5
E15
330
1D
100
AcDbEntity
  8
0
100
AcDbLine
 10
18.755438603889
 20
855.639463672349
 30
0.0
 11
18.853584599685
 21
855.557857523627
 31
0.0
  0
LINE
  5
E16
330
1D
100
AcDbEntity
  8
0
100
AcDbLine
 10
18.932393426908
 20
855.534758416461
 30
0.0
 11
19.41827549538
 21
855.966718038567
 31
0.0
  0
LINE
  5
E17
330
1D
100
AcDbEntity
  8
0
100
AcDbLine
 10
18.900782864575
 20
855.603007316445
 30
0.0
 11
18.932393426908
 21
855.534758416461
 31
0.0
  0
LINE
  5
E18
330
1D
100
AcDbEntity
  8
0
100
AcDbLine
 10
18.853584599685
 20
855.557857523627
 30
0.0
 11
18.915001826218
 21
855.520435280441
 31
0.0
  0
LINE
  5
E19
330
1D
100
AcDbEntity
  8
0
100
AcDbLine
 10
18.466240620202
 20
855.924558071156
 30
0.0
 11
18.621933454072
 21
855.766425969793
 31
0.0
  0
LINE
  5
E1A
330
1D
100
AcDbEntity
  8
0
100
AcDbLine
 10
19.001930348819
 20
855.596578237484
 30
0.0
 11
20.314968446302
 21
854.012642108715
 31
0.0
  0
LINE
  5
E1B
330
1D
100
AcDbEntity
  8
0
100
AcDbLine
 10
19.001930348819
 20
855.596578237484
 30
0.0
 11
20.314968446302
 21
854.012642108715
 31
0.0
  0
LINE
  5
E1C
330
1D
100
AcDbEntity
  8
0
100
AcDbLine
 10
18.8264500085
 20
855.71485903305
 30
0.0
 11
18.900782864575
 21
855.603007316445
 31
0.0
  0
LINE
  5
E1D
330
1D
100
AcDbEntity
  8
0
100
AcDbLine
 10
18.717094343204
 20
855.861249464663
 30
0.0
 11
18.8264500085
 21
855.71485903305
 31
0.0
  0
LINE
  5
E1E
330
1D
100
AcDbEntity
  8
0
100
AcDbLine
 10
18.575222790627
 20
856.036920727451
 30
0.0
 11
18.717094343204
 21
855.861249464663
 31
0.0
  0
LINE
  5
E1F
330
1D
100
AcDbEntity
  8
0
100
AcDbLine
 10
18.621933454072
 20
855.766425969793
 30
0.0
 11
18.755438603889
 21
855.639463672349
 31
0.0
  0
LINE
  5
E20
330
1D
100
AcDbEntity
  8
0
100
AcDbLine
 10
18.291897408977
 20
856.111586771359
 30
0.0
 11
18.466240620202
 21
855.924558071156
 31
0.0
  0
LINE
  5
E21
330
1D
100
AcDbEntity
  8
0
100
AcDbLine
 10
18.237628226605
 20
856.425589790206
 30
0.0
 11
18.413966628359
 21
856.227016861369
 31
0.0
  0
LINE
  5
E22
330
1D
100
AcDbEntity
  8
0
100
AcDbLine
 10
18.413966628359
 20
856.227016861369
 30
0.0
 11
18.575222790627
 21
856.036920727451
 31
0.0
  0
LINE
  5
E23
330
1D
100
AcDbEntity
  8
0
100
AcDbLine
 10
18.115422404683
 20
856.310123097656
 30
0.0
 11
18.291897408977
 21
856.111586771359
 31
0.0
  0
LINE
  5
E24
330
1D
100
AcDbEntity
  8
0
100
AcDbLine
 10
17.954252844955
 20
856.500169231574
 30
0.0
 11
18.115422404683
 21
856.310123097656
 31
0.0
  0
LINE
  5
E25
330
1D
100
AcDbEntity
  8
0
100
AcDbLine
 10
17.773950429152
 20
856.897676286676
 30
0.0
 11
17.90750557897
 21
856.770800591772
 31
0.0
  0
LINE
  5
E26
330
1D
100
AcDbEntity
  8
0
100
AcDbLine
 10
17.90750557897
 20
856.770800591772
 30
0.0
 11
18.063148412839
 21
856.612581887868
 31
0.0
  0
LINE
  5
E27
330
1D
100
AcDbEntity
  8
0
100
AcDbLine
 10
18.063148412839
 20
856.612581887868
 30
0.0
 11
18.237628226605
 21
856.425589790206
 31
0.0
  0
LINE
  5
E28
330
1D
100
AcDbEntity
  8
0
100
AcDbLine
 10
17.812294689837
 20
856.675890494361
 30
0.0
 11
17.954252844955
 21
856.500169231574
 31
0.0
  0
LINE
  5
E29
330
1D
100
AcDbEntity
  8
0
100
AcDbLine
 10
17.702989024542
 20
856.822367528514
 30
0.0
 11
17.812294689837
 21
856.675890494361
 31
0.0
  0
LINE
  5
E2A
330
1D
100
AcDbEntity
  8
0
100
AcDbLine
 10
16.266659944682
 20
858.308772585808
 30
0.0
 11
16.685853958914
 21
858.668096459477
 31
0.0
  0
LINE
  5
E2B
330
1D
100
AcDbEntity
  8
0
100
AcDbLine
 10
16.233041240778
 20
858.368943282562
 30
0.0
 11
16.266659944682
 21
858.308772585808
 31
0.0
  0
LINE
  5
E2C
330
1D
100
AcDbEntity
  8
0
100
AcDbLine
 10
16.203112333392
 20
858.341304894355
 30
0.0
 11
16.254757574476
 21
858.301557075882
 31
0.0
  0
LINE
  5
E2D
330
1D
100
AcDbEntity
  8
0
100
AcDbLine
 10
16.109177107111
 20
858.432604309816
 30
0.0
 11
16.203112333392
 21
858.341304894355
 31
0.0
  0
LINE
  5
E2E
330
1D
100
AcDbEntity
  8
0
100
AcDbLine
 10
16.15416389833
 20
858.479723717876
 30
0.0
 11
16.233041240778
 21
858.368943282562
 31
0.0
  0
LINE
  5
E2F
330
1D
100
AcDbEntity
  8
0
100
AcDbLine
 10
16.040644131419
 20
858.626901713923
 30
0.0
 11
16.15416389833
 21
858.479723717876
 31
0.0
  0
LINE
  5
E30
330
1D
100
AcDbEntity
  8
0
100
AcDbLine
 10
15.900687642351
 20
858.800889964009
 30
0.0
 11
16.040644131419
 21
858.626901713923
 31
0.0
  0
LINE
  5
E31
330
1D
100
AcDbEntity
  8
0
100
AcDbLine
 10
15.830397776772
 20
858.731544345568
 30
0.0
 11
15.984554712257
 21
858.562751990167
 31
0.0
  0
LINE
  5
E32
330
1D
100
AcDbEntity
  8
0
100
AcDbLine
 10
15.984554712257
 20
858.562751990167
 30
0.0
 11
16.109177107111
 21
858.432604309816
 31
0.0
  0
LINE
  5
E33
330
1D
100
AcDbEntity
  8
0
100
AcDbLine
 10
15.66047059095
 20
858.924221826138
 30
0.0
 11
15.830397776772
 21
858.731544345568
 31
0.0
  0
LINE
  5
E34
330
1D
100
AcDbEntity
  8
0
100
AcDbLine
 10
15.001304253622
 20
859.478112239246
 30
0.0
 11
15.082522750343
 21
859.374986802082
 31
0.0
  0
LINE
  5
E35
330
1D
100
AcDbEntity
  8
0
100
AcDbLine
 10
15.082522750343
 20
859.374986802082
 30
0.0
 11
15.120345044086
 21
859.322896936503
 31
0.0
  0
LINE
  5
E36
330
1D
100
AcDbEntity
  8
0
100
AcDbLine
 10
15.492333597508
 20
859.120600010864
 30
0.0
 11
15.66047059095
 21
858.924221826138
 31
0.0
  0
LINE
  5
E37
330
1D
100
AcDbEntity
  8
0
100
AcDbLine
 10
16.551323241718
 20
858.552779692565
 30
0.0
 11
17.734915778093
 21
857.124995545479
 31
0.0
  0
LINE
  5
E38
330
1D
100
AcDbEntity
  8
0
100
AcDbLine
 10
16.551323241718
 20
858.552779692565
 30
0.0
 11
17.734915778093
 21
857.124995545479
 31
0.0
  0
LINE
  5
E39
330
1D
100
AcDbEntity
  8
0
100
AcDbLine
 10
15.740285069921
 20
858.993264558895
 30
0.0
 11
15.900687642351
 21
858.800889964009
 31
0.0
  0
LINE
  5
E3A
330
1D
100
AcDbEntity
  8
0
100
AcDbLine
 10
15.572098076479
 20
859.189556141081
 30
0.0
 11
15.740285069921
 21
858.993264558895
 31
0.0
  0
LINE
  5
E3B
330
1D
100
AcDbEntity
  8
0
100
AcDbLine
 10
15.331931025078
 20
859.312974605751
 30
0.0
 11
15.492333597508
 21
859.120600010864
 31
0.0
  0
LINE
  5
E3C
330
1D
100
AcDbEntity
  8
0
100
AcDbLine
 10
15.070656982678
 20
859.367634689615
 30
0.0
 11
15.118387864409
 21
859.317907001863
 31
0.0
  0
LINE
  5
E3D
330
1D
100
AcDbEntity
  8
0
100
AcDbLine
 10
15.118387864409
 20
859.317907001863
 30
0.0
 11
15.243387942686
 21
859.423047786817
 31
0.0
  0
LINE
  5
E3E
330
1D
100
AcDbEntity
  8
0
100
AcDbLine
 10
14.986333934224
 20
859.461582885444
 30
0.0
 11
15.070656982678
 21
859.367634689615
 31
0.0
  0
LINE
  5
E3F
330
1D
100
AcDbEntity
  8
0
100
AcDbLine
 10
14.578963247387
 20
859.990996158328
 30
0.0
 11
14.738339986792
 21
859.799444768522
 31
0.0
  0
LINE
  5
E40
330
1D
100
AcDbEntity
  8
0
100
AcDbLine
 10
14.881831154612
 20
859.625378761623
 30
0.0
 11
15.001304253622
 21
859.478112239246
 31
0.0
  0
LINE
  5
E41
330
1D
100
AcDbEntity
  8
0
100
AcDbLine
 10
14.738339986792
 20
859.799444768522
 30
0.0
 11
14.881831154612
 21
859.625378761623
 31
0.0
  0
LINE
  5
E42
330
1D
100
AcDbEntity
  8
0
100
AcDbLine
 10
15.0784547691
 20
859.634140851883
 30
0.0
 11
15.19197453601
 21
859.486962855836
 31
0.0
  0
LINE
  5
E43
330
1D
100
AcDbEntity
  8
0
100
AcDbLine
 10
15.19197453601
 20
859.486962855836
 30
0.0
 11
15.331931025078
 21
859.312974605751
 31
0.0
  0
LINE
  5
E44
330
1D
100
AcDbEntity
  8
0
100
AcDbLine
 10
14.965958722747
 20
859.805091983951
 30
0.0
 11
14.999527426651
 21
859.744834684657
 31
0.0
  0
LINE
  5
E45
330
1D
100
AcDbEntity
  8
0
100
AcDbLine
 10
14.965958722747
 20
859.805091983951
 30
0.0
 11
15.377666300209
 21
860.157998648955
 31
0.0
  0
LINE
  5
E46
330
1D
100
AcDbEntity
  8
0
100
AcDbLine
 10
14.999527426651
 20
859.744834684657
 30
0.0
 11
15.0784547691
 21
859.634140851883
 31
0.0
  0
LINE
  5
E47
330
1D
100
AcDbEntity
  8
0
100
AcDbLine
 10
14.977861092953
 20
859.812307493877
 30
0.0
 11
15.029506334037
 21
859.772559675405
 31
0.0
  0
LINE
  5
E48
330
1D
100
AcDbEntity
  8
0
100
AcDbLine
 10
15.029506334037
 20
859.772559675405
 30
0.0
 11
15.123441560318
 21
859.681260259943
 31
0.0
  0
LINE
  5
E49
330
1D
100
AcDbEntity
  8
0
100
AcDbLine
 10
15.123441560318
 20
859.681260259943
 30
0.0
 11
15.248013955173
 21
859.551025977052
 31
0.0
  0
LINE
  5
E4A
330
1D
100
AcDbEntity
  8
0
100
AcDbLine
 10
15.248013955173
 20
859.551025977052
 30
0.0
 11
15.402220890657
 21
859.382320224191
 31
0.0
  0
LINE
  5
E4B
330
1D
100
AcDbEntity
  8
0
100
AcDbLine
 10
15.402220890657
 20
859.382320224191
 30
0.0
 11
15.572098076479
 21
859.189556141081
 31
0.0
  0
LINE
  5
E4C
330
1D
100
AcDbEntity
  8
0
100
AcDbLine
 10
15.243387942686
 20
859.423047786817
 30
0.0
 11
15.331931025078
 21
859.312974605751
 31
0.0
  0
LINE
  5
E4D
330
1D
100
AcDbEntity
  8
0
100
AcDbLine
 10
14.713469925133
 20
859.776968558141
 30
0.0
 11
14.863926860618
 21
859.601767614752
 31
0.0
  0
LINE
  5
E4E
330
1D
100
AcDbEntity
  8
0
100
AcDbLine
 10
14.863926860618
 20
859.601767614752
 30
0.0
 11
14.986333934224
 21
859.461582885444
 31
0.0
  0
LINE
  5
E4F
330
1D
100
AcDbEntity
  8
0
100
AcDbLine
 10
14.551411134921
 20
859.96787449968
 30
0.0
 11
14.713469925133
 21
859.776968558141
 31
0.0
  0
LINE
  5
E50
330
1D
100
AcDbEntity
  8
0
100
AcDbLine
 10
14.082012452036
 20
860.531252131918
 30
0.0
 11
14.225503619856
 21
860.357186125019
 31
0.0
  0
LINE
  5
E51
330
1D
100
AcDbEntity
  8
0
100
AcDbLine
 10
14.225503619856
 20
860.357186125019
 30
0.0
 11
14.384966961801
 21
860.165584735213
 31
0.0
  0
LINE
  5
E52
330
1D
100
AcDbEntity
  8
0
100
AcDbLine
 10
14.100003348571
 20
860.55481327879
 30
0.0
 11
14.250460284055
 21
860.3796123354
 31
0.0
  0
LINE
  5
E53
330
1D
100
AcDbEntity
  8
0
100
AcDbLine
 10
14.250460284055
 20
860.3796123354
 30
0.0
 11
14.412519074268
 21
860.188706393861
 31
0.0
  0
LINE
  5
E54
330
1D
100
AcDbEntity
  8
0
100
AcDbLine
 10
14.412519074268
 20
860.188706393861
 30
0.0
 11
14.578963247387
 21
859.990996158328
 31
0.0
  0
LINE
  5
E55
330
1D
100
AcDbEntity
  8
0
100
AcDbLine
 10
14.384966961801
 20
860.165584735213
 30
0.0
 11
14.551411134921
 21
859.96787449968
 31
0.0
  0
LINE
  5
E56
330
1D
100
AcDbEntity
  8
0
100
AcDbLine
 10
15.156132453223
 20
861.320882547399
 30
0.0
 11
15.305097341601
 21
861.178297302613
 31
0.0
  0
LINE
  5
E57
330
1D
100
AcDbEntity
  8
0
100
AcDbLine
 10
14.9915152637
 20
861.491557211347
 30
0.0
 11
15.156132453223
 21
861.320882547399
 31
0.0
  0
LINE
  5
E58
330
1D
100
AcDbEntity
  8
0
100
AcDbLine
 10
14.815932117835
 20
861.687038281755
 30
0.0
 11
14.9915152637
 21
861.491557211347
 31
0.0
  0
LINE
  5
E59
330
1D
100
AcDbEntity
  8
0
100
AcDbLine
 10
14.646777432938
 20
861.888853773176
 30
0.0
 11
14.815932117835
 21
861.687038281755
 31
0.0
  0
LINE
  5
E5A
330
1D
100
AcDbEntity
  8
0
100
AcDbLine
 10
14.651452856556
 20
862.225751844429
 30
0.0
 11
14.816206648619
 21
862.055113783022
 31
0.0
  0
LINE
  5
E5B
330
1D
100
AcDbEntity
  8
0
100
AcDbLine
 10
14.816206648619
 20
862.055113783022
 30
0.0
 11
14.991739794484
 21
861.859546110073
 31
0.0
  0
LINE
  5
E5C
330
1D
100
AcDbEntity
  8
0
100
AcDbLine
 10
14.991739794484
 20
861.859546110073
 30
0.0
 11
15.160894479381
 21
861.657730618652
 31
0.0
  0
LINE
  5
E5D
330
1D
100
AcDbEntity
  8
0
100
AcDbLine
 10
15.160894479381
 20
861.657730618652
 30
0.0
 11
15.307659298698
 21
861.469534742473
 31
0.0
  0
LINE
  5
E5E
330
1D
100
AcDbEntity
  8
0
100
AcDbLine
 10
15.307659298698
 20
861.469534742473
 30
0.0
 11
15.429304125417
 21
861.300229762828
 31
0.0
  0
LINE
  5
E5F
330
1D
100
AcDbEntity
  8
0
100
AcDbLine
 10
15.305097341601
 20
861.178297302613
 30
0.0
 11
15.425228651243
 21
861.078570834494
 31
0.0
  0
LINE
  5
E60
330
1D
100
AcDbEntity
  8
0
100
AcDbLine
 10
15.425228651243
 20
861.078570834494
 30
0.0
 11
15.512745293237
 21
861.022154104934
 31
0.0
  0
LINE
  5
E61
330
1D
100
AcDbEntity
  8
0
100
AcDbLine
 10
15.559014135262
 20
861.06749409013
 30
0.0
 11
15.560017398301
 21
861.017031792687
 31
0.0
  0
LINE
  5
E62
330
1D
100
AcDbEntity
  8
0
100
AcDbLine
 10
15.560017398301
 20
861.017031792687
 30
0.0
 11
16.045738862592
 21
861.43767578703
 31
0.0
  0
LINE
  5
E63
330
1D
100
AcDbEntity
  8
0
100
AcDbLine
 10
15.513157489568
 20
861.164868049923
 30
0.0
 11
15.559014135262
 21
861.06749409013
 31
0.0
  0
LINE
  5
E64
330
1D
100
AcDbEntity
  8
0
100
AcDbLine
 10
18.981915103088
 20
861.645132475681
 30
0.0
 11
19.10201321135
 21
861.576948501084
 31
0.0
  0
LINE
  5
E65
330
1D
100
AcDbEntity
  8
0
100
AcDbLine
 10
18.680093210164
 20
861.9169616223
 30
0.0
 11
18.839010915164
 21
861.758815161583
 31
0.0
  0
LINE
  5
E66
330
1D
100
AcDbEntity
  8
0
100
AcDbLine
 10
18.517146855517
 20
862.103530257143
 30
0.0
 11
18.680093210164
 21
861.9169616223
 31
0.0
  0
LINE
  5
E67
330
1D
100
AcDbEntity
  8
0
100
AcDbLine
 10
18.839010915164
 20
861.758815161583
 30
0.0
 11
18.981915103088
 21
861.645132475681
 31
0.0
  0
LINE
  5
E68
330
1D
100
AcDbEntity
  8
0
100
AcDbLine
 10
19.10201321135
 20
861.576948501084
 30
0.0
 11
19.191282550349
 21
861.563167531788
 31
0.0
  0
LINE
  5
E69
330
1D
100
AcDbEntity
  8
0
100
AcDbLine
 10
19.191282550349
 20
861.563167531788
 30
0.0
 11
19.754852092644
 21
861.984977602445
 31
0.0
  0
LINE
  5
E6A
330
1D
100
AcDbEntity
  8
0
100
AcDbLine
 10
19.191282550349
 20
861.563167531788
 30
0.0
 11
19.238211199996
 21
861.609050337307
 31
0.0
  0
LINE
  5
E6B
330
1D
100
AcDbEntity
  8
0
100
AcDbLine
 10
19.241174031422
 20
861.706182111871
 30
0.0
 11
19.238211199996
 21
861.609050337307
 31
0.0
  0
LINE
  5
E6C
330
1D
100
AcDbEntity
  8
0
100
AcDbLine
 10
15.429304125417
 20
861.300229762828
 30
0.0
 11
15.513157489568
 21
861.164868049923
 31
0.0
  0
LINE
  5
E6D
330
1D
100
AcDbEntity
  8
0
100
AcDbLine
 10
13.845405742239
 20
860.838637289138
 30
0.0
 11
14.323235859856
 21
861.240552506583
 31
0.0
  0
LINE
  5
E6E
330
1D
100
AcDbEntity
  8
0
100
AcDbLine
 10
13.845405742239
 20
860.838637289138
 30
0.0
 11
13.89318662397
 21
860.788996203926
 31
0.0
  0
LINE
  5
E6F
330
1D
100
AcDbEntity
  8
0
100
AcDbLine
 10
13.845405742239
 20
860.838637289138
 30
0.0
 11
14.337202205931
 21
861.252299959942
 31
0.0
  0
LINE
  5
E70
330
1D
100
AcDbEntity
  8
0
100
AcDbLine
 10
19.793793466218
 20
853.575347050189
 30
0.0
 11
20.329416754294
 21
854.024765050012
 31
0.0
  0
LINE
  5
E71
330
1D
100
AcDbEntity
  8
0
100
AcDbLine
 10
19.817001727407
 20
853.547744937722
 30
0.0
 11
19.878717218828
 21
853.474239304478
 31
0.0
  0
LINE
  5
E72
330
1D
100
AcDbEntity
  8
0
100
AcDbLine
 10
19.878717218828
 20
853.474239304478
 30
0.0
 11
19.981480837017
 21
853.351631112351
 31
0.0
  0
LINE
  5
E73
330
1D
100
AcDbEntity
  8
0
100
AcDbLine
 10
19.981480837017
 20
853.351631112351
 30
0.0
 11
20.117743097451
 21
853.189244270576
 31
0.0
  0
LINE
  5
E74
330
1D
100
AcDbEntity
  8
0
100
AcDbLine
 10
20.117743097451
 20
853.189244270576
 30
0.0
 11
20.272118428544
 21
853.005430187466
 31
0.0
  0
LINE
  5
E75
330
1D
100
AcDbEntity
  8
0
100
AcDbLine
 10
21.486318417299
 20
851.771286258539
 30
0.0
 11
21.586494471053
 21
851.641396273343
 31
0.0
  0
LINE
  5
E76
330
1D
100
AcDbEntity
  8
0
100
AcDbLine
 10
21.453790214069
 20
851.730945757865
 30
0.0
 11
21.559238768748
 21
851.617988012154
 31
0.0
  0
LINE
  5
E77
330
1D
100
AcDbEntity
  8
0
100
AcDbLine
 10
21.657675661079
 20
851.52928571101
 30
0.0
 11
22.147854407061
 21
851.944566422693
 31
0.0
  0
LINE
  5
E78
330
1D
100
AcDbEntity
  8
0
100
AcDbLine
 10
22.38101635406
 20
851.058548542436
 30
0.0
 11
22.533772069912
 21
850.873129203437
 31
0.0
  0
LINE
  5
E79
330
1D
100
AcDbEntity
  8
0
100
AcDbLine
 10
23.040657474953
 20
850.302080478585
 30
0.0
 11
23.182105633772
 21
850.156675876296
 31
0.0
  0
LINE
  5
E7A
330
1D
100
AcDbEntity
  8
0
100
AcDbLine
 10
25.783655592777
 20
847.832292583721
 30
0.0
 11
25.950775410243
 21
847.663752598524
 31
0.0
  0
LINE
  5
E7B
330
1D
100
AcDbEntity
  8
0
100
AcDbLine
 10
25.603863601185
 20
848.024083719489
 30
0.0
 11
25.783655592777
 21
847.832292583721
 31
0.0
  0
LINE
  5
E7C
330
1D
100
AcDbEntity
  8
0
100
AcDbLine
 10
25.42926705786
 20
848.221073635624
 30
0.0
 11
25.603863601185
 21
848.024083719489
 31
0.0
  0
LINE
  5
E7D
330
1D
100
AcDbEntity
  8
0
100
AcDbLine
 10
25.276300572493
 20
848.403727911113
 30
0.0
 11
25.42926705786
 21
848.221073635624
 31
0.0
  0
LINE
  5
E7E
330
1D
100
AcDbEntity
  8
0
100
AcDbLine
 10
25.147944272103
 20
848.567208277366
 30
0.0
 11
25.276300572493
 21
848.403727911113
 31
0.0
  0
LINE
  5
E7F
330
1D
100
AcDbEntity
  8
0
100
AcDbLine
 10
25.563205892483
 20
848.355862502299
 30
0.0
 11
25.742947884076
 21
848.163984763991
 31
0.0
  0
LINE
  5
E80
330
1D
100
AcDbEntity
  8
0
100
AcDbLine
 10
25.742947884076
 20
848.163984763991
 30
0.0
 11
25.917681029941
 21
847.967031450396
 31
0.0
  0
LINE
  5
E81
330
1D
100
AcDbEntity
  8
0
100
AcDbLine
 10
25.917681029941
 20
847.967031450396
 30
0.0
 11
26.070647515308
 21
847.784377174907
 31
0.0
  0
LINE
  5
E82
330
1D
100
AcDbEntity
  8
0
100
AcDbLine
 10
24.998862603609
 20
848.833991253059
 30
0.0
 11
25.393283628645
 21
849.193203847486
 31
0.0
  0
LINE
  5
E83
330
1D
100
AcDbEntity
  8
0
100
AcDbLine
 10
25.246211379018
 20
848.666011899256
 30
0.0
 11
25.396122677557
 21
848.524265884955
 31
0.0
  0
LINE
  5
E84
330
1D
100
AcDbEntity
  8
0
100
AcDbLine
 10
25.396122677557
 20
848.524265884955
 30
0.0
 11
25.563205892483
 21
848.355862502299
 31
0.0
  0
LINE
  5
E85
330
1D
100
AcDbEntity
  8
0
100
AcDbLine
 10
25.127026479537
 20
848.76657759786
 30
0.0
 11
25.246211379018
 21
848.666011899256
 31
0.0
  0
LINE
  5
E86
330
1D
100
AcDbEntity
  8
0
100
AcDbLine
 10
25.041925862947
 20
848.825179006171
 30
0.0
 11
25.127026479537
 21
848.76657759786
 31
0.0
  0
LINE
  5
E87
330
1D
100
AcDbEntity
  8
0
100
AcDbLine
 10
25.005357725077
 20
848.788441133442
 30
0.0
 11
25.057502639361
 21
848.696558774339
 31
0.0
  0
LINE
  5
E88
330
1D
100
AcDbEntity
  8
0
100
AcDbLine
 10
25.057502639361
 20
848.696558774339
 30
0.0
 11
25.147944272103
 21
848.567208277366
 31
0.0
  0
LINE
  5
E89
330
1D
100
AcDbEntity
  8
0
100
AcDbLine
 10
23.40930300087
 20
849.970193259455
 30
0.0
 11
23.905795146437
 21
850.402688923162
 31
0.0
  0
LINE
  5
E8A
330
1D
100
AcDbEntity
  8
0
100
AcDbLine
 10
23.345086170198
 20
850.097566446031
 30
0.0
 11
23.400972942912
 21
850.007565175841
 31
0.0
  0
LINE
  5
E8B
330
1D
100
AcDbEntity
  8
0
100
AcDbLine
 10
23.25009742314
 20
850.228041109979
 30
0.0
 11
23.345086170198
 21
850.097566446031
 31
0.0
  0
LINE
  5
E8C
330
1D
100
AcDbEntity
  8
0
100
AcDbLine
 10
23.296783353576
 20
850.046703513492
 30
0.0
 11
23.37235839488
 21
849.985403324815
 31
0.0
  0
LINE
  5
E8D
330
1D
100
AcDbEntity
  8
0
100
AcDbLine
 10
23.182105633772
 20
850.156675876296
 30
0.0
 11
23.296783353576
 21
850.046703513492
 31
0.0
  0
LINE
  5
E8E
330
1D
100
AcDbEntity
  8
0
100
AcDbLine
 10
22.699993999845
 20
850.678434031414
 30
0.0
 11
22.874850350791
 21
850.481294115278
 31
0.0
  0
LINE
  5
E8F
330
1D
100
AcDbEntity
  8
0
100
AcDbLine
 10
22.630465009852
 20
850.966606288146
 30
0.0
 11
22.805234758257
 21
850.769516372011
 31
0.0
  0
LINE
  5
E90
330
1D
100
AcDbEntity
  8
0
100
AcDbLine
 10
22.805234758257
 20
850.769516372011
 30
0.0
 11
22.97145668819
 21
850.574821199988
 31
0.0
  0
LINE
  5
E91
330
1D
100
AcDbEntity
  8
0
100
AcDbLine
 10
23.617251566188
 20
850.15133782252
 30
0.0
 11
29.522805362919
 21
843.759832838394
 31
0.0
  0
LINE
  5
E92
330
1D
100
AcDbEntity
  8
0
100
AcDbLine
 10
23.617251566188
 20
850.15133782252
 30
0.0
 11
29.522805362919
 21
843.759832838394
 31
0.0
  0
LINE
  5
E93
330
1D
100
AcDbEntity
  8
0
100
AcDbLine
 10
23.124212404042
 20
850.389401860989
 30
0.0
 11
23.25009742314
 21
850.228041109979
 31
0.0
  0
LINE
  5
E94
330
1D
100
AcDbEntity
  8
0
100
AcDbLine
 10
22.97145668819
 20
850.574821199988
 30
0.0
 11
23.124212404042
 21
850.389401860989
 31
0.0
  0
LINE
  5
E95
330
1D
100
AcDbEntity
  8
0
100
AcDbLine
 10
22.874850350791
 20
850.481294115278
 30
0.0
 11
23.040657474953
 21
850.302080478585
 31
0.0
  0
LINE
  5
E96
330
1D
100
AcDbEntity
  8
0
100
AcDbLine
 10
22.533772069912
 20
850.873129203437
 30
0.0
 11
22.699993999845
 21
850.678434031414
 31
0.0
  0
LINE
  5
E97
330
1D
100
AcDbEntity
  8
0
100
AcDbLine
 10
21.586494471053
 20
851.641396273343
 30
0.0
 11
21.644549192959
 21
851.559150001303
 31
0.0
  0
LINE
  5
E98
330
1D
100
AcDbEntity
  8
0
100
AcDbLine
 10
22.160179190444
 20
851.350247354854
 30
0.0
 11
22.255131334962
 21
851.219909293446
 31
0.0
  0
LINE
  5
E99
330
1D
100
AcDbEntity
  8
0
100
AcDbLine
 10
22.32320972687
 20
851.291224527129
 30
0.0
 11
22.464571283149
 21
851.14586992484
 31
0.0
  0
LINE
  5
E9A
330
1D
100
AcDbEntity
  8
0
100
AcDbLine
 10
22.464571283149
 20
851.14586992484
 30
0.0
 11
22.630465009852
 21
850.966606288146
 31
0.0
  0
LINE
  5
E9B
330
1D
100
AcDbEntity
  8
0
100
AcDbLine
 10
22.255131334962
 20
851.219909293446
 30
0.0
 11
22.38101635406
 21
851.058548542436
 31
0.0
  0
LINE
  5
E9C
330
1D
100
AcDbEntity
  8
0
100
AcDbLine
 10
21.559238768748
 20
851.617988012154
 30
0.0
 11
21.630689643077
 21
851.546944556737
 31
0.0
  0
LINE
  5
E9D
330
1D
100
AcDbEntity
  8
0
100
AcDbLine
 10
21.356515706748
 20
851.933061368903
 30
0.0
 11
21.486318417299
 21
851.771286258539
 31
0.0
  0
LINE
  5
E9E
330
1D
100
AcDbEntity
  8
0
100
AcDbLine
 10
22.095925757232
 20
851.47775714397
 30
0.0
 11
22.281967423346
 21
851.639823870644
 31
0.0
  0
LINE
  5
E9F
330
1D
100
AcDbEntity
  8
0
100
AcDbLine
 10
22.095925757232
 20
851.47775714397
 30
0.0
 11
22.535159635705
 21
851.860387542931
 31
0.0
  0
LINE
  5
EA0
330
1D
100
AcDbEntity
  8
0
100
AcDbLine
 10
22.132870363222
 20
851.46254707861
 30
0.0
 11
22.208445404526
 21
851.401246889932
 31
0.0
  0
LINE
  5
EA1
330
1D
100
AcDbEntity
  8
0
100
AcDbLine
 10
22.208445404526
 20
851.401246889932
 30
0.0
 11
22.32320972687
 21
851.291224527129
 31
0.0
  0
LINE
  5
EA2
330
1D
100
AcDbEntity
  8
0
100
AcDbLine
 10
22.10425581519
 20
851.440385227584
 30
0.0
 11
22.160179190444
 21
851.350247354854
 31
0.0
  0
LINE
  5
EA3
330
1D
100
AcDbEntity
  8
0
100
AcDbLine
 10
21.314124363796
 20
851.886637409111
 30
0.0
 11
21.453790214069
 21
851.730945757865
 31
0.0
  0
LINE
  5
EA4
330
1D
100
AcDbEntity
  8
0
100
AcDbLine
 10
21.079401610091
 20
852.043285674
 30
0.0
 11
21.136170007615
 21
852.090917545572
 31
0.0
  0
LINE
  5
EA5
330
1D
100
AcDbEntity
  8
0
100
AcDbLine
 10
20.98570870716
 20
852.267004805816
 30
0.0
 11
21.152400252336
 21
852.071923031252
 31
0.0
  0
LINE
  5
EA6
330
1D
100
AcDbEntity
  8
0
100
AcDbLine
 10
21.205292041704
 20
852.117134297741
 30
0.0
 11
21.356515706748
 21
851.933061368903
 31
0.0
  0
LINE
  5
EA7
330
1D
100
AcDbEntity
  8
0
100
AcDbLine
 10
21.152400252336
 20
852.071923031252
 30
0.0
 11
21.314124363796
 21
851.886637409111
 31
0.0
  0
LINE
  5
EA8
330
1D
100
AcDbEntity
  8
0
100
AcDbLine
 10
20.994564460021
 20
852.144343419711
 30
0.0
 11
21.056279951443
 21
852.070837786467
 31
0.0
  0
LINE
  5
EA9
330
1D
100
AcDbEntity
  8
0
100
AcDbLine
 10
20.891664239292
 20
852.266915009298
 30
0.0
 11
20.994564460021
 21
852.144343419711
 31
0.0
  0
LINE
  5
EAA
330
1D
100
AcDbEntity
  8
0
100
AcDbLine
 10
20.820673379767
 20
852.463555233728
 30
0.0
 11
20.98570870716
 21
852.267004805816
 31
0.0
  0
LINE
  5
EAB
330
1D
100
AcDbEntity
  8
0
100
AcDbLine
 10
20.669449714724
 20
852.647628162565
 30
0.0
 11
20.820673379767
 21
852.463555233728
 31
0.0
  0
LINE
  5
EAC
330
1D
100
AcDbEntity
  8
0
100
AcDbLine
 10
20.873565169135
 20
852.508766500216
 30
0.0
 11
21.040256714311
 21
852.313684725652
 31
0.0
  0
LINE
  5
EAD
330
1D
100
AcDbEntity
  8
0
100
AcDbLine
 10
21.040256714311
 20
852.313684725652
 30
0.0
 11
21.205292041704
 21
852.117134297741
 31
0.0
  0
LINE
  5
EAE
330
1D
100
AcDbEntity
  8
0
100
AcDbLine
 10
20.755451978858
 20
852.429388453613
 30
0.0
 11
20.891664239292
 21
852.266915009298
 31
0.0
  0
LINE
  5
EAF
330
1D
100
AcDbEntity
  8
0
100
AcDbLine
 10
20.601163250305
 20
852.613152536723
 30
0.0
 11
20.755451978858
 21
852.429388453613
 31
0.0
  0
LINE
  5
EB0
330
1D
100
AcDbEntity
  8
0
100
AcDbLine
 10
22.078237166278
 20
851.885586514783
 30
0.0
 11
22.281967423346
 21
851.639823870644
 31
0.0
  0
LINE
  5
EB1
330
1D
100
AcDbEntity
  8
0
100
AcDbLine
 10
20.439470950418
 20
852.939293258126
 30
0.0
 11
20.539647004172
 21
852.80940327293
 31
0.0
  0
LINE
  5
EB2
330
1D
100
AcDbEntity
  8
0
100
AcDbLine
 10
20.539647004172
 20
852.80940327293
 30
0.0
 11
20.669449714724
 21
852.647628162565
 31
0.0
  0
LINE
  5
EB3
330
1D
100
AcDbEntity
  8
0
100
AcDbLine
 10
20.368289760393
 20
853.051403820459
 30
0.0
 11
20.870422764056
 21
853.476797642422
 31
0.0
  0
LINE
  5
EB4
330
1D
100
AcDbEntity
  8
0
100
AcDbLine
 10
20.381416228512
 20
853.021539530166
 30
0.0
 11
20.439470950418
 21
852.939293258126
 31
0.0
  0
LINE
  5
EB5
330
1D
100
AcDbEntity
  8
0
100
AcDbLine
 10
20.395239175854
 20
853.033881577272
 30
0.0
 11
20.466726652723
 21
852.962701519314
 31
0.0
  0
LINE
  5
EB6
330
1D
100
AcDbEntity
  8
0
100
AcDbLine
 10
20.466726652723
 20
852.962701519314
 30
0.0
 11
20.572225207402
 21
852.849830376144
 31
0.0
  0
LINE
  5
EB7
330
1D
100
AcDbEntity
  8
0
100
AcDbLine
 10
20.572225207402
 20
852.849830376144
 30
0.0
 11
20.711754455134
 21
852.694102122358
 31
0.0
  0
LINE
  5
EB8
330
1D
100
AcDbEntity
  8
0
100
AcDbLine
 10
20.711754455134
 20
852.694102122358
 30
0.0
 11
20.873565169135
 21
852.508766500216
 31
0.0
  0
LINE
  5
EB9
330
1D
100
AcDbEntity
  8
0
100
AcDbLine
 10
22.635260555601
 20
852.333312417035
 30
0.0
 11
22.74724730981
 21
852.184479165099
 31
0.0
  0
LINE
  5
EBA
330
1D
100
AcDbEntity
  8
0
100
AcDbLine
 10
22.824412738457
 20
854.850933608104
 30
0.0
 11
22.946098719449
 21
854.685299909752
 31
0.0
  0
LINE
  5
EBB
330
1D
100
AcDbEntity
  8
0
100
AcDbLine
 10
22.73728546507
 20
854.989224743872
 30
0.0
 11
22.824412738457
 21
854.850933608104
 31
0.0
  0
LINE
  5
EBC
330
1D
100
AcDbEntity
  8
0
100
AcDbLine
 10
22.97538336615
 20
855.000022405718
 30
0.0
 11
23.13113126723
 21
854.868185683561
 31
0.0
  0
LINE
  5
EBD
330
1D
100
AcDbEntity
  8
0
100
AcDbLine
 10
22.844849686302
 20
855.095131440123
 30
0.0
 11
22.97538336615
 21
855.000022405718
 31
0.0
  0
LINE
  5
EBE
330
1D
100
AcDbEntity
  8
0
100
AcDbLine
 10
22.748359135072
 20
855.144604902943
 30
0.0
 11
22.844849686302
 21
855.095131440123
 31
0.0
  0
LINE
  5
EBF
330
1D
100
AcDbEntity
  8
0
100
AcDbLine
 10
22.698315490977
 20
855.140126768773
 30
0.0
 11
22.696572343854
 21
855.085707549391
 31
0.0
  0
LINE
  5
EC0
330
1D
100
AcDbEntity
  8
0
100
AcDbLine
 10
22.698315490977
 20
855.140126768773
 30
0.0
 11
22.846613821931
 21
855.278227425385
 31
0.0
  0
LINE
  5
EC1
330
1D
100
AcDbEntity
  8
0
100
AcDbLine
 10
22.698315490977
 20
855.140126768773
 30
0.0
 11
22.748359135072
 21
855.144604902943
 31
0.0
  0
LINE
  5
EC2
330
1D
100
AcDbEntity
  8
0
100
AcDbLine
 10
22.696572343854
 20
855.085707549391
 30
0.0
 11
22.73728546507
 21
854.989224743872
 31
0.0
  0
LINE
  5
EC3
330
1D
100
AcDbEntity
  8
0
100
AcDbLine
 10
23.456899188001
 20
854.116032273812
 30
0.0
 11
23.630646504542
 21
853.951171453741
 31
0.0
  0
LINE
  5
EC4
330
1D
100
AcDbEntity
  8
0
100
AcDbLine
 10
23.278420336129
 20
854.299097834295
 30
0.0
 11
23.456899188001
 21
854.116032273812
 31
0.0
  0
LINE
  5
EC5
330
1D
100
AcDbEntity
  8
0
100
AcDbLine
 10
23.10198456232
 20
854.495302109784
 30
0.0
 11
23.278420336129
 21
854.299097834295
 31
0.0
  0
LINE
  5
EC6
330
1D
100
AcDbEntity
  8
0
100
AcDbLine
 10
22.946098719449
 20
854.685299909752
 30
0.0
 11
23.10198456232
 21
854.495302109784
 31
0.0
  0
LINE
  5
EC7
330
1D
100
AcDbEntity
  8
0
100
AcDbLine
 10
23.13113126723
 20
854.868185683561
 30
0.0
 11
23.304878583771
 21
854.703324863489
 31
0.0
  0
LINE
  5
EC8
330
1D
100
AcDbEntity
  8
0
100
AcDbLine
 10
23.304878583771
 20
854.703324863489
 30
0.0
 11
23.483270833102
 21
854.520309303007
 31
0.0
  0
LINE
  5
EC9
330
1D
100
AcDbEntity
  8
0
100
AcDbLine
 10
23.483270833102
 20
854.520309303007
 30
0.0
 11
23.659706606912
 21
854.324105027518
 31
0.0
  0
LINE
  5
ECA
330
1D
100
AcDbEntity
  8
0
100
AcDbLine
 10
22.73183029046
 20
852.426976104285
 30
0.0
 11
22.869965825036
 21
852.3092338685
 31
0.0
  0
LINE
  5
ECB
330
1D
100
AcDbEntity
  8
0
100
AcDbLine
 10
23.659706606912
 20
854.324105027518
 30
0.0
 11
23.815592449782
 21
854.13410722755
 31
0.0
  0
LINE
  5
ECC
330
1D
100
AcDbEntity
  8
0
100
AcDbLine
 10
23.630646504542
 20
853.951171453741
 30
0.0
 11
23.786394405622
 21
853.819334731584
 31
0.0
  0
LINE
  5
ECD
330
1D
100
AcDbEntity
  8
0
100
AcDbLine
 10
23.815592449782
 20
854.13410722755
 30
0.0
 11
23.937365033315
 21
853.968423529198
 31
0.0
  0
LINE
  5
ECE
330
1D
100
AcDbEntity
  8
0
100
AcDbLine
 10
22.624368526999
 20
852.505646870099
 30
0.0
 11
22.73183029046
 21
852.426976104285
 31
0.0
  0
LINE
  5
ECF
330
1D
100
AcDbEntity
  8
0
100
AcDbLine
 10
22.556189826796
 20
852.537157897353
 30
0.0
 11
23.038797379138
 21
852.988936083714
 31
0.0
  0
LINE
  5
ED0
330
1D
100
AcDbEntity
  8
0
100
AcDbLine
 10
22.556189826796
 20
852.537157897353
 30
0.0
 11
22.624368526999
 21
852.505646870099
 31
0.0
  0
LINE
  5
ED1
330
1D
100
AcDbEntity
  8
0
100
AcDbLine
 10
22.537049892156
 20
852.514606558103
 30
0.0
 11
22.565648018924
 21
852.443939966666
 31
0.0
  0
LINE
  5
ED2
330
1D
100
AcDbEntity
  8
0
100
AcDbLine
 10
22.565648018924
 20
852.443939966666
 30
0.0
 11
22.635260555601
 21
852.333312417035
 31
0.0
  0
LINE
  5
ED3
330
1D
100
AcDbEntity
  8
0
100
AcDbLine
 10
23.415990354492
 20
851.449776095697
 30
0.0
 11
23.57967671284
 21
851.295689184861
 31
0.0
  0
LINE
  5
ED4
330
1D
100
AcDbEntity
  8
0
100
AcDbLine
 10
23.240407655043
 20
851.625857939321
 30
0.0
 11
23.415990354492
 21
851.449776095697
 31
0.0
  0
LINE
  5
ED5
330
1D
100
AcDbEntity
  8
0
100
AcDbLine
 10
23.058663997401
 20
851.819468690332
 30
0.0
 11
23.240407655043
 21
851.625857939321
 31
0.0
  0
LINE
  5
ED6
330
1D
100
AcDbEntity
  8
0
100
AcDbLine
 10
23.57967671284
 20
851.295689184861
 30
0.0
 11
23.717862247415
 21
851.178033551617
 31
0.0
  0
LINE
  5
ED7
330
1D
100
AcDbEntity
  8
0
100
AcDbLine
 10
23.717862247415
 20
851.178033551617
 30
0.0
 11
23.825274010876
 21
851.099276183262
 31
0.0
  0
LINE
  5
ED8
330
1D
100
AcDbEntity
  8
0
100
AcDbLine
 10
23.825274010876
 20
851.099276183262
 30
0.0
 11
23.893502711079
 21
851.067851758548
 31
0.0
  0
LINE
  5
ED9
330
1D
100
AcDbEntity
  8
0
100
AcDbLine
 10
23.893502711079
 20
851.067851758548
 30
0.0
 11
24.313235141427
 21
851.460771337239
 31
0.0
  0
LINE
  5
EDA
330
1D
100
AcDbEntity
  8
0
100
AcDbLine
 10
23.883994518952
 20
851.160983086696
 30
0.0
 11
23.91259264572
 21
851.090316495258
 31
0.0
  0
LINE
  5
EDB
330
1D
100
AcDbEntity
  8
0
100
AcDbLine
 10
23.814381982275
 20
851.271610636326
 30
0.0
 11
23.883994518952
 21
851.160983086696
 31
0.0
  0
LINE
  5
EDC
330
1D
100
AcDbEntity
  8
0
100
AcDbLine
 10
23.702308625526
 20
851.420493888262
 30
0.0
 11
23.814381982275
 21
851.271610636326
 31
0.0
  0
LINE
  5
EDD
330
1D
100
AcDbEntity
  8
0
100
AcDbLine
 10
22.889083221741
 20
852.011946170902
 30
0.0
 11
23.058663997401
 21
851.819468690332
 31
0.0
  0
LINE
  5
EDE
330
1D
100
AcDbEntity
  8
0
100
AcDbLine
 10
22.74724730981
 20
852.184479165099
 30
0.0
 11
22.889083221741
 21
852.011946170902
 31
0.0
  0
LINE
  5
EDF
330
1D
100
AcDbEntity
  8
0
100
AcDbLine
 10
23.786394405622
 20
853.819334731584
 30
0.0
 11
23.916841482929
 21
853.724275697179
 31
0.0
  0
LINE
  5
EE0
330
1D
100
AcDbEntity
  8
0
100
AcDbLine
 10
23.916841482929
 20
853.724275697179
 30
0.0
 11
24.013332034159
 21
853.674802234359
 31
0.0
  0
LINE
  5
EE1
330
1D
100
AcDbEntity
  8
0
100
AcDbLine
 10
24.013332034159
 20
853.674802234359
 30
0.0
 11
24.063375678255
 21
853.679280368528
 31
0.0
  0
LINE
  5
EE2
330
1D
100
AcDbEntity
  8
0
100
AcDbLine
 10
24.065205427918
 20
853.73364958791
 30
0.0
 11
24.063375678255
 21
853.679280368528
 31
0.0
  0
LINE
  5
EE3
330
1D
100
AcDbEntity
  8
0
100
AcDbLine
 10
24.063375678255
 20
853.679280368528
 30
0.0
 11
24.659282888242
 21
854.234264067675
 31
0.0
  0
LINE
  5
EE4
330
1D
100
AcDbEntity
  8
0
100
AcDbLine
 10
24.024405704162
 20
853.830182393429
 30
0.0
 11
24.065205427918
 21
853.73364958791
 31
0.0
  0
LINE
  5
EE5
330
1D
100
AcDbEntity
  8
0
100
AcDbLine
 10
23.937365033315
 20
853.968423529198
 30
0.0
 11
24.024405704162
 21
853.830182393429
 31
0.0
  0
LINE
  5
EE6
330
1D
100
AcDbEntity
  8
0
100
AcDbLine
 10
22.869965825036
 20
852.3092338685
 30
0.0
 11
23.033652183384
 21
852.155146957665
 31
0.0
  0
LINE
  5
EE7
330
1D
100
AcDbEntity
  8
0
100
AcDbLine
 10
23.033652183384
 20
852.155146957665
 30
0.0
 11
23.209234882833
 21
851.97906511404
 31
0.0
  0
LINE
  5
EE8
330
1D
100
AcDbEntity
  8
0
100
AcDbLine
 10
23.209234882833
 20
851.97906511404
 30
0.0
 11
23.390978540475
 21
851.785454363029
 31
0.0
  0
LINE
  5
EE9
330
1D
100
AcDbEntity
  8
0
100
AcDbLine
 10
23.390978540475
 20
851.785454363029
 30
0.0
 11
23.560522713594
 21
851.593113485
 31
0.0
  0
LINE
  5
EEA
330
1D
100
AcDbEntity
  8
0
100
AcDbLine
 10
27.832734230206
 20
853.945000892452
 30
0.0
 11
28.010825775381
 21
853.769664497094
 31
0.0
  0
LINE
  5
EEB
330
1D
100
AcDbEntity
  8
0
100
AcDbLine
 10
27.661794608819
 20
854.138724783183
 30
0.0
 11
27.832734230206
 21
853.945000892452
 31
0.0
  0
LINE
  5
EEC
330
1D
100
AcDbEntity
  8
0
100
AcDbLine
 10
27.506107357638
 20
854.345466554046
 30
0.0
 11
27.661794608819
 21
854.138724783183
 31
0.0
  0
LINE
  5
EED
330
1D
100
AcDbEntity
  8
0
100
AcDbLine
 10
27.382723111756
 20
854.544758771326
 30
0.0
 11
27.506107357638
 21
854.345466554046
 31
0.0
  0
LINE
  5
EEE
330
1D
100
AcDbEntity
  8
0
100
AcDbLine
 10
28.010825775381
 20
853.769664497094
 30
0.0
 11
28.184244184537
 21
853.628433992719
 31
0.0
  0
LINE
  5
EEF
330
1D
100
AcDbEntity
  8
0
100
AcDbLine
 10
28.184244184537
 20
853.628433992719
 30
0.0
 11
28.342936383312
 21
853.525496943762
 31
0.0
  0
LINE
  5
EF0
330
1D
100
AcDbEntity
  8
0
100
AcDbLine
 10
28.342936383312
 20
853.525496943762
 30
0.0
 11
28.47827346432
 21
853.470107644217
 31
0.0
  0
LINE
  5
EF1
330
1D
100
AcDbEntity
  8
0
100
AcDbLine
 10
27.301566930983
 20
854.717592142879
 30
0.0
 11
27.382723111756
 21
854.544758771326
 31
0.0
  0
LINE
  5
EF2
330
1D
100
AcDbEntity
  8
0
100
AcDbLine
 10
27.260492405157
 20
854.861048977251
 30
0.0
 11
27.301566930983
 21
854.717592142879
 31
0.0
  0
LINE
  5
EF3
330
1D
100
AcDbEntity
  8
0
100
AcDbLine
 10
28.232344516295
 20
854.346946211185
 30
0.0
 11
28.388118370017
 21
854.140154440322
 31
0.0
  0
LINE
  5
EF4
330
1D
100
AcDbEntity
  8
0
100
AcDbLine
 10
28.388118370017
 20
854.140154440322
 30
0.0
 11
28.511416013358
 21
853.940912223043
 31
0.0
  0
LINE
  5
EF5
330
1D
100
AcDbEntity
  8
0
100
AcDbLine
 10
28.511416013358
 20
853.940912223043
 30
0.0
 11
28.592658796671
 21
853.76802885149
 31
0.0
  0
LINE
  5
EF6
330
1D
100
AcDbEntity
  8
0
100
AcDbLine
 10
28.47827346432
 20
853.470107644217
 30
0.0
 11
28.574593765213
 21
853.471539299164
 31
0.0
  0
LINE
  5
EF7
330
1D
100
AcDbEntity
  8
0
100
AcDbLine
 10
28.574593765213
 20
853.471539299164
 30
0.0
 11
29.232538306677
 21
854.041669456258
 31
0.0
  0
LINE
  5
EF8
330
1D
100
AcDbEntity
  8
0
100
AcDbLine
 10
28.574593765213
 20
853.471539299164
 30
0.0
 11
28.625292991997
 21
853.525752935857
 31
0.0
  0
LINE
  5
EF9
330
1D
100
AcDbEntity
  8
0
100
AcDbLine
 10
28.633646719957
 20
853.624622017117
 30
0.0
 11
28.625292991997
 21
853.525752935857
 31
0.0
  0
LINE
  5
EFA
330
1D
100
AcDbEntity
  8
0
100
AcDbLine
 10
28.592658796671
 20
853.76802885149
 30
0.0
 11
28.633646719957
 21
853.624622017117
 31
0.0
  0
LINE
  5
EFB
330
1D
100
AcDbEntity
  8
0
100
AcDbLine
 10
27.883449952273
 20
854.716043099815
 30
0.0
 11
28.061454894908
 21
854.540756704457
 31
0.0
  0
LINE
  5
EFC
330
1D
100
AcDbEntity
  8
0
100
AcDbLine
 10
28.061454894908
 20
854.540756704457
 30
0.0
 11
28.232344516295
 21
854.346946211185
 31
0.0
  0
LINE
  5
EFD
330
1D
100
AcDbEntity
  8
0
100
AcDbLine
 10
27.709894940577
 20
854.857237001649
 30
0.0
 11
27.883449952273
 21
854.716043099815
 31
0.0
  0
LINE
  5
EFE
330
1D
100
AcDbEntity
  8
0
100
AcDbLine
 10
27.551289344343
 20
854.960124050606
 30
0.0
 11
27.709894940577
 21
854.857237001649
 31
0.0
  0
LINE
  5
EFF
330
1D
100
AcDbEntity
  8
0
100
AcDbLine
 10
27.415952263334
 20
855.015513350152
 30
0.0
 11
27.551289344343
 21
854.960124050606
 31
0.0
  0
LINE
  5
F00
330
1D
100
AcDbEntity
  8
0
100
AcDbLine
 10
27.319545359901
 20
855.014131695205
 30
0.0
 11
27.961956030308
 21
855.570856708322
 31
0.0
  0
LINE
  5
F01
330
1D
100
AcDbEntity
  8
0
100
AcDbLine
 10
27.319545359901
 20
855.014131695205
 30
0.0
 11
27.415952263334
 21
855.015513350152
 31
0.0
  0
LINE
  5
F02
330
1D
100
AcDbEntity
  8
0
100
AcDbLine
 10
27.268932735658
 20
854.959868058511
 30
0.0
 11
27.260492405157
 21
854.861048977251
 31
0.0
  0
LINE
  5
F03
330
1D
100
AcDbEntity
  8
0
100
AcDbLine
 10
27.268932735658
 20
854.959868058511
 30
0.0
 11
27.319545359901
 21
855.014131695205
 31
0.0
  0
LINE
  5
F04
330
1D
100
AcDbEntity
  8
0
100
AcDbLine
 10
23.560522713594
 20
851.593113485
 30
0.0
 11
23.702308625526
 21
851.420493888262
 31
0.0
  0
LINE
  5
F05
330
1D
100
AcDbEntity
  8
0
100
AcDbLine
 10
20.436597538155
 20
852.809316362095
 30
0.0
 11
20.601163250305
 21
852.613152536723
 31
0.0
  0
LINE
  5
F06
330
1D
100
AcDbEntity
  8
0
100
AcDbLine
 10
20.272118428544
 20
853.005430187466
 30
0.0
 11
20.436597538155
 21
852.809316362095
 31
0.0
  0
LINE
  5
F07
330
1D
100
AcDbEntity
  8
0
100
AcDbLine
 10
18.35635723413
 20
862.314834463572
 30
0.0
 11
18.517146855517
 21
862.103530257143
 31
0.0
  0
LINE
  5
F08
330
1D
100
AcDbEntity
  8
0
100
AcDbLine
 10
9.480674602153
 20
867.445101193131
 30
0.0
 11
9.640954673658
 21
867.244714420418
 31
0.0
  0
LINE
  5
F09
330
1D
100
AcDbEntity
  8
0
100
AcDbLine
 10
19.205151875801
 20
861.844989908138
 30
0.0
 11
19.241174031422
 21
861.706182111871
 31
0.0
  0
LINE
  5
F0A
330
1D
100
AcDbEntity
  8
0
100
AcDbLine
 10
9.324652156742
 20
867.635062390558
 30
0.0
 11
9.480674602153
 21
867.445101193131
 31
0.0
  0
LINE
  5
F0B
330
1D
100
AcDbEntity
  8
0
100
AcDbLine
 10
9.270097674071
 20
867.57857125479
 30
0.0
 11
9.414350057822
 21
867.388823712561
 31
0.0
  0
LINE
  5
F0C
330
1D
100
AcDbEntity
  8
0
100
AcDbLine
 10
9.173814371579
 20
867.671803682954
 30
0.0
 11
9.232890632515
 21
867.596126768417
 31
0.0
  0
LINE
  5
F0D
330
1D
100
AcDbEntity
  8
0
100
AcDbLine
 10
8.998559378387
 20
867.966053130466
 30
0.0
 11
9.052282049486
 21
867.880303526327
 31
0.0
  0
LINE
  5
F0E
330
1D
100
AcDbEntity
  8
0
100
AcDbLine
 10
9.052282049486
 20
867.880303526327
 30
0.0
 11
9.14675643719
 21
867.745737965845
 31
0.0
  0
LINE
  5
F0F
330
1D
100
AcDbEntity
  8
0
100
AcDbLine
 10
8.988022140752
 20
867.998002099511
 30
0.0
 11
9.425806456406
 21
868.344176727824
 31
0.0
  0
LINE
  5
F10
330
1D
100
AcDbEntity
  8
0
100
AcDbLine
 10
9.016004568916
 20
867.981269086809
 30
0.0
 11
9.086509033083
 21
867.909386400907
 31
0.0
  0
LINE
  5
F11
330
1D
100
AcDbEntity
  8
0
100
AcDbLine
 10
9.086509033083
 20
867.909386400907
 30
0.0
 11
9.189318357278
 21
867.794257373904
 31
0.0
  0
LINE
  5
F12
330
1D
100
AcDbEntity
  8
0
100
AcDbLine
 10
9.189318357278
 20
867.794257373904
 30
0.0
 11
9.324652156742
 21
867.635062390558
 31
0.0
  0
LINE
  5
F13
330
1D
100
AcDbEntity
  8
0
100
AcDbLine
 10
18.214651776018
 20
862.530593410411
 30
0.0
 11
18.35635723413
 21
862.314834463572
 31
0.0
  0
LINE
  5
F14
330
1D
100
AcDbEntity
  8
0
100
AcDbLine
 10
18.10442682228
 20
862.729678190275
 30
0.0
 11
18.214651776018
 21
862.530593410411
 31
0.0
  0
LINE
  5
F15
330
1D
100
AcDbEntity
  8
0
100
AcDbLine
 10
19.016443946371
 20
862.221138186574
 30
0.0
 11
19.126668900109
 21
862.02205340671
 31
0.0
  0
LINE
  5
F16
330
1D
100
AcDbEntity
  8
0
100
AcDbLine
 10
19.126668900109
 20
862.02205340671
 30
0.0
 11
19.205151875801
 21
861.844989908138
 31
0.0
  0
LINE
  5
F17
330
1D
100
AcDbEntity
  8
0
100
AcDbLine
 10
9.075332804197
 20
867.79782860464
 30
0.0
 11
9.173814371579
 21
867.671803682954
 31
0.0
  0
LINE
  5
F18
330
1D
100
AcDbEntity
  8
0
100
AcDbLine
 10
8.944772209813
 20
867.964891021701
 30
0.0
 11
9.075332804197
 21
867.79782860464
 31
0.0
  0
LINE
  5
F19
330
1D
100
AcDbEntity
  8
0
100
AcDbLine
 10
18.026030449128
 20
862.906691688847
 30
0.0
 11
18.10442682228
 21
862.729678190275
 31
0.0
  0
LINE
  5
F1A
330
1D
100
AcDbEntity
  8
0
100
AcDbLine
 10
18.714035469412
 20
862.648151339841
 30
0.0
 11
18.874738488258
 21
862.436897133413
 31
0.0
  0
LINE
  5
F1B
330
1D
100
AcDbEntity
  8
0
100
AcDbLine
 10
18.874738488258
 20
862.436897133413
 30
0.0
 11
19.016443946371
 21
862.221138186574
 31
0.0
  0
LINE
  5
F1C
330
1D
100
AcDbEntity
  8
0
100
AcDbLine
 10
17.990058293507
 20
863.045586087654
 30
0.0
 11
18.026030449128
 21
862.906691688847
 31
0.0
  0
LINE
  5
F1D
330
1D
100
AcDbEntity
  8
0
100
AcDbLine
 10
8.797031557471
 20
868.153996705501
 30
0.0
 11
8.944772209813
 21
867.964891021701
 31
0.0
  0
LINE
  5
F1E
330
1D
100
AcDbEntity
  8
0
100
AcDbLine
 10
8.639387126613
 20
868.355748541724
 30
0.0
 11
8.797031557471
 21
868.153996705501
 31
0.0
  0
LINE
  5
F1F
330
1D
100
AcDbEntity
  8
0
100
AcDbLine
 10
4.166658996785
 20
875.29395617242
 30
0.0
 11
4.190732510161
 21
875.232252720703
 31
0.0
  0
LINE
  5
F20
330
1D
100
AcDbEntity
  8
0
100
AcDbLine
 10
4.183723664434
 20
875.223713043802
 30
0.0
 11
4.249580940545
 21
875.26195319667
 31
0.0
  0
LINE
  5
F21
330
1D
100
AcDbEntity
  8
0
100
AcDbLine
 10
5.699922391588
 20
873.604246273603
 30
0.0
 11
5.828499080436
 21
873.473547631358
 31
0.0
  0
LINE
  5
F22
330
1D
100
AcDbEntity
  8
0
100
AcDbLine
 10
5.557385517762
 20
873.772565166185
 30
0.0
 11
5.699922391588
 21
873.604246273603
 31
0.0
  0
LINE
  5
F23
330
1D
100
AcDbEntity
  8
0
100
AcDbLine
 10
5.95992211052
 20
873.385324425063
 30
0.0
 11
6.866538161554
 21
871.848284060096
 31
0.0
  0
LINE
  5
F24
330
1D
100
AcDbEntity
  8
0
100
AcDbLine
 10
5.95992211052
 20
873.385324425063
 30
0.0
 11
6.866538161554
 21
871.848284060096
 31
0.0
  0
LINE
  5
F25
330
1D
100
AcDbEntity
  8
0
100
AcDbLine
 10
5.931573537202
 20
873.395677827438
 30
0.0
 11
6.006146723778
 21
873.36844237547
 31
0.0
  0
LINE
  5
F26
330
1D
100
AcDbEntity
  8
0
100
AcDbLine
 10
6.866538161554
 20
871.848284060096
 30
0.0
 11
8.524251206137
 21
869.489154511942
 31
0.0
  0
LINE
  5
F27
330
1D
100
AcDbEntity
  8
0
100
AcDbLine
 10
8.476774734344
 20
871.143895616374
 30
0.0
 11
8.61936160817
 21
870.975663326333
 31
0.0
  0
LINE
  5
F28
330
1D
100
AcDbEntity
  8
0
100
AcDbLine
 10
8.324274789858
 20
871.347757964373
 30
0.0
 11
8.476774734344
 21
871.143895616374
 31
0.0
  0
LINE
  5
F29
330
1D
100
AcDbEntity
  8
0
100
AcDbLine
 10
8.176874141218
 20
871.568652551859
 30
0.0
 11
8.324274789858
 21
871.347757964373
 31
0.0
  0
LINE
  5
F2A
330
1D
100
AcDbEntity
  8
0
100
AcDbLine
 10
8.048501180329
 20
871.784104061282
 30
0.0
 11
8.176874141218
 21
871.568652551859
 31
0.0
  0
LINE
  5
F2B
330
1D
100
AcDbEntity
  8
0
100
AcDbLine
 10
7.941578854535
 20
871.986709160544
 30
0.0
 11
8.048501180329
 21
871.784104061282
 31
0.0
  0
LINE
  5
F2C
330
1D
100
AcDbEntity
  8
0
100
AcDbLine
 10
7.867222416024
 20
872.160120031171
 30
0.0
 11
7.941578854535
 21
871.986709160544
 31
0.0
  0
LINE
  5
F2D
330
1D
100
AcDbEntity
  8
0
100
AcDbLine
 10
7.825772761328
 20
872.297327123283
 30
0.0
 11
7.867222416024
 21
872.160120031171
 31
0.0
  0
LINE
  5
F2E
330
1D
100
AcDbEntity
  8
0
100
AcDbLine
 10
8.311096025553
 20
872.014931675015
 30
0.0
 11
8.463682572579
 21
871.811019327016
 31
0.0
  0
LINE
  5
F2F
330
1D
100
AcDbEntity
  8
0
100
AcDbLine
 10
8.463682572579
 20
871.811019327016
 30
0.0
 11
8.61113322122
 21
871.590211342071
 31
0.0
  0
LINE
  5
F30
330
1D
100
AcDbEntity
  8
0
100
AcDbLine
 10
8.61113322122
 20
871.590211342071
 30
0.0
 11
8.739506182108
 21
871.374759832648
 31
0.0
  0
LINE
  5
F31
330
1D
100
AcDbEntity
  8
0
100
AcDbLine
 10
8.747888297018
 20
870.844878081547
 30
0.0
 11
8.851012753784
 21
870.767094880167
 31
0.0
  0
LINE
  5
F32
330
1D
100
AcDbEntity
  8
0
100
AcDbLine
 10
8.851012753784
 20
870.767094880167
 30
0.0
 11
8.92558594036
 21
870.739859428199
 31
0.0
  0
LINE
  5
F33
330
1D
100
AcDbEntity
  8
0
100
AcDbLine
 10
8.92558594036
 20
870.739859428199
 30
0.0
 11
8.96490741033
 21
870.770966212015
 31
0.0
  0
LINE
  5
F34
330
1D
100
AcDbEntity
  8
0
100
AcDbLine
 10
8.92558594036
 20
870.739859428199
 30
0.0
 11
9.271511024508
 21
870.969209020477
 31
0.0
  0
LINE
  5
F35
330
1D
100
AcDbEntity
  8
0
100
AcDbLine
 10
8.96223460111
 20
870.861536770647
 30
0.0
 11
8.96490741033
 21
870.770966212015
 31
0.0
  0
LINE
  5
F36
330
1D
100
AcDbEntity
  8
0
100
AcDbLine
 10
8.920648343874
 20
870.998707260218
 30
0.0
 11
8.96223460111
 21
870.861536770647
 31
0.0
  0
LINE
  5
F37
330
1D
100
AcDbEntity
  8
0
100
AcDbLine
 10
8.846378507902
 20
871.172068130846
 30
0.0
 11
8.920648343874
 21
870.998707260218
 31
0.0
  0
LINE
  5
F38
330
1D
100
AcDbEntity
  8
0
100
AcDbLine
 10
8.61936160817
 20
870.975663326333
 30
0.0
 11
8.747888297018
 21
870.844878081547
 31
0.0
  0
LINE
  5
F39
330
1D
100
AcDbEntity
  8
0
100
AcDbLine
 10
8.739506182108
 20
871.374759832648
 30
0.0
 11
8.846378507902
 21
871.172068130846
 31
0.0
  0
LINE
  5
F3A
330
1D
100
AcDbEntity
  8
0
100
AcDbLine
 10
7.823099952108
 20
872.387897681915
 30
0.0
 11
7.825772761328
 21
872.297327123283
 31
0.0
  0
LINE
  5
F3B
330
1D
100
AcDbEntity
  8
0
100
AcDbLine
 10
7.823099952108
 20
872.387897681915
 30
0.0
 11
7.862334819537
 21
872.41905446573
 31
0.0
  0
LINE
  5
F3C
330
1D
100
AcDbEntity
  8
0
100
AcDbLine
 10
7.936994608654
 20
872.391769013763
 30
0.0
 11
8.039982462879
 21
872.313949209842
 31
0.0
  0
LINE
  5
F3D
330
1D
100
AcDbEntity
  8
0
100
AcDbLine
 10
7.862334819537
 20
872.41905446573
 30
0.0
 11
8.204720299787
 21
872.646057287716
 31
0.0
  0
LINE
  5
F3E
330
1D
100
AcDbEntity
  8
0
100
AcDbLine
 10
7.862334819537
 20
872.41905446573
 30
0.0
 11
7.936994608654
 21
872.391769013763
 31
0.0
  0
LINE
  5
F3F
330
1D
100
AcDbEntity
  8
0
100
AcDbLine
 10
8.039982462879
 20
872.313949209842
 30
0.0
 11
8.168559151727
 21
872.183250567597
 31
0.0
  0
LINE
  5
F40
330
1D
100
AcDbEntity
  8
0
100
AcDbLine
 10
8.168559151727
 20
872.183250567597
 30
0.0
 11
8.311096025553
 21
872.014931675015
 31
0.0
  0
LINE
  5
F41
330
1D
100
AcDbEntity
  8
0
100
AcDbLine
 10
6.006146723778
 20
873.36844237547
 30
0.0
 11
6.045518193747
 21
873.399635761827
 31
0.0
  0
LINE
  5
F42
330
1D
100
AcDbEntity
  8
0
100
AcDbLine
 10
6.006146723778
 20
873.36844237547
 30
0.0
 11
6.69747505583
 21
873.826795580694
 31
0.0
  0
LINE
  5
F43
330
1D
100
AcDbEntity
  8
0
100
AcDbLine
 10
6.042845384527
 20
873.490206320458
 30
0.0
 11
6.045518193747
 21
873.399635761827
 31
0.0
  0
LINE
  5
F44
330
1D
100
AcDbEntity
  8
0
100
AcDbLine
 10
6.001345729832
 20
873.627326810029
 30
0.0
 11
6.042845384527
 21
873.490206320458
 31
0.0
  0
LINE
  5
F45
330
1D
100
AcDbEntity
  8
0
100
AcDbLine
 10
5.828499080436
 20
873.473547631358
 30
0.0
 11
5.931573537202
 21
873.395677827438
 31
0.0
  0
LINE
  5
F46
330
1D
100
AcDbEntity
  8
0
100
AcDbLine
 10
5.92698929132
 20
873.800737680657
 30
0.0
 11
6.001345729832
 21
873.627326810029
 31
0.0
  0
LINE
  5
F47
330
1D
100
AcDbEntity
  8
0
100
AcDbLine
 10
5.820116965526
 20
874.003429382459
 30
0.0
 11
5.92698929132
 21
873.800737680657
 31
0.0
  0
LINE
  5
F48
330
1D
100
AcDbEntity
  8
0
100
AcDbLine
 10
5.404885573276
 20
873.976427514185
 30
0.0
 11
5.557385517762
 21
873.772565166185
 31
0.0
  0
LINE
  5
F49
330
1D
100
AcDbEntity
  8
0
100
AcDbLine
 10
5.257484924635
 20
874.19732210167
 30
0.0
 11
5.404885573276
 21
873.976427514185
 31
0.0
  0
LINE
  5
F4A
330
1D
100
AcDbEntity
  8
0
100
AcDbLine
 10
5.691694004638
 20
874.218794289342
 30
0.0
 11
5.820116965526
 21
874.003429382459
 31
0.0
  0
LINE
  5
F4B
330
1D
100
AcDbEntity
  8
0
100
AcDbLine
 10
5.129061963747
 20
874.412687008553
 30
0.0
 11
5.257484924635
 21
874.19732210167
 31
0.0
  0
LINE
  5
F4C
330
1D
100
AcDbEntity
  8
0
100
AcDbLine
 10
5.022189637953
 20
874.615378710355
 30
0.0
 11
5.129061963747
 21
874.412687008553
 31
0.0
  0
LINE
  5
F4D
330
1D
100
AcDbEntity
  8
0
100
AcDbLine
 10
4.590744885253
 20
874.87209447802
 30
0.0
 11
4.953062775264
 21
875.092313219679
 31
0.0
  0
LINE
  5
F4E
330
1D
100
AcDbEntity
  8
0
100
AcDbLine
 10
4.590744885253
 20
874.87209447802
 30
0.0
 11
5.189962834288
 21
875.236302336241
 31
0.0
  0
LINE
  5
F4F
330
1D
100
AcDbEntity
  8
0
100
AcDbLine
 10
4.534047978119
 20
874.908292554231
 30
0.0
 11
4.590744885253
 21
874.87209447802
 31
0.0
  0
LINE
  5
F50
330
1D
100
AcDbEntity
  8
0
100
AcDbLine
 10
4.605053611363
 20
874.965677918633
 30
0.0
 11
4.616186228204
 21
874.889160176624
 31
0.0
  0
LINE
  5
F51
330
1D
100
AcDbEntity
  8
0
100
AcDbLine
 10
5.544293355997
 20
874.439688876827
 30
0.0
 11
5.691694004638
 21
874.218794289342
 31
0.0
  0
LINE
  5
F52
330
1D
100
AcDbEntity
  8
0
100
AcDbLine
 10
4.555966649972
 20
875.098056807514
 30
0.0
 11
4.605053611363
 21
874.965677918633
 31
0.0
  0
LINE
  5
F53
330
1D
100
AcDbEntity
  8
0
100
AcDbLine
 10
4.947833199441
 20
874.788789580982
 30
0.0
 11
5.022189637953
 21
874.615378710355
 31
0.0
  0
LINE
  5
F54
330
1D
100
AcDbEntity
  8
0
100
AcDbLine
 10
4.334080995779
 20
875.143139580982
 30
0.0
 11
4.445127815348
 21
875.003278314494
 31
0.0
  0
LINE
  5
F55
330
1D
100
AcDbEntity
  8
0
100
AcDbLine
 10
4.445127815348
 20
875.003278314494
 30
0.0
 11
4.534047978119
 21
874.908292554231
 31
0.0
  0
LINE
  5
F56
330
1D
100
AcDbEntity
  8
0
100
AcDbLine
 10
4.249580940545
 20
875.26195319667
 30
0.0
 11
4.334080995779
 21
875.143139580982
 31
0.0
  0
LINE
  5
F57
330
1D
100
AcDbEntity
  8
0
100
AcDbLine
 10
8.023708372224
 20
869.143761657982
 30
0.0
 11
8.50523949597
 21
869.519984434419
 31
0.0
  0
LINE
  5
F58
330
1D
100
AcDbEntity
  8
0
100
AcDbLine
 10
8.105009881647
 20
869.039780003034
 30
0.0
 11
8.203578051569
 21
868.913705081348
 31
0.0
  0
LINE
  5
F59
330
1D
100
AcDbEntity
  8
0
100
AcDbLine
 10
8.04593362071
 20
869.115456917571
 30
0.0
 11
8.105009881647
 21
869.039780003034
 31
0.0
  0
LINE
  5
F5A
330
1D
100
AcDbEntity
  8
0
100
AcDbLine
 10
8.203578051569
 20
868.913705081348
 30
0.0
 11
8.334002043412
 21
868.746606061747
 31
0.0
  0
LINE
  5
F5B
330
1D
100
AcDbEntity
  8
0
100
AcDbLine
 10
18.551052512224
 20
862.834856577225
 30
0.0
 11
18.714035469412
 21
862.648151339841
 31
0.0
  0
LINE
  5
F5C
330
1D
100
AcDbEntity
  8
0
100
AcDbLine
 10
18.392084807224
 20
862.992916435402
 30
0.0
 11
18.551052512224
 21
862.834856577225
 31
0.0
  0
LINE
  5
F5D
330
1D
100
AcDbEntity
  8
0
100
AcDbLine
 10
18.249180619301
 20
863.106599121304
 30
0.0
 11
18.392084807224
 21
862.992916435402
 31
0.0
  0
LINE
  5
F5E
330
1D
100
AcDbEntity
  8
0
100
AcDbLine
 10
18.129169113578
 20
863.1747330959
 30
0.0
 11
18.249180619301
 21
863.106599121304
 31
0.0
  0
LINE
  5
F5F
330
1D
100
AcDbEntity
  8
0
100
AcDbLine
 10
18.03994977458
 20
863.188600667737
 30
0.0
 11
18.685090843605
 21
863.671416163516
 31
0.0
  0
LINE
  5
F60
330
1D
100
AcDbEntity
  8
0
100
AcDbLine
 10
18.03994977458
 20
863.188600667737
 30
0.0
 11
18.129169113578
 21
863.1747330959
 31
0.0
  0
LINE
  5
F61
330
1D
100
AcDbEntity
  8
0
100
AcDbLine
 10
17.993021124933
 20
863.142717862218
 30
0.0
 11
17.990058293507
 21
863.045586087654
 31
0.0
  0
LINE
  5
F62
330
1D
100
AcDbEntity
  8
0
100
AcDbLine
 10
17.993021124933
 20
863.142717862218
 30
0.0
 11
18.03994977458
 21
863.188600667737
 31
0.0
  0
LINE
  5
F63
330
1D
100
AcDbEntity
  8
0
100
AcDbLine
 10
12.839053303329
 20
867.176183734624
 30
0.0
 11
12.998107610869
 21
867.018073876447
 31
0.0
  0
LINE
  5
F64
330
1D
100
AcDbEntity
  8
0
100
AcDbLine
 10
12.676156948682
 20
867.362838972008
 30
0.0
 11
12.839053303329
 21
867.176183734624
 31
0.0
  0
LINE
  5
F65
330
1D
100
AcDbEntity
  8
0
100
AcDbLine
 10
12.515367327295
 20
867.574143178436
 30
0.0
 11
12.676156948682
 21
867.362838972008
 31
0.0
  0
LINE
  5
F66
330
1D
100
AcDbEntity
  8
0
100
AcDbLine
 10
12.373661869182
 20
867.789902125275
 30
0.0
 11
12.515367327295
 21
867.574143178436
 31
0.0
  0
LINE
  5
F67
330
1D
100
AcDbEntity
  8
0
100
AcDbLine
 10
12.263386915444
 20
867.988900302599
 30
0.0
 11
12.373661869182
 21
867.789902125275
 31
0.0
  0
LINE
  5
F68
330
1D
100
AcDbEntity
  8
0
100
AcDbLine
 10
12.998107610869
 20
867.018073876447
 30
0.0
 11
13.140925196252
 21
866.904441190545
 31
0.0
  0
LINE
  5
F69
330
1D
100
AcDbEntity
  8
0
100
AcDbLine
 10
12.185040542293
 20
868.166000403711
 30
0.0
 11
12.263386915444
 21
867.988900302599
 31
0.0
  0
LINE
  5
F6A
330
1D
100
AcDbEntity
  8
0
100
AcDbLine
 10
13.033748581423
 20
867.696205848277
 30
0.0
 11
13.175454039536
 21
867.480446901438
 31
0.0
  0
LINE
  5
F6B
330
1D
100
AcDbEntity
  8
0
100
AcDbLine
 10
13.175454039536
 20
867.480446901438
 30
0.0
 11
13.285678993274
 21
867.281362121574
 31
0.0
  0
LINE
  5
F6C
330
1D
100
AcDbEntity
  8
0
100
AcDbLine
 10
13.140925196252
 20
866.904441190545
 30
0.0
 11
13.261023304515
 21
866.836257215949
 31
0.0
  0
LINE
  5
F6D
330
1D
100
AcDbEntity
  8
0
100
AcDbLine
 10
13.261023304515
 20
866.836257215949
 30
0.0
 11
13.350242643514
 21
866.822389644112
 31
0.0
  0
LINE
  5
F6E
330
1D
100
AcDbEntity
  8
0
100
AcDbLine
 10
13.350242643514
 20
866.822389644112
 30
0.0
 11
13.97432159964
 21
867.289442518397
 31
0.0
  0
LINE
  5
F6F
330
1D
100
AcDbEntity
  8
0
100
AcDbLine
 10
13.350242643514
 20
866.822389644112
 30
0.0
 11
13.397171293161
 21
866.868272449632
 31
0.0
  0
LINE
  5
F70
330
1D
100
AcDbEntity
  8
0
100
AcDbLine
 10
13.400134124587
 20
866.965404224195
 30
0.0
 11
13.397171293161
 21
866.868272449632
 31
0.0
  0
LINE
  5
F71
330
1D
100
AcDbEntity
  8
0
100
AcDbLine
 10
13.364161968966
 20
867.104298623003
 30
0.0
 11
13.400134124587
 21
866.965404224195
 31
0.0
  0
LINE
  5
F72
330
1D
100
AcDbEntity
  8
0
100
AcDbLine
 10
13.285678993274
 20
867.281362121574
 30
0.0
 11
13.364161968966
 21
867.104298623003
 31
0.0
  0
LINE
  5
F73
330
1D
100
AcDbEntity
  8
0
100
AcDbLine
 10
12.71009920793
 20
868.094028689549
 30
0.0
 11
12.872995562577
 21
867.907373452165
 31
0.0
  0
LINE
  5
F74
330
1D
100
AcDbEntity
  8
0
100
AcDbLine
 10
12.872995562577
 20
867.907373452165
 30
0.0
 11
13.033748581423
 21
867.696205848277
 31
0.0
  0
LINE
  5
F75
330
1D
100
AcDbEntity
  8
0
100
AcDbLine
 10
12.551094900389
 20
868.252225150266
 30
0.0
 11
12.71009920793
 21
868.094028689549
 31
0.0
  0
LINE
  5
F76
330
1D
100
AcDbEntity
  8
0
100
AcDbLine
 10
12.408190712466
 20
868.365907836169
 30
0.0
 11
12.551094900389
 21
868.252225150266
 31
0.0
  0
LINE
  5
F77
330
1D
100
AcDbEntity
  8
0
100
AcDbLine
 10
12.288179206743
 20
868.434041810765
 30
0.0
 11
12.408190712466
 21
868.365907836169
 31
0.0
  0
LINE
  5
F78
330
1D
100
AcDbEntity
  8
0
100
AcDbLine
 10
12.198909867745
 20
868.447822780061
 30
0.0
 11
12.653455697379
 21
868.787999185851
 31
0.0
  0
LINE
  5
F79
330
1D
100
AcDbEntity
  8
0
100
AcDbLine
 10
12.198909867745
 20
868.447822780061
 30
0.0
 11
12.288179206743
 21
868.434041810765
 31
0.0
  0
LINE
  5
F7A
330
1D
100
AcDbEntity
  8
0
100
AcDbLine
 10
12.151981218098
 20
868.401939974542
 30
0.0
 11
12.149018386672
 21
868.304808199978
 31
0.0
  0
LINE
  5
F7B
330
1D
100
AcDbEntity
  8
0
100
AcDbLine
 10
12.151981218098
 20
868.401939974542
 30
0.0
 11
12.198909867745
 21
868.447822780061
 31
0.0
  0
LINE
  5
F7C
330
1D
100
AcDbEntity
  8
0
100
AcDbLine
 10
12.149018386672
 20
868.304808199978
 30
0.0
 11
12.185040542293
 21
868.166000403711
 31
0.0
  0
LINE
  5
F7D
330
1D
100
AcDbEntity
  8
0
100
AcDbLine
 10
8.334002043412
 20
868.746606061747
 30
0.0
 11
8.481742695754
 21
868.557500377947
 31
0.0
  0
LINE
  5
F7E
330
1D
100
AcDbEntity
  8
0
100
AcDbLine
 10
8.481742695754
 20
868.557500377947
 30
0.0
 11
8.639387126613
 21
868.355748541724
 31
0.0
  0
LINE
  5
F7F
330
1D
100
AcDbEntity
  8
0
100
AcDbLine
 10
4.141131051294
 20
875.276940473816
 30
0.0
 11
4.183723664434
 21
875.223713043802
 31
0.0
  0
LINE
  5
F80
330
1D
100
AcDbEntity
  8
0
100
AcDbLine
 10
4.108172997288
 20
875.41305544976
 30
0.0
 11
4.166658996785
 21
875.29395617242
 31
0.0
  0
LINE
  5
F81
330
1D
100
AcDbEntity
  8
0
100
AcDbLine
 10
4.202410147357
 20
875.32827898164
 30
0.0
 11
4.334080995779
 21
875.143139580982
 31
0.0
  0
LINE
  5
F82
330
1D
100
AcDbEntity
  8
0
100
AcDbLine
 10
4.476219314926
 20
875.269730371446
 30
0.0
 11
4.555966649972
 21
875.098056807514
 31
0.0
  0
LINE
  5
F83
330
1D
100
AcDbEntity
  8
0
100
AcDbLine
 10
4.018959894577
 20
875.581533823163
 30
0.0
 11
4.108172997288
 21
875.41305544976
 31
0.0
  0
LINE
  5
F84
330
1D
100
AcDbEntity
  8
0
100
AcDbLine
 10
4.062273342593
 20
875.542554915777
 30
0.0
 11
4.202410147357
 21
875.32827898164
 31
0.0
  0
LINE
  5
F85
330
1D
100
AcDbEntity
  8
0
100
AcDbLine
 10
4.942945602955
 20
875.047724015542
 30
0.0
 11
5.801296565306
 21
875.616813833736
 31
0.0
  0
LINE
  5
F86
330
1D
100
AcDbEntity
  8
0
100
AcDbLine
 10
4.942945602955
 20
875.047724015542
 30
0.0
 11
5.017605392072
 21
875.020438563574
 31
0.0
  0
LINE
  5
F87
330
1D
100
AcDbEntity
  8
0
100
AcDbLine
 10
4.903660735526
 20
875.016480629185
 30
0.0
 11
4.942945602955
 21
875.047724015542
 31
0.0
  0
LINE
  5
F88
330
1D
100
AcDbEntity
  8
0
100
AcDbLine
 10
4.903660735526
 20
875.016480629185
 30
0.0
 11
4.906333544746
 21
874.925910070553
 31
0.0
  0
LINE
  5
F89
330
1D
100
AcDbEntity
  8
0
100
AcDbLine
 10
5.017605392072
 20
875.020438563574
 30
0.0
 11
5.120679848837
 21
874.942568759653
 31
0.0
  0
LINE
  5
F8A
330
1D
100
AcDbEntity
  8
0
100
AcDbLine
 10
5.120679848837
 20
874.942568759653
 30
0.0
 11
5.249169935145
 21
874.811920117408
 31
0.0
  0
LINE
  5
F8B
330
1D
100
AcDbEntity
  8
0
100
AcDbLine
 10
5.249169935145
 20
874.811920117408
 30
0.0
 11
5.391706808971
 21
874.643601224826
 31
0.0
  0
LINE
  5
F8C
330
1D
100
AcDbEntity
  8
0
100
AcDbLine
 10
5.391706808971
 20
874.643601224826
 30
0.0
 11
5.544293355997
 21
874.439688876827
 31
0.0
  0
LINE
  5
F8D
330
1D
100
AcDbEntity
  8
0
100
AcDbLine
 10
4.906333544746
 20
874.925910070553
 30
0.0
 11
4.947833199441
 21
874.788789580982
 31
0.0
  0
LINE
  5
F8E
330
1D
100
AcDbEntity
  8
0
100
AcDbLine
 10
4.070383578126
 20
875.380602255782
 30
0.0
 11
4.141131051294
 21
875.276940473816
 31
0.0
  0
LINE
  5
F8F
330
1D
100
AcDbEntity
  8
0
100
AcDbLine
 10
3.970845604284
 20
875.536797427805
 30
0.0
 11
4.070383578126
 21
875.380602255782
 31
0.0
  0
LINE
  5
F90
330
1D
100
AcDbEntity
  8
0
100
AcDbLine
 10
3.592782423924
 20
876.17157279095
 30
0.0
 11
3.722781921993
 21
875.948138526564
 31
0.0
  0
LINE
  5
F91
330
1D
100
AcDbEntity
  8
0
100
AcDbLine
 10
3.656865813982
 20
876.220368478451
 30
0.0
 11
3.78672870951
 21
875.996897611525
 31
0.0
  0
LINE
  5
F92
330
1D
100
AcDbEntity
  8
0
100
AcDbLine
 10
3.528999070876
 20
876.435296782794
 30
0.0
 11
3.656865813982
 21
876.220368478451
 31
0.0
  0
LINE
  5
F93
330
1D
100
AcDbEntity
  8
0
100
AcDbLine
 10
3.619615901547
 20
876.353649737538
 30
0.0
 11
3.699449839134
 21
876.181926173606
 31
0.0
  0
LINE
  5
F94
330
1D
100
AcDbEntity
  8
0
100
AcDbLine
 10
3.699449839134
 20
876.181926173606
 30
0.0
 11
3.803481268393
 21
875.981913894668
 31
0.0
  0
LINE
  5
F95
330
1D
100
AcDbEntity
  8
0
100
AcDbLine
 10
3.570528940156
 20
876.486028626419
 30
0.0
 11
3.619615901547
 21
876.353649737538
 31
0.0
  0
LINE
  5
F96
330
1D
100
AcDbEntity
  8
0
100
AcDbLine
 10
3.584924268806
 20
876.579562067032
 30
0.0
 11
4.19333580413
 21
876.949374480361
 31
0.0
  0
LINE
  5
F97
330
1D
100
AcDbEntity
  8
0
100
AcDbLine
 10
3.584924268806
 20
876.579562067032
 30
0.0
 11
3.64167117594
 21
876.543450593362
 31
0.0
  0
LINE
  5
F98
330
1D
100
AcDbEntity
  8
0
100
AcDbLine
 10
3.64167117594
 20
876.543450593362
 30
0.0
 11
3.730454736171
 21
876.448428230558
 31
0.0
  0
LINE
  5
F99
330
1D
100
AcDbEntity
  8
0
100
AcDbLine
 10
3.730454736171
 20
876.448428230558
 30
0.0
 11
3.84158815828
 21
876.30851696407
 31
0.0
  0
LINE
  5
F9A
330
1D
100
AcDbEntity
  8
0
100
AcDbLine
 10
3.84158815828
 20
876.30851696407
 30
0.0
 11
3.973259006702
 21
876.123377563412
 31
0.0
  0
LINE
  5
F9B
330
1D
100
AcDbEntity
  8
0
100
AcDbLine
 10
3.78672870951
 20
875.996897611525
 30
0.0
 11
3.909710773864
 21
875.779708795406
 31
0.0
  0
LINE
  5
F9C
330
1D
100
AcDbEntity
  8
0
100
AcDbLine
 10
3.909710773864
 20
875.779708795406
 30
0.0
 11
4.018959894577
 21
875.581533823163
 31
0.0
  0
LINE
  5
F9D
330
1D
100
AcDbEntity
  8
0
100
AcDbLine
 10
3.927908781014
 20
875.763428668387
 30
0.0
 11
4.062273342593
 21
875.542554915777
 31
0.0
  0
LINE
  5
F9E
330
1D
100
AcDbEntity
  8
0
100
AcDbLine
 10
3.803481268393
 20
875.981913894668
 30
0.0
 11
3.927908781014
 21
875.763428668387
 31
0.0
  0
LINE
  5
F9F
330
1D
100
AcDbEntity
  8
0
100
AcDbLine
 10
3.973259006702
 20
876.123377563412
 30
0.0
 11
4.113395811467
 21
875.909101629275
 31
0.0
  0
LINE
  5
FA0
330
1D
100
AcDbEntity
  8
0
100
AcDbLine
 10
4.113395811467
 20
875.909101629275
 30
0.0
 11
4.247723770505
 21
875.688364479206
 31
0.0
  0
LINE
  5
FA1
330
1D
100
AcDbEntity
  8
0
100
AcDbLine
 10
4.372187885666
 20
875.469742650385
 30
0.0
 11
4.476219314926
 21
875.269730371446
 31
0.0
  0
LINE
  5
FA2
330
1D
100
AcDbEntity
  8
0
100
AcDbLine
 10
4.247723770505
 20
875.688364479206
 30
0.0
 11
4.372187885666
 21
875.469742650385
 31
0.0
  0
LINE
  5
FA3
330
1D
100
AcDbEntity
  8
0
100
AcDbLine
 10
3.722781921993
 20
875.948138526564
 30
0.0
 11
3.850562062558
 21
875.733260222221
 31
0.0
  0
LINE
  5
FA4
330
1D
100
AcDbEntity
  8
0
100
AcDbLine
 10
3.850562062558
 20
875.733260222221
 30
0.0
 11
3.970845604284
 21
875.536797427805
 31
0.0
  0
LINE
  5
FA5
330
1D
100
AcDbEntity
  8
0
100
AcDbLine
 10
3.46980035957
 20
876.388761607069
 30
0.0
 11
3.592782423924
 21
876.17157279095
 31
0.0
  0
LINE
  5
FA6
330
1D
100
AcDbEntity
  8
0
100
AcDbLine
 10
10.069535506873
 20
886.359638198696
 30
0.0
 11
11.979723371987
 21
884.640180633075
 31
0.0
  0
LINE
  5
FA7
330
1D
100
AcDbEntity
  8
0
100
AcDbLine
 10
11.398201983652
 20
889.221756042791
 30
0.0
 11
23.075963430134
 21
880.031632186768
 31
0.0
  0
LINE
  5
FA8
330
1D
100
AcDbEntity
  8
0
100
AcDbLine
 10
14.272888040608
 20
882.57605834925
 30
0.0
 11
16.78221635947
 21
880.315542490389
 31
0.0
  0
LINE
  5
FA9
330
1D
100
AcDbEntity
  8
0
100
AcDbLine
 10
16.78221635947
 20
880.315542490389
 30
0.0
 11
19.428336430689
 21
877.933556896669
 31
0.0
  0
LINE
  5
FAA
330
1D
100
AcDbEntity
  8
0
100
AcDbLine
 10
11.979723371987
 20
884.640180633075
 30
0.0
 11
14.272888040608
 21
882.57605834925
 31
0.0
  0
LINE
  5
FAB
330
1D
100
AcDbEntity
  8
0
100
AcDbLine
 10
23.075963430134
 20
880.031632186768
 30
0.0
 11
34.557441398993
 21
870.365935374815
 31
0.0
  0
LINE
  5
FAC
330
1D
100
AcDbEntity
  8
0
100
AcDbLine
 10
19.428336430689
 20
877.933556896669
 30
0.0
 11
23.597364231416
 21
874.179724865695
 31
0.0
  0
LINE
  5
FAD
330
1D
100
AcDbEntity
  8
0
100
AcDbLine
 10
27.97054305814
 20
870.242092784165
 30
0.0
 11
31.907623303091
 21
866.697115801896
 31
0.0
  0
LINE
  5
FAE
330
1D
100
AcDbEntity
  8
0
100
AcDbLine
 10
31.907623303091
 20
866.697115801896
 30
0.0
 11
36.668361688285
 21
862.410556566596
 31
0.0
  0
LINE
  5
FAF
330
1D
100
AcDbEntity
  8
0
100
AcDbLine
 10
34.780619855004
 20
870.16549179978
 30
0.0
 11
41.840524317131
 21
863.808805024765
 31
0.0
  0
LINE
  5
FB0
330
1D
100
AcDbEntity
  8
0
100
AcDbLine
 10
34.557441398993
 20
870.365935374815
 30
0.0
 11
34.780619855004
 21
870.16549179978
 31
0.0
  0
LINE
  5
FB1
330
1D
100
AcDbEntity
  8
0
100
AcDbLine
 10
34.557441398993
 20
870.365935374815
 30
0.0
 11
34.780619855004
 21
870.16549179978
 31
0.0
  0
LINE
  5
FB2
330
1D
100
AcDbEntity
  8
0
100
AcDbLine
 10
23.597364231416
 20
874.179724865695
 30
0.0
 11
27.97054305814
 21
870.242092784165
 31
0.0
  0
LINE
  5
FB3
330
1D
100
AcDbEntity
  8
0
100
AcDbLine
 10
3.195837469
 20
876.944843961213
 30
0.0
 11
3.690812787416
 21
877.232281048167
 31
0.0
  0
LINE
  5
FB4
330
1D
100
AcDbEntity
  8
0
100
AcDbLine
 10
3.195837469
 20
876.944843961213
 30
0.0
 11
3.23846668468
 21
876.891479928659
 31
0.0
  0
LINE
  5
FB5
330
1D
100
AcDbEntity
  8
0
100
AcDbLine
 10
3.195837469
 20
876.944843961213
 30
0.0
 11
3.710656945442
 21
877.243804747963
 31
0.0
  0
LINE
  5
FB6
330
1D
100
AcDbEntity
  8
0
100
AcDbLine
 10
25.405164419999
 20
847.017126642253
 30
0.0
 11
25.9979986835
 21
847.57468581155
 31
0.0
  0
LINE
  5
FB7
330
1D
100
AcDbEntity
  8
0
100
AcDbLine
 10
25.950775410243
 20
847.663752598524
 30
0.0
 11
26.100736708783
 21
847.522093186764
 31
0.0
  0
LINE
  5
FB8
330
1D
100
AcDbEntity
  8
0
100
AcDbLine
 10
26.100736708783
 20
847.522093186764
 30
0.0
 11
26.219835005723
 21
847.42157748816
 31
0.0
  0
LINE
  5
FB9
330
1D
100
AcDbEntity
  8
0
100
AcDbLine
 10
26.219835005723
 20
847.42157748816
 30
0.0
 11
26.304885622313
 21
847.362889477309
 31
0.0
  0
LINE
  5
FBA
330
1D
100
AcDbEntity
  8
0
100
AcDbLine
 10
26.347948881651
 20
847.354077230421
 30
0.0
 11
26.769030469091
 21
847.737570502557
 31
0.0
  0
LINE
  5
FBB
330
1D
100
AcDbEntity
  8
0
100
AcDbLine
 10
26.289395448439
 20
847.49145970914
 30
0.0
 11
26.341453760184
 21
847.399627350038
 31
0.0
  0
LINE
  5
FBC
330
1D
100
AcDbEntity
  8
0
100
AcDbLine
 10
36.668361688285
 20
862.410556566596
 30
0.0
 11
42.999980800884
 21
856.709442563792
 31
0.0
  0
LINE
  5
FBD
330
1D
100
AcDbEntity
  8
0
100
AcDbLine
 10
26.198917213158
 20
847.620946808654
 30
0.0
 11
26.289395448439
 21
847.49145970914
 31
0.0
  0
LINE
  5
FBE
330
1D
100
AcDbEntity
  8
0
100
AcDbLine
 10
26.070647515308
 20
847.784377174907
 30
0.0
 11
26.198917213158
 21
847.620946808654
 31
0.0
  0
LINE
  5
FBF
330
1D
100
AcDbEntity
  8
0
100
AcDbLine
 10
25.422347552318
 20
846.973488700462
 30
0.0
 11
25.558923914367
 21
846.803645898644
 31
0.0
  0
LINE
  5
FC0
330
1D
100
AcDbEntity
  8
0
100
AcDbLine
 10
38.509839628723
 20
834.727489920451
 30
0.0
 11
38.8380292131
 21
834.494130955107
 31
0.0
  0
LINE
  5
FC1
330
1D
100
AcDbEntity
  8
0
100
AcDbLine
 10
38.8380292131
 20
834.494130955107
 30
0.0
 11
39.05132505227
 21
834.372370185592
 31
0.0
  0
LINE
  5
FC2
330
1D
100
AcDbEntity
  8
0
100
AcDbLine
 10
39.05132505227
 20
834.372370185592
 30
0.0
 11
39.155531182486
 21
834.353660497588
 31
0.0
  0
LINE
  5
FC3
330
1D
100
AcDbEntity
  8
0
100
AcDbLine
 10
31.509334305814
 20
840.955659022517
 30
0.0
 11
31.92804084048
 21
840.568080014019
 31
0.0
  0
LINE
  5
FC4
330
1D
100
AcDbEntity
  8
0
100
AcDbLine
 10
31.92804084048
 20
840.568080014019
 30
0.0
 11
32.278881437307
 21
840.262753753083
 31
0.0
  0
LINE
  5
FC5
330
1D
100
AcDbEntity
  8
0
100
AcDbLine
 10
32.278881437307
 20
840.262753753083
 30
0.0
 11
32.549202317781
 21
840.047563252409
 31
0.0
  0
LINE
  5
FC6
330
1D
100
AcDbEntity
  8
0
100
AcDbLine
 10
32.549202317781
 20
840.047563252409
 30
0.0
 11
32.717128937568
 21
839.943220689824
 31
0.0
  0
LINE
  5
FC7
330
1D
100
AcDbEntity
  8
0
100
AcDbLine
 10
32.676096081493
 20
840.112749698323
 30
0.0
 11
32.757814509154
 21
839.968690166945
 31
0.0
  0
LINE
  5
FC8
330
1D
100
AcDbEntity
  8
0
100
AcDbLine
 10
32.757814509154
 20
839.968690166945
 30
0.0
 11
33.384659401359
 21
840.596749501556
 31
0.0
  0
LINE
  5
FC9
330
1D
100
AcDbEntity
  8
0
100
AcDbLine
 10
32.488968071899
 20
840.356234478187
 30
0.0
 11
32.676096081493
 21
840.112749698323
 31
0.0
  0
LINE
  5
FCA
330
1D
100
AcDbEntity
  8
0
100
AcDbLine
 10
31.058177462854
 20
841.390032448327
 30
0.0
 11
31.509334305814
 21
840.955659022517
 31
0.0
  0
LINE
  5
FCB
330
1D
100
AcDbEntity
  8
0
100
AcDbLine
 10
30.588745371407
 20
841.859552215238
 30
0.0
 11
31.058177462854
 21
841.390032448327
 31
0.0
  0
LINE
  5
FCC
330
1D
100
AcDbEntity
  8
0
100
AcDbLine
 10
30.148536862396
 20
842.318088711708
 30
0.0
 11
30.588745371407
 21
841.859552215238
 31
0.0
  0
LINE
  5
FCD
330
1D
100
AcDbEntity
  8
0
100
AcDbLine
 10
29.778165383838
 20
842.72198649317
 30
0.0
 11
30.148536862396
 21
842.318088711708
 31
0.0
  0
LINE
  5
FCE
330
1D
100
AcDbEntity
  8
0
100
AcDbLine
 10
30.913742568331
 20
842.029063872628
 30
0.0
 11
31.383174659778
 21
841.559544105718
 31
0.0
  0
LINE
  5
FCF
330
1D
100
AcDbEntity
  8
0
100
AcDbLine
 10
31.383174659778
 20
841.559544105718
 30
0.0
 11
31.823296566248
 21
841.101057609248
 31
0.0
  0
LINE
  5
FD0
330
1D
100
AcDbEntity
  8
0
100
AcDbLine
 10
33.087174871634
 20
840.298688628572
 30
0.0
 11
37.411753295167
 21
836.174148599635
 31
0.0
  0
LINE
  5
FD1
330
1D
100
AcDbEntity
  8
0
100
AcDbLine
 10
31.823296566248
 20
841.101057609248
 30
0.0
 11
32.193668044806
 21
840.697159827785
 31
0.0
  0
LINE
  5
FD2
330
1D
100
AcDbEntity
  8
0
100
AcDbLine
 10
32.193668044806
 20
840.697159827785
 30
0.0
 11
32.488968071899
 21
840.356234478187
 31
0.0
  0
LINE
  5
FD3
330
1D
100
AcDbEntity
  8
0
100
AcDbLine
 10
37.151821709281
 20
835.864533886388
 30
0.0
 11
37.632725855236
 21
835.442084300754
 31
0.0
  0
LINE
  5
FD4
330
1D
100
AcDbEntity
  8
0
100
AcDbLine
 10
37.632725855236
 20
835.442084300754
 30
0.0
 11
38.092620073953
 21
835.056244453679
 31
0.0
  0
LINE
  5
FD5
330
1D
100
AcDbEntity
  8
0
100
AcDbLine
 10
38.092620073953
 20
835.056244453679
 30
0.0
 11
38.509839628723
 21
834.727489920451
 31
0.0
  0
LINE
  5
FD6
330
1D
100
AcDbEntity
  8
0
100
AcDbLine
 10
36.681562049698
 20
836.298620263241
 30
0.0
 11
37.151821709281
 21
835.864533886388
 31
0.0
  0
LINE
  5
FD7
330
1D
100
AcDbEntity
  8
0
100
AcDbLine
 10
37.411839897707
 20
836.174098599635
 30
0.0
 11
41.965782949381
 21
832.304402033684
 31
0.0
  0
LINE
  5
FD8
330
1D
100
AcDbEntity
  8
0
100
AcDbLine
 10
36.249615649453
 20
836.715667151871
 30
0.0
 11
36.681562049698
 21
836.298620263241
 31
0.0
  0
LINE
  5
FD9
330
1D
100
AcDbEntity
  8
0
100
AcDbLine
 10
35.879053463039
 20
837.096234617637
 30
0.0
 11
36.249615649453
 21
836.715667151871
 31
0.0
  0
LINE
  5
FDA
330
1D
100
AcDbEntity
  8
0
100
AcDbLine
 10
35.612728168954
 20
837.398145676942
 30
0.0
 11
35.879053463039
 21
837.096234617637
 31
0.0
  0
LINE
  5
FDB
330
1D
100
AcDbEntity
  8
0
100
AcDbLine
 10
35.469375081047
 20
837.597650845265
 30
0.0
 11
35.612728168954
 21
837.398145676942
 31
0.0
  0
LINE
  5
FDC
330
1D
100
AcDbEntity
  8
0
100
AcDbLine
 10
37.893829436486
 20
836.903528969518
 30
0.0
 11
38.087434825538
 21
836.735863339974
 31
0.0
  0
LINE
  5
FDD
330
1D
100
AcDbEntity
  8
0
100
AcDbLine
 10
38.087434825538
 20
836.735863339974
 30
0.0
 11
38.274715858937
 21
836.585243605115
 31
0.0
  0
LINE
  5
FDE
330
1D
100
AcDbEntity
  8
0
100
AcDbLine
 10
38.274715858937
 20
836.585243605115
 30
0.0
 11
38.447163244539
 21
836.459931238611
 31
0.0
  0
LINE
  5
FDF
330
1D
100
AcDbEntity
  8
0
100
AcDbLine
 10
38.447163244539
 20
836.459931238611
 30
0.0
 11
38.585778975195
 21
836.374820726834
 31
0.0
  0
LINE
  5
FE0
330
1D
100
AcDbEntity
  8
0
100
AcDbLine
 10
38.585778975195
 20
836.374820726834
 30
0.0
 11
38.679510938436
 21
836.335369249462
 31
0.0
  0
LINE
  5
FE1
330
1D
100
AcDbEntity
  8
0
100
AcDbLine
 10
38.679510938436
 20
836.335369249462
 30
0.0
 11
38.730103620638
 21
836.337798345526
 31
0.0
  0
LINE
  5
FE2
330
1D
100
AcDbEntity
  8
0
100
AcDbLine
 10
37.706979303323
 20
837.078495045477
 30
0.0
 11
37.893829436486
 21
836.903528969518
 31
0.0
  0
LINE
  5
FE3
330
1D
100
AcDbEntity
  8
0
100
AcDbLine
 10
37.537561409645
 20
837.249054645916
 30
0.0
 11
37.706979303323
 21
837.078495045477
 31
0.0
  0
LINE
  5
FE4
330
1D
100
AcDbEntity
  8
0
100
AcDbLine
 10
37.394831457758
 20
837.407439117485
 30
0.0
 11
37.537561409645
 21
837.249054645916
 31
0.0
  0
LINE
  5
FE5
330
1D
100
AcDbEntity
  8
0
100
AcDbLine
 10
37.295717839569
 20
837.53636929506
 30
0.0
 11
37.394831457758
 21
837.407439117485
 31
0.0
  0
LINE
  5
FE6
330
1D
100
AcDbEntity
  8
0
100
AcDbLine
 10
37.24672362944
 20
837.625508833839
 30
0.0
 11
37.295717839569
 21
837.53636929506
 31
0.0
  0
LINE
  5
FE7
330
1D
100
AcDbEntity
  8
0
100
AcDbLine
 10
37.886466918314
 20
837.277976713971
 30
0.0
 11
38.080072307366
 21
837.110311084428
 31
0.0
  0
LINE
  5
FE8
330
1D
100
AcDbEntity
  8
0
100
AcDbLine
 10
37.699185884915
 20
837.42859644883
 30
0.0
 11
37.886466918314
 21
837.277976713971
 31
0.0
  0
LINE
  5
FE9
330
1D
100
AcDbEntity
  8
0
100
AcDbLine
 10
37.526738499313
 20
837.553908815334
 30
0.0
 11
37.699185884915
 21
837.42859644883
 31
0.0
  0
LINE
  5
FEA
330
1D
100
AcDbEntity
  8
0
100
AcDbLine
 10
37.388122768657
 20
837.639019327111
 30
0.0
 11
37.526738499313
 21
837.553908815334
 31
0.0
  0
LINE
  5
FEB
330
1D
100
AcDbEntity
  8
0
100
AcDbLine
 10
37.294390805416
 20
837.678470804483
 30
0.0
 11
37.388122768657
 21
837.639019327111
 31
0.0
  0
LINE
  5
FEC
330
1D
100
AcDbEntity
  8
0
100
AcDbLine
 10
37.243798123214
 20
837.67604170842
 30
0.0
 11
37.720538954942
 21
838.205508589441
 31
0.0
  0
LINE
  5
FED
330
1D
100
AcDbEntity
  8
0
100
AcDbLine
 10
37.243798123214
 20
837.67604170842
 30
0.0
 11
37.294390805416
 21
837.678470804483
 31
0.0
  0
LINE
  5
FEE
330
1D
100
AcDbEntity
  8
0
100
AcDbLine
 10
37.243798123214
 20
837.67604170842
 30
0.0
 11
37.24672362944
 21
837.625508833839
 31
0.0
  0
LINE
  5
FEF
330
1D
100
AcDbEntity
  8
0
100
AcDbLine
 10
38.080072307366
 20
837.110311084428
 30
0.0
 11
38.267009043069
 21
836.935295008468
 31
0.0
  0
LINE
  5
FF0
330
1D
100
AcDbEntity
  8
0
100
AcDbLine
 10
38.267009043069
 20
836.935295008468
 30
0.0
 11
38.436340334207
 21
836.76478540803
 31
0.0
  0
LINE
  5
FF1
330
1D
100
AcDbEntity
  8
0
100
AcDbLine
 10
38.436340334207
 20
836.76478540803
 30
0.0
 11
38.579070286095
 21
836.606400936461
 31
0.0
  0
LINE
  5
FF2
330
1D
100
AcDbEntity
  8
0
100
AcDbLine
 10
38.579070286095
 20
836.606400936461
 30
0.0
 11
38.678183904283
 21
836.477470758885
 31
0.0
  0
LINE
  5
FF3
330
1D
100
AcDbEntity
  8
0
100
AcDbLine
 10
38.678183904283
 20
836.477470758885
 30
0.0
 11
38.727178114413
 21
836.388331220106
 31
0.0
  0
LINE
  5
FF4
330
1D
100
AcDbEntity
  8
0
100
AcDbLine
 10
38.730103620638
 20
836.337798345526
 30
0.0
 11
39.141303580825
 21
836.794466097581
 31
0.0
  0
LINE
  5
FF5
330
1D
100
AcDbEntity
  8
0
100
AcDbLine
 10
38.727178114413
 20
836.388331220106
 30
0.0
 11
38.730103620638
 21
836.337798345526
 31
0.0
  0
LINE
  5
FF6
330
1D
100
AcDbEntity
  8
0
100
AcDbLine
 10
35.439810740198
 20
837.699243904822
 30
0.0
 11
35.61207897892
 21
837.890576891469
 31
0.0
  0
LINE
  5
FF7
330
1D
100
AcDbEntity
  8
0
100
AcDbLine
 10
35.439810740198
 20
837.699243904822
 30
0.0
 11
35.469375081047
 21
837.597650845265
 31
0.0
  0
LINE
  5
FF8
330
1D
100
AcDbEntity
  8
0
100
AcDbLine
 10
53.585396347985
 20
822.9141201106
 30
0.0
 11
53.785769239813
 21
822.781576139705
 31
0.0
  0
LINE
  5
FF9
330
1D
100
AcDbEntity
  8
0
100
AcDbLine
 10
53.37443666494
 20
823.059127221216
 30
0.0
 11
53.585396347985
 21
822.9141201106
 31
0.0
  0
LINE
  5
FFA
330
1D
100
AcDbEntity
  8
0
100
AcDbLine
 10
54.349853079917
 20
822.086398010494
 30
0.0
 11
54.428022607594
 21
822.022791604033
 31
0.0
  0
LINE
  5
FFB
330
1D
100
AcDbEntity
  8
0
100
AcDbLine
 10
54.428022607594
 20
822.022791604033
 30
0.0
 11
54.551370904534
 21
821.929637121361
 31
0.0
  0
LINE
  5
FFC
330
1D
100
AcDbEntity
  8
0
100
AcDbLine
 10
54.551370904534
 20
821.929637121361
 30
0.0
 11
54.720804188521
 21
821.807104177721
 31
0.0
  0
LINE
  5
FFD
330
1D
100
AcDbEntity
  8
0
100
AcDbLine
 10
54.762602711149
 20
821.854101342594
 30
0.0
 11
54.961493552169
 21
821.7229903844
 31
0.0
  0
LINE
  5
FFE
330
1D
100
AcDbEntity
  8
0
100
AcDbLine
 10
54.720804188521
 20
821.807104177721
 30
0.0
 11
54.922030412448
 21
821.665638221378
 31
0.0
  0
LINE
  5
FFF
330
1D
100
AcDbEntity
  8
0
100
AcDbLine
 10
54.360611925644
 20
822.101432877924
 30
0.0
 11
54.448434081264
 21
822.052345313489
 31
0.0
  0
LINE
  5
1000
330
1D
100
AcDbEntity
  8
0
100
AcDbLine
 10
54.448434081264
 20
822.052345313489
 30
0.0
 11
54.588112247485
 21
821.966274994091
 31
0.0
  0
LINE
  5
1001
330
1D
100
AcDbEntity
  8
0
100
AcDbLine
 10
54.588112247485
 20
821.966274994091
 30
0.0
 11
54.762602711149
 21
821.854101342594
 31
0.0
  0
LINE
  5
1002
330
1D
100
AcDbEntity
  8
0
100
AcDbLine
 10
54.098961332517
 20
822.592440756798
 30
0.0
 11
54.194350217697
 21
822.546259152407
 31
0.0
  0
LINE
  5
1003
330
1D
100
AcDbEntity
  8
0
100
AcDbLine
 10
54.329535715263
 20
822.111407302638
 30
0.0
 11
54.639935227277
 21
822.566957905087
 31
0.0
  0
LINE
  5
1004
330
1D
100
AcDbEntity
  8
0
100
AcDbLine
 10
54.329535715263
 20
822.111407302638
 30
0.0
 11
54.69125148459
 21
822.642271012967
 31
0.0
  0
LINE
  5
1005
330
1D
100
AcDbEntity
  8
0
100
AcDbLine
 10
56.141397425511
 20
820.753443841075
 30
0.0
 11
56.317075195871
 21
820.634926665099
 31
0.0
  0
LINE
  5
1006
330
1D
100
AcDbEntity
  8
0
100
AcDbLine
 10
64.074063443916
 20
815.518224424428
 30
0.0
 11
64.232952052852
 21
815.414827567849
 31
0.0
  0
LINE
  5
1007
330
1D
100
AcDbEntity
  8
0
100
AcDbLine
 10
124.436857217589
 20
725.455050127233
 30
0.0
 11
139.713954969539
 21
697.297759625805
 31
0.0
  0
LINE
  5
1008
330
1D
100
AcDbEntity
  8
0
100
AcDbLine
 10
139.713954969539
 20
697.297759625805
 30
0.0
 11
140.368672572169
 21
697.675763778171
 31
0.0
  0
LINE
  5
1009
330
1D
100
AcDbEntity
  8
0
100
AcDbLine
 10
139.713954969539
 20
697.297759625805
 30
0.0
 11
141.559061405357
 21
698.363032251664
 31
0.0
  0
LINE
  5
100B
330
1D
100
AcDbEntity
  8
0
100
AcDbLine
 10
139.713954969539
 20
697.297759625805
 30
0.0
 11
141.559061405438
 21
698.363032251712
 31
0.0
  0
LINE
  5
1016
330
1D
100
AcDbEntity
  8
0
100
AcDbLine
 10
153.244735423903
 20
705.109758838823
 30
0.0
 11
159.0178
 21
708.293
 31
0.0
  0
LINE
  5
1017
330
1D
100
AcDbEntity
  8
0
100
AcDbLine
 10
148.879951406366
 20
702.589731156385
 30
0.0
 11
153.244735423903
 21
705.109758838823
 31
0.0
  0
LINE
  5
1018
330
1D
100
AcDbEntity
  8
0
100
AcDbLine
 10
145.024423857542
 20
700.36376155184
 30
0.0
 11
148.879951406366
 21
702.589731156385
 31
0.0
  0
LINE
  5
1019
330
1D
100
AcDbEntity
  8
0
100
AcDbLine
 10
142.114576179184
 20
698.683757530638
 30
0.0
 11
145.024423857542
 21
700.36376155184
 31
0.0
  0
LINE
  5
101A
330
1D
100
AcDbEntity
  8
0
100
AcDbLine
 10
140.368672572169
 20
697.675763778171
 30
0.0
 11
142.114576179184
 21
698.683757530638
 31
0.0
  0
LINE
  5
101B
330
1D
100
AcDbEntity
  8
0
100
AcDbLine
 10
114.738996305445
 20
746.361862302662
 30
0.0
 11
124.436857217589
 21
725.455050127233
 31
0.0
  0
LINE
  5
1024
330
1D
100
AcDbEntity
  8
0
100
AcDbLine
 10
160.749875403784
 20
709.293042601895
 30
0.0
 11
161.615888105677
 21
709.793020601572
 31
0.0
  0
LINE
  5
1025
330
1D
100
AcDbEntity
  8
0
100
AcDbLine
 10
159.883862701892
 20
708.793064602218
 30
0.0
 11
160.749875403784
 21
709.293042601895
 31
0.0
  0
LINE
  5
1026
330
1D
100
AcDbEntity
  8
0
100
AcDbLine
 10
159.0178
 20
708.293
 30
0.0
 11
159.883862701892
 21
708.793064602218
 31
0.0
  0
LINE
  5
1027
330
1D
100
AcDbEntity
  8
0
100
AcDbLine
 10
108.071096947895
 20
761.844721835629
 30
0.0
 11
114.738996305445
 21
746.361862302662
 31
0.0
  0
LINE
  5
1028
330
1D
100
AcDbEntity
  8
0
100
AcDbLine
 10
103.552576138523
 20
773.13441421874
 30
0.0
 11
108.071096947895
 21
761.844721835629
 31
0.0
  0
LINE
  5
1029
330
1D
100
AcDbEntity
  8
0
100
AcDbLine
 10
99.583041714592
 20
784.084978914099
 30
0.0
 11
103.552576138523
 21
773.13441421874
 31
0.0
  0
LINE
  5
102A
330
1D
100
AcDbEntity
  8
0
100
AcDbLine
 10
93.54290508337
 20
794.457155384163
 30
0.0
 11
94.142488835908
 21
793.625664906953
 31
0.0
  0
LINE
  5
102B
330
1D
100
AcDbEntity
  8
0
100
AcDbLine
 10
95.760829950514
 20
791.774713941429
 30
0.0
 11
99.583041714592
 21
784.084978914099
 31
0.0
  0
LINE
  5
102C
330
1D
100
AcDbEntity
  8
0
100
AcDbLine
 10
94.386831701829
 20
793.350879165194
 30
0.0
 11
94.534822024336
 21
793.514748066912
 31
0.0
  0
LINE
  5
102D
330
1D
100
AcDbEntity
  8
0
100
AcDbLine
 10
94.142488835908
 20
793.625664906953
 30
0.0
 11
94.386831701829
 21
793.350879165194
 31
0.0
  0
LINE
  5
102E
330
1D
100
AcDbEntity
  8
0
100
AcDbLine
 10
83.421962804384
 20
804.189169136488
 30
0.0
 11
84.80246687995
 21
803.110272335424
 31
0.0
  0
LINE
  5
102F
330
1D
100
AcDbEntity
  8
0
100
AcDbLine
 10
84.80246687995
 20
803.110272335424
 30
0.0
 11
86.653352223191
 21
801.644099788901
 31
0.0
  0
LINE
  5
1030
330
1D
100
AcDbEntity
  8
0
100
AcDbLine
 10
86.653352223191
 20
801.644099788901
 30
0.0
 11
88.964874586967
 21
799.635773965793
 31
0.0
  0
LINE
  5
1031
330
1D
100
AcDbEntity
  8
0
100
AcDbLine
 10
88.964874586967
 20
799.635773965793
 30
0.0
 11
90.905323322708
 21
797.742729765581
 31
0.0
  0
LINE
  5
1032
330
1D
100
AcDbEntity
  8
0
100
AcDbLine
 10
90.905323322708
 20
797.742729765581
 30
0.0
 11
92.449446506627
 21
795.915229573273
 31
0.0
  0
LINE
  5
1033
330
1D
100
AcDbEntity
  8
0
100
AcDbLine
 10
92.449446506627
 20
795.915229573273
 30
0.0
 11
93.54290508337
 21
794.457155384163
 31
0.0
  0
LINE
  5
1034
330
1D
100
AcDbEntity
  8
0
100
AcDbLine
 10
119.153264465545
 20
782.80959903419
 30
0.0
 11
125.150131297806
 21
772.97647707389
 31
0.0
  0
LINE
  5
1035
330
1D
100
AcDbEntity
  8
0
100
AcDbLine
 10
125.150131297806
 20
772.97647707389
 30
0.0
 11
134.491926252635
 21
757.432940569544
 31
0.0
  0
LINE
  5
1036
330
1D
100
AcDbEntity
  8
0
100
AcDbLine
 10
134.491926252635
 20
757.432940569544
 30
0.0
 11
145.782456199112
 21
737.628712081221
 31
0.0
  0
LINE
  5
1037
330
1D
100
AcDbEntity
  8
0
100
AcDbLine
 10
145.782456199112
 20
737.628712081221
 30
0.0
 11
161.615888105677
 21
709.793020601572
 31
0.0
  0
LINE
  5
1038
330
1D
100
AcDbEntity
  8
0
100
AcDbLine
 10
64.350108560425
 20
815.357348591403
 30
0.0
 11
64.404558095503
 21
815.315057952607
 31
0.0
  0
LINE
  5
1039
330
1D
100
AcDbEntity
  8
0
100
AcDbLine
 10
64.404558095503
 20
815.315057952607
 30
0.0
 11
64.764284260294
 21
815.847042470415
 31
0.0
  0
LINE
  5
103A
330
1D
100
AcDbEntity
  8
0
100
AcDbLine
 10
64.247749167169
 20
815.431456921652
 30
0.0
 11
64.350108560425
 21
815.357348591403
 31
0.0
  0
LINE
  5
103B
330
1D
100
AcDbEntity
  8
0
100
AcDbLine
 10
64.344024585829
 20
815.34481083829
 30
0.0
 11
64.399710019292
 21
815.31266083829
 31
0.0
  0
LINE
  5
103C
330
1D
100
AcDbEntity
  8
0
100
AcDbLine
 10
64.232952052852
 20
815.414827567849
 30
0.0
 11
64.344024585829
 21
815.34481083829
 31
0.0
  0
LINE
  5
103D
330
1D
100
AcDbEntity
  8
0
100
AcDbLine
 10
61.674402365133
 20
817.39868951503
 30
0.0
 11
61.775056244761
 21
817.314827148526
 31
0.0
  0
LINE
  5
103E
330
1D
100
AcDbEntity
  8
0
100
AcDbLine
 10
61.629439174856
 20
817.446010985
 30
0.0
 11
61.674402365133
 21
817.39868951503
 31
0.0
  0
LINE
  5
103F
330
1D
100
AcDbEntity
  8
0
100
AcDbLine
 10
61.698772684531
 20
817.431500146424
 30
0.0
 11
61.817152139445
 21
817.364539376908
 31
0.0
  0
LINE
  5
1040
330
1D
100
AcDbEntity
  8
0
100
AcDbLine
 10
61.635436546912
 20
817.458598738113
 30
0.0
 11
61.848336249719
 21
817.767203854679
 31
0.0
  0
LINE
  5
1041
330
1D
100
AcDbEntity
  8
0
100
AcDbLine
 10
61.635436546912
 20
817.458598738113
 30
0.0
 11
61.698772684531
 21
817.431500146424
 31
0.0
  0
LINE
  5
1042
330
1D
100
AcDbEntity
  8
0
100
AcDbLine
 10
61.635436546912
 20
817.458598738113
 30
0.0
 11
61.948896291302
 21
817.912968940048
 31
0.0
  0
LINE
  5
1043
330
1D
100
AcDbEntity
  8
0
100
AcDbLine
 10
61.817152139445
 20
817.364539376908
 30
0.0
 11
61.975409659468
 21
817.267049442268
 31
0.0
  0
LINE
  5
1044
330
1D
100
AcDbEntity
  8
0
100
AcDbLine
 10
61.975409659468
 20
817.267049442268
 30
0.0
 11
62.163033324512
 21
817.146023162827
 31
0.0
  0
LINE
  5
1045
330
1D
100
AcDbEntity
  8
0
100
AcDbLine
 10
61.775056244761
 20
817.314827148526
 30
0.0
 11
61.917491779337
 21
817.204532731214
 31
0.0
  0
LINE
  5
1046
330
1D
100
AcDbEntity
  8
0
100
AcDbLine
 10
61.917491779337
 20
817.204532731214
 30
0.0
 11
62.101416148536
 21
817.068899083417
 31
0.0
  0
LINE
  5
1047
330
1D
100
AcDbEntity
  8
0
100
AcDbLine
 10
62.310845446824
 20
816.920041268646
 30
0.0
 11
62.523633590839
 21
816.773401145328
 31
0.0
  0
LINE
  5
1048
330
1D
100
AcDbEntity
  8
0
100
AcDbLine
 10
62.583977819473
 20
816.859920415265
 30
0.0
 11
62.793407117762
 21
816.711062600494
 31
0.0
  0
LINE
  5
1049
330
1D
100
AcDbEntity
  8
0
100
AcDbLine
 10
62.371189675459
 20
817.006560538583
 30
0.0
 11
62.583977819473
 21
816.859920415265
 31
0.0
  0
LINE
  5
104A
330
1D
100
AcDbEntity
  8
0
100
AcDbLine
 10
62.163033324512
 20
817.146023162827
 30
0.0
 11
62.371189675459
 21
817.006560538583
 31
0.0
  0
LINE
  5
104B
330
1D
100
AcDbEntity
  8
0
100
AcDbLine
 10
62.101416148536
 20
817.068899083417
 30
0.0
 11
62.310845446824
 21
816.920041268646
 31
0.0
  0
LINE
  5
104C
330
1D
100
AcDbEntity
  8
0
100
AcDbLine
 10
62.523633590839
 20
816.773401145328
 30
0.0
 11
62.731789941785
 21
816.633938521085
 31
0.0
  0
LINE
  5
104D
330
1D
100
AcDbEntity
  8
0
100
AcDbLine
 10
62.763801705246
 20
816.424584521839
 30
0.0
 11
62.81957374125
 21
816.392384521839
 31
0.0
  0
LINE
  5
104E
330
1D
100
AcDbEntity
  8
0
100
AcDbLine
 10
62.81957374125
 20
816.392384521839
 30
0.0
 11
62.930646274227
 21
816.322367792279
 31
0.0
  0
LINE
  5
104F
330
1D
100
AcDbEntity
  8
0
100
AcDbLine
 10
62.793407117762
 20
816.711062600494
 30
0.0
 11
62.977331486961
 21
816.575428952697
 31
0.0
  0
LINE
  5
1050
330
1D
100
AcDbEntity
  8
0
100
AcDbLine
 10
62.731789941785
 20
816.633938521085
 30
0.0
 11
62.850486467784
 21
816.557373558339
 31
0.0
  0
LINE
  5
1051
330
1D
100
AcDbEntity
  8
0
100
AcDbLine
 10
62.731789941785
 20
816.633938521085
 30
0.0
 11
62.919413606829
 21
816.512912241643
 31
0.0
  0
LINE
  5
1052
330
1D
100
AcDbEntity
  8
0
100
AcDbLine
 10
62.759040231576
 20
816.422137407522
 30
0.0
 11
62.813489766654
 21
816.379846768726
 31
0.0
  0
LINE
  5
1053
330
1D
100
AcDbEntity
  8
0
100
AcDbLine
 10
62.759040231576
 20
816.422137407522
 30
0.0
 11
62.850486467784
 21
816.557373558339
 31
0.0
  0
LINE
  5
1054
330
1D
100
AcDbEntity
  8
0
100
AcDbLine
 10
62.930646274227
 20
816.322367792279
 30
0.0
 11
63.089534883163
 21
816.218970935701
 31
0.0
  0
LINE
  5
1055
330
1D
100
AcDbEntity
  8
0
100
AcDbLine
 10
63.077671126852
 20
816.415422307003
 30
0.0
 11
63.196050581767
 21
816.348461537487
 31
0.0
  0
LINE
  5
1056
330
1D
100
AcDbEntity
  8
0
100
AcDbLine
 10
62.919413606829
 20
816.512912241643
 30
0.0
 11
63.077671126852
 21
816.415422307003
 31
0.0
  0
LINE
  5
1057
330
1D
100
AcDbEntity
  8
0
100
AcDbLine
 10
63.119767021536
 20
816.465134535385
 30
0.0
 11
63.220420901165
 21
816.381272168881
 31
0.0
  0
LINE
  5
1058
330
1D
100
AcDbEntity
  8
0
100
AcDbLine
 10
62.977331486961
 20
816.575428952697
 30
0.0
 11
63.119767021536
 21
816.465134535385
 31
0.0
  0
LINE
  5
1059
330
1D
100
AcDbEntity
  8
0
100
AcDbLine
 10
62.813489766654
 20
816.379846768726
 30
0.0
 11
62.915762557369
 21
816.305788438477
 31
0.0
  0
LINE
  5
105A
330
1D
100
AcDbEntity
  8
0
100
AcDbLine
 10
62.915762557369
 20
816.305788438477
 30
0.0
 11
63.067973667231
 21
816.198625814234
 31
0.0
  0
LINE
  5
105B
330
1D
100
AcDbEntity
  8
0
100
AcDbLine
 10
63.089534883163
 20
816.218970935701
 30
0.0
 11
63.277627201555
 21
816.09455638767
 31
0.0
  0
LINE
  5
105C
330
1D
100
AcDbEntity
  8
0
100
AcDbLine
 10
63.277627201555
 20
816.09455638767
 30
0.0
 11
63.484757719476
 21
815.955916968507
 31
0.0
  0
LINE
  5
105D
330
1D
100
AcDbEntity
  8
0
100
AcDbLine
 10
63.220420901165
 20
816.381272168881
 30
0.0
 11
63.265434091442
 21
816.334037301451
 31
0.0
  0
LINE
  5
105E
330
1D
100
AcDbEntity
  8
0
100
AcDbLine
 10
63.259473321926
 20
816.321312945798
 30
0.0
 11
63.567407264664
 21
816.767677151999
 31
0.0
  0
LINE
  5
105F
330
1D
100
AcDbEntity
  8
0
100
AcDbLine
 10
63.196050581767
 20
816.348461537487
 30
0.0
 11
63.259473321926
 21
816.321312945798
 31
0.0
  0
LINE
  5
1060
330
1D
100
AcDbEntity
  8
0
100
AcDbLine
 10
63.067973667231
 20
816.198625814234
 30
0.0
 11
63.257896112642
 21
816.067381139183
 31
0.0
  0
LINE
  5
1061
330
1D
100
AcDbEntity
  8
0
100
AcDbLine
 10
63.257896112642
 20
816.067381139183
 30
0.0
 11
63.464642655967
 21
815.926076656511
 31
0.0
  0
LINE
  5
1062
330
1D
100
AcDbEntity
  8
0
100
AcDbLine
 10
63.678840607603
 20
815.781278391622
 30
0.0
 11
63.885884522984
 21
815.642688972459
 31
0.0
  0
LINE
  5
1063
330
1D
100
AcDbEntity
  8
0
100
AcDbLine
 10
64.095624659848
 20
815.538569545895
 30
0.0
 11
64.247749167169
 21
815.431456921652
 31
0.0
  0
LINE
  5
1064
330
1D
100
AcDbEntity
  8
0
100
AcDbLine
 10
63.905615611897
 20
815.669864220946
 30
0.0
 11
64.095624659848
 21
815.538569545895
 31
0.0
  0
LINE
  5
1065
330
1D
100
AcDbEntity
  8
0
100
AcDbLine
 10
63.698955671112
 20
815.811118703618
 30
0.0
 11
63.905615611897
 21
815.669864220946
 31
0.0
  0
LINE
  5
1066
330
1D
100
AcDbEntity
  8
0
100
AcDbLine
 10
63.484757719476
 20
815.955916968507
 30
0.0
 11
63.698955671112
 21
815.811118703618
 31
0.0
  0
LINE
  5
1067
330
1D
100
AcDbEntity
  8
0
100
AcDbLine
 10
70.379370932504
 20
812.292737352008
 30
0.0
 11
70.470339498286
 21
812.248299529834
 31
0.0
  0
LINE
  5
1068
330
1D
100
AcDbEntity
  8
0
100
AcDbLine
 10
70.470339498286
 20
812.248299529834
 30
0.0
 11
70.614583689911
 21
812.168137798424
 31
0.0
  0
LINE
  5
1069
330
1D
100
AcDbEntity
  8
0
100
AcDbLine
 10
70.366138881697
 20
812.27381876772
 30
0.0
 11
70.445341422075
 21
812.211001591744
 31
0.0
  0
LINE
  5
106A
330
1D
100
AcDbEntity
  8
0
100
AcDbLine
 10
70.346558119583
 20
812.299903892889
 30
0.0
 11
70.542178783944
 21
812.6087224003
 31
0.0
  0
LINE
  5
106B
330
1D
100
AcDbEntity
  8
0
100
AcDbLine
 10
70.346558119583
 20
812.299903892889
 30
0.0
 11
70.585954981206
 21
812.677830129501
 31
0.0
  0
LINE
  5
106C
330
1D
100
AcDbEntity
  8
0
100
AcDbLine
 10
70.445341422075
 20
812.211001591744
 30
0.0
 11
70.570959334258
 21
812.120578197986
 31
0.0
  0
LINE
  5
106D
330
1D
100
AcDbEntity
  8
0
100
AcDbLine
 10
70.614583689911
 20
812.168137798424
 30
0.0
 11
70.793916973898
 21
812.062752157778
 31
0.0
  0
LINE
  5
106E
330
1D
100
AcDbEntity
  8
0
100
AcDbLine
 10
70.793916973898
 20
812.062752157778
 30
0.0
 11
70.997431019999
 21
811.939248825678
 31
0.0
  0
LINE
  5
106F
330
1D
100
AcDbEntity
  8
0
100
AcDbLine
 10
70.570959334258
 20
812.120578197986
 30
0.0
 11
70.743142618245
 21
812.002808394066
 31
0.0
  0
LINE
  5
1070
330
1D
100
AcDbEntity
  8
0
100
AcDbLine
 10
70.743142618245
 20
812.002808394066
 30
0.0
 11
70.948018842172
 21
811.86766442317
 31
0.0
  0
LINE
  5
1071
330
1D
100
AcDbEntity
  8
0
100
AcDbLine
 10
71.214583523368
 20
811.803367994504
 30
0.0
 11
71.43125205214
 21
811.664648894739
 31
0.0
  0
LINE
  5
1072
330
1D
100
AcDbEntity
  8
0
100
AcDbLine
 10
70.997431019999
 20
811.939248825678
 30
0.0
 11
71.214583523368
 21
811.803367994504
 31
0.0
  0
LINE
  5
1073
330
1D
100
AcDbEntity
  8
0
100
AcDbLine
 10
70.948018842172
 20
811.86766442317
 30
0.0
 11
71.164687370945
 21
811.728945323406
 31
0.0
  0
LINE
  5
1074
330
1D
100
AcDbEntity
  8
0
100
AcDbLine
 10
71.164687370945
 20
811.728945323406
 30
0.0
 11
71.381839874314
 21
811.593064492231
 31
0.0
  0
LINE
  5
1075
330
1D
100
AcDbEntity
  8
0
100
AcDbLine
 10
71.607496860354
 20
811.433913857137
 30
0.0
 11
71.688119273714
 21
811.383555973304
 31
0.0
  0
LINE
  5
1076
330
1D
100
AcDbEntity
  8
0
100
AcDbLine
 10
71.764687204402
 20
811.364175519485
 30
0.0
 11
71.908931396026
 21
811.284013788076
 31
0.0
  0
LINE
  5
1077
330
1D
100
AcDbEntity
  8
0
100
AcDbLine
 10
71.688119273714
 20
811.383555973304
 30
0.0
 11
71.823883338319
 21
811.298706231043
 31
0.0
  0
LINE
  5
1078
330
1D
100
AcDbEntity
  8
0
100
AcDbLine
 10
71.823883338319
 20
811.298706231043
 30
0.0
 11
72.003780723922
 21
811.186297643055
 31
0.0
  0
LINE
  5
1079
330
1D
100
AcDbEntity
  8
0
100
AcDbLine
 10
72.003780723922
 20
811.186297643055
 30
0.0
 11
72.20742682083
 21
811.059023029663
 31
0.0
  0
LINE
  5
107A
330
1D
100
AcDbEntity
  8
0
100
AcDbLine
 10
72.20742682083
 20
811.059023029663
 30
0.0
 11
72.424679324199
 21
810.923315403569
 31
0.0
  0
LINE
  5
107B
330
1D
100
AcDbEntity
  8
0
100
AcDbLine
 10
73.025475310078
 20
810.547924576096
 30
0.0
 11
73.16037334928
 21
810.463574833835
 31
0.0
  0
LINE
  5
107C
330
1D
100
AcDbEntity
  8
0
100
AcDbLine
 10
81.794277387124
 20
805.417935295055
 30
0.0
 11
83.421962804384
 21
804.189169136488
 31
0.0
  0
LINE
  5
107D
330
1D
100
AcDbEntity
  8
0
100
AcDbLine
 10
73.272388702579
 20
810.393591116977
 30
0.0
 11
73.598554640583
 21
810.91544742622
 31
0.0
  0
LINE
  5
107E
330
1D
100
AcDbEntity
  8
0
100
AcDbLine
 10
73.16037334928
 20
810.463574833835
 30
0.0
 11
73.241811788043
 21
810.412630347462
 31
0.0
  0
LINE
  5
107F
330
1D
100
AcDbEntity
  8
0
100
AcDbLine
 10
72.641881827568
 20
810.787521174935
 30
0.0
 11
72.845577924476
 21
810.660333164084
 31
0.0
  0
LINE
  5
1080
330
1D
100
AcDbEntity
  8
0
100
AcDbLine
 10
72.845577924476
 20
810.660333164084
 30
0.0
 11
73.025475310078
 21
810.547924576096
 31
0.0
  0
LINE
  5
1081
330
1D
100
AcDbEntity
  8
0
100
AcDbLine
 10
72.424679324199
 20
810.923315403569
 30
0.0
 11
72.641881827568
 21
810.787521174935
 31
0.0
  0
LINE
  5
1082
330
1D
100
AcDbEntity
  8
0
100
AcDbLine
 10
72.032712774729
 20
811.232409425021
 30
0.0
 11
72.331153890396
 21
811.704068072631
 31
0.0
  0
LINE
  5
1083
330
1D
100
AcDbEntity
  8
0
100
AcDbLine
 10
71.908931396026
 20
811.284013788076
 30
0.0
 11
71.999899961808
 21
811.239575965902
 31
0.0
  0
LINE
  5
1084
330
1D
100
AcDbEntity
  8
0
100
AcDbLine
 10
71.933929472237
 20
811.321311726165
 30
0.0
 11
72.013132012616
 21
811.258494550189
 31
0.0
  0
LINE
  5
1085
330
1D
100
AcDbEntity
  8
0
100
AcDbLine
 10
71.808361560055
 20
811.411821722464
 30
0.0
 11
71.933929472237
 21
811.321311726165
 31
0.0
  0
LINE
  5
1086
330
1D
100
AcDbEntity
  8
0
100
AcDbLine
 10
80.403143184539
 20
806.488420176032
 30
0.0
 11
81.794277387124
 21
805.417935295055
 31
0.0
  0
LINE
  5
1087
330
1D
100
AcDbEntity
  8
0
100
AcDbLine
 10
71.636128276067
 20
811.529504923844
 30
0.0
 11
71.808361560055
 21
811.411821722464
 31
0.0
  0
LINE
  5
1088
330
1D
100
AcDbEntity
  8
0
100
AcDbLine
 10
71.43125205214
 20
811.664648894739
 30
0.0
 11
71.636128276067
 21
811.529504923844
 31
0.0
  0
LINE
  5
1089
330
1D
100
AcDbEntity
  8
0
100
AcDbLine
 10
71.586219945818
 20
811.469061160132
 30
0.0
 11
71.764687204402
 21
811.364175519485
 31
0.0
  0
LINE
  5
108A
330
1D
100
AcDbEntity
  8
0
100
AcDbLine
 10
71.381839874314
 20
811.593064492231
 30
0.0
 11
71.586219945818
 21
811.469061160132
 31
0.0
  0
LINE
  5
108B
330
1D
100
AcDbEntity
  8
0
100
AcDbLine
 10
68.657821294012
 20
813.439325910388
 30
0.0
 11
68.856578864592
 21
813.29778412102
 31
0.0
  0
LINE
  5
108C
330
1D
100
AcDbEntity
  8
0
100
AcDbLine
 10
68.496686790392
 20
813.562032763265
 30
0.0
 11
68.657821294012
 21
813.439325910388
 31
0.0
  0
LINE
  5
108D
330
1D
100
AcDbEntity
  8
0
100
AcDbLine
 10
69.075020340706
 20
813.150535856131
 30
0.0
 11
69.290699638994
 21
813.012503358906
 31
0.0
  0
LINE
  5
108E
330
1D
100
AcDbEntity
  8
0
100
AcDbLine
 10
68.856578864592
 20
813.29778412102
 30
0.0
 11
69.075020340706
 21
813.150535856131
 31
0.0
  0
LINE
  5
108F
330
1D
100
AcDbEntity
  8
0
100
AcDbLine
 10
69.290699638994
 20
813.012503358906
 30
0.0
 11
69.496042146064
 21
812.887367014105
 31
0.0
  0
LINE
  5
1090
330
1D
100
AcDbEntity
  8
0
100
AcDbLine
 10
69.819133276874
 20
812.712377268143
 30
0.0
 11
69.918481969675
 21
812.67245425174
 31
0.0
  0
LINE
  5
1091
330
1D
100
AcDbEntity
  8
0
100
AcDbLine
 10
69.874507632527
 20
812.78028846557
 30
0.0
 11
69.942764020483
 21
812.71051199745
 31
0.0
  0
LINE
  5
1092
330
1D
100
AcDbEntity
  8
0
100
AcDbLine
 10
79.215603790169
 20
807.375541608992
 30
0.0
 11
80.403143184539
 21
806.488420176032
 31
0.0
  0
LINE
  5
1093
330
1D
100
AcDbEntity
  8
0
100
AcDbLine
 10
69.960058884211
 20
812.672467580139
 30
0.0
 11
70.085253337141
 21
812.862993582717
 31
0.0
  0
LINE
  5
1094
330
1D
100
AcDbEntity
  8
0
100
AcDbLine
 10
69.960058884211
 20
812.672467580139
 30
0.0
 11
70.30907346299
 21
813.203612139505
 31
0.0
  0
LINE
  5
1095
330
1D
100
AcDbEntity
  8
0
100
AcDbLine
 10
69.674650558921
 20
812.786325859832
 30
0.0
 11
69.819133276874
 21
812.712377268143
 31
0.0
  0
LINE
  5
1096
330
1D
100
AcDbEntity
  8
0
100
AcDbLine
 10
69.496042146064
 20
812.887367014105
 30
0.0
 11
69.674650558921
 21
812.786325859832
 31
0.0
  0
LINE
  5
1097
330
1D
100
AcDbEntity
  8
0
100
AcDbLine
 10
63.464642655967
 20
815.926076656511
 30
0.0
 11
63.678840607603
 21
815.781278391622
 31
0.0
  0
LINE
  5
1098
330
1D
100
AcDbEntity
  8
0
100
AcDbLine
 10
63.885884522984
 20
815.642688972459
 30
0.0
 11
64.074063443916
 21
815.518224424428
 31
0.0
  0
LINE
  5
1099
330
1D
100
AcDbEntity
  8
0
100
AcDbLine
 10
56.559198395993
 20
820.471696349403
 30
0.0
 11
56.950147603736
 21
821.051309234348
 31
0.0
  0
LINE
  5
109A
330
1D
100
AcDbEntity
  8
0
100
AcDbLine
 10
68.37446721216
 20
813.663542244086
 30
0.0
 11
68.496686790392
 21
813.562032763265
 31
0.0
  0
LINE
  5
109B
330
1D
100
AcDbEntity
  8
0
100
AcDbLine
 10
69.751991644133
 20
812.882084548932
 30
0.0
 11
69.874507632527
 21
812.78028846557
 31
0.0
  0
LINE
  5
109C
330
1D
100
AcDbEntity
  8
0
100
AcDbLine
 10
69.591203550674
 20
813.004591401809
 30
0.0
 11
69.751991644133
 21
812.882084548932
 31
0.0
  0
LINE
  5
109D
330
1D
100
AcDbEntity
  8
0
100
AcDbLine
 10
68.306434029284
 20
813.733305314746
 30
0.0
 11
68.37446721216
 21
813.663542244086
 31
0.0
  0
LINE
  5
109E
330
1D
100
AcDbEntity
  8
0
100
AcDbLine
 10
56.449742850315
 20
820.545513783117
 30
0.0
 11
56.529358083997
 21
820.491811412912
 31
0.0
  0
LINE
  5
109F
330
1D
100
AcDbEntity
  8
0
100
AcDbLine
 10
56.317075195871
 20
820.634926665099
 30
0.0
 11
56.449742850315
 21
820.545513783117
 31
0.0
  0
LINE
  5
10A0
330
1D
100
AcDbEntity
  8
0
100
AcDbLine
 10
54.961493552169
 20
821.7229903844
 30
0.0
 11
55.174196055538
 21
821.579401927132
 31
0.0
  0
LINE
  5
10A1
330
1D
100
AcDbEntity
  8
0
100
AcDbLine
 10
54.901141112903
 20
821.590056893231
 30
0.0
 11
54.942586256579
 21
821.651502571639
 31
0.0
  0
LINE
  5
10A2
330
1D
100
AcDbEntity
  8
0
100
AcDbLine
 10
54.930981424899
 20
821.569941829721
 30
0.0
 11
55.010596658581
 21
821.516239459516
 31
0.0
  0
LINE
  5
10A3
330
1D
100
AcDbEntity
  8
0
100
AcDbLine
 10
55.133459710737
 20
821.520244508221
 30
0.0
 11
55.346162214105
 21
821.376656050953
 31
0.0
  0
LINE
  5
10A4
330
1D
100
AcDbEntity
  8
0
100
AcDbLine
 10
55.346162214105
 20
821.376656050953
 30
0.0
 11
55.545003055125
 21
821.245458490219
 31
0.0
  0
LINE
  5
10A5
330
1D
100
AcDbEntity
  8
0
100
AcDbLine
 10
55.385625353826
 20
821.434008213976
 30
0.0
 11
55.586851577753
 21
821.292542257633
 31
0.0
  0
LINE
  5
10A6
330
1D
100
AcDbEntity
  8
0
100
AcDbLine
 10
55.174196055538
 20
821.579401927132
 30
0.0
 11
55.385625353826
 21
821.434008213976
 31
0.0
  0
LINE
  5
10A7
330
1D
100
AcDbEntity
  8
0
100
AcDbLine
 10
55.010596658581
 20
821.516239459516
 30
0.0
 11
55.143214313025
 21
821.426739974993
 31
0.0
  0
LINE
  5
10A8
330
1D
100
AcDbEntity
  8
0
100
AcDbLine
 10
55.143214313025
 20
821.426739974993
 30
0.0
 11
55.318978685926
 21
821.308172799017
 31
0.0
  0
LINE
  5
10A9
330
1D
100
AcDbEntity
  8
0
100
AcDbLine
 10
55.719493518789
 20
821.133284838722
 30
0.0
 11
55.85922168501
 21
821.047301121865
 31
0.0
  0
LINE
  5
10AA
330
1D
100
AcDbEntity
  8
0
100
AcDbLine
 10
55.545003055125
 20
821.245458490219
 30
0.0
 11
55.719493518789
 21
821.133284838722
 31
0.0
  0
LINE
  5
10AB
330
1D
100
AcDbEntity
  8
0
100
AcDbLine
 10
55.75623486174
 20
821.169922711452
 30
0.0
 11
55.879633158681
 21
821.07685483132
 31
0.0
  0
LINE
  5
10AC
330
1D
100
AcDbEntity
  8
0
100
AcDbLine
 10
55.586851577753
 20
821.292542257633
 30
0.0
 11
55.75623486174
 21
821.169922711452
 31
0.0
  0
LINE
  5
10AD
330
1D
100
AcDbEntity
  8
0
100
AcDbLine
 10
55.318978685926
 20
821.308172799017
 30
0.0
 11
55.517955167592
 21
821.174010174774
 31
0.0
  0
LINE
  5
10AE
330
1D
100
AcDbEntity
  8
0
100
AcDbLine
 10
55.517955167592
 20
821.174010174774
 30
0.0
 11
55.730188055718
 21
821.030808320046
 31
0.0
  0
LINE
  5
10AF
330
1D
100
AcDbEntity
  8
0
100
AcDbLine
 10
78.726826370072
 20
807.742954283791
 30
0.0
 11
79.215603790169
 21
807.375541608992
 31
0.0
  0
LINE
  5
10B0
330
1D
100
AcDbEntity
  8
0
100
AcDbLine
 10
55.978070051011
 20
820.988152530175
 30
0.0
 11
56.348630003027
 21
821.531996198901
 31
0.0
  0
LINE
  5
10B1
330
1D
100
AcDbEntity
  8
0
100
AcDbLine
 10
55.85922168501
 20
821.047301121865
 30
0.0
 11
55.947080443171
 21
820.998076954889
 31
0.0
  0
LINE
  5
10B2
330
1D
100
AcDbEntity
  8
0
100
AcDbLine
 10
55.879633158681
 20
821.07685483132
 30
0.0
 11
55.957752686358
 21
821.013161822319
 31
0.0
  0
LINE
  5
10B3
330
1D
100
AcDbEntity
  8
0
100
AcDbLine
 10
64.778747565222
 20
815.815973125817
 30
0.0
 11
68.333099987583
 21
813.838036901241
 31
0.0
  0
LINE
  5
10B4
330
1D
100
AcDbEntity
  8
0
100
AcDbLine
 10
68.330456272471
 20
813.771513060457
 30
0.0
 11
68.430014772893
 21
813.731353441514
 31
0.0
  0
LINE
  5
10B5
330
1D
100
AcDbEntity
  8
0
100
AcDbLine
 10
68.430014772893
 20
813.731353441514
 30
0.0
 11
68.574324285766
 21
813.657504849825
 31
0.0
  0
LINE
  5
10B6
330
1D
100
AcDbEntity
  8
0
100
AcDbLine
 10
68.574324285766
 20
813.657504849825
 30
0.0
 11
68.752932698623
 21
813.556463695552
 31
0.0
  0
LINE
  5
10B7
330
1D
100
AcDbEntity
  8
0
100
AcDbLine
 10
69.392445980095
 20
813.146133191177
 30
0.0
 11
69.591203550674
 21
813.004591401809
 31
0.0
  0
LINE
  5
10B8
330
1D
100
AcDbEntity
  8
0
100
AcDbLine
 10
69.17395450398
 20
813.293294853526
 30
0.0
 11
69.392445980095
 21
813.146133191177
 31
0.0
  0
LINE
  5
10B9
330
1D
100
AcDbEntity
  8
0
100
AcDbLine
 10
68.958325205692
 20
813.43141395329
 30
0.0
 11
69.17395450398
 21
813.293294853526
 31
0.0
  0
LINE
  5
10BA
330
1D
100
AcDbEntity
  8
0
100
AcDbLine
 10
70.085253337141
 20
812.862993582717
 30
0.0
 11
70.542178783944
 21
812.6087224003
 31
0.0
  0
LINE
  5
10BB
330
1D
100
AcDbEntity
  8
0
100
AcDbLine
 10
68.752932698623
 20
813.556463695552
 30
0.0
 11
68.958325205692
 21
813.43141395329
 31
0.0
  0
LINE
  5
10BC
330
1D
100
AcDbEntity
  8
0
100
AcDbLine
 10
60.007005750446
 20
818.731673862024
 30
0.0
 11
60.126026359634
 21
818.669423604285
 31
0.0
  0
LINE
  5
10BD
330
1D
100
AcDbEntity
  8
0
100
AcDbLine
 10
58.629168781795
 20
819.743790227774
 30
0.0
 11
58.720546124243
 21
819.654660427555
 31
0.0
  0
LINE
  5
10BE
330
1D
100
AcDbEntity
  8
0
100
AcDbLine
 10
58.585514694984
 20
819.800979131459
 30
0.0
 11
58.629168781795
 21
819.743790227774
 31
0.0
  0
LINE
  5
10BF
330
1D
100
AcDbEntity
  8
0
100
AcDbLine
 10
58.669053202808
 20
819.795472071399
 30
0.0
 11
58.788073811996
 21
819.73322181366
 31
0.0
  0
LINE
  5
10C0
330
1D
100
AcDbEntity
  8
0
100
AcDbLine
 10
58.597977130549
 20
819.819764703044
 30
0.0
 11
58.652183527709
 21
819.895379982149
 31
0.0
  0
LINE
  5
10C1
330
1D
100
AcDbEntity
  8
0
100
AcDbLine
 10
58.597977130549
 20
819.819764703044
 30
0.0
 11
58.669053202808
 21
819.795472071399
 31
0.0
  0
LINE
  5
10C2
330
1D
100
AcDbEntity
  8
0
100
AcDbLine
 10
58.597977130549
 20
819.819764703044
 30
0.0
 11
58.97672201358
 21
820.348095334495
 31
0.0
  0
LINE
  5
10C3
330
1D
100
AcDbEntity
  8
0
100
AcDbLine
 10
58.860733324868
 20
819.535271781608
 30
0.0
 11
59.034325900999
 21
819.396942943284
 31
0.0
  0
LINE
  5
10C4
330
1D
100
AcDbEntity
  8
0
100
AcDbLine
 10
59.034325900999
 20
819.396942943284
 30
0.0
 11
59.23852314848
 21
819.243022950685
 31
0.0
  0
LINE
  5
10C5
330
1D
100
AcDbEntity
  8
0
100
AcDbLine
 10
59.23852314848
 20
819.243022950685
 30
0.0
 11
59.4544136627
 21
819.088356290187
 31
0.0
  0
LINE
  5
10C6
330
1D
100
AcDbEntity
  8
0
100
AcDbLine
 10
59.556556413962
 20
819.221872724998
 30
0.0
 11
59.760753661442
 21
819.0679527324
 31
0.0
  0
LINE
  5
10C7
330
1D
100
AcDbEntity
  8
0
100
AcDbLine
 10
59.340665899742
 20
819.376539385496
 30
0.0
 11
59.556556413962
 21
819.221872724998
 31
0.0
  0
LINE
  5
10C8
330
1D
100
AcDbEntity
  8
0
100
AcDbLine
 10
59.134721984361
 20
819.517034060547
 30
0.0
 11
59.340665899742
 21
819.376539385496
 31
0.0
  0
LINE
  5
10C9
330
1D
100
AcDbEntity
  8
0
100
AcDbLine
 10
58.788073811996
 20
819.73322181366
 30
0.0
 11
58.945096653267
 21
819.639793352691
 31
0.0
  0
LINE
  5
10CA
330
1D
100
AcDbEntity
  8
0
100
AcDbLine
 10
58.945096653267
 20
819.639793352691
 30
0.0
 11
59.134721984361
 21
819.517034060547
 31
0.0
  0
LINE
  5
10CB
330
1D
100
AcDbEntity
  8
0
100
AcDbLine
 10
58.720546124243
 20
819.654660427555
 30
0.0
 11
58.860733324868
 21
819.535271781608
 31
0.0
  0
LINE
  5
10CC
330
1D
100
AcDbEntity
  8
0
100
AcDbLine
 10
59.4544136627
 20
819.088356290187
 30
0.0
 11
59.660357578081
 21
818.947861615137
 31
0.0
  0
LINE
  5
10CD
330
1D
100
AcDbEntity
  8
0
100
AcDbLine
 10
60.074483438198
 20
818.810148645588
 30
0.0
 11
60.165910780647
 21
818.72110544791
 31
0.0
  0
LINE
  5
10CE
330
1D
100
AcDbEntity
  8
0
100
AcDbLine
 10
60.165910780647
 20
818.72110544791
 30
0.0
 11
60.209514867458
 21
818.663829941684
 31
0.0
  0
LINE
  5
10CF
330
1D
100
AcDbEntity
  8
0
100
AcDbLine
 10
60.197102431893
 20
818.64513097264
 30
0.0
 11
60.566894792411
 21
819.160913505712
 31
0.0
  0
LINE
  5
10D0
330
1D
100
AcDbEntity
  8
0
100
AcDbLine
 10
60.126026359634
 20
818.669423604285
 30
0.0
 11
60.197102431893
 21
818.64513097264
 31
0.0
  0
LINE
  5
10D1
330
1D
100
AcDbEntity
  8
0
100
AcDbLine
 10
59.934346237573
 20
818.929623894075
 30
0.0
 11
60.074483438198
 21
818.810148645588
 31
0.0
  0
LINE
  5
10D2
330
1D
100
AcDbEntity
  8
0
100
AcDbLine
 10
60.304620280539
 20
818.795095748135
 30
0.0
 11
61.848336249719
 21
817.767203854679
 31
0.0
  0
LINE
  5
10D3
330
1D
100
AcDbEntity
  8
0
100
AcDbLine
 10
59.760753661442
 20
819.0679527324
 30
0.0
 11
59.934346237573
 21
818.929623894075
 31
0.0
  0
LINE
  5
10D4
330
1D
100
AcDbEntity
  8
0
100
AcDbLine
 10
59.660357578081
 20
818.947861615137
 30
0.0
 11
59.849982909174
 21
818.825102322993
 31
0.0
  0
LINE
  5
10D5
330
1D
100
AcDbEntity
  8
0
100
AcDbLine
 10
59.849982909174
 20
818.825102322993
 30
0.0
 11
60.007005750446
 21
818.731673862024
 31
0.0
  0
LINE
  5
10D6
330
1D
100
AcDbEntity
  8
0
100
AcDbLine
 10
73.563539177158
 20
810.927387107929
 30
0.0
 11
76.083715586037
 21
809.52495211581
 31
0.0
  0
LINE
  5
10D7
330
1D
100
AcDbEntity
  8
0
100
AcDbLine
 10
76.083715586037
 20
809.52495211581
 30
0.0
 11
77.706797403588
 21
808.784097100865
 31
0.0
  0
LINE
  5
10D8
330
1D
100
AcDbEntity
  8
0
100
AcDbLine
 10
78.13409067524
 20
808.424305944883
 30
0.0
 11
78.352261127801
 21
808.294188253429
 31
0.0
  0
LINE
  5
10D9
330
1D
100
AcDbEntity
  8
0
100
AcDbLine
 10
78.555180908258
 20
807.875655623041
 30
0.0
 11
78.726826370072
 21
807.742954283791
 31
0.0
  0
LINE
  5
10DA
330
1D
100
AcDbEntity
  8
0
100
AcDbLine
 10
78.352261127801
 20
808.294188253429
 30
0.0
 11
78.587923885207
 21
808.170368122709
 31
0.0
  0
LINE
  5
10DB
330
1D
100
AcDbEntity
  8
0
100
AcDbLine
 10
77.685019661603
 20
808.828492133057
 30
0.0
 11
77.711801712411
 21
808.870880005787
 31
0.0
  0
LINE
  5
10DC
330
1D
100
AcDbEntity
  8
0
100
AcDbLine
 10
77.685019661603
 20
808.828492133057
 30
0.0
 11
77.720027338253
 21
808.75712720767
 31
0.0
  0
LINE
  5
10DD
330
1D
100
AcDbEntity
  8
0
100
AcDbLine
 10
77.711801712411
 20
808.870880005787
 30
0.0
 11
77.802303617694
 21
808.877633903921
 31
0.0
  0
LINE
  5
10DE
330
1D
100
AcDbEntity
  8
0
100
AcDbLine
 10
77.802303617694
 20
808.877633903921
 30
0.0
 11
77.942767047205
 21
808.850923700439
 31
0.0
  0
LINE
  5
10DF
330
1D
100
AcDbEntity
  8
0
100
AcDbLine
 10
77.720027338253
 20
808.75712720767
 30
0.0
 11
77.808614488322
 21
808.662564652488
 31
0.0
  0
LINE
  5
10E0
330
1D
100
AcDbEntity
  8
0
100
AcDbLine
 10
77.951765086407
 20
808.548508761505
 30
0.0
 11
78.13409067524
 21
808.424305944883
 31
0.0
  0
LINE
  5
10E1
330
1D
100
AcDbEntity
  8
0
100
AcDbLine
 10
78.81491421075
 20
808.065526899375
 30
0.0
 11
79.027851977409
 21
807.980345930079
 31
0.0
  0
LINE
  5
10E2
330
1D
100
AcDbEntity
  8
0
100
AcDbLine
 10
79.4390159865
 20
807.904502884068
 30
0.0
 11
79.466664062711
 21
807.946390756798
 31
0.0
  0
LINE
  5
10E3
330
1D
100
AcDbEntity
  8
0
100
AcDbLine
 10
79.34938010662
 20
807.897248985935
 30
0.0
 11
79.4390159865
 21
807.904502884068
 31
0.0
  0
LINE
  5
10E4
330
1D
100
AcDbEntity
  8
0
100
AcDbLine
 10
79.208100651705
 20
807.924545791957
 30
0.0
 11
79.34938010662
 21
807.897248985935
 31
0.0
  0
LINE
  5
10E5
330
1D
100
AcDbEntity
  8
0
100
AcDbLine
 10
79.027851977409
 20
807.980345930079
 30
0.0
 11
79.208100651705
 21
807.924545791957
 31
0.0
  0
LINE
  5
10E6
330
1D
100
AcDbEntity
  8
0
100
AcDbLine
 10
77.808614488322
 20
808.662564652488
 30
0.0
 11
77.951765086407
 21
808.548508761505
 31
0.0
  0
LINE
  5
10E7
330
1D
100
AcDbEntity
  8
0
100
AcDbLine
 10
78.587923885207
 20
808.170368122709
 30
0.0
 11
78.739129488177
 21
808.100529990391
 31
0.0
  0
LINE
  5
10E8
330
1D
100
AcDbEntity
  8
0
100
AcDbLine
 10
78.587923885207
 20
808.170368122709
 30
0.0
 11
78.81491421075
 21
808.065526899375
 31
0.0
  0
LINE
  5
10E9
330
1D
100
AcDbEntity
  8
0
100
AcDbLine
 10
68.289175768096
 20
813.771213129518
 30
0.0
 11
68.333099987583
 21
813.838036901241
 31
0.0
  0
LINE
  5
10EA
330
1D
100
AcDbEntity
  8
0
100
AcDbLine
 10
68.289175768096
 20
813.771213129518
 30
0.0
 11
68.60077101059
 21
814.245256142642
 31
0.0
  0
LINE
  5
10EB
330
1D
100
AcDbEntity
  8
0
100
AcDbLine
 10
55.730188055718
 20
821.030808320046
 30
0.0
 11
55.942384341305
 21
820.887743067859
 31
0.0
  0
LINE
  5
10EC
330
1D
100
AcDbEntity
  8
0
100
AcDbLine
 10
55.942384341305
 20
820.887743067859
 30
0.0
 11
56.141397425511
 21
820.753443841075
 31
0.0
  0
LINE
  5
10ED
330
1D
100
AcDbEntity
  8
0
100
AcDbLine
 10
54.922030412448
 20
821.665638221378
 30
0.0
 11
55.133459710737
 21
821.520244508221
 31
0.0
  0
LINE
  5
10EE
330
1D
100
AcDbEntity
  8
0
100
AcDbLine
 10
77.942767047205
 20
808.850923700439
 30
0.0
 11
78.122965721502
 21
808.795036959777
 31
0.0
  0
LINE
  5
10EF
330
1D
100
AcDbEntity
  8
0
100
AcDbLine
 10
79.431656386062
 20
808.017755682185
 30
0.0
 11
79.466664062711
 21
807.946390756798
 31
0.0
  0
LINE
  5
10F0
330
1D
100
AcDbEntity
  8
0
100
AcDbLine
 10
78.122965721502
 20
808.795036959777
 30
0.0
 11
78.335903488161
 21
808.70985599048
 31
0.0
  0
LINE
  5
10F1
330
1D
100
AcDbEntity
  8
0
100
AcDbLine
 10
54.23248431191
 20
822.541909341085
 30
0.0
 11
54.374226415301
 21
822.743881600445
 31
0.0
  0
LINE
  5
10F2
330
1D
100
AcDbEntity
  8
0
100
AcDbLine
 10
54.23248431191
 20
822.541909341085
 30
0.0
 11
54.567090552947
 21
823.018699066097
 31
0.0
  0
LINE
  5
10F3
330
1D
100
AcDbEntity
  8
0
100
AcDbLine
 10
53.959371434887
 20
822.673263961878
 30
0.0
 11
54.098961332517
 21
822.592440756798
 31
0.0
  0
LINE
  5
10F4
330
1D
100
AcDbEntity
  8
0
100
AcDbLine
 10
53.785769239813
 20
822.781576139705
 30
0.0
 11
53.959371434887
 21
822.673263961878
 31
0.0
  0
LINE
  5
10F5
330
1D
100
AcDbEntity
  8
0
100
AcDbLine
 10
52.964417041109
 20
823.358552400642
 30
0.0
 11
53.160028201527
 21
823.212360869013
 31
0.0
  0
LINE
  5
10F6
330
1D
100
AcDbEntity
  8
0
100
AcDbLine
 10
62.633365030015
 20
817.747661573168
 30
0.0
 11
65.055689708647
 21
816.434931969349
 31
0.0
  0
LINE
  5
10F7
330
1D
100
AcDbEntity
  8
0
100
AcDbLine
 10
56.939619408524
 20
821.035700358617
 30
0.0
 11
58.652183527709
 21
819.895379982149
 31
0.0
  0
LINE
  5
10F8
330
1D
100
AcDbEntity
  8
0
100
AcDbLine
 10
65.567732372179
 20
816.095534897866
 30
0.0
 11
65.748848668868
 21
815.99223752581
 31
0.0
  0
LINE
  5
10F9
330
1D
100
AcDbEntity
  8
0
100
AcDbLine
 10
65.748848668868
 20
815.99223752581
 30
0.0
 11
65.892223502989
 21
815.922970023035
 31
0.0
  0
LINE
  5
10FA
330
1D
100
AcDbEntity
  8
0
100
AcDbLine
 10
79.343119235992
 20
808.112404839908
 30
0.0
 11
79.431656386062
 21
808.017755682185
 31
0.0
  0
LINE
  5
10FB
330
1D
100
AcDbEntity
  8
0
100
AcDbLine
 10
79.199918637907
 20
808.226374128351
 30
0.0
 11
79.343119235992
 21
808.112404839908
 31
0.0
  0
LINE
  5
10FC
330
1D
100
AcDbEntity
  8
0
100
AcDbLine
 10
78.335903488161
 20
808.70985599048
 30
0.0
 11
78.563759839107
 21
808.604514767146
 31
0.0
  0
LINE
  5
10FD
330
1D
100
AcDbEntity
  8
0
100
AcDbLine
 10
54.144633060226
 20
822.645746509659
 30
0.0
 11
54.213402845641
 21
822.577059272024
 31
0.0
  0
LINE
  5
10FE
330
1D
100
AcDbEntity
  8
0
100
AcDbLine
 10
54.023150084534
 20
822.748331823505
 30
0.0
 11
54.144633060226
 21
822.645746509659
 31
0.0
  0
LINE
  5
10FF
330
1D
100
AcDbEntity
  8
0
100
AcDbLine
 10
53.160028201527
 20
823.212360869013
 30
0.0
 11
53.37443666494
 21
823.059127221216
 31
0.0
  0
LINE
  5
1100
330
1D
100
AcDbEntity
  8
0
100
AcDbLine
 10
49.450402424372
 20
825.366700545914
 30
0.0
 11
49.942972974802
 21
826.014602226699
 31
0.0
  0
LINE
  5
1101
330
1D
100
AcDbEntity
  8
0
100
AcDbLine
 10
49.222001140637
 20
825.49729791797
 30
0.0
 11
49.405234871041
 21
825.37926804869
 31
0.0
  0
LINE
  5
1102
330
1D
100
AcDbEntity
  8
0
100
AcDbLine
 10
52.614852981462
 20
823.655289688833
 30
0.0
 11
52.683759369418
 21
823.586639053738
 31
0.0
  0
LINE
  5
1103
330
1D
100
AcDbEntity
  8
0
100
AcDbLine
 10
52.633905609406
 20
823.68608980845
 30
0.0
 11
52.729294494586
 21
823.639908204059
 31
0.0
  0
LINE
  5
1104
330
1D
100
AcDbEntity
  8
0
100
AcDbLine
 10
52.729294494586
 20
823.639908204059
 30
0.0
 11
52.869020994757
 21
823.559121601519
 31
0.0
  0
LINE
  5
1105
330
1D
100
AcDbEntity
  8
0
100
AcDbLine
 10
52.595908117733
 20
823.690476222312
 30
0.0
 11
52.754339821437
 21
823.916251806447
 31
0.0
  0
LINE
  5
1106
330
1D
100
AcDbEntity
  8
0
100
AcDbLine
 10
52.595908117733
 20
823.690476222312
 30
0.0
 11
52.974114561027
 21
824.229445245949
 31
0.0
  0
LINE
  5
1107
330
1D
100
AcDbEntity
  8
0
100
AcDbLine
 10
52.683759369418
 20
823.586639053738
 30
0.0
 11
52.80510574257
 21
823.484017137352
 31
0.0
  0
LINE
  5
1108
330
1D
100
AcDbEntity
  8
0
100
AcDbLine
 10
65.365235313376
 20
816.221799703637
 30
0.0
 11
65.567732372179
 21
816.095534897866
 31
0.0
  0
LINE
  5
1109
330
1D
100
AcDbEntity
  8
0
100
AcDbLine
 10
65.892223502989
 20
815.922970023035
 30
0.0
 11
65.993812388169
 21
815.88752713365
 31
0.0
  0
LINE
  5
110A
330
1D
100
AcDbEntity
  8
0
100
AcDbLine
 10
77.796799666882
 20
809.042771074233
 30
0.0
 11
77.685019661603
 21
808.828492133057
 31
0.0
  0
LINE
  5
110B
330
1D
100
AcDbEntity
  8
0
100
AcDbLine
 10
79.017593049075
 20
808.350576944973
 30
0.0
 11
79.199918637907
 21
808.226374128351
 31
0.0
  0
LINE
  5
110C
330
1D
100
AcDbEntity
  8
0
100
AcDbLine
 10
78.563759839107
 20
808.604514767146
 30
0.0
 11
78.79855657111
 21
808.481194636426
 31
0.0
  0
LINE
  5
110D
330
1D
100
AcDbEntity
  8
0
100
AcDbLine
 10
65.146830439802
 20
816.368911365986
 30
0.0
 11
65.365235313376
 21
816.221799703637
 31
0.0
  0
LINE
  5
110E
330
1D
100
AcDbEntity
  8
0
100
AcDbLine
 10
64.934001399253
 20
816.523080654428
 30
0.0
 11
65.146830439802
 21
816.368911365986
 31
0.0
  0
LINE
  5
110F
330
1D
100
AcDbEntity
  8
0
100
AcDbLine
 10
66.047870973184
 20
815.897239508135
 30
0.0
 11
73.479280501864
 21
811.869938225007
 31
0.0
  0
LINE
  5
1110
330
1D
100
AcDbEntity
  8
0
100
AcDbLine
 10
66.044115839886
 20
815.89185526782
 30
0.0
 11
66.334409774881
 21
816.308088776451
 31
0.0
  0
LINE
  5
1111
330
1D
100
AcDbEntity
  8
0
100
AcDbLine
 10
65.993812388169
 20
815.88752713365
 30
0.0
 11
66.044115839886
 21
815.89185526782
 31
0.0
  0
LINE
  5
1112
330
1D
100
AcDbEntity
  8
0
100
AcDbLine
 10
78.79855657111
 20
808.481194636426
 30
0.0
 11
79.017593049075
 21
808.350576944973
 31
0.0
  0
LINE
  5
1113
330
1D
100
AcDbEntity
  8
0
100
AcDbLine
 10
53.863838785994
 20
822.873796560215
 30
0.0
 11
54.023150084534
 21
822.748331823505
 31
0.0
  0
LINE
  5
1114
330
1D
100
AcDbEntity
  8
0
100
AcDbLine
 10
53.668227625576
 20
823.019988091844
 30
0.0
 11
53.863838785994
 21
822.873796560215
 31
0.0
  0
LINE
  5
1115
330
1D
100
AcDbEntity
  8
0
100
AcDbLine
 10
64.747022031904
 20
816.669022890213
 30
0.0
 11
64.934001399253
 21
816.523080654428
 31
0.0
  0
LINE
  5
1116
330
1D
100
AcDbEntity
  8
0
100
AcDbLine
 10
53.453955764704
 20
823.173258342181
 30
0.0
 11
53.668227625576
 21
823.019988091844
 31
0.0
  0
LINE
  5
1117
330
1D
100
AcDbEntity
  8
0
100
AcDbLine
 10
53.242996081658
 20
823.318265452797
 30
0.0
 11
53.453955764704
 21
823.173258342181
 31
0.0
  0
LINE
  5
1118
330
1D
100
AcDbEntity
  8
0
100
AcDbLine
 10
52.869020994757
 20
823.559121601519
 30
0.0
 11
53.042573189831
 21
823.450722821152
 31
0.0
  0
LINE
  5
1119
330
1D
100
AcDbEntity
  8
0
100
AcDbLine
 10
53.042573189831
 20
823.450722821152
 30
0.0
 11
53.242996081658
 21
823.318265452797
 31
0.0
  0
LINE
  5
111A
330
1D
100
AcDbEntity
  8
0
100
AcDbLine
 10
52.80510574257
 20
823.484017137352
 30
0.0
 11
52.964417041109
 21
823.358552400642
 31
0.0
  0
LINE
  5
111B
330
1D
100
AcDbEntity
  8
0
100
AcDbLine
 10
48.909798089739
 20
825.716346371537
 30
0.0
 11
49.222001140637
 21
825.49729791797
 31
0.0
  0
LINE
  5
111C
330
1D
100
AcDbEntity
  8
0
100
AcDbLine
 10
48.507435130108
 20
826.008233282373
 30
0.0
 11
48.909798089739
 21
825.716346371537
 31
0.0
  0
LINE
  5
111D
330
1D
100
AcDbEntity
  8
0
100
AcDbLine
 10
45.481684301733
 20
828.374879116584
 30
0.0
 11
45.951941877625
 21
828.99343147128
 31
0.0
  0
LINE
  5
111E
330
1D
100
AcDbEntity
  8
0
100
AcDbLine
 10
45.481684301733
 20
828.374879116584
 30
0.0
 11
45.560011455503
 21
828.293745726526
 31
0.0
  0
LINE
  5
111F
330
1D
100
AcDbEntity
  8
0
100
AcDbLine
 10
45.560011455503
 20
828.293745726526
 30
0.0
 11
45.775649530457
 21
828.110241828392
 31
0.0
  0
LINE
  5
1120
330
1D
100
AcDbEntity
  8
0
100
AcDbLine
 10
45.775649530457
 20
828.110241828392
 30
0.0
 11
46.096374497742
 21
827.849553766985
 31
0.0
  0
LINE
  5
1121
330
1D
100
AcDbEntity
  8
0
100
AcDbLine
 10
46.096374497742
 20
827.849553766985
 30
0.0
 11
46.523119370058
 21
827.512297567707
 31
0.0
  0
LINE
  5
1122
330
1D
100
AcDbEntity
  8
0
100
AcDbLine
 10
46.523119370058
 20
827.512297567707
 30
0.0
 11
47.019027363591
 21
827.127835408386
 31
0.0
  0
LINE
  5
1123
330
1D
100
AcDbEntity
  8
0
100
AcDbLine
 10
47.019027363591
 20
827.127835408386
 30
0.0
 11
47.531564006771
 21
826.736774915114
 31
0.0
  0
LINE
  5
1124
330
1D
100
AcDbEntity
  8
0
100
AcDbLine
 10
49.879892616751
 20
826.111199380467
 30
0.0
 11
50.036435966098
 21
825.976940415123
 31
0.0
  0
LINE
  5
1125
330
1D
100
AcDbEntity
  8
0
100
AcDbLine
 10
50.036435966098
 20
825.976940415123
 30
0.0
 11
50.221505525826
 21
825.828290295506
 31
0.0
  0
LINE
  5
1126
330
1D
100
AcDbEntity
  8
0
100
AcDbLine
 10
50.221505525826
 20
825.828290295506
 30
0.0
 11
50.431064951133
 21
825.669657867343
 31
0.0
  0
LINE
  5
1127
330
1D
100
AcDbEntity
  8
0
100
AcDbLine
 10
50.431064951133
 20
825.669657867343
 30
0.0
 11
50.645163606925
 21
825.516487617006
 31
0.0
  0
LINE
  5
1128
330
1D
100
AcDbEntity
  8
0
100
AcDbLine
 10
50.645163606925
 20
825.516487617006
 30
0.0
 11
50.842817845404
 21
825.383434800383
 31
0.0
  0
LINE
  5
1129
330
1D
100
AcDbEntity
  8
0
100
AcDbLine
 10
50.842817845404
 20
825.383434800383
 30
0.0
 11
51.01884132177
 21
825.272916404775
 31
0.0
  0
LINE
  5
112A
330
1D
100
AcDbEntity
  8
0
100
AcDbLine
 10
50.950237133847
 20
825.515290465679
 30
0.0
 11
51.106867085734
 21
825.380981500335
 31
0.0
  0
LINE
  5
112B
330
1D
100
AcDbEntity
  8
0
100
AcDbLine
 10
54.374226415301
 20
822.743881600445
 30
0.0
 11
54.639935227277
 21
822.566957905087
 31
0.0
  0
LINE
  5
112C
330
1D
100
AcDbEntity
  8
0
100
AcDbLine
 10
51.106867085734
 20
825.380981500335
 30
0.0
 11
51.219246729327
 21
825.273028752774
 31
0.0
  0
LINE
  5
112D
330
1D
100
AcDbEntity
  8
0
100
AcDbLine
 10
51.219246729327
 20
825.273028752774
 30
0.0
 11
51.286484206196
 21
825.194487478884
 31
0.0
  0
LINE
  5
112E
330
1D
100
AcDbEntity
  8
0
100
AcDbLine
 10
51.299743429279
 20
825.152653126932
 30
0.0
 11
51.615757784417
 21
825.582442435254
 31
0.0
  0
LINE
  5
112F
330
1D
100
AcDbEntity
  8
0
100
AcDbLine
 10
51.156950130488
 20
825.196527878446
 30
0.0
 11
51.253782797885
 21
825.15424697821
 31
0.0
  0
LINE
  5
1130
330
1D
100
AcDbEntity
  8
0
100
AcDbLine
 10
51.01884132177
 20
825.272916404775
 30
0.0
 11
51.156950130488
 21
825.196527878446
 31
0.0
  0
LINE
  5
1131
330
1D
100
AcDbEntity
  8
0
100
AcDbLine
 10
49.767426370618
 20
826.219202128028
 30
0.0
 11
49.879892616751
 21
826.111199380467
 31
0.0
  0
LINE
  5
1132
330
1D
100
AcDbEntity
  8
0
100
AcDbLine
 10
50.765254176659
 20
825.663890585296
 30
0.0
 11
50.950237133847
 21
825.515290465679
 31
0.0
  0
LINE
  5
1133
330
1D
100
AcDbEntity
  8
0
100
AcDbLine
 10
49.700188893749
 20
826.297743401918
 30
0.0
 11
49.767426370618
 21
826.219202128028
 31
0.0
  0
LINE
  5
1134
330
1D
100
AcDbEntity
  8
0
100
AcDbLine
 10
50.555608148812
 20
825.822573013459
 30
0.0
 11
50.765254176659
 21
825.663890585296
 31
0.0
  0
LINE
  5
1135
330
1D
100
AcDbEntity
  8
0
100
AcDbLine
 10
54.471706560055
 20
823.535054429172
 30
0.0
 11
54.680752845641
 21
823.386533216941
 31
0.0
  0
LINE
  5
1136
330
1D
100
AcDbEntity
  8
0
100
AcDbLine
 10
54.680752845641
 20
823.386533216941
 30
0.0
 11
54.867276510685
 21
823.263601681611
 31
0.0
  0
LINE
  5
1137
330
1D
100
AcDbEntity
  8
0
100
AcDbLine
 10
54.867276510685
 20
823.263601681611
 30
0.0
 11
55.02701704341
 21
823.167680400319
 31
0.0
  0
LINE
  5
1138
330
1D
100
AcDbEntity
  8
0
100
AcDbLine
 10
60.405230094362
 20
819.271475440156
 30
0.0
 11
62.633365030015
 21
817.747661573168
 31
0.0
  0
LINE
  5
1139
330
1D
100
AcDbEntity
  8
0
100
AcDbLine
 10
64.589655477476
 20
816.802256022532
 30
0.0
 11
64.747022031904
 21
816.669022890213
 31
0.0
  0
LINE
  5
113A
330
1D
100
AcDbEntity
  8
0
100
AcDbLine
 10
64.478012436424
 20
816.911284603118
 30
0.0
 11
64.589655477476
 21
816.802256022532
 31
0.0
  0
LINE
  5
113B
330
1D
100
AcDbEntity
  8
0
100
AcDbLine
 10
64.412771369716
 20
816.99248376084
 30
0.0
 11
64.478012436424
 21
816.911284603118
 31
0.0
  0
LINE
  5
113C
330
1D
100
AcDbEntity
  8
0
100
AcDbLine
 10
64.402745159336
 20
817.038917855053
 30
0.0
 11
64.770277893851
 21
817.565899032345
 31
0.0
  0
LINE
  5
113D
330
1D
100
AcDbEntity
  8
0
100
AcDbLine
 10
64.402745159336
 20
817.038917855053
 30
0.0
 11
64.452998611052
 21
817.043159386683
 31
0.0
  0
LINE
  5
113E
330
1D
100
AcDbEntity
  8
0
100
AcDbLine
 10
64.452998611052
 20
817.043159386683
 30
0.0
 11
64.554587496232
 21
817.007716497299
 31
0.0
  0
LINE
  5
113F
330
1D
100
AcDbEntity
  8
0
100
AcDbLine
 10
64.554587496232
 20
817.007716497299
 30
0.0
 11
64.697875727813
 21
816.938498994523
 31
0.0
  0
LINE
  5
1140
330
1D
100
AcDbEntity
  8
0
100
AcDbLine
 10
65.699788967317
 20
816.26166363012
 30
0.0
 11
65.857068919205
 21
816.128480497801
 31
0.0
  0
LINE
  5
1141
330
1D
100
AcDbEntity
  8
0
100
AcDbLine
 10
65.512809599968
 20
816.407605865905
 30
0.0
 11
65.699788967317
 21
816.26166363012
 31
0.0
  0
LINE
  5
1142
330
1D
100
AcDbEntity
  8
0
100
AcDbLine
 10
65.300030559419
 20
816.561861756888
 30
0.0
 11
65.512809599968
 21
816.407605865905
 31
0.0
  0
LINE
  5
1143
330
1D
100
AcDbEntity
  8
0
100
AcDbLine
 10
65.081625685845
 20
816.708973419237
 30
0.0
 11
65.300030559419
 21
816.561861756888
 31
0.0
  0
LINE
  5
1144
330
1D
100
AcDbEntity
  8
0
100
AcDbLine
 10
64.879042024502
 20
816.835288225007
 30
0.0
 11
65.081625685845
 21
816.708973419237
 31
0.0
  0
LINE
  5
1145
330
1D
100
AcDbEntity
  8
0
100
AcDbLine
 10
64.697875727813
 20
816.938498994523
 30
0.0
 11
64.879042024502
 21
816.835288225007
 31
0.0
  0
LINE
  5
1146
330
1D
100
AcDbEntity
  8
0
100
AcDbLine
 10
65.857068919205
 20
816.128480497801
 30
0.0
 11
65.968848562797
 21
816.019488519756
 31
0.0
  0
LINE
  5
1147
330
1D
100
AcDbEntity
  8
0
100
AcDbLine
 10
74.052079223431
 20
811.641073978164
 30
0.0
 11
74.865826816824
 21
811.315937550532
 31
0.0
  0
LINE
  5
1148
330
1D
100
AcDbEntity
  8
0
100
AcDbLine
 10
73.479280501864
 20
811.869938225007
 30
0.0
 11
74.865826816824
 21
811.315937550532
 31
0.0
  0
LINE
  5
1149
330
1D
100
AcDbEntity
  8
0
100
AcDbLine
 10
65.968848562797
 20
816.019488519756
 30
0.0
 11
66.034089629505
 21
815.938289362033
 31
0.0
  0
LINE
  5
114A
330
1D
100
AcDbEntity
  8
0
100
AcDbLine
 10
74.765284034859
 20
811.457361682869
 30
0.0
 11
74.792932111071
 21
811.499249555598
 31
0.0
  0
LINE
  5
114B
330
1D
100
AcDbEntity
  8
0
100
AcDbLine
 10
74.765284034859
 20
811.457361682869
 30
0.0
 11
74.800291711509
 21
811.385996757481
 31
0.0
  0
LINE
  5
114C
330
1D
100
AcDbEntity
  8
0
100
AcDbLine
 10
74.800291711509
 20
811.385996757481
 30
0.0
 11
74.888828861578
 21
811.291347599759
 31
0.0
  0
LINE
  5
114D
330
1D
100
AcDbEntity
  8
0
100
AcDbLine
 10
74.792932111071
 20
811.499249555598
 30
0.0
 11
74.882567990951
 21
811.506503453732
 31
0.0
  0
LINE
  5
114E
330
1D
100
AcDbEntity
  8
0
100
AcDbLine
 10
74.882567990951
 20
811.506503453732
 30
0.0
 11
75.023847445866
 21
811.47920664771
 31
0.0
  0
LINE
  5
114F
330
1D
100
AcDbEntity
  8
0
100
AcDbLine
 10
75.023847445866
 20
811.47920664771
 30
0.0
 11
75.204096120162
 21
811.423406509588
 31
0.0
  0
LINE
  5
1150
330
1D
100
AcDbEntity
  8
0
100
AcDbLine
 10
74.888828861578
 20
811.291347599759
 30
0.0
 11
75.032029459663
 21
811.177378311316
 31
0.0
  0
LINE
  5
1151
330
1D
100
AcDbEntity
  8
0
100
AcDbLine
 10
75.032029459663
 20
811.177378311316
 30
0.0
 11
75.214355048496
 21
811.053175494694
 31
0.0
  0
LINE
  5
1152
330
1D
100
AcDbEntity
  8
0
100
AcDbLine
 10
75.214355048496
 20
811.053175494694
 30
0.0
 11
75.433391526461
 21
810.92255780324
 31
0.0
  0
LINE
  5
1153
330
1D
100
AcDbEntity
  8
0
100
AcDbLine
 10
75.433391526461
 20
810.92255780324
 30
0.0
 11
75.668188258464
 21
810.79923767252
 31
0.0
  0
LINE
  5
1154
330
1D
100
AcDbEntity
  8
0
100
AcDbLine
 10
75.668188258464
 20
810.79923767252
 30
0.0
 11
75.89604460941
 21
810.693896449186
 31
0.0
  0
LINE
  5
1155
330
1D
100
AcDbEntity
  8
0
100
AcDbLine
 10
75.89604460941
 20
810.693896449186
 30
0.0
 11
76.108982376069
 21
810.60871547989
 31
0.0
  0
LINE
  5
1156
330
1D
100
AcDbEntity
  8
0
100
AcDbLine
 10
76.423333609249
 20
810.741187787179
 30
0.0
 11
76.511920759318
 21
810.646625231997
 31
0.0
  0
LINE
  5
1157
330
1D
100
AcDbEntity
  8
0
100
AcDbLine
 10
76.576704271977
 20
810.63234894345
 30
0.0
 11
80.612871646837
 21
809.019680528524
 31
0.0
  0
LINE
  5
1158
330
1D
100
AcDbEntity
  8
0
100
AcDbLine
 10
76.576704271977
 20
810.63234894345
 30
0.0
 11
78.272548288219
 21
809.954767012961
 31
0.0
  0
LINE
  5
1159
330
1D
100
AcDbEntity
  8
0
100
AcDbLine
 10
76.511920759318
 20
810.646625231997
 30
0.0
 11
76.546878435968
 21
810.575173704069
 31
0.0
  0
LINE
  5
115A
330
1D
100
AcDbEntity
  8
0
100
AcDbLine
 10
76.52014638516
 20
810.532872433879
 30
0.0
 11
76.546878435968
 21
810.575173704069
 31
0.0
  0
LINE
  5
115B
330
1D
100
AcDbEntity
  8
0
100
AcDbLine
 10
76.429644479876
 20
810.526118535746
 30
0.0
 11
76.52014638516
 21
810.532872433879
 31
0.0
  0
LINE
  5
115C
330
1D
100
AcDbEntity
  8
0
100
AcDbLine
 10
76.289181050365
 20
810.552828739228
 30
0.0
 11
76.429644479876
 21
810.526118535746
 31
0.0
  0
LINE
  5
115D
330
1D
100
AcDbEntity
  8
0
100
AcDbLine
 10
76.108982376069
 20
810.60871547989
 30
0.0
 11
76.289181050365
 21
810.552828739228
 31
0.0
  0
LINE
  5
115E
330
1D
100
AcDbEntity
  8
0
100
AcDbLine
 10
76.280183011164
 20
810.855243678162
 30
0.0
 11
76.423333609249
 21
810.741187787179
 31
0.0
  0
LINE
  5
115F
330
1D
100
AcDbEntity
  8
0
100
AcDbLine
 10
76.097857422331
 20
810.979446494784
 30
0.0
 11
76.280183011164
 21
810.855243678162
 31
0.0
  0
LINE
  5
1160
330
1D
100
AcDbEntity
  8
0
100
AcDbLine
 10
75.87968696977
 20
811.109564186237
 30
0.0
 11
76.097857422331
 21
810.979446494784
 31
0.0
  0
LINE
  5
1161
330
1D
100
AcDbEntity
  8
0
100
AcDbLine
 10
75.644024212363
 20
811.233384316958
 30
0.0
 11
75.87968696977
 21
811.109564186237
 31
0.0
  0
LINE
  5
1162
330
1D
100
AcDbEntity
  8
0
100
AcDbLine
 10
75.417033886821
 20
811.338225540291
 30
0.0
 11
75.644024212363
 21
811.233384316958
 31
0.0
  0
LINE
  5
1163
330
1D
100
AcDbEntity
  8
0
100
AcDbLine
 10
75.204096120162
 20
811.423406509588
 30
0.0
 11
75.417033886821
 21
811.338225540291
 31
0.0
  0
LINE
  5
1164
330
1D
100
AcDbEntity
  8
0
100
AcDbLine
 10
55.23799481377
 20
823.11030461785
 30
0.0
 11
55.636812895084
 21
823.637465887292
 31
0.0
  0
LINE
  5
1165
330
1D
100
AcDbEntity
  8
0
100
AcDbLine
 10
55.144296756064
 20
823.110014821332
 30
0.0
 11
55.217582635944
 21
823.088949688762
 31
0.0
  0
LINE
  5
1166
330
1D
100
AcDbEntity
  8
0
100
AcDbLine
 10
55.02701704341
 20
823.167680400319
 30
0.0
 11
55.144296756064
 21
823.110014821332
 31
0.0
  0
LINE
  5
1167
330
1D
100
AcDbEntity
  8
0
100
AcDbLine
 10
49.686929670667
 20
826.33957775387
 30
0.0
 11
50.024280941469
 21
826.798391250467
 31
0.0
  0
LINE
  5
1168
330
1D
100
AcDbEntity
  8
0
100
AcDbLine
 10
50.341509493021
 20
825.975743263797
 30
0.0
 11
50.555608148812
 21
825.822573013459
 31
0.0
  0
LINE
  5
1169
330
1D
100
AcDbEntity
  8
0
100
AcDbLine
 10
54.260108866158
 20
823.695556472578
 30
0.0
 11
54.471706560055
 21
823.535054429172
 31
0.0
  0
LINE
  5
116A
330
1D
100
AcDbEntity
  8
0
100
AcDbLine
 10
47.531564006771
 20
826.736774915114
 30
0.0
 11
48.040155459422
 21
826.353881151401
 31
0.0
  0
LINE
  5
116B
330
1D
100
AcDbEntity
  8
0
100
AcDbLine
 10
48.040155459422
 20
826.353881151401
 30
0.0
 11
48.507435130108
 21
826.008233282373
 31
0.0
  0
LINE
  5
116C
330
1D
100
AcDbEntity
  8
0
100
AcDbLine
 10
45.353244063756
 20
828.848214098672
 30
0.0
 11
45.505041845219
 21
828.781935568642
 31
0.0
  0
LINE
  5
116D
330
1D
100
AcDbEntity
  8
0
100
AcDbLine
 10
44.721619050874
 20
829.266807485028
 30
0.0
 11
45.091560867335
 21
829.008765506983
 31
0.0
  0
LINE
  5
116E
330
1D
100
AcDbEntity
  8
0
100
AcDbLine
 10
43.779268624291
 20
829.982808667652
 30
0.0
 11
44.281304821054
 21
829.592960867684
 31
0.0
  0
LINE
  5
116F
330
1D
100
AcDbEntity
  8
0
100
AcDbLine
 10
44.281304821054
 20
829.592960867684
 30
0.0
 11
44.721619050874
 21
829.266807485028
 31
0.0
  0
LINE
  5
1170
330
1D
100
AcDbEntity
  8
0
100
AcDbLine
 10
42.014490769023
 20
831.496723758254
 30
0.0
 11
42.354910084558
 21
831.17974730864
 31
0.0
  0
LINE
  5
1171
330
1D
100
AcDbEntity
  8
0
100
AcDbLine
 10
41.772204309562
 20
831.743071300483
 30
0.0
 11
42.014490769023
 21
831.496723758254
 31
0.0
  0
LINE
  5
1172
330
1D
100
AcDbEntity
  8
0
100
AcDbLine
 10
41.650935058129
 20
831.899226795606
 30
0.0
 11
41.772204309562
 21
831.743071300483
 31
0.0
  0
LINE
  5
1173
330
1D
100
AcDbEntity
  8
0
100
AcDbLine
 10
41.672027174297
 20
831.942359412447
 30
0.0
 11
42.231067745775
 21
832.631355275823
 31
0.0
  0
LINE
  5
1174
330
1D
100
AcDbEntity
  8
0
100
AcDbLine
 10
41.672027174297
 20
831.942359412447
 30
0.0
 11
41.82382495576
 21
831.876080882417
 31
0.0
  0
LINE
  5
1175
330
1D
100
AcDbEntity
  8
0
100
AcDbLine
 10
42.354910084558
 20
831.17974730864
 30
0.0
 11
42.784037900516
 21
830.80381848882
 31
0.0
  0
LINE
  5
1176
330
1D
100
AcDbEntity
  8
0
100
AcDbLine
 10
42.784037900516
 20
830.80381848882
 30
0.0
 11
43.263229164489
 21
830.400602104565
 31
0.0
  0
LINE
  5
1177
330
1D
100
AcDbEntity
  8
0
100
AcDbLine
 10
43.263229164489
 20
830.400602104565
 30
0.0
 11
43.779268624291
 21
829.982808667652
 31
0.0
  0
LINE
  5
1178
330
1D
100
AcDbEntity
  8
0
100
AcDbLine
 10
44.393031119001
 20
829.920476492269
 30
0.0
 11
44.822158934958
 21
829.544547672449
 31
0.0
  0
LINE
  5
1179
330
1D
100
AcDbEntity
  8
0
100
AcDbLine
 10
43.913839855027
 20
830.323692876524
 30
0.0
 11
44.393031119001
 21
829.920476492269
 31
0.0
  0
LINE
  5
117A
330
1D
100
AcDbEntity
  8
0
100
AcDbLine
 10
43.397800395225
 20
830.741486313437
 30
0.0
 11
43.913839855027
 21
830.323692876524
 31
0.0
  0
LINE
  5
117B
330
1D
100
AcDbEntity
  8
0
100
AcDbLine
 10
42.895764198462
 20
831.131334113404
 30
0.0
 11
43.397800395225
 21
830.741486313437
 31
0.0
  0
LINE
  5
117C
330
1D
100
AcDbEntity
  8
0
100
AcDbLine
 10
42.455449968642
 20
831.45748749606
 30
0.0
 11
42.895764198462
 21
831.131334113404
 31
0.0
  0
LINE
  5
117D
330
1D
100
AcDbEntity
  8
0
100
AcDbLine
 10
41.793821242674
 20
833.486312926938
 30
0.0
 11
41.848558977282
 21
833.39732146437
 31
0.0
  0
LINE
  5
117E
330
1D
100
AcDbEntity
  8
0
100
AcDbLine
 10
41.792983043145
 20
833.532061122766
 30
0.0
 11
42.380257293548
 21
834.23401724158
 31
0.0
  0
LINE
  5
117F
330
1D
100
AcDbEntity
  8
0
100
AcDbLine
 10
41.955412530111
 20
833.271197246838
 30
0.0
 11
42.100431008328
 21
833.122576619146
 31
0.0
  0
LINE
  5
1180
330
1D
100
AcDbEntity
  8
0
100
AcDbLine
 10
41.848558977282
 20
833.39732146437
 30
0.0
 11
41.955412530111
 21
833.271197246838
 31
0.0
  0
LINE
  5
1181
330
1D
100
AcDbEntity
  8
0
100
AcDbLine
 10
42.075156689684
 20
833.418800215128
 30
0.0
 11
42.250155037181
 21
833.300906244233
 31
0.0
  0
LINE
  5
1182
330
1D
100
AcDbEntity
  8
0
100
AcDbLine
 10
41.938197880967
 20
833.497180599887
 30
0.0
 11
42.075156689684
 21
833.418800215128
 31
0.0
  0
LINE
  5
1183
330
1D
100
AcDbEntity
  8
0
100
AcDbLine
 10
41.839745598328
 20
833.537856244233
 30
0.0
 11
41.938197880967
 21
833.497180599887
 31
0.0
  0
LINE
  5
1184
330
1D
100
AcDbEntity
  8
0
100
AcDbLine
 10
42.554368149809
 20
834.669218811634
 30
0.0
 11
42.712367528261
 21
834.566681762676
 31
0.0
  0
LINE
  5
1185
330
1D
100
AcDbEntity
  8
0
100
AcDbLine
 10
42.712367528261
 20
834.566681762676
 30
0.0
 11
42.828497240914
 21
834.507024325261
 31
0.0
  0
LINE
  5
1186
330
1D
100
AcDbEntity
  8
0
100
AcDbLine
 10
42.273975696925
 20
832.95956483718
 30
0.0
 11
42.467927496138
 21
832.791699207636
 31
0.0
  0
LINE
  5
1187
330
1D
100
AcDbEntity
  8
0
100
AcDbLine
 10
42.100431008328
 20
833.122576619146
 30
0.0
 11
42.273975696925
 21
832.95956483718
 31
0.0
  0
LINE
  5
1188
330
1D
100
AcDbEntity
  8
0
100
AcDbLine
 10
42.447681261108
 20
833.153031699902
 30
0.0
 11
42.647155303508
 21
832.99133087613
 31
0.0
  0
LINE
  5
1189
330
1D
100
AcDbEntity
  8
0
100
AcDbLine
 10
42.250155037181
 20
833.300906244233
 30
0.0
 11
42.447681261108
 21
833.153031699902
 31
0.0
  0
LINE
  5
118A
330
1D
100
AcDbEntity
  8
0
100
AcDbLine
 10
42.828497240914
 20
834.507024325261
 30
0.0
 11
42.903439338577
 21
834.487427846038
 31
0.0
  0
LINE
  5
118B
330
1D
100
AcDbEntity
  8
0
100
AcDbLine
 10
41.977437554239
 20
835.133945707665
 30
0.0
 11
42.172921404259
 21
834.96473366796
 31
0.0
  0
LINE
  5
118C
330
1D
100
AcDbEntity
  8
0
100
AcDbLine
 10
42.172921404259
 20
834.96473366796
 30
0.0
 11
42.367849294236
 21
834.807158677213
 31
0.0
  0
LINE
  5
118D
330
1D
100
AcDbEntity
  8
0
100
AcDbLine
 10
42.367849294236
 20
834.807158677213
 30
0.0
 11
42.554368149809
 21
834.669218811634
 31
0.0
  0
LINE
  5
118E
330
1D
100
AcDbEntity
  8
0
100
AcDbLine
 10
41.79568979128
 20
835.30434934806
 30
0.0
 11
41.977437554239
 21
835.133945707665
 31
0.0
  0
LINE
  5
118F
330
1D
100
AcDbEntity
  8
0
100
AcDbLine
 10
41.636982855796
 20
835.465260872287
 30
0.0
 11
41.79568979128
 21
835.30434934806
 31
0.0
  0
LINE
  5
1190
330
1D
100
AcDbEntity
  8
0
100
AcDbLine
 10
41.511092065332
 20
835.608611626998
 30
0.0
 11
41.636982855796
 21
835.465260872287
 31
0.0
  0
LINE
  5
1191
330
1D
100
AcDbEntity
  8
0
100
AcDbLine
 10
41.433313760989
 20
835.71829565215
 30
0.0
 11
41.511092065332
 21
835.608611626998
 31
0.0
  0
LINE
  5
1192
330
1D
100
AcDbEntity
  8
0
100
AcDbLine
 10
41.407902940918
 20
835.786082820725
 30
0.0
 11
41.433313760989
 21
835.71829565215
 31
0.0
  0
LINE
  5
1193
330
1D
100
AcDbEntity
  8
0
100
AcDbLine
 10
42.160414399714
 20
835.337070900637
 30
0.0
 11
42.355848249735
 21
835.167772258392
 31
0.0
  0
LINE
  5
1194
330
1D
100
AcDbEntity
  8
0
100
AcDbLine
 10
41.965349907196
 20
835.494609288844
 30
0.0
 11
42.160414399714
 21
835.337070900637
 31
0.0
  0
LINE
  5
1195
330
1D
100
AcDbEntity
  8
0
100
AcDbLine
 10
41.778967654165
 20
835.632585756964
 30
0.0
 11
41.965349907196
 21
835.494609288844
 31
0.0
  0
LINE
  5
1196
330
1D
100
AcDbEntity
  8
0
100
AcDbLine
 10
41.620968275713
 20
835.735122805921
 30
0.0
 11
41.778967654165
 21
835.632585756964
 31
0.0
  0
LINE
  5
1197
330
1D
100
AcDbEntity
  8
0
100
AcDbLine
 10
41.504788563059
 20
835.794693640796
 30
0.0
 11
41.620968275713
 21
835.735122805921
 31
0.0
  0
LINE
  5
1198
330
1D
100
AcDbEntity
  8
0
100
AcDbLine
 10
41.429846465397
 20
835.814290120019
 30
0.0
 11
41.929224243858
 21
836.389754669413
 31
0.0
  0
LINE
  5
1199
330
1D
100
AcDbEntity
  8
0
100
AcDbLine
 10
41.429846465397
 20
835.814290120019
 30
0.0
 11
41.504788563059
 21
835.794693640796
 31
0.0
  0
LINE
  5
119A
330
1D
100
AcDbEntity
  8
0
100
AcDbLine
 10
42.355848249735
 20
835.167772258392
 30
0.0
 11
42.537596012693
 21
834.997368617997
 31
0.0
  0
LINE
  5
119B
330
1D
100
AcDbEntity
  8
0
100
AcDbLine
 10
42.537596012693
 20
834.997368617997
 30
0.0
 11
42.696352948178
 21
834.836543696311
 31
0.0
  0
LINE
  5
119C
330
1D
100
AcDbEntity
  8
0
100
AcDbLine
 10
42.696352948178
 20
834.836543696311
 30
0.0
 11
42.822243738641
 21
834.693192941599
 31
0.0
  0
LINE
  5
119D
330
1D
100
AcDbEntity
  8
0
100
AcDbLine
 10
42.822243738641
 20
834.693192941599
 30
0.0
 11
42.899972042984
 21
834.583422313906
 31
0.0
  0
LINE
  5
119E
330
1D
100
AcDbEntity
  8
0
100
AcDbLine
 10
42.899972042984
 20
834.583422313906
 30
0.0
 11
42.925296260515
 21
834.515685145332
 31
0.0
  0
LINE
  5
119F
330
1D
100
AcDbEntity
  8
0
100
AcDbLine
 10
42.903439338577
 20
834.487427846038
 30
0.0
 11
43.40282085935
 21
835.062954330961
 31
0.0
  0
LINE
  5
11A0
330
1D
100
AcDbEntity
  8
0
100
AcDbLine
 10
42.865014365005
 20
832.482073839533
 30
0.0
 11
43.039976109962
 21
832.364316471178
 31
0.0
  0
LINE
  5
11A1
330
1D
100
AcDbEntity
  8
0
100
AcDbLine
 10
43.039976109962
 20
832.364316471178
 30
0.0
 11
43.176934918679
 21
832.285936086421
 31
0.0
  0
LINE
  5
11A2
330
1D
100
AcDbEntity
  8
0
100
AcDbLine
 10
43.176934918679
 20
832.285936086421
 30
0.0
 11
43.275337201319
 21
832.245173839533
 31
0.0
  0
LINE
  5
11A3
330
1D
100
AcDbEntity
  8
0
100
AcDbLine
 10
42.667401538538
 20
832.629998383864
 30
0.0
 11
42.865014365005
 21
832.482073839533
 31
0.0
  0
LINE
  5
11A4
330
1D
100
AcDbEntity
  8
0
100
AcDbLine
 10
42.467927496138
 20
832.791699207636
 30
0.0
 11
42.667401538538
 21
832.629998383864
 31
0.0
  0
LINE
  5
11A5
330
1D
100
AcDbEntity
  8
0
100
AcDbLine
 10
42.647155303508
 20
832.99133087613
 30
0.0
 11
42.841193705261
 21
832.823415246587
 31
0.0
  0
LINE
  5
11A6
330
1D
100
AcDbEntity
  8
0
100
AcDbLine
 10
42.841193705261
 20
832.823415246587
 30
0.0
 11
43.014738393859
 21
832.660403464621
 31
0.0
  0
LINE
  5
11A7
330
1D
100
AcDbEntity
  8
0
100
AcDbLine
 10
43.014738393859
 20
832.660403464621
 30
0.0
 11
43.159806872075
 21
832.511869439469
 31
0.0
  0
LINE
  5
11A8
330
1D
100
AcDbEntity
  8
0
100
AcDbLine
 10
43.159806872075
 20
832.511869439469
 30
0.0
 11
43.266523822364
 21
832.385708619397
 31
0.0
  0
LINE
  5
11A9
330
1D
100
AcDbEntity
  8
0
100
AcDbLine
 10
43.266523822364
 20
832.385708619397
 30
0.0
 11
43.321261556972
 21
832.296717156829
 31
0.0
  0
LINE
  5
11AA
330
1D
100
AcDbEntity
  8
0
100
AcDbLine
 10
43.322149756501
 20
832.251055563541
 30
0.0
 11
43.710623790214
 21
832.715390113844
 31
0.0
  0
LINE
  5
11AB
330
1D
100
AcDbEntity
  8
0
100
AcDbLine
 10
41.82382495576
 20
831.876080882417
 30
0.0
 11
42.085508152181
 21
831.715529474106
 31
0.0
  0
LINE
  5
11AC
330
1D
100
AcDbEntity
  8
0
100
AcDbLine
 10
42.085508152181
 20
831.715529474106
 30
0.0
 11
42.455449968642
 21
831.45748749606
 31
0.0
  0
LINE
  5
11AD
330
1D
100
AcDbEntity
  8
0
100
AcDbLine
 10
44.822158934958
 20
829.544547672449
 30
0.0
 11
45.162578250494
 21
829.227571222834
 31
0.0
  0
LINE
  5
11AE
330
1D
100
AcDbEntity
  8
0
100
AcDbLine
 10
45.162578250494
 20
829.227571222834
 30
0.0
 11
45.404864709954
 21
828.981223680605
 31
0.0
  0
LINE
  5
11AF
330
1D
100
AcDbEntity
  8
0
100
AcDbLine
 10
45.404864709954
 20
828.981223680605
 30
0.0
 11
45.526133961387
 21
828.825068185483
 31
0.0
  0
LINE
  5
11B0
330
1D
100
AcDbEntity
  8
0
100
AcDbLine
 10
49.732926904601
 20
826.337847300052
 30
0.0
 11
49.829722969458
 21
826.295703002356
 31
0.0
  0
LINE
  5
11B1
330
1D
100
AcDbEntity
  8
0
100
AcDbLine
 10
49.829722969458
 20
826.295703002356
 30
0.0
 11
49.967918380715
 21
826.219264476028
 31
0.0
  0
LINE
  5
11B2
330
1D
100
AcDbEntity
  8
0
100
AcDbLine
 10
50.143855254541
 20
826.108796080419
 30
0.0
 11
50.341509493021
 21
825.975743263797
 31
0.0
  0
LINE
  5
11B3
330
1D
100
AcDbEntity
  8
0
100
AcDbLine
 10
49.967918380715
 20
826.219264476028
 30
0.0
 11
50.143855254541
 21
826.108796080419
 31
0.0
  0
LINE
  5
11B4
330
1D
100
AcDbEntity
  8
0
100
AcDbLine
 10
54.066713026989
 20
823.851785053164
 30
0.0
 11
54.260108866158
 21
823.695556472578
 31
0.0
  0
LINE
  5
11B5
330
1D
100
AcDbEntity
  8
0
100
AcDbLine
 10
51.469041760082
 20
825.382904099121
 30
0.0
 11
58.928778099204
 21
820.281215913304
 31
0.0
  0
LINE
  5
11B6
330
1D
100
AcDbEntity
  8
0
100
AcDbLine
 10
53.636917846377
 20
824.286757963497
 30
0.0
 11
53.983763951046
 21
824.745222214255
 31
0.0
  0
LINE
  5
11B7
330
1D
100
AcDbEntity
  8
0
100
AcDbLine
 10
53.636917846377
 20
824.286757963497
 30
0.0
 11
53.675292510325
 21
824.222224831178
 31
0.0
  0
LINE
  5
11B8
330
1D
100
AcDbEntity
  8
0
100
AcDbLine
 10
53.896308015293
 20
823.998434915042
 30
0.0
 11
54.066713026989
 21
823.851785053164
 31
0.0
  0
LINE
  5
11B9
330
1D
100
AcDbEntity
  8
0
100
AcDbLine
 10
53.764891134065
 20
824.123614199784
 30
0.0
 11
53.896308015293
 21
823.998434915042
 31
0.0
  0
LINE
  5
11BA
330
1D
100
AcDbEntity
  8
0
100
AcDbLine
 10
53.675292510325
 20
824.222224831178
 30
0.0
 11
53.764891134065
 21
824.123614199784
 31
0.0
  0
LINE
  5
11BB
330
1D
100
AcDbEntity
  8
0
100
AcDbLine
 10
53.657330024203
 20
824.308112892585
 30
0.0
 11
53.730529301543
 21
824.287097760015
 31
0.0
  0
LINE
  5
11BC
330
1D
100
AcDbEntity
  8
0
100
AcDbLine
 10
53.730529301543
 20
824.287097760015
 30
0.0
 11
53.847895616737
 21
824.229382181028
 31
0.0
  0
LINE
  5
11BD
330
1D
100
AcDbEntity
  8
0
100
AcDbLine
 10
54.808113030618
 20
823.545327528183
 30
0.0
 11
54.978554644855
 21
823.398541063764
 31
0.0
  0
LINE
  5
11BE
330
1D
100
AcDbEntity
  8
0
100
AcDbLine
 10
54.614667191449
 20
823.701469506228
 30
0.0
 11
54.808113030618
 21
823.545327528183
 31
0.0
  0
LINE
  5
11BF
330
1D
100
AcDbEntity
  8
0
100
AcDbLine
 10
54.403119497552
 20
823.862058152174
 30
0.0
 11
54.614667191449
 21
823.701469506228
 31
0.0
  0
LINE
  5
11C0
330
1D
100
AcDbEntity
  8
0
100
AcDbLine
 10
54.194073211966
 20
824.010579364406
 30
0.0
 11
54.403119497552
 21
823.862058152174
 31
0.0
  0
LINE
  5
11C1
330
1D
100
AcDbEntity
  8
0
100
AcDbLine
 10
54.007636149462
 20
824.133460899735
 30
0.0
 11
54.194073211966
 21
824.010579364406
 31
0.0
  0
LINE
  5
11C2
330
1D
100
AcDbEntity
  8
0
100
AcDbLine
 10
45.925121518022
 20
829.29961512926
 30
0.0
 11
49.828058493633
 21
826.531519549678
 31
0.0
  0
LINE
  5
11C3
330
1D
100
AcDbEntity
  8
0
100
AcDbLine
 10
45.780499833488
 20
829.121392532567
 30
0.0
 11
52.754339821437
 21
823.916251806447
 31
0.0
  0
LINE
  5
11C4
330
1D
100
AcDbEntity
  8
0
100
AcDbLine
 10
46.362158394689
 20
829.278504980331
 30
0.0
 11
46.543484172199
 21
829.121970439701
 31
0.0
  0
LINE
  5
11C5
330
1D
100
AcDbEntity
  8
0
100
AcDbLine
 10
46.543484172199
 20
829.121970439701
 30
0.0
 11
46.742242189195
 21
828.96102942355
 31
0.0
  0
LINE
  5
11C6
330
1D
100
AcDbEntity
  8
0
100
AcDbLine
 10
46.742242189195
 20
828.96102942355
 30
0.0
 11
46.952481037366
 21
828.801773790306
 31
0.0
  0
LINE
  5
11C7
330
1D
100
AcDbEntity
  8
0
100
AcDbLine
 10
46.952481037366
 20
828.801773790306
 30
0.0
 11
47.153237646051
 21
828.660694436503
 31
0.0
  0
LINE
  5
11C8
330
1D
100
AcDbEntity
  8
0
100
AcDbLine
 10
47.153237646051
 20
828.660694436503
 30
0.0
 11
47.325689841125
 21
828.550390400248
 31
0.0
  0
LINE
  5
11C9
330
1D
100
AcDbEntity
  8
0
100
AcDbLine
 10
47.325689841125
 20
828.550390400248
 30
0.0
 11
47.466812751457
 21
828.471222451056
 31
0.0
  0
LINE
  5
11CA
330
1D
100
AcDbEntity
  8
0
100
AcDbLine
 10
46.213988954578
 20
829.41866798193
 30
0.0
 11
46.362158394689
 21
829.278504980331
 31
0.0
  0
LINE
  5
11CB
330
1D
100
AcDbEntity
  8
0
100
AcDbLine
 10
46.103821042395
 20
829.535851560666
 30
0.0
 11
46.213988954578
 21
829.41866798193
 31
0.0
  0
LINE
  5
11CC
330
1D
100
AcDbEntity
  8
0
100
AcDbLine
 10
46.041133565526
 20
829.62227366573
 30
0.0
 11
46.103821042395
 21
829.535851560666
 31
0.0
  0
LINE
  5
11CD
330
1D
100
AcDbEntity
  8
0
100
AcDbLine
 10
46.035960687245
 20
829.666713977726
 30
0.0
 11
46.462710987615
 21
830.213340358664
 31
0.0
  0
LINE
  5
11CE
330
1D
100
AcDbEntity
  8
0
100
AcDbLine
 10
46.084760549124
 20
829.667637817901
 30
0.0
 11
46.179642512365
 21
829.630178198958
 31
0.0
  0
LINE
  5
11CF
330
1D
100
AcDbEntity
  8
0
100
AcDbLine
 10
47.103007694163
 20
828.979293607772
 30
0.0
 11
47.284333471674
 21
828.822759067142
 31
0.0
  0
LINE
  5
11D0
330
1D
100
AcDbEntity
  8
0
100
AcDbLine
 10
46.904299677167
 20
829.140321226464
 30
0.0
 11
47.103007694163
 21
828.979293607772
 31
0.0
  0
LINE
  5
11D1
330
1D
100
AcDbEntity
  8
0
100
AcDbLine
 10
46.694060828997
 20
829.299576859708
 30
0.0
 11
46.904299677167
 21
829.140321226464
 31
0.0
  0
LINE
  5
11D2
330
1D
100
AcDbEntity
  8
0
100
AcDbLine
 10
46.493304220312
 20
829.440656213511
 30
0.0
 11
46.694060828997
 21
829.299576859708
 31
0.0
  0
LINE
  5
11D3
330
1D
100
AcDbEntity
  8
0
100
AcDbLine
 10
46.320852025238
 20
829.550960249766
 30
0.0
 11
46.493304220312
 21
829.440656213511
 31
0.0
  0
LINE
  5
11D4
330
1D
100
AcDbEntity
  8
0
100
AcDbLine
 10
46.179642512365
 20
829.630178198958
 30
0.0
 11
46.320852025238
 21
829.550960249766
 31
0.0
  0
LINE
  5
11D5
330
1D
100
AcDbEntity
  8
0
100
AcDbLine
 10
47.991704854078
 20
829.813162241287
 30
0.0
 11
48.35680205594
 21
830.265325073608
 31
0.0
  0
LINE
  5
11D6
330
1D
100
AcDbEntity
  8
0
100
AcDbLine
 10
47.991704854078
 20
829.813162241287
 30
0.0
 11
48.022043173224
 21
829.746109751464
 31
0.0
  0
LINE
  5
11D7
330
1D
100
AcDbEntity
  8
0
100
AcDbLine
 10
48.107684617288
 20
829.639045083816
 30
0.0
 11
48.236470151863
 21
829.50510817298
 31
0.0
  0
LINE
  5
11D8
330
1D
100
AcDbEntity
  8
0
100
AcDbLine
 10
48.022043173224
 20
829.746109751464
 30
0.0
 11
48.107684617288
 21
829.639045083816
 31
0.0
  0
LINE
  5
11D9
330
1D
100
AcDbEntity
  8
0
100
AcDbLine
 10
48.015685685252
 20
829.836498259289
 30
0.0
 11
48.086884258437
 21
829.82021780547
 31
0.0
  0
LINE
  5
11DA
330
1D
100
AcDbEntity
  8
0
100
AcDbLine
 10
48.207524482867
 20
829.75957280362
 30
0.0
 11
48.363397324138
 21
829.664152484222
 31
0.0
  0
LINE
  5
11DB
330
1D
100
AcDbEntity
  8
0
100
AcDbLine
 10
48.086884258437
 20
829.82021780547
 30
0.0
 11
48.207524482867
 21
829.75957280362
 31
0.0
  0
LINE
  5
11DC
330
1D
100
AcDbEntity
  8
0
100
AcDbLine
 10
47.284333471674
 20
828.822759067142
 30
0.0
 11
47.432502911784
 21
828.682596065543
 31
0.0
  0
LINE
  5
11DD
330
1D
100
AcDbEntity
  8
0
100
AcDbLine
 10
47.432502911784
 20
828.682596065543
 30
0.0
 11
47.542670823967
 21
828.565412486808
 31
0.0
  0
LINE
  5
11DE
330
1D
100
AcDbEntity
  8
0
100
AcDbLine
 10
47.542670823967
 20
828.565412486808
 30
0.0
 11
47.605408300836
 21
828.479076984284
 31
0.0
  0
LINE
  5
11DF
330
1D
100
AcDbEntity
  8
0
100
AcDbLine
 10
49.183575507535
 20
828.739942769125
 30
0.0
 11
49.339361746266
 21
828.644572449727
 31
0.0
  0
LINE
  5
11E0
330
1D
100
AcDbEntity
  8
0
100
AcDbLine
 10
49.339361746266
 20
828.644572449727
 30
0.0
 11
49.460088573237
 21
828.583877447876
 31
0.0
  0
LINE
  5
11E1
330
1D
100
AcDbEntity
  8
0
100
AcDbLine
 10
48.587980106194
 20
829.188541273248
 30
0.0
 11
48.78868978924
 21
829.025780641855
 31
0.0
  0
LINE
  5
11E2
330
1D
100
AcDbEntity
  8
0
100
AcDbLine
 10
48.78868978924
 20
829.025780641855
 30
0.0
 11
48.994295882447
 21
828.870700841635
 31
0.0
  0
LINE
  5
11E3
330
1D
100
AcDbEntity
  8
0
100
AcDbLine
 10
48.994295882447
 20
828.870700841635
 30
0.0
 11
49.183575507535
 21
828.739942769125
 31
0.0
  0
LINE
  5
11E4
330
1D
100
AcDbEntity
  8
0
100
AcDbLine
 10
48.398747664484
 20
829.352181069766
 30
0.0
 11
48.587980106194
 21
829.188541273248
 31
0.0
  0
LINE
  5
11E5
330
1D
100
AcDbEntity
  8
0
100
AcDbLine
 10
48.236470151863
 20
829.50510817298
 30
0.0
 11
48.398747664484
 21
829.352181069766
 31
0.0
  0
LINE
  5
11E6
330
1D
100
AcDbEntity
  8
0
100
AcDbLine
 10
48.958992725479
 20
829.215553980098
 30
0.0
 11
49.148225167189
 21
829.05191418358
 31
0.0
  0
LINE
  5
11E7
330
1D
100
AcDbEntity
  8
0
100
AcDbLine
 10
48.758196439893
 20
829.378364611492
 30
0.0
 11
48.958992725479
 21
829.215553980098
 31
0.0
  0
LINE
  5
11E8
330
1D
100
AcDbEntity
  8
0
100
AcDbLine
 10
48.552726949226
 20
829.533481014252
 30
0.0
 11
48.758196439893
 21
829.378364611492
 31
0.0
  0
LINE
  5
11E9
330
1D
100
AcDbEntity
  8
0
100
AcDbLine
 10
48.363397324138
 20
829.664152484222
 30
0.0
 11
48.552726949226
 21
829.533481014252
 31
0.0
  0
LINE
  5
11EA
330
1D
100
AcDbEntity
  8
0
100
AcDbLine
 10
49.148225167189
 20
829.05191418358
 30
0.0
 11
49.31046607727
 21
828.899123682906
 31
0.0
  0
LINE
  5
11EB
330
1D
100
AcDbEntity
  8
0
100
AcDbLine
 10
49.31046607727
 20
828.899123682906
 30
0.0
 11
49.439338214386
 21
828.765136772071
 31
0.0
  0
LINE
  5
11EC
330
1D
100
AcDbEntity
  8
0
100
AcDbLine
 10
49.439338214386
 20
828.765136772071
 30
0.0
 11
49.524893055908
 21
828.658122104422
 31
0.0
  0
LINE
  5
11ED
330
1D
100
AcDbEntity
  8
0
100
AcDbLine
 10
49.524893055908
 20
828.658122104422
 30
0.0
 11
49.555317977595
 21
828.5910196146
 31
0.0
  0
LINE
  5
11EE
330
1D
100
AcDbEntity
  8
0
100
AcDbLine
 10
49.555317977595
 20
828.5910196146
 30
0.0
 11
49.77700290873
 21
828.865542321832
 31
0.0
  0
LINE
  5
11EF
330
1D
100
AcDbEntity
  8
0
100
AcDbLine
 10
49.460088573237
 20
828.583877447876
 30
0.0
 11
49.53125054388
 21
828.567733596598
 31
0.0
  0
LINE
  5
11F0
330
1D
100
AcDbEntity
  8
0
100
AcDbLine
 10
47.610581179117
 20
828.434636672288
 30
0.0
 11
47.987118619768
 21
828.916945175158
 31
0.0
  0
LINE
  5
11F1
330
1D
100
AcDbEntity
  8
0
100
AcDbLine
 10
47.466812751457
 20
828.471222451056
 30
0.0
 11
47.561694714699
 21
828.433762832112
 31
0.0
  0
LINE
  5
11F2
330
1D
100
AcDbEntity
  8
0
100
AcDbLine
 10
53.847895616737
 20
824.229382181028
 30
0.0
 11
54.007636149462
 21
824.133460899735
 31
0.0
  0
LINE
  5
11F3
330
1D
100
AcDbEntity
  8
0
100
AcDbLine
 10
54.978554644855
 20
823.398541063764
 30
0.0
 11
55.110021526082
 21
823.273448381563
 31
0.0
  0
LINE
  5
11F4
330
1D
100
AcDbEntity
  8
0
100
AcDbLine
 10
55.110021526082
 20
823.273448381563
 30
0.0
 11
55.199533547282
 21
823.174887750169
 31
0.0
  0
LINE
  5
11F5
330
1D
100
AcDbEntity
  8
0
100
AcDbLine
 10
56.217047234532
 20
824.678473153882
 30
0.0
 11
56.276378493618
 21
824.587637909097
 31
0.0
  0
LINE
  5
11F6
330
1D
100
AcDbEntity
  8
0
100
AcDbLine
 10
56.216253779114
 20
824.728698848786
 30
0.0
 11
56.705917584333
 21
825.379372085378
 31
0.0
  0
LINE
  5
11F7
330
1D
100
AcDbEntity
  8
0
100
AcDbLine
 10
56.216253779114
 20
824.728698848786
 30
0.0
 11
56.270242871477
 21
824.736210699812
 31
0.0
  0
LINE
  5
11F8
330
1D
100
AcDbEntity
  8
0
100
AcDbLine
 10
56.216253779114
 20
824.728698848786
 30
0.0
 11
56.217047234532
 21
824.678473153882
 31
0.0
  0
LINE
  5
11F9
330
1D
100
AcDbEntity
  8
0
100
AcDbLine
 10
56.276378493618
 20
824.587637909097
 30
0.0
 11
56.38454999564
 21
824.467796446529
 31
0.0
  0
LINE
  5
11FA
330
1D
100
AcDbEntity
  8
0
100
AcDbLine
 10
56.270242871477
 20
824.736210699812
 30
0.0
 11
56.370427462663
 21
824.705735501882
 31
0.0
  0
LINE
  5
11FB
330
1D
100
AcDbEntity
  8
0
100
AcDbLine
 10
56.370427462663
 20
824.705735501882
 30
0.0
 11
56.51707620602
 21
824.633538576243
 31
0.0
  0
LINE
  5
11FC
330
1D
100
AcDbEntity
  8
0
100
AcDbLine
 10
55.199533547282
 20
823.174887750169
 30
0.0
 11
55.23799481377
 21
823.11030461785
 31
0.0
  0
LINE
  5
11FD
330
1D
100
AcDbEntity
  8
0
100
AcDbLine
 10
74.983091396066
 20
811.874891907732
 30
0.0
 11
74.765284034859
 21
811.457361682869
 31
0.0
  0
LINE
  5
11FE
330
1D
100
AcDbEntity
  8
0
100
AcDbLine
 10
76.81417204419
 20
811.087567590703
 30
0.0
 11
76.546878435968
 21
810.575173704069
 31
0.0
  0
LINE
  5
11FF
330
1D
100
AcDbEntity
  8
0
100
AcDbLine
 10
70.430279683406
 20
815.360713895119
 30
0.0
 11
70.510639076662
 21
815.248500447103
 31
0.0
  0
LINE
  5
1200
330
1D
100
AcDbEntity
  8
0
100
AcDbLine
 10
70.407250467725
 20
815.448026123501
 30
0.0
 11
70.806529470941
 21
816.117565775241
 31
0.0
  0
LINE
  5
1201
330
1D
100
AcDbEntity
  8
0
100
AcDbLine
 10
70.407250467725
 20
815.448026123501
 30
0.0
 11
70.447927709061
 21
815.499481172207
 31
0.0
  0
LINE
  5
1202
330
1D
100
AcDbEntity
  8
0
100
AcDbLine
 10
70.407250467725
 20
815.448026123501
 30
0.0
 11
70.430279683406
 21
815.360713895119
 31
0.0
  0
LINE
  5
1203
330
1D
100
AcDbEntity
  8
0
100
AcDbLine
 10
70.447927709061
 20
815.499481172207
 30
0.0
 11
70.544188460072
 21
815.512609683732
 31
0.0
  0
LINE
  5
1204
330
1D
100
AcDbEntity
  8
0
100
AcDbLine
 10
70.638659547728
 20
815.118238407398
 30
0.0
 11
70.812460969585
 21
814.976671300483
 31
0.0
  0
LINE
  5
1205
330
1D
100
AcDbEntity
  8
0
100
AcDbLine
 10
70.812460969585
 20
814.976671300483
 30
0.0
 11
71.015232641779
 21
814.834082139059
 31
0.0
  0
LINE
  5
1206
330
1D
100
AcDbEntity
  8
0
100
AcDbLine
 10
70.510639076662
 20
815.248500447103
 30
0.0
 11
70.638659547728
 21
815.118238407398
 31
0.0
  0
LINE
  5
1207
330
1D
100
AcDbEntity
  8
0
100
AcDbLine
 10
70.544188460072
 20
815.512609683732
 30
0.0
 11
70.686052851477
 21
815.491326017431
 31
0.0
  0
LINE
  5
1208
330
1D
100
AcDbEntity
  8
0
100
AcDbLine
 10
56.53194623067
 20
824.326694214445
 30
0.0
 11
56.714045213261
 21
824.1710989043
 31
0.0
  0
LINE
  5
1209
330
1D
100
AcDbEntity
  8
0
100
AcDbLine
 10
56.714045213261
 20
824.1710989043
 30
0.0
 11
56.914799640418
 21
824.012815771981
 31
0.0
  0
LINE
  5
120A
330
1D
100
AcDbEntity
  8
0
100
AcDbLine
 10
56.914799640418
 20
824.012815771981
 30
0.0
 11
57.128344706371
 21
823.857886675917
 31
0.0
  0
LINE
  5
120B
330
1D
100
AcDbEntity
  8
0
100
AcDbLine
 10
57.128344706371
 20
823.857886675917
 30
0.0
 11
57.33353073792
 21
823.722679307562
 31
0.0
  0
LINE
  5
120C
330
1D
100
AcDbEntity
  8
0
100
AcDbLine
 10
57.33353073792
 20
823.722679307562
 30
0.0
 11
57.511035560938
 21
823.618926679618
 31
0.0
  0
LINE
  5
120D
330
1D
100
AcDbEntity
  8
0
100
AcDbLine
 10
57.511035560938
 20
823.618926679618
 30
0.0
 11
57.657597701755
 21
823.546779753979
 31
0.0
  0
LINE
  5
120E
330
1D
100
AcDbEntity
  8
0
100
AcDbLine
 10
56.38454999564
 20
824.467796446529
 30
0.0
 11
56.53194623067
 21
824.326694214445
 31
0.0
  0
LINE
  5
120F
330
1D
100
AcDbEntity
  8
0
100
AcDbLine
 10
57.314066553697
 20
824.081366351561
 30
0.0
 11
57.496165536288
 21
823.925771041416
 31
0.0
  0
LINE
  5
1210
330
1D
100
AcDbEntity
  8
0
100
AcDbLine
 10
57.11331212654
 20
824.23964948388
 30
0.0
 11
57.314066553697
 21
824.081366351561
 31
0.0
  0
LINE
  5
1211
330
1D
100
AcDbEntity
  8
0
100
AcDbLine
 10
56.899680458046
 20
824.394628579944
 30
0.0
 11
57.11331212654
 21
824.23964948388
 31
0.0
  0
LINE
  5
1212
330
1D
100
AcDbEntity
  8
0
100
AcDbLine
 10
56.694581029038
 20
824.529785948299
 30
0.0
 11
56.899680458046
 21
824.394628579944
 31
0.0
  0
LINE
  5
1213
330
1D
100
AcDbEntity
  8
0
100
AcDbLine
 10
56.51707620602
 20
824.633538576243
 30
0.0
 11
56.694581029038
 21
824.529785948299
 31
0.0
  0
LINE
  5
1214
330
1D
100
AcDbEntity
  8
0
100
AcDbLine
 10
57.496165536288
 20
823.925771041416
 30
0.0
 11
57.643561771318
 21
823.784668809332
 31
0.0
  0
LINE
  5
1215
330
1D
100
AcDbEntity
  8
0
100
AcDbLine
 10
57.643561771318
 20
823.784668809332
 30
0.0
 11
57.75173327334
 21
823.664827346764
 31
0.0
  0
LINE
  5
1216
330
1D
100
AcDbEntity
  8
0
100
AcDbLine
 10
57.75173327334
 20
823.664827346764
 30
0.0
 11
57.810977929886
 21
823.574042101979
 31
0.0
  0
LINE
  5
1217
330
1D
100
AcDbEntity
  8
0
100
AcDbLine
 10
57.810977929886
 20
823.574042101979
 30
0.0
 11
57.811771385303
 21
823.523816407076
 31
0.0
  0
LINE
  5
1218
330
1D
100
AcDbEntity
  8
0
100
AcDbLine
 10
57.811771385303
 20
823.523816407076
 30
0.0
 11
57.933623161698
 21
823.685737097754
 31
0.0
  0
LINE
  5
1219
330
1D
100
AcDbEntity
  8
0
100
AcDbLine
 10
57.811771385303
 20
823.523816407076
 30
0.0
 11
57.933623161698
 21
823.685737097754
 31
0.0
  0
LINE
  5
121A
330
1D
100
AcDbEntity
  8
0
100
AcDbLine
 10
57.757918895481
 20
823.516341158589
 30
0.0
 11
57.811771385303
 21
823.523816407076
 31
0.0
  0
LINE
  5
121B
330
1D
100
AcDbEntity
  8
0
100
AcDbLine
 10
57.657597701755
 20
823.546779753979
 30
0.0
 11
57.757918895481
 21
823.516341158589
 31
0.0
  0
LINE
  5
121C
330
1D
100
AcDbEntity
  8
0
100
AcDbLine
 10
65.174156132404
 20
820.093440853924
 30
0.0
 11
65.401049274568
 21
819.955631304042
 31
0.0
  0
LINE
  5
121D
330
1D
100
AcDbEntity
  8
0
100
AcDbLine
 10
65.401049274568
 20
819.955631304042
 30
0.0
 11
65.630497226204
 21
819.837246813968
 31
0.0
  0
LINE
  5
121E
330
1D
100
AcDbEntity
  8
0
100
AcDbLine
 10
64.797669640893
 20
820.377547122263
 30
0.0
 11
64.97155766529
 21
820.235930015348
 31
0.0
  0
LINE
  5
121F
330
1D
100
AcDbEntity
  8
0
100
AcDbLine
 10
64.97155766529
 20
820.235930015348
 30
0.0
 11
65.174156132404
 21
820.093440853924
 31
0.0
  0
LINE
  5
1220
330
1D
100
AcDbEntity
  8
0
100
AcDbLine
 10
65.630497226204
 20
819.837246813968
 30
0.0
 11
65.839945762379
 21
819.748422320193
 31
0.0
  0
LINE
  5
1221
330
1D
100
AcDbEntity
  8
0
100
AcDbLine
 10
65.839945762379
 20
819.748422320193
 30
0.0
 11
66.024270973856
 21
819.688882951587
 31
0.0
  0
LINE
  5
1222
330
1D
100
AcDbEntity
  8
0
100
AcDbLine
 10
64.589289776571
 20
820.620022609983
 30
0.0
 11
64.669599169826
 21
820.507722559427
 31
0.0
  0
LINE
  5
1223
330
1D
100
AcDbEntity
  8
0
100
AcDbLine
 10
64.56626056089
 20
820.707334838366
 30
0.0
 11
64.926845581571
 21
821.311917766738
 31
0.0
  0
LINE
  5
1224
330
1D
100
AcDbEntity
  8
0
100
AcDbLine
 10
64.56626056089
 20
820.707334838366
 30
0.0
 11
64.606937802226
 21
820.758789887071
 31
0.0
  0
LINE
  5
1225
330
1D
100
AcDbEntity
  8
0
100
AcDbLine
 10
64.56626056089
 20
820.707334838366
 30
0.0
 11
64.589289776571
 21
820.620022609983
 31
0.0
  0
LINE
  5
1226
330
1D
100
AcDbEntity
  8
0
100
AcDbLine
 10
64.606937802226
 20
820.758789887071
 30
0.0
 11
64.703285155777
 21
820.771868398597
 31
0.0
  0
LINE
  5
1227
330
1D
100
AcDbEntity
  8
0
100
AcDbLine
 10
64.669599169826
 20
820.507722559427
 30
0.0
 11
64.797669640893
 21
820.377547122263
 31
0.0
  0
LINE
  5
1228
330
1D
100
AcDbEntity
  8
0
100
AcDbLine
 10
64.703285155777
 20
820.771868398597
 30
0.0
 11
64.845062944642
 21
820.750634732295
 31
0.0
  0
LINE
  5
1229
330
1D
100
AcDbEntity
  8
0
100
AcDbLine
 10
65.897862855747
 20
820.203537668534
 30
0.0
 11
66.071664277605
 21
820.061970561619
 31
0.0
  0
LINE
  5
122A
330
1D
100
AcDbEntity
  8
0
100
AcDbLine
 10
65.695177786093
 20
820.346076829958
 30
0.0
 11
65.897862855747
 21
820.203537668534
 31
0.0
  0
LINE
  5
122B
330
1D
100
AcDbEntity
  8
0
100
AcDbLine
 10
65.468284643929
 20
820.483886379841
 30
0.0
 11
65.695177786093
 21
820.346076829958
 31
0.0
  0
LINE
  5
122C
330
1D
100
AcDbEntity
  8
0
100
AcDbLine
 10
65.238836692293
 20
820.602270869914
 30
0.0
 11
65.468284643929
 21
820.483886379841
 31
0.0
  0
LINE
  5
122D
330
1D
100
AcDbEntity
  8
0
100
AcDbLine
 10
65.029388156119
 20
820.691095363689
 30
0.0
 11
65.238836692293
 21
820.602270869914
 31
0.0
  0
LINE
  5
122E
330
1D
100
AcDbEntity
  8
0
100
AcDbLine
 10
64.845062944642
 20
820.750634732295
 30
0.0
 11
65.029388156119
 21
820.691095363689
 31
0.0
  0
LINE
  5
122F
330
1D
100
AcDbEntity
  8
0
100
AcDbLine
 10
66.071664277605
 20
820.061970561619
 30
0.0
 11
66.199734748671
 21
819.931795124455
 31
0.0
  0
LINE
  5
1230
330
1D
100
AcDbEntity
  8
0
100
AcDbLine
 10
66.199734748671
 20
819.931795124455
 30
0.0
 11
66.280044141927
 21
819.819495073899
 31
0.0
  0
LINE
  5
1231
330
1D
100
AcDbEntity
  8
0
100
AcDbLine
 10
66.280044141927
 20
819.819495073899
 30
0.0
 11
66.303073357607
 21
819.732182845516
 31
0.0
  0
LINE
  5
1232
330
1D
100
AcDbEntity
  8
0
100
AcDbLine
 10
66.303073357607
 20
819.732182845516
 30
0.0
 11
66.715851859658
 21
820.424278290896
 31
0.0
  0
LINE
  5
1233
330
1D
100
AcDbEntity
  8
0
100
AcDbLine
 10
66.262396116272
 20
819.680727796811
 30
0.0
 11
66.303073357607
 21
819.732182845516
 31
0.0
  0
LINE
  5
1234
330
1D
100
AcDbEntity
  8
0
100
AcDbLine
 10
66.166135365261
 20
819.667599285286
 30
0.0
 11
66.262396116272
 21
819.680727796811
 31
0.0
  0
LINE
  5
1235
330
1D
100
AcDbEntity
  8
0
100
AcDbLine
 10
66.024270973856
 20
819.688882951587
 30
0.0
 11
66.166135365261
 21
819.667599285286
 31
0.0
  0
LINE
  5
1236
330
1D
100
AcDbEntity
  8
0
100
AcDbLine
 10
71.079876599128
 20
815.34304875759
 30
0.0
 11
71.308978140603
 21
815.224864267516
 31
0.0
  0
LINE
  5
1237
330
1D
100
AcDbEntity
  8
0
100
AcDbLine
 10
70.870428062954
 20
815.431873251365
 30
0.0
 11
71.079876599128
 21
815.34304875759
 31
0.0
  0
LINE
  5
1238
330
1D
100
AcDbEntity
  8
0
100
AcDbLine
 10
70.686052851477
 20
815.491326017431
 30
0.0
 11
70.870428062954
 21
815.431873251365
 31
0.0
  0
LINE
  5
1239
330
1D
100
AcDbEntity
  8
0
100
AcDbLine
 10
71.015232641779
 20
814.834082139059
 30
0.0
 11
71.241779373782
 21
814.696472589177
 31
0.0
  0
LINE
  5
123A
330
1D
100
AcDbEntity
  8
0
100
AcDbLine
 10
71.241779373782
 20
814.696472589177
 30
0.0
 11
71.471313927959
 21
814.578038099104
 31
0.0
  0
LINE
  5
123B
330
1D
100
AcDbEntity
  8
0
100
AcDbLine
 10
71.471313927959
 20
814.578038099104
 30
0.0
 11
71.680935669214
 21
814.489113605329
 31
0.0
  0
LINE
  5
123C
330
1D
100
AcDbEntity
  8
0
100
AcDbLine
 10
71.680935669214
 20
814.489113605329
 30
0.0
 11
71.864914470529
 21
814.429774236722
 31
0.0
  0
LINE
  5
123D
330
1D
100
AcDbEntity
  8
0
100
AcDbLine
 10
80.612871646837
 20
809.019680528524
 30
0.0
 11
86.82565804414
 21
807.782542225226
 31
0.0
  0
LINE
  5
123E
330
1D
100
AcDbEntity
  8
0
100
AcDbLine
 10
72.103645830728
 20
814.421269081946
 30
0.0
 11
72.143940059362
 21
814.473060733192
 31
0.0
  0
LINE
  5
123F
330
1D
100
AcDbEntity
  8
0
100
AcDbLine
 10
72.007261874636
 20
814.408327172962
 30
0.0
 11
72.103645830728
 21
814.421269081946
 31
0.0
  0
LINE
  5
1240
330
1D
100
AcDbEntity
  8
0
100
AcDbLine
 10
71.864914470529
 20
814.429774236722
 30
0.0
 11
72.007261874636
 21
814.408327172962
 31
0.0
  0
LINE
  5
1241
330
1D
100
AcDbEntity
  8
0
100
AcDbLine
 10
71.739249172744
 20
814.94411555621
 30
0.0
 11
71.91279078698
 21
814.802698449295
 31
0.0
  0
LINE
  5
1242
330
1D
100
AcDbEntity
  8
0
100
AcDbLine
 10
71.536390898009
 20
815.086754717634
 30
0.0
 11
71.739249172744
 21
814.94411555621
 31
0.0
  0
LINE
  5
1243
330
1D
100
AcDbEntity
  8
0
100
AcDbLine
 10
71.308978140603
 20
815.224864267516
 30
0.0
 11
71.536390898009
 21
815.086754717634
 31
0.0
  0
LINE
  5
1244
330
1D
100
AcDbEntity
  8
0
100
AcDbLine
 10
71.91279078698
 20
814.802698449295
 30
0.0
 11
72.040811258047
 21
814.672436409591
 31
0.0
  0
LINE
  5
1245
330
1D
100
AcDbEntity
  8
0
100
AcDbLine
 10
72.040811258047
 20
814.672436409591
 30
0.0
 11
72.121430458923
 21
814.560072961575
 31
0.0
  0
LINE
  5
1246
330
1D
100
AcDbEntity
  8
0
100
AcDbLine
 10
72.121430458923
 20
814.560072961575
 30
0.0
 11
72.143940059362
 21
814.473060733192
 31
0.0
  0
LINE
  5
1247
330
1D
100
AcDbEntity
  8
0
100
AcDbLine
 10
86.82565804414
 20
807.782542225226
 30
0.0
 11
90.723688738165
 21
808.49612943674
 31
0.0
  0
LINE
  5
1248
330
1D
100
AcDbEntity
  8
0
100
AcDbLine
 10
72.143940059362
 20
814.473060733192
 30
0.0
 11
72.434873309462
 21
814.9605755037
 31
0.0
  0
LINE
  5
1249
330
1D
100
AcDbEntity
  8
0
100
AcDbLine
 10
48.99825633145
 20
831.581960540529
 30
0.0
 11
49.177893909431
 21
831.469701952541
 31
0.0
  0
LINE
  5
124A
330
1D
100
AcDbEntity
  8
0
100
AcDbLine
 10
49.177893909431
 20
831.469701952541
 30
0.0
 11
49.320165153714
 21
831.397722976094
 31
0.0
  0
LINE
  5
124B
330
1D
100
AcDbEntity
  8
0
100
AcDbLine
 10
48.400745420183
 20
832.051641284137
 30
0.0
 11
48.595557027017
 21
831.884664885079
 31
0.0
  0
LINE
  5
124C
330
1D
100
AcDbEntity
  8
0
100
AcDbLine
 10
48.595557027017
 20
831.884664885079
 30
0.0
 11
48.797164082119
 21
831.725658547679
 31
0.0
  0
LINE
  5
124D
330
1D
100
AcDbEntity
  8
0
100
AcDbLine
 10
48.797164082119
 20
831.725658547679
 30
0.0
 11
48.99825633145
 21
831.581960540529
 31
0.0
  0
LINE
  5
124E
330
1D
100
AcDbEntity
  8
0
100
AcDbLine
 10
49.320165153714
 20
831.397722976094
 30
0.0
 11
49.424266474459
 21
831.36383175276
 31
0.0
  0
LINE
  5
124F
330
1D
100
AcDbEntity
  8
0
100
AcDbLine
 10
49.481065701242
 20
831.42861089938
 30
0.0
 11
49.476591465206
 21
831.37646129524
 31
0.0
  0
LINE
  5
1250
330
1D
100
AcDbEntity
  8
0
100
AcDbLine
 10
49.476591465206
 20
831.37646129524
 30
0.0
 11
50.039374065493
 21
832.061913295594
 31
0.0
  0
LINE
  5
1251
330
1D
100
AcDbEntity
  8
0
100
AcDbLine
 10
49.424266474459
 20
831.36383175276
 30
0.0
 11
49.476591465206
 21
831.37646129524
 31
0.0
  0
LINE
  5
1252
330
1D
100
AcDbEntity
  8
0
100
AcDbLine
 10
45.505041845219
 20
828.781935568642
 30
0.0
 11
46.054601330713
 21
829.459177842914
 31
0.0
  0
LINE
  5
1253
330
1D
100
AcDbEntity
  8
0
100
AcDbLine
 10
45.091560867335
 20
829.008765506983
 30
0.0
 11
45.353244063756
 21
828.848214098672
 31
0.0
  0
LINE
  5
1254
330
1D
100
AcDbEntity
  8
0
100
AcDbLine
 10
39.155531182486
 20
834.353660497588
 30
0.0
 11
39.328334228895
 21
834.545564503378
 31
0.0
  0
LINE
  5
1255
330
1D
100
AcDbEntity
  8
0
100
AcDbLine
 10
29.482865356745
 20
843.062911842769
 30
0.0
 11
29.778165383838
 21
842.72198649317
 31
0.0
  0
LINE
  5
1256
330
1D
100
AcDbEntity
  8
0
100
AcDbLine
 10
30.043879190705
 20
842.851016306936
 30
0.0
 11
30.462585725371
 21
842.463437298438
 31
0.0
  0
LINE
  5
1257
330
1D
100
AcDbEntity
  8
0
100
AcDbLine
 10
34.186369575036
 20
840.296420122462
 30
0.0
 11
34.28060942211
 21
840.251248325692
 31
0.0
  0
LINE
  5
1258
330
1D
100
AcDbEntity
  8
0
100
AcDbLine
 10
34.049748588492
 20
840.389385632388
 30
0.0
 11
34.186369575036
 21
840.296420122462
 31
0.0
  0
LINE
  5
1259
330
1D
100
AcDbEntity
  8
0
100
AcDbLine
 10
48.228023936666
 20
832.215678899128
 30
0.0
 11
48.400745420183
 21
832.051641284137
 31
0.0
  0
LINE
  5
125A
330
1D
100
AcDbEntity
  8
0
100
AcDbLine
 10
33.886780368014
 20
840.518116394502
 30
0.0
 11
34.049748588492
 21
840.389385632388
 31
0.0
  0
LINE
  5
125B
330
1D
100
AcDbEntity
  8
0
100
AcDbLine
 10
33.706517026069
 20
840.673691127511
 30
0.0
 11
33.886780368014
 21
840.518116394502
 31
0.0
  0
LINE
  5
125C
330
1D
100
AcDbEntity
  8
0
100
AcDbLine
 10
34.326185374752
 20
840.255188191271
 30
0.0
 11
34.962878324084
 21
840.912621637774
 31
0.0
  0
LINE
  5
125D
330
1D
100
AcDbEntity
  8
0
100
AcDbLine
 10
33.519333880204
 20
840.849080408551
 30
0.0
 11
33.706517026069
 21
840.673691127511
 31
0.0
  0
LINE
  5
125E
330
1D
100
AcDbEntity
  8
0
100
AcDbLine
 10
34.276304888882
 20
840.395992655439
 30
0.0
 11
34.327039995546
 21
840.302268437908
 31
0.0
  0
LINE
  5
125F
330
1D
100
AcDbEntity
  8
0
100
AcDbLine
 10
48.085125073692
 20
832.366770808113
 30
0.0
 11
48.228023936666
 21
832.215678899128
 31
0.0
  0
LINE
  5
1260
330
1D
100
AcDbEntity
  8
0
100
AcDbLine
 10
47.981800943727
 20
832.497208165365
 30
0.0
 11
48.085125073692
 21
832.366770808113
 31
0.0
  0
LINE
  5
1261
330
1D
100
AcDbEntity
  8
0
100
AcDbLine
 10
49.18478080672
 20
831.804630408551
 30
0.0
 11
49.327679669694
 21
831.653538499566
 31
0.0
  0
LINE
  5
1262
330
1D
100
AcDbEntity
  8
0
100
AcDbLine
 10
49.327679669694
 20
831.653538499566
 30
0.0
 11
49.430967197119
 21
831.523237744855
 31
0.0
  0
LINE
  5
1263
330
1D
100
AcDbEntity
  8
0
100
AcDbLine
 10
49.430967197119
 20
831.523237744855
 30
0.0
 11
49.481065701242
 21
831.42861089938
 31
0.0
  0
LINE
  5
1264
330
1D
100
AcDbEntity
  8
0
100
AcDbLine
 10
30.462585725371
 20
842.463437298438
 30
0.0
 11
30.913742568331
 21
842.029063872628
 31
0.0
  0
LINE
  5
1265
330
1D
100
AcDbEntity
  8
0
100
AcDbLine
 10
29.295873949692
 20
843.306433225173
 30
0.0
 11
29.482865356745
 21
843.062911842769
 31
0.0
  0
LINE
  5
1266
330
1D
100
AcDbEntity
  8
0
100
AcDbLine
 10
28.722852866994
 20
843.454131596133
 30
0.0
 11
28.811687904597
 21
843.384598394753
 31
0.0
  0
LINE
  5
1267
330
1D
100
AcDbEntity
  8
0
100
AcDbLine
 10
28.811687904597
 20
843.384598394753
 30
0.0
 11
29.377673861369
 21
843.91690679749
 31
0.0
  0
LINE
  5
1268
330
1D
100
AcDbEntity
  8
0
100
AcDbLine
 10
28.517772675873
 20
843.649322285485
 30
0.0
 11
28.722852866994
 21
843.454131596133
 31
0.0
  0
LINE
  5
1269
330
1D
100
AcDbEntity
  8
0
100
AcDbLine
 10
33.337672977525
 20
841.030634495363
 30
0.0
 11
33.519333880204
 21
840.849080408551
 31
0.0
  0
LINE
  5
126A
330
1D
100
AcDbEntity
  8
0
100
AcDbLine
 10
34.184033833277
 20
840.523974499063
 30
0.0
 11
34.276304888882
 21
840.395992655439
 31
0.0
  0
LINE
  5
126B
330
1D
100
AcDbEntity
  8
0
100
AcDbLine
 10
29.693038593877
 20
843.156342567873
 30
0.0
 11
30.043879190705
 21
842.851016306936
 31
0.0
  0
LINE
  5
126C
330
1D
100
AcDbEntity
  8
0
100
AcDbLine
 10
34.048537598247
 20
840.685688135757
 30
0.0
 11
34.184033833277
 21
840.523974499063
 31
0.0
  0
LINE
  5
126D
330
1D
100
AcDbEntity
  8
0
100
AcDbLine
 10
33.169950789853
 20
841.211531144758
 30
0.0
 11
33.337672977525
 21
841.030634495363
 31
0.0
  0
LINE
  5
126E
330
1D
100
AcDbEntity
  8
0
100
AcDbLine
 10
33.034454554823
 20
841.373244781451
 30
0.0
 11
33.169950789853
 21
841.211531144758
 31
0.0
  0
LINE
  5
126F
330
1D
100
AcDbEntity
  8
0
100
AcDbLine
 10
32.942146896678
 20
841.501363227617
 30
0.0
 11
33.034454554823
 21
841.373244781451
 31
0.0
  0
LINE
  5
1270
330
1D
100
AcDbEntity
  8
0
100
AcDbLine
 10
32.891448392554
 20
841.594950842608
 30
0.0
 11
32.942146896678
 21
841.501363227617
 31
0.0
  0
LINE
  5
1271
330
1D
100
AcDbEntity
  8
0
100
AcDbLine
 10
33.51188475949
 20
841.223578153004
 30
0.0
 11
33.699204507896
 21
841.048225474504
 31
0.0
  0
LINE
  5
1272
330
1D
100
AcDbEntity
  8
0
100
AcDbLine
 10
33.699204507896
 20
841.048225474504
 30
0.0
 11
33.880778808035
 21
840.866721387693
 31
0.0
  0
LINE
  5
1273
330
1D
100
AcDbEntity
  8
0
100
AcDbLine
 10
33.880778808035
 20
840.866721387693
 30
0.0
 11
34.048537598247
 21
840.685688135757
 31
0.0
  0
LINE
  5
1274
330
1D
100
AcDbEntity
  8
0
100
AcDbLine
 10
29.422767713404
 20
843.371619671087
 30
0.0
 11
29.693038593877
 21
843.156342567873
 31
0.0
  0
LINE
  5
1275
330
1D
100
AcDbEntity
  8
0
100
AcDbLine
 10
29.254791093616
 20
843.475875631131
 30
0.0
 11
29.422767713404
 21
843.371619671087
 31
0.0
  0
LINE
  5
1276
330
1D
100
AcDbEntity
  8
0
100
AcDbLine
 10
29.214018919491
 20
843.45045615401
 30
0.0
 11
29.295873949692
 21
843.306433225173
 31
0.0
  0
LINE
  5
1277
330
1D
100
AcDbEntity
  8
0
100
AcDbLine
 10
29.214018919491
 20
843.45045615401
 30
0.0
 11
29.830142202464
 21
844.067757147998
 31
0.0
  0
LINE
  5
1278
330
1D
100
AcDbEntity
  8
0
100
AcDbLine
 10
47.931789042144
 20
832.59178501084
 30
0.0
 11
47.981800943727
 21
832.497208165365
 31
0.0
  0
LINE
  5
1279
330
1D
100
AcDbEntity
  8
0
100
AcDbLine
 10
47.93621327818
 20
832.643848012439
 30
0.0
 11
48.33720256501
 21
833.132240703752
 31
0.0
  0
LINE
  5
127A
330
1D
100
AcDbEntity
  8
0
100
AcDbLine
 10
47.93621327818
 20
832.643848012439
 30
0.0
 11
47.988538268927
 21
832.65647755492
 31
0.0
  0
LINE
  5
127B
330
1D
100
AcDbEntity
  8
0
100
AcDbLine
 10
47.93621327818
 20
832.643848012439
 30
0.0
 11
47.931789042144
 21
832.59178501084
 31
0.0
  0
LINE
  5
127C
330
1D
100
AcDbEntity
  8
0
100
AcDbLine
 10
48.817247716369
 20
832.135644422601
 30
0.0
 11
49.012059323203
 21
831.968668023542
 31
0.0
  0
LINE
  5
127D
330
1D
100
AcDbEntity
  8
0
100
AcDbLine
 10
48.615690661267
 20
832.294737362541
 30
0.0
 11
48.817247716369
 21
832.135644422601
 31
0.0
  0
LINE
  5
127E
330
1D
100
AcDbEntity
  8
0
100
AcDbLine
 10
47.988538268927
 20
832.65647755492
 30
0.0
 11
48.092639589673
 21
832.622586331585
 31
0.0
  0
LINE
  5
127F
330
1D
100
AcDbEntity
  8
0
100
AcDbLine
 10
49.012059323203
 20
831.968668023542
 30
0.0
 11
49.18478080672
 21
831.804630408551
 31
0.0
  0
LINE
  5
1280
330
1D
100
AcDbEntity
  8
0
100
AcDbLine
 10
48.414548411936
 20
832.438348767151
 30
0.0
 11
48.615690661267
 21
832.294737362541
 31
0.0
  0
LINE
  5
1281
330
1D
100
AcDbEntity
  8
0
100
AcDbLine
 10
48.234910833955
 20
832.550607355139
 30
0.0
 11
48.414548411936
 21
832.438348767151
 31
0.0
  0
LINE
  5
1282
330
1D
100
AcDbEntity
  8
0
100
AcDbLine
 10
48.092639589673
 20
832.622586331585
 30
0.0
 11
48.234910833955
 21
832.550607355139
 31
0.0
  0
LINE
  5
1283
330
1D
100
AcDbEntity
  8
0
100
AcDbLine
 10
28.225032129601
 20
843.941080785907
 30
0.0
 11
28.517772675873
 21
843.649322285485
 31
0.0
  0
LINE
  5
1284
330
1D
100
AcDbEntity
  8
0
100
AcDbLine
 10
27.844944625639
 20
844.330149917723
 30
0.0
 11
28.225032129601
 21
843.941080785907
 31
0.0
  0
LINE
  5
1285
330
1D
100
AcDbEntity
  8
0
100
AcDbLine
 10
28.78779053024
 20
847.104406928199
 30
0.0
 11
28.937654645401
 21
846.929779189891
 31
0.0
  0
LINE
  5
1286
330
1D
100
AcDbEntity
  8
0
100
AcDbLine
 10
28.676692044621
 20
847.249378706464
 30
0.0
 11
28.78779053024
 21
847.104406928199
 31
0.0
  0
LINE
  5
1287
330
1D
100
AcDbEntity
  8
0
100
AcDbLine
 10
28.603632393627
 20
847.363035678959
 30
0.0
 11
28.676692044621
 21
847.249378706464
 31
0.0
  0
LINE
  5
1288
330
1D
100
AcDbEntity
  8
0
100
AcDbLine
 10
29.113320099813
 20
846.741640682067
 30
0.0
 11
29.296166643138
 21
846.558940185094
 31
0.0
  0
LINE
  5
1289
330
1D
100
AcDbEntity
  8
0
100
AcDbLine
 10
28.937654645401
 20
846.929779189891
 30
0.0
 11
29.113320099813
 21
846.741640682067
 31
0.0
  0
LINE
  5
128A
330
1D
100
AcDbEntity
  8
0
100
AcDbLine
 10
29.101788670554
 20
847.101867660705
 30
0.0
 11
29.284252458916
 21
846.930704212689
 31
0.0
  0
LINE
  5
128B
330
1D
100
AcDbEntity
  8
0
100
AcDbLine
 10
29.284252458916
 20
846.930704212689
 30
0.0
 11
29.467149002241
 21
846.748090318257
 31
0.0
  0
LINE
  5
128C
330
1D
100
AcDbEntity
  8
0
100
AcDbLine
 10
28.932829107125
 20
847.247221112422
 30
0.0
 11
29.101788670554
 21
847.101867660705
 31
0.0
  0
LINE
  5
128D
330
1D
100
AcDbEntity
  8
0
100
AcDbLine
 10
28.786143830288
 20
847.361354760219
 30
0.0
 11
28.932829107125
 21
847.247221112422
 31
0.0
  0
LINE
  5
128E
330
1D
100
AcDbEntity
  8
0
100
AcDbLine
 10
28.67073495251
 20
847.435260720263
 30
0.0
 11
28.786143830288
 21
847.361354760219
 31
0.0
  0
LINE
  5
128F
330
1D
100
AcDbEntity
  8
0
100
AcDbLine
 10
28.600807918357
 20
847.458543544286
 30
0.0
 11
28.850662722753
 21
847.707705607453
 31
0.0
  0
LINE
  5
1290
330
1D
100
AcDbEntity
  8
0
100
AcDbLine
 10
28.600807918357
 20
847.458543544286
 30
0.0
 11
28.67073495251
 21
847.435260720263
 31
0.0
  0
LINE
  5
1291
330
1D
100
AcDbEntity
  8
0
100
AcDbLine
 10
28.580137598959
 20
847.432141500881
 30
0.0
 11
28.603632393627
 21
847.363035678959
 31
0.0
  0
LINE
  5
1292
330
1D
100
AcDbEntity
  8
0
100
AcDbLine
 10
28.648609343844
 20
845.508138041905
 30
0.0
 11
29.088849781148
 21
845.93298348254
 31
0.0
  0
LINE
  5
1293
330
1D
100
AcDbEntity
  8
0
100
AcDbLine
 10
28.793478576772
 20
845.236858913789
 30
0.0
 11
28.921193018734
 21
845.076866816127
 31
0.0
  0
LINE
  5
1294
330
1D
100
AcDbEntity
  8
0
100
AcDbLine
 10
28.699886239876
 20
845.368952231085
 30
0.0
 11
28.793478576772
 21
845.236858913789
 31
0.0
  0
LINE
  5
1295
330
1D
100
AcDbEntity
  8
0
100
AcDbLine
 10
29.443727204142
 20
844.518722573946
 30
0.0
 11
29.618334328305
 21
844.354750984359
 31
0.0
  0
LINE
  5
1296
330
1D
100
AcDbEntity
  8
0
100
AcDbLine
 10
29.262918929408
 20
844.699553455677
 30
0.0
 11
29.443727204142
 21
844.518722573946
 31
0.0
  0
LINE
  5
1297
330
1D
100
AcDbEntity
  8
0
100
AcDbLine
 10
29.618334328305
 20
844.354750984359
 30
0.0
 11
29.773222421764
 21
844.222025031717
 31
0.0
  0
LINE
  5
1298
330
1D
100
AcDbEntity
  8
0
100
AcDbLine
 10
29.773222421764
 20
844.222025031717
 30
0.0
 11
29.901340076208
 21
844.124731318561
 31
0.0
  0
LINE
  5
1299
330
1D
100
AcDbEntity
  8
0
100
AcDbLine
 10
29.901340076208
 20
844.124731318561
 30
0.0
 11
29.993744986791
 21
844.071381318561
 31
0.0
  0
LINE
  5
129A
330
1D
100
AcDbEntity
  8
0
100
AcDbLine
 10
30.038469977539
 20
844.070847274904
 30
0.0
 11
30.537523297484
 21
844.55244893992
 31
0.0
  0
LINE
  5
129B
330
1D
100
AcDbEntity
  8
0
100
AcDbLine
 10
29.987143081507
 20
844.209946483183
 30
0.0
 11
30.034271266233
 21
844.119574893596
 31
0.0
  0
LINE
  5
129C
330
1D
100
AcDbEntity
  8
0
100
AcDbLine
 10
29.082447514952
 20
844.891967796526
 30
0.0
 11
29.262918929408
 21
844.699553455677
 31
0.0
  0
LINE
  5
129D
330
1D
100
AcDbEntity
  8
0
100
AcDbLine
 10
28.921193018734
 20
845.076866816127
 30
0.0
 11
29.082447514952
 21
844.891967796526
 31
0.0
  0
LINE
  5
129E
330
1D
100
AcDbEntity
  8
0
100
AcDbLine
 10
29.068744993078
 20
845.224234332449
 30
0.0
 11
29.243352117241
 21
845.060262742862
 31
0.0
  0
LINE
  5
129F
330
1D
100
AcDbEntity
  8
0
100
AcDbLine
 10
29.243352117241
 20
845.060262742862
 30
0.0
 11
29.424160391976
 21
844.879431861132
 31
0.0
  0
LINE
  5
12A0
330
1D
100
AcDbEntity
  8
0
100
AcDbLine
 10
29.424160391976
 20
844.879431861132
 30
0.0
 11
29.604631806431
 21
844.687017520282
 31
0.0
  0
LINE
  5
12A1
330
1D
100
AcDbEntity
  8
0
100
AcDbLine
 10
29.604631806431
 20
844.687017520282
 30
0.0
 11
29.76588630265
 21
844.502118500681
 31
0.0
  0
LINE
  5
12A2
330
1D
100
AcDbEntity
  8
0
100
AcDbLine
 10
29.76588630265
 20
844.502118500681
 30
0.0
 11
29.893600744611
 21
844.342126403019
 31
0.0
  0
LINE
  5
12A3
330
1D
100
AcDbEntity
  8
0
100
AcDbLine
 10
29.893600744611
 20
844.342126403019
 30
0.0
 11
29.987143081507
 21
844.209946483183
 31
0.0
  0
LINE
  5
12A4
330
1D
100
AcDbEntity
  8
0
100
AcDbLine
 10
28.91385689962
 20
845.356960285091
 30
0.0
 11
29.068744993078
 21
845.224234332449
 31
0.0
  0
LINE
  5
12A5
330
1D
100
AcDbEntity
  8
0
100
AcDbLine
 10
29.296166643138
 20
846.558940185094
 30
0.0
 11
29.47876703404
 21
846.387813339618
 31
0.0
  0
LINE
  5
12A6
330
1D
100
AcDbEntity
  8
0
100
AcDbLine
 10
29.467149002241
 20
846.748090318257
 30
0.0
 11
29.642901059193
 21
846.559901810433
 31
0.0
  0
LINE
  5
12A7
330
1D
100
AcDbEntity
  8
0
100
AcDbLine
 10
29.47876703404
 20
846.387813339618
 30
0.0
 11
29.647726597469
 21
846.242459887902
 31
0.0
  0
LINE
  5
12A8
330
1D
100
AcDbEntity
  8
0
100
AcDbLine
 10
29.647726597469
 20
846.242459887902
 30
0.0
 11
29.794411874306
 21
846.128326240105
 31
0.0
  0
LINE
  5
12A9
330
1D
100
AcDbEntity
  8
0
100
AcDbLine
 10
29.794411874306
 20
846.128326240105
 30
0.0
 11
29.909820752084
 21
846.054420280061
 31
0.0
  0
LINE
  5
12AA
330
1D
100
AcDbEntity
  8
0
100
AcDbLine
 10
29.909820752084
 20
846.054420280061
 30
0.0
 11
29.979661183697
 21
846.031187456037
 31
0.0
  0
LINE
  5
12AB
330
1D
100
AcDbEntity
  8
0
100
AcDbLine
 10
29.979661183697
 20
846.031187456037
 30
0.0
 11
30.391275295771
 21
846.44166033704
 31
0.0
  0
LINE
  5
12AC
330
1D
100
AcDbEntity
  8
0
100
AcDbLine
 10
29.976786708427
 20
846.126608718825
 30
0.0
 11
30.000368105635
 21
846.057452896903
 31
0.0
  0
LINE
  5
12AD
330
1D
100
AcDbEntity
  8
0
100
AcDbLine
 10
29.642901059193
 20
846.559901810433
 30
0.0
 11
29.792678571814
 21
846.385324072124
 31
0.0
  0
LINE
  5
12AE
330
1D
100
AcDbEntity
  8
0
100
AcDbLine
 10
29.792678571814
 20
846.385324072124
 30
0.0
 11
29.903863659973
 21
846.240302293859
 31
0.0
  0
LINE
  5
12AF
330
1D
100
AcDbEntity
  8
0
100
AcDbLine
 10
29.903863659973
 20
846.240302293859
 30
0.0
 11
29.976786708427
 21
846.126608718825
 31
0.0
  0
LINE
  5
12B0
330
1D
100
AcDbEntity
  8
0
100
AcDbLine
 10
28.785739245176
 20
845.454253998247
 30
0.0
 11
28.91385689962
 21
845.356960285091
 31
0.0
  0
LINE
  5
12B1
330
1D
100
AcDbEntity
  8
0
100
AcDbLine
 10
28.693284334592
 20
845.507517395707
 30
0.0
 11
28.785739245176
 21
845.454253998247
 31
0.0
  0
LINE
  5
12B2
330
1D
100
AcDbEntity
  8
0
100
AcDbLine
 10
28.65280805515
 20
845.459410423213
 30
0.0
 11
28.699886239876
 21
845.368952231085
 31
0.0
  0
LINE
  5
12B3
330
1D
100
AcDbEntity
  8
0
100
AcDbLine
 10
31.976780742096
 20
846.848299999975
 30
0.0
 11
32.163240682881
 21
846.672058090989
 31
0.0
  0
LINE
  5
12B4
330
1D
100
AcDbEntity
  8
0
100
AcDbLine
 10
31.797499262281
 20
847.032175368078
 30
0.0
 11
31.976780742096
 21
846.848299999975
 31
0.0
  0
LINE
  5
12B5
330
1D
100
AcDbEntity
  8
0
100
AcDbLine
 10
32.163240682881
 20
846.672058090989
 30
0.0
 11
32.344363832447
 21
846.517372588465
 31
0.0
  0
LINE
  5
12B6
330
1D
100
AcDbEntity
  8
0
100
AcDbLine
 10
32.344363832447
 20
846.517372588465
 30
0.0
 11
32.509624873248
 21
846.391013107644
 31
0.0
  0
LINE
  5
12B7
330
1D
100
AcDbEntity
  8
0
100
AcDbLine
 10
32.509624873248
 20
846.391013107644
 30
0.0
 11
32.650021692816
 21
846.301987532358
 31
0.0
  0
LINE
  5
12B8
330
1D
100
AcDbEntity
  8
0
100
AcDbLine
 10
32.650021692816
 20
846.301987532358
 30
0.0
 11
32.749370385617
 21
846.262064515955
 31
0.0
  0
LINE
  5
12B9
330
1D
100
AcDbEntity
  8
0
100
AcDbLine
 10
31.633602907634
 20
847.217098554654
 30
0.0
 11
31.797499262281
 21
847.032175368078
 31
0.0
  0
LINE
  5
12BA
330
1D
100
AcDbEntity
  8
0
100
AcDbLine
 10
31.50321551833
 20
847.384060971714
 30
0.0
 11
31.633602907634
 21
847.217098554654
 31
0.0
  0
LINE
  5
12BB
330
1D
100
AcDbEntity
  8
0
100
AcDbLine
 10
31.416726513533
 20
847.51805762111
 30
0.0
 11
31.50321551833
 21
847.384060971714
 31
0.0
  0
LINE
  5
12BC
330
1D
100
AcDbEntity
  8
0
100
AcDbLine
 10
31.372146662758
 20
847.618043054573
 30
0.0
 11
31.416726513533
 21
847.51805762111
 31
0.0
  0
LINE
  5
12BD
330
1D
100
AcDbEntity
  8
0
100
AcDbLine
 10
32.016730848167
 20
847.271295613456
 30
0.0
 11
32.203140788951
 21
847.094967101931
 31
0.0
  0
LINE
  5
12BE
330
1D
100
AcDbEntity
  8
0
100
AcDbLine
 10
32.203140788951
 20
847.094967101931
 30
0.0
 11
32.382472268767
 21
846.911178336368
 31
0.0
  0
LINE
  5
12BF
330
1D
100
AcDbEntity
  8
0
100
AcDbLine
 10
32.382472268767
 20
846.911178336368
 30
0.0
 11
32.546318623414
 21
846.726168547252
 31
0.0
  0
LINE
  5
12C0
330
1D
100
AcDbEntity
  8
0
100
AcDbLine
 10
32.546318623414
 20
846.726168547252
 30
0.0
 11
32.676706012717
 21
846.559206130191
 31
0.0
  0
LINE
  5
12C1
330
1D
100
AcDbEntity
  8
0
100
AcDbLine
 10
32.676706012717
 20
846.559206130191
 30
0.0
 11
32.763245017514
 21
846.425296083336
 31
0.0
  0
LINE
  5
12C2
330
1D
100
AcDbEntity
  8
0
100
AcDbLine
 10
32.749370385617
 20
846.262064515955
 30
0.0
 11
32.800678389067
 21
846.271932584764
 31
0.0
  0
LINE
  5
12C3
330
1D
100
AcDbEntity
  8
0
100
AcDbLine
 10
32.807824868289
 20
846.325310649873
 30
0.0
 11
32.800678389067
 21
846.271932584764
 31
0.0
  0
LINE
  5
12C4
330
1D
100
AcDbEntity
  8
0
100
AcDbLine
 10
32.800678389067
 20
846.271932584764
 30
0.0
 11
33.24451965551
 21
846.721780920143
 31
0.0
  0
LINE
  5
12C5
330
1D
100
AcDbEntity
  8
0
100
AcDbLine
 10
32.763245017514
 20
846.425296083336
 30
0.0
 11
32.807824868289
 21
846.325310649873
 31
0.0
  0
LINE
  5
12C6
330
1D
100
AcDbEntity
  8
0
100
AcDbLine
 10
31.8356076986
 20
847.425981115981
 30
0.0
 11
32.016730848167
 21
847.271295613456
 31
0.0
  0
LINE
  5
12C7
330
1D
100
AcDbEntity
  8
0
100
AcDbLine
 10
31.67043326034
 20
847.552290596802
 30
0.0
 11
31.8356076986
 21
847.425981115981
 31
0.0
  0
LINE
  5
12C8
330
1D
100
AcDbEntity
  8
0
100
AcDbLine
 10
41.840524317131
 20
863.808805024765
 30
0.0
 11
46.076412353391
 21
859.994778318741
 31
0.0
  0
LINE
  5
12C9
330
1D
100
AcDbEntity
  8
0
100
AcDbLine
 10
31.529949838231
 20
847.641366172088
 30
0.0
 11
31.67043326034
 21
847.552290596802
 31
0.0
  0
LINE
  5
12CA
330
1D
100
AcDbEntity
  8
0
100
AcDbLine
 10
31.43060114543
 20
847.681289188491
 30
0.0
 11
31.529949838231
 21
847.641366172088
 31
0.0
  0
LINE
  5
12CB
330
1D
100
AcDbEntity
  8
0
100
AcDbLine
 10
31.37929314198
 20
847.671421119682
 30
0.0
 11
31.372146662758
 21
847.618043054573
 31
0.0
  0
LINE
  5
12CC
330
1D
100
AcDbEntity
  8
0
100
AcDbLine
 10
31.37929314198
 20
847.671421119682
 30
0.0
 11
32.002150614981
 21
848.302770488328
 31
0.0
  0
LINE
  5
12CD
330
1D
100
AcDbEntity
  8
0
100
AcDbLine
 10
31.37929314198
 20
847.671421119682
 30
0.0
 11
31.43060114543
 21
847.681289188491
 31
0.0
  0
LINE
  5
12CE
330
1D
100
AcDbEntity
  8
0
100
AcDbLine
 10
33.331621417545
 20
841.379152886013
 30
0.0
 11
33.51188475949
 21
841.223578153004
 31
0.0
  0
LINE
  5
12CF
330
1D
100
AcDbEntity
  8
0
100
AcDbLine
 10
33.168739799608
 20
841.507833648127
 30
0.0
 11
33.331621417545
 21
841.379152886013
 31
0.0
  0
LINE
  5
12D0
330
1D
100
AcDbEntity
  8
0
100
AcDbLine
 10
33.032082210524
 20
841.600935760593
 30
0.0
 11
33.168739799608
 21
841.507833648127
 31
0.0
  0
LINE
  5
12D1
330
1D
100
AcDbEntity
  8
0
100
AcDbLine
 10
32.93787896599
 20
841.645970954823
 30
0.0
 11
33.032082210524
 21
841.600935760593
 31
0.0
  0
LINE
  5
12D2
330
1D
100
AcDbEntity
  8
0
100
AcDbLine
 10
32.892353013348
 20
841.642117691784
 30
0.0
 11
33.313525985901
 21
842.07699983832
 31
0.0
  0
LINE
  5
12D3
330
1D
100
AcDbEntity
  8
0
100
AcDbLine
 10
36.265113635798
 20
840.302110451634
 30
0.0
 11
36.420771859976
 21
840.191918404527
 31
0.0
  0
LINE
  5
12D4
330
1D
100
AcDbEntity
  8
0
100
AcDbLine
 10
36.420771859976
 20
840.191918404527
 30
0.0
 11
36.538002276785
 21
840.125967442633
 31
0.0
  0
LINE
  5
12D5
330
1D
100
AcDbEntity
  8
0
100
AcDbLine
 10
36.538002276785
 20
840.125967442633
 30
0.0
 11
36.608064247429
 21
840.107918335467
 31
0.0
  0
LINE
  5
12D6
330
1D
100
AcDbEntity
  8
0
100
AcDbLine
 10
56.086483356303
 20
828.505129883157
 30
0.0
 11
56.297075090156
 21
828.355485465845
 31
0.0
  0
LINE
  5
12D7
330
1D
100
AcDbEntity
  8
0
100
AcDbLine
 10
56.297075090156
 20
828.355485465845
 30
0.0
 11
56.518952464656
 21
828.222188351528
 31
0.0
  0
LINE
  5
12D8
330
1D
100
AcDbEntity
  8
0
100
AcDbLine
 10
56.518952464656
 20
828.222188351528
 30
0.0
 11
56.72999260152
 21
828.120320591013
 31
0.0
  0
LINE
  5
12D9
330
1D
100
AcDbEntity
  8
0
100
AcDbLine
 10
56.72999260152
 20
828.120320591013
 30
0.0
 11
56.91045896727
 21
828.05769750555
 31
0.0
  0
LINE
  5
12DA
330
1D
100
AcDbEntity
  8
0
100
AcDbLine
 10
55.89355809427
 20
828.663973527253
 30
0.0
 11
56.086483356303
 21
828.505129883157
 31
0.0
  0
LINE
  5
12DB
330
1D
100
AcDbEntity
  8
0
100
AcDbLine
 10
56.91045896727
 20
828.05769750555
 30
0.0
 11
57.057425728881
 21
828.031851403683
 31
0.0
  0
LINE
  5
12DC
330
1D
100
AcDbEntity
  8
0
100
AcDbLine
 10
55.734973401972
 20
828.821696782889
 30
0.0
 11
55.89355809427
 21
828.663973527253
 31
0.0
  0
LINE
  5
12DD
330
1D
100
AcDbEntity
  8
0
100
AcDbLine
 10
55.616019918204
 20
828.968663305266
 30
0.0
 11
55.734973401972
 21
828.821696782889
 31
0.0
  0
LINE
  5
12DE
330
1D
100
AcDbEntity
  8
0
100
AcDbLine
 10
55.546786357973
 20
829.097547261357
 30
0.0
 11
55.616019918204
 21
828.968663305266
 31
0.0
  0
LINE
  5
12DF
330
1D
100
AcDbEntity
  8
0
100
AcDbLine
 10
36.088543560592
 20
840.443082110282
 30
0.0
 11
36.265113635798
 21
840.302110451634
 31
0.0
  0
LINE
  5
12E0
330
1D
100
AcDbEntity
  8
0
100
AcDbLine
 10
36.633874501467
 20
840.132623006817
 30
0.0
 11
37.153982885075
 21
840.689385309939
 31
0.0
  0
LINE
  5
12E1
330
1D
100
AcDbEntity
  8
0
100
AcDbLine
 10
55.538121948063
 20
829.193540063175
 30
0.0
 11
56.036372986256
 21
829.907385785281
 31
0.0
  0
LINE
  5
12E2
330
1D
100
AcDbEntity
  8
0
100
AcDbLine
 10
55.538121948063
 20
829.193540063175
 30
0.0
 11
55.586732906257
 21
829.249536712571
 31
0.0
  0
LINE
  5
12E3
330
1D
100
AcDbEntity
  8
0
100
AcDbLine
 10
55.538121948063
 20
829.193540063175
 30
0.0
 11
55.546786357973
 21
829.097547261357
 31
0.0
  0
LINE
  5
12E4
330
1D
100
AcDbEntity
  8
0
100
AcDbLine
 10
90.723688738165
 20
808.49612943674
 30
0.0
 11
93.352869148687
 21
810.026003490029
 31
0.0
  0
LINE
  5
12E5
330
1D
100
AcDbEntity
  8
0
100
AcDbLine
 10
57.194774182448
 20
828.202545903602
 30
0.0
 11
57.203438592358
 21
828.106553101784
 31
0.0
  0
LINE
  5
12E6
330
1D
100
AcDbEntity
  8
0
100
AcDbLine
 10
57.203438592358
 20
828.106553101784
 30
0.0
 11
57.689920764412
 21
828.803614734029
 31
0.0
  0
LINE
  5
12E7
330
1D
100
AcDbEntity
  8
0
100
AcDbLine
 10
57.154827634165
 20
828.050556452389
 30
0.0
 11
57.203438592358
 21
828.106553101784
 31
0.0
  0
LINE
  5
12E8
330
1D
100
AcDbEntity
  8
0
100
AcDbLine
 10
57.057425728881
 20
828.031851403683
 30
0.0
 11
57.154827634165
 21
828.050556452389
 31
0.0
  0
LINE
  5
12E9
330
1D
100
AcDbEntity
  8
0
100
AcDbLine
 10
35.711275345073
 20
840.782834392922
 30
0.0
 11
35.899990541746
 21
840.60609870172
 31
0.0
  0
LINE
  5
12EA
330
1D
100
AcDbEntity
  8
0
100
AcDbLine
 10
35.899990541746
 20
840.60609870172
 30
0.0
 11
36.088543560592
 21
840.443082110282
 31
0.0
  0
LINE
  5
12EB
330
1D
100
AcDbEntity
  8
0
100
AcDbLine
 10
35.534160594817
 20
840.960262646708
 30
0.0
 11
35.711275345073
 21
840.782834392922
 31
0.0
  0
LINE
  5
12EC
330
1D
100
AcDbEntity
  8
0
100
AcDbLine
 10
35.3774957755
 20
841.131311219892
 30
0.0
 11
35.534160594817
 21
840.960262646708
 31
0.0
  0
LINE
  5
12ED
330
1D
100
AcDbEntity
  8
0
100
AcDbLine
 10
35.258998509514
 20
841.277667934648
 30
0.0
 11
35.3774957755
 21
841.131311219892
 31
0.0
  0
LINE
  5
12EE
330
1D
100
AcDbEntity
  8
0
100
AcDbLine
 10
35.187556549973
 20
841.386926830931
 30
0.0
 11
35.258998509514
 21
841.277667934648
 31
0.0
  0
LINE
  5
12EF
330
1D
100
AcDbEntity
  8
0
100
AcDbLine
 10
35.894115588008
 20
840.985922983353
 30
0.0
 11
36.082880784681
 21
840.809273894692
 31
0.0
  0
LINE
  5
12F0
330
1D
100
AcDbEntity
  8
0
100
AcDbLine
 10
36.082880784681
 20
840.809273894692
 30
0.0
 11
36.259995534937
 21
840.631845640905
 31
0.0
  0
LINE
  5
12F1
330
1D
100
AcDbEntity
  8
0
100
AcDbLine
 10
36.259995534937
 20
840.631845640905
 30
0.0
 11
36.416660354254
 21
840.460797067721
 31
0.0
  0
LINE
  5
12F2
330
1D
100
AcDbEntity
  8
0
100
AcDbLine
 10
36.416660354254
 20
840.460797067721
 30
0.0
 11
36.535107620239
 21
840.314353750425
 31
0.0
  0
LINE
  5
12F3
330
1D
100
AcDbEntity
  8
0
100
AcDbLine
 10
36.535107620239
 20
840.314353750425
 30
0.0
 11
36.60654957978
 21
840.205094854142
 31
0.0
  0
LINE
  5
12F4
330
1D
100
AcDbEntity
  8
0
100
AcDbLine
 10
36.60654957978
 20
840.205094854142
 30
0.0
 11
36.633874501467
 21
840.132623006817
 31
0.0
  0
LINE
  5
12F5
330
1D
100
AcDbEntity
  8
0
100
AcDbLine
 10
35.705649171702
 20
841.148889574791
 30
0.0
 11
35.894115588008
 21
840.985922983353
 31
0.0
  0
LINE
  5
12F6
330
1D
100
AcDbEntity
  8
0
100
AcDbLine
 10
35.529129096496
 20
841.289947835979
 30
0.0
 11
35.705649171702
 21
841.148889574791
 31
0.0
  0
LINE
  5
12F7
330
1D
100
AcDbEntity
  8
0
100
AcDbLine
 10
35.373384269777
 20
841.400189883086
 30
0.0
 11
35.529129096496
 21
841.289947835979
 31
0.0
  0
LINE
  5
12F8
330
1D
100
AcDbEntity
  8
0
100
AcDbLine
 10
35.256103852968
 20
841.46605424244
 30
0.0
 11
35.373384269777
 21
841.400189883086
 31
0.0
  0
LINE
  5
12F9
330
1D
100
AcDbEntity
  8
0
100
AcDbLine
 10
35.186091882324
 20
841.484189952146
 30
0.0
 11
35.256103852968
 21
841.46605424244
 31
0.0
  0
LINE
  5
12FA
330
1D
100
AcDbEntity
  8
0
100
AcDbLine
 10
35.160281628287
 20
841.459485280797
 30
0.0
 11
35.680385433127
 21
842.01624268247
 31
0.0
  0
LINE
  5
12FB
330
1D
100
AcDbEntity
  8
0
100
AcDbLine
 10
35.160281628287
 20
841.459485280797
 30
0.0
 11
35.187556549973
 21
841.386926830931
 31
0.0
  0
LINE
  5
12FC
330
1D
100
AcDbEntity
  8
0
100
AcDbLine
 10
40.855483517011
 20
839.145464311429
 30
0.0
 11
41.031583530557
 21
839.024278482105
 31
0.0
  0
LINE
  5
12FD
330
1D
100
AcDbEntity
  8
0
100
AcDbLine
 10
41.031583530557
 20
839.024278482105
 30
0.0
 11
41.175184901859
 21
838.944603353236
 31
0.0
  0
LINE
  5
12FE
330
1D
100
AcDbEntity
  8
0
100
AcDbLine
 10
41.175184901859
 20
838.944603353236
 30
0.0
 11
41.274352505747
 21
838.911366681635
 31
0.0
  0
LINE
  5
12FF
330
1D
100
AcDbEntity
  8
0
100
AcDbLine
 10
40.471481069156
 20
839.460352561515
 30
0.0
 11
40.665909663289
 21
839.293712764997
 31
0.0
  0
LINE
  5
1300
330
1D
100
AcDbEntity
  8
0
100
AcDbLine
 10
40.665909663289
 20
839.293712764997
 30
0.0
 11
40.855483517011
 21
839.145464311429
 31
0.0
  0
LINE
  5
1301
330
1D
100
AcDbEntity
  8
0
100
AcDbLine
 10
41.274352505747
 20
838.911366681635
 30
0.0
 11
41.330890636215
 21
838.920293596171
 31
0.0
  0
LINE
  5
1302
330
1D
100
AcDbEntity
  8
0
100
AcDbLine
 10
40.285404141074
 20
839.636257867959
 30
0.0
 11
40.471481069156
 21
839.460352561515
 31
0.0
  0
LINE
  5
1303
330
1D
100
AcDbEntity
  8
0
100
AcDbLine
 10
40.118242465178
 20
839.80932535223
 30
0.0
 11
40.285404141074
 21
839.636257867959
 31
0.0
  0
LINE
  5
1304
330
1D
100
AcDbEntity
  8
0
100
AcDbLine
 10
39.979251743775
 20
839.97178636098
 30
0.0
 11
40.118242465178
 21
839.80932535223
 31
0.0
  0
LINE
  5
1305
330
1D
100
AcDbEntity
  8
0
100
AcDbLine
 10
39.885037163692
 20
840.106201921462
 30
0.0
 11
39.979251743775
 21
839.97178636098
 31
0.0
  0
LINE
  5
1306
330
1D
100
AcDbEntity
  8
0
100
AcDbLine
 10
39.84160179929
 20
840.201369663472
 30
0.0
 11
39.885037163692
 21
840.106201921462
 31
0.0
  0
LINE
  5
1307
330
1D
100
AcDbEntity
  8
0
100
AcDbLine
 10
37.269918783314
 20
845.44768401884
 30
0.0
 11
37.457679755054
 21
845.318495561572
 31
0.0
  0
LINE
  5
1308
330
1D
100
AcDbEntity
  8
0
100
AcDbLine
 10
37.457679755054
 20
845.318495561572
 30
0.0
 11
37.632253746898
 21
845.227866585125
 31
0.0
  0
LINE
  5
1309
330
1D
100
AcDbEntity
  8
0
100
AcDbLine
 10
37.632253746898
 20
845.227866585125
 30
0.0
 11
37.774395379639
 21
845.188063114903
 31
0.0
  0
LINE
  5
130A
330
1D
100
AcDbEntity
  8
0
100
AcDbLine
 10
36.892600567795
 20
845.787349698939
 30
0.0
 11
37.077116726362
 21
845.606341060395
 31
0.0
  0
LINE
  5
130B
330
1D
100
AcDbEntity
  8
0
100
AcDbLine
 10
36.726813316613
 20
845.976597756646
 30
0.0
 11
36.892600567795
 21
845.787349698939
 31
0.0
  0
LINE
  5
130C
330
1D
100
AcDbEntity
  8
0
100
AcDbLine
 10
37.077116726362
 20
845.606341060395
 30
0.0
 11
37.269918783314
 21
845.44768401884
 31
0.0
  0
LINE
  5
130D
330
1D
100
AcDbEntity
  8
0
100
AcDbLine
 10
37.774395379639
 20
845.188063114903
 30
0.0
 11
37.872607796699
 21
845.199372011186
 31
0.0
  0
LINE
  5
130E
330
1D
100
AcDbEntity
  8
0
100
AcDbLine
 10
37.872607796699
 20
845.199372011186
 30
0.0
 11
37.928401509856
 21
845.255609557116
 31
0.0
  0
LINE
  5
130F
330
1D
100
AcDbEntity
  8
0
100
AcDbLine
 10
36.588891059881
 20
846.16730940049
 30
0.0
 11
36.726813316613
 21
845.976597756646
 31
0.0
  0
LINE
  5
1310
330
1D
100
AcDbEntity
  8
0
100
AcDbLine
 10
36.495341612368
 20
846.339677004378
 30
0.0
 11
36.588891059881
 21
846.16730940049
 31
0.0
  0
LINE
  5
1311
330
1D
100
AcDbEntity
  8
0
100
AcDbLine
 10
36.452063496703
 20
846.478517109191
 30
0.0
 11
36.495341612368
 21
846.339677004378
 31
0.0
  0
LINE
  5
1312
330
1D
100
AcDbEntity
  8
0
100
AcDbLine
 10
37.656483432458
 20
845.861433631567
 30
0.0
 11
37.794405689191
 21
845.670721987723
 31
0.0
  0
LINE
  5
1313
330
1D
100
AcDbEntity
  8
0
100
AcDbLine
 10
37.794405689191
 20
845.670721987723
 30
0.0
 11
37.887991739244
 21
845.498217781295
 31
0.0
  0
LINE
  5
1314
330
1D
100
AcDbEntity
  8
0
100
AcDbLine
 10
37.887991739244
 20
845.498217781295
 30
0.0
 11
37.931233252368
 21
845.359514279022
 31
0.0
  0
LINE
  5
1315
330
1D
100
AcDbEntity
  8
0
100
AcDbLine
 10
37.931233252368
 20
845.359514279022
 30
0.0
 11
37.928401509856
 21
845.255609557116
 31
0.0
  0
LINE
  5
1316
330
1D
100
AcDbEntity
  8
0
100
AcDbLine
 10
37.928401509856
 20
845.255609557116
 30
0.0
 11
38.505756673095
 21
845.844589947943
 31
0.0
  0
LINE
  5
1317
330
1D
100
AcDbEntity
  8
0
100
AcDbLine
 10
37.30618002271
 20
846.231690327818
 30
0.0
 11
37.490646181277
 21
846.050595086733
 31
0.0
  0
LINE
  5
1318
330
1D
100
AcDbEntity
  8
0
100
AcDbLine
 10
37.490646181277
 20
846.050595086733
 30
0.0
 11
37.656483432458
 21
845.861433631567
 31
0.0
  0
LINE
  5
1319
330
1D
100
AcDbEntity
  8
0
100
AcDbLine
 10
37.113464568298
 20
846.390297369373
 30
0.0
 11
37.30618002271
 21
846.231690327818
 31
0.0
  0
LINE
  5
131A
330
1D
100
AcDbEntity
  8
0
100
AcDbLine
 10
42.999980800884
 20
856.709442563792
 30
0.0
 11
50.125213447736
 21
850.293907523888
 31
0.0
  0
LINE
  5
131B
330
1D
100
AcDbEntity
  8
0
100
AcDbLine
 10
46.076412353391
 20
859.994778318741
 30
0.0
 11
48.380211185286
 21
857.920474946001
 31
0.0
  0
LINE
  5
131C
330
1D
100
AcDbEntity
  8
0
100
AcDbLine
 10
48.380211185286
 20
857.920474946001
 30
0.0
 11
50.683923414641
 21
855.846221573262
 31
0.0
  0
LINE
  5
131D
330
1D
100
AcDbEntity
  8
0
100
AcDbLine
 10
36.925616994018
 20
846.519535826641
 30
0.0
 11
37.113464568298
 21
846.390297369373
 31
0.0
  0
LINE
  5
131E
330
1D
100
AcDbEntity
  8
0
100
AcDbLine
 10
36.751129604714
 20
846.610114803088
 30
0.0
 11
36.925616994018
 21
846.519535826641
 31
0.0
  0
LINE
  5
131F
330
1D
100
AcDbEntity
  8
0
100
AcDbLine
 10
36.608901369433
 20
846.64996827331
 30
0.0
 11
36.751129604714
 21
846.610114803088
 31
0.0
  0
LINE
  5
1320
330
1D
100
AcDbEntity
  8
0
100
AcDbLine
 10
36.510725554913
 20
846.638522774486
 30
0.0
 11
36.608901369433
 21
846.64996827331
 31
0.0
  0
LINE
  5
1321
330
1D
100
AcDbEntity
  8
0
100
AcDbLine
 10
36.454895239216
 20
846.582421831096
 30
0.0
 11
36.510725554913
 21
846.638522774486
 31
0.0
  0
LINE
  5
1322
330
1D
100
AcDbEntity
  8
0
100
AcDbLine
 10
36.454895239216
 20
846.582421831096
 30
0.0
 11
36.86236681304
 21
846.998097973067
 31
0.0
  0
LINE
  5
1323
330
1D
100
AcDbEntity
  8
0
100
AcDbLine
 10
36.454895239216
 20
846.582421831096
 30
0.0
 11
36.452063496703
 21
846.478517109191
 31
0.0
  0
LINE
  5
1324
330
1D
100
AcDbEntity
  8
0
100
AcDbLine
 10
40.509429509177
 20
839.885081187699
 30
0.0
 11
40.70385810331
 21
839.71844139118
 31
0.0
  0
LINE
  5
1325
330
1D
100
AcDbEntity
  8
0
100
AcDbLine
 10
40.319942257996
 20
840.033279641266
 30
0.0
 11
40.509429509177
 21
839.885081187699
 31
0.0
  0
LINE
  5
1326
330
1D
100
AcDbEntity
  8
0
100
AcDbLine
 10
40.143842244449
 20
840.15446547059
 30
0.0
 11
40.319942257996
 21
840.033279641266
 31
0.0
  0
LINE
  5
1327
330
1D
100
AcDbEntity
  8
0
100
AcDbLine
 10
40.000290873148
 20
840.234227201999
 30
0.0
 11
40.143842244449
 21
840.15446547059
 31
0.0
  0
LINE
  5
1328
330
1D
100
AcDbEntity
  8
0
100
AcDbLine
 10
39.90103666672
 20
840.267513873601
 30
0.0
 11
40.000290873148
 21
840.234227201999
 31
0.0
  0
LINE
  5
1329
330
1D
100
AcDbEntity
  8
0
100
AcDbLine
 10
39.844585138792
 20
840.258536959065
 30
0.0
 11
39.90103666672
 21
840.267513873601
 31
0.0
  0
LINE
  5
132A
330
1D
100
AcDbEntity
  8
0
100
AcDbLine
 10
39.844585138792
 20
840.258536959065
 30
0.0
 11
39.84160179929
 21
840.201369663472
 31
0.0
  0
LINE
  5
132B
330
1D
100
AcDbEntity
  8
0
100
AcDbLine
 10
40.70385810331
 20
839.71844139118
 30
0.0
 11
40.889935031392
 21
839.542536084736
 31
0.0
  0
LINE
  5
132C
330
1D
100
AcDbEntity
  8
0
100
AcDbLine
 10
50.683923414641
 20
855.846221573262
 30
0.0
 11
53.136316815517
 21
853.638091543726
 31
0.0
  0
LINE
  5
132D
330
1D
100
AcDbEntity
  8
0
100
AcDbLine
 10
40.889935031392
 20
839.542536084736
 30
0.0
 11
41.057146707288
 21
839.369555203005
 31
0.0
  0
LINE
  5
132E
330
1D
100
AcDbEntity
  8
0
100
AcDbLine
 10
41.057146707288
 20
839.369555203005
 30
0.0
 11
41.196087428691
 21
839.207007591716
 31
0.0
  0
LINE
  5
132F
330
1D
100
AcDbEntity
  8
0
100
AcDbLine
 10
41.196087428691
 20
839.207007591716
 30
0.0
 11
41.290388611314
 21
839.072542031233
 31
0.0
  0
LINE
  5
1330
330
1D
100
AcDbEntity
  8
0
100
AcDbLine
 10
41.290388611314
 20
839.072542031233
 30
0.0
 11
41.333823975717
 21
838.977374289224
 31
0.0
  0
LINE
  5
1331
330
1D
100
AcDbEntity
  8
0
100
AcDbLine
 10
55.586732906257
 20
829.249536712571
 30
0.0
 11
55.684221414081
 21
829.268191761277
 31
0.0
  0
LINE
  5
1332
330
1D
100
AcDbEntity
  8
0
100
AcDbLine
 10
55.684221414081
 20
829.268191761277
 30
0.0
 11
55.831101573151
 21
829.24239565941
 31
0.0
  0
LINE
  5
1333
330
1D
100
AcDbEntity
  8
0
100
AcDbLine
 10
47.232142984902
 20
836.517562492383
 30
0.0
 11
47.436218762413
 21
836.400432107625
 31
0.0
  0
LINE
  5
1334
330
1D
100
AcDbEntity
  8
0
100
AcDbLine
 10
46.827267143289
 20
836.827296963952
 30
0.0
 11
47.026617018714
 21
836.66278107667
 31
0.0
  0
LINE
  5
1335
330
1D
100
AcDbEntity
  8
0
100
AcDbLine
 10
47.026617018714
 20
836.66278107667
 30
0.0
 11
47.232142984902
 21
836.517562492383
 31
0.0
  0
LINE
  5
1336
330
1D
100
AcDbEntity
  8
0
100
AcDbLine
 10
47.436218762413
 20
836.400432107625
 30
0.0
 11
47.617460703449
 21
836.325352357962
 31
0.0
  0
LINE
  5
1337
330
1D
100
AcDbEntity
  8
0
100
AcDbLine
 10
47.617460703449
 20
836.325352357962
 30
0.0
 11
47.75996240155
 21
836.296772539238
 31
0.0
  0
LINE
  5
1338
330
1D
100
AcDbEntity
  8
0
100
AcDbLine
 10
47.75996240155
 20
836.296772539238
 30
0.0
 11
47.863022894822
 21
836.310478549838
 31
0.0
  0
LINE
  5
1339
330
1D
100
AcDbEntity
  8
0
100
AcDbLine
 10
46.649385405735
 20
837.002396756769
 30
0.0
 11
46.827267143289
 21
836.827296963952
 31
0.0
  0
LINE
  5
133A
330
1D
100
AcDbEntity
  8
0
100
AcDbLine
 10
46.501276546462
 20
837.175664687457
 30
0.0
 11
46.649385405735
 21
837.002396756769
 31
0.0
  0
LINE
  5
133B
330
1D
100
AcDbEntity
  8
0
100
AcDbLine
 10
46.392892677936
 20
837.339738320449
 30
0.0
 11
46.501276546462
 21
837.175664687457
 31
0.0
  0
LINE
  5
133C
330
1D
100
AcDbEntity
  8
0
100
AcDbLine
 10
46.338406936178
 20
837.476966247436
 30
0.0
 11
46.392892677936
 21
837.339738320449
 31
0.0
  0
LINE
  5
133D
330
1D
100
AcDbEntity
  8
0
100
AcDbLine
 10
46.339418101554
 20
837.575917637242
 30
0.0
 11
46.389516624182
 21
837.637290823818
 31
0.0
  0
LINE
  5
133E
330
1D
100
AcDbEntity
  8
0
100
AcDbLine
 10
46.339418101554
 20
837.575917637242
 30
0.0
 11
46.338406936178
 21
837.476966247436
 31
0.0
  0
LINE
  5
133F
330
1D
100
AcDbEntity
  8
0
100
AcDbLine
 10
46.389516624182
 20
837.637290823818
 30
0.0
 11
46.914837551031
 21
838.272979207078
 31
0.0
  0
LINE
  5
1340
330
1D
100
AcDbEntity
  8
0
100
AcDbLine
 10
46.389516624182
 20
837.637290823818
 30
0.0
 11
46.492527117454
 21
837.650910231877
 31
0.0
  0
LINE
  5
1341
330
1D
100
AcDbEntity
  8
0
100
AcDbLine
 10
50.125300050277
 20
850.293857523888
 30
0.0
 11
57.250482697129
 21
843.878235881444
 31
0.0
  0
LINE
  5
1342
330
1D
100
AcDbEntity
  8
0
100
AcDbLine
 10
50.125213447736
 20
850.293907523888
 30
0.0
 11
57.250446094588
 21
843.878372483984
 31
0.0
  0
LINE
  5
1343
330
1D
100
AcDbEntity
  8
0
100
AcDbLine
 10
53.136316815517
 20
853.638091543726
 30
0.0
 11
55.588710216393
 21
851.42996151419
 31
0.0
  0
LINE
  5
1344
330
1D
100
AcDbEntity
  8
0
100
AcDbLine
 10
47.22592250029
 20
837.284988296986
 30
0.0
 11
47.425272375715
 21
837.120472409704
 31
0.0
  0
LINE
  5
1345
330
1D
100
AcDbEntity
  8
0
100
AcDbLine
 10
55.588710216393
 20
851.42996151419
 30
0.0
 11
57.892459048288
 21
849.35557153891
 31
0.0
  0
LINE
  5
1346
330
1D
100
AcDbEntity
  8
0
100
AcDbLine
 10
47.020346534101
 20
837.430120278733
 30
0.0
 11
47.22592250029
 21
837.284988296986
 31
0.0
  0
LINE
  5
1347
330
1D
100
AcDbEntity
  8
0
100
AcDbLine
 10
46.816320756591
 20
837.547337266031
 30
0.0
 11
47.020346534101
 21
837.430120278733
 31
0.0
  0
LINE
  5
1348
330
1D
100
AcDbEntity
  8
0
100
AcDbLine
 10
46.635078815555
 20
837.622417015694
 30
0.0
 11
46.816320756591
 21
837.547337266031
 31
0.0
  0
LINE
  5
1349
330
1D
100
AcDbEntity
  8
0
100
AcDbLine
 10
46.492527117454
 20
837.650910231877
 30
0.0
 11
46.635078815555
 21
837.622417015694
 31
0.0
  0
LINE
  5
134A
330
1D
100
AcDbEntity
  8
0
100
AcDbLine
 10
47.425272375715
 20
837.120472409704
 30
0.0
 11
47.603154113269
 21
836.945372616887
 31
0.0
  0
LINE
  5
134B
330
1D
100
AcDbEntity
  8
0
100
AcDbLine
 10
47.603154113269
 20
836.945372616887
 30
0.0
 11
47.751212972542
 21
836.772018083659
 31
0.0
  0
LINE
  5
134C
330
1D
100
AcDbEntity
  8
0
100
AcDbLine
 10
47.751212972542
 20
836.772018083659
 30
0.0
 11
47.859596841068
 21
836.607944450666
 31
0.0
  0
LINE
  5
134D
330
1D
100
AcDbEntity
  8
0
100
AcDbLine
 10
47.859596841068
 20
836.607944450666
 30
0.0
 11
47.914082582826
 21
836.47071652368
 31
0.0
  0
LINE
  5
134E
330
1D
100
AcDbEntity
  8
0
100
AcDbLine
 10
57.250482697129
 20
843.878235881444
 30
0.0
 11
63.582238412268
 21
838.17715848118
 31
0.0
  0
LINE
  5
134F
330
1D
100
AcDbEntity
  8
0
100
AcDbLine
 10
57.250482697129
 20
843.878235881444
 30
0.0
 11
62.236341454248
 21
839.388996567748
 31
0.0
  0
LINE
  5
1350
330
1D
100
AcDbEntity
  8
0
100
AcDbLine
 10
57.250446094588
 20
843.878372483984
 30
0.0
 11
63.582151809728
 21
838.17720848118
 31
0.0
  0
LINE
  5
1351
330
1D
100
AcDbEntity
  8
0
100
AcDbLine
 10
57.250446094588
 20
843.878372483984
 30
0.0
 11
62.236341454242
 21
839.388996567754
 31
0.0
  0
LINE
  5
1352
330
1D
100
AcDbEntity
  8
0
100
AcDbLine
 10
47.914082582826
 20
836.47071652368
 30
0.0
 11
47.91303481491
 21
836.371901736414
 31
0.0
  0
LINE
  5
1353
330
1D
100
AcDbEntity
  8
0
100
AcDbLine
 10
47.863022894822
 20
836.310478549838
 30
0.0
 11
47.91303481491
 21
836.371901736414
 31
0.0
  0
LINE
  5
1354
330
1D
100
AcDbEntity
  8
0
100
AcDbLine
 10
47.863022894822
 20
836.310478549838
 30
0.0
 11
48.233767951954
 21
836.759068080824
 31
0.0
  0
LINE
  5
1355
330
1D
100
AcDbEntity
  8
0
100
AcDbLine
 10
56.655077184118
 20
828.794963281803
 30
0.0
 11
56.848002446151
 21
828.636119637707
 31
0.0
  0
LINE
  5
1356
330
1D
100
AcDbEntity
  8
0
100
AcDbLine
 10
56.444485450265
 20
828.944607699115
 30
0.0
 11
56.655077184118
 21
828.794963281803
 31
0.0
  0
LINE
  5
1357
330
1D
100
AcDbEntity
  8
0
100
AcDbLine
 10
56.222608075765
 20
829.077904813432
 30
0.0
 11
56.444485450265
 21
828.944607699115
 31
0.0
  0
LINE
  5
1358
330
1D
100
AcDbEntity
  8
0
100
AcDbLine
 10
56.011567938901
 20
829.179772573946
 30
0.0
 11
56.222608075765
 21
829.077904813432
 31
0.0
  0
LINE
  5
1359
330
1D
100
AcDbEntity
  8
0
100
AcDbLine
 10
55.831101573151
 20
829.24239565941
 30
0.0
 11
56.011567938901
 21
829.179772573946
 31
0.0
  0
LINE
  5
135A
330
1D
100
AcDbEntity
  8
0
100
AcDbLine
 10
56.848002446151
 20
828.636119637707
 30
0.0
 11
57.006587138449
 21
828.47839638207
 31
0.0
  0
LINE
  5
135B
330
1D
100
AcDbEntity
  8
0
100
AcDbLine
 10
90.18072799114
 20
814.227693836378
 30
0.0
 11
91.807388380643
 21
812.763152277656
 31
0.0
  0
LINE
  5
135C
330
1D
100
AcDbEntity
  8
0
100
AcDbLine
 10
88.270740126026
 20
815.94749781216
 30
0.0
 11
90.18077799114
 21
814.227780438918
 31
0.0
  0
LINE
  5
135D
330
1D
100
AcDbEntity
  8
0
100
AcDbLine
 10
88.270740126026
 20
815.94749781216
 30
0.0
 11
90.18072799114
 21
814.227693836378
 31
0.0
  0
LINE
  5
135E
330
1D
100
AcDbEntity
  8
0
100
AcDbLine
 10
90.18077799114
 20
814.227780438918
 30
0.0
 11
91.807388380643
 21
812.763152277656
 31
0.0
  0
LINE
  5
135F
330
1D
100
AcDbEntity
  8
0
100
AcDbLine
 10
63.582238412268
 20
838.17715848118
 30
0.0
 11
68.342890194922
 21
833.890649245879
 31
0.0
  0
LINE
  5
1360
330
1D
100
AcDbEntity
  8
0
100
AcDbLine
 10
63.582151809728
 20
838.17720848118
 30
0.0
 11
68.342890194922
 21
833.890649245879
 31
0.0
  0
LINE
  5
1361
330
1D
100
AcDbEntity
  8
0
100
AcDbLine
 10
68.342890194922
 20
833.890649245879
 30
0.0
 11
72.279883837333
 21
830.345722263611
 31
0.0
  0
LINE
  5
1362
330
1D
100
AcDbEntity
  8
0
100
AcDbLine
 10
68.342890194922
 20
833.890649245879
 30
0.0
 11
72.279970439873
 21
830.345672263611
 31
0.0
  0
LINE
  5
1363
330
1D
100
AcDbEntity
  8
0
100
AcDbLine
 10
72.279970439873
 20
830.345672263611
 30
0.0
 11
76.653149266597
 21
826.408040182081
 31
0.0
  0
LINE
  5
1364
330
1D
100
AcDbEntity
  8
0
100
AcDbLine
 10
72.279883837333
 20
830.345722263611
 30
0.0
 11
76.653062664056
 21
826.408090182081
 31
0.0
  0
LINE
  5
1365
330
1D
100
AcDbEntity
  8
0
100
AcDbLine
 10
76.653149266597
 20
826.408040182081
 30
0.0
 11
80.822177067324
 21
822.654208151106
 31
0.0
  0
LINE
  5
1366
330
1D
100
AcDbEntity
  8
0
100
AcDbLine
 10
76.653062664056
 20
826.408090182081
 30
0.0
 11
80.822177067324
 21
822.654208151106
 31
0.0
  0
LINE
  5
1367
330
1D
100
AcDbEntity
  8
0
100
AcDbLine
 10
85.977825457405
 20
818.012053108688
 30
0.0
 11
88.270740126026
 21
815.94749781216
 31
0.0
  0
LINE
  5
1368
330
1D
100
AcDbEntity
  8
0
100
AcDbLine
 10
80.822177067324
 20
822.654208151106
 30
0.0
 11
83.468443548705
 21
820.271676147225
 31
0.0
  0
LINE
  5
1369
330
1D
100
AcDbEntity
  8
0
100
AcDbLine
 10
83.468443548705
 20
820.271676147225
 30
0.0
 11
85.977825457405
 21
818.012053108688
 31
0.0
  0
LINE
  5
136A
330
1D
100
AcDbEntity
  8
0
100
AcDbLine
 10
82.527213711832
 20
826.501418248162
 30
0.0
 11
99.990806051551
 21
808.383247463226
 31
0.0
  0
LINE
  5
136B
330
1D
100
AcDbEntity
  8
0
100
AcDbLine
 10
71.714942232041
 20
836.909814699935
 30
0.0
 11
82.527213711832
 21
826.501418248162
 31
0.0
  0
LINE
  5
136C
330
1D
100
AcDbEntity
  8
0
100
AcDbLine
 10
71.49205037857
 20
837.110554685131
 30
0.0
 11
71.714942232041
 21
836.909814699935
 31
0.0
  0
LINE
  5
136D
330
1D
100
AcDbEntity
  8
0
100
AcDbLine
 10
93.352869148687
 20
810.026003490029
 30
0.0
 11
94.021236407271
 21
810.769649540011
 31
0.0
  0
LINE
  5
136E
330
1D
100
AcDbEntity
  8
0
100
AcDbLine
 10
103.623688804829
 20
804.381584969845
 30
0.0
 11
107.288336911407
 21
800.170941682299
 31
0.0
  0
LINE
  5
136F
330
1D
100
AcDbEntity
  8
0
100
AcDbLine
 10
103.539615756375
 20
804.475966178375
 30
0.0
 11
103.623688804829
 21
804.381584969845
 31
0.0
  0
LINE
  5
1370
330
1D
100
AcDbEntity
  8
0
100
AcDbLine
 10
100.189243164611
 20
808.166950625152
 30
0.0
 11
103.539615756375
 21
804.475966178375
 31
0.0
  0
LINE
  5
1371
330
1D
100
AcDbEntity
  8
0
100
AcDbLine
 10
99.990806051551
 20
808.383247463226
 30
0.0
 11
100.189243164611
 21
808.166950625152
 31
0.0
  0
LINE
  5
1372
330
1D
100
AcDbEntity
  8
0
100
AcDbLine
 10
93.106541821114
 20
811.59335204338
 30
0.0
 11
94.021236407271
 21
810.769649540011
 31
0.0
  0
LINE
  5
1373
330
1D
100
AcDbEntity
  8
0
100
AcDbLine
 10
91.807388380643
 20
812.763152277656
 30
0.0
 11
93.106541821114
 21
811.59335204338
 31
0.0
  0
LINE
  5
1374
330
1D
100
AcDbEntity
  8
0
100
AcDbLine
 10
107.288336911407
 20
800.170941682299
 30
0.0
 11
112.827797688799
 21
792.541569195276
 31
0.0
  0
LINE
  5
1375
330
1D
100
AcDbEntity
  8
0
100
AcDbLine
 10
57.006587138449
 20
828.47839638207
 30
0.0
 11
57.125627224758
 21
828.331379859694
 31
0.0
  0
LINE
  5
1376
330
1D
100
AcDbEntity
  8
0
100
AcDbLine
 10
57.125627224758
 20
828.331379859694
 30
0.0
 11
57.194774182448
 21
828.202545903602
 31
0.0
  0
LINE
  5
1377
330
1D
100
AcDbEntity
  8
0
100
AcDbLine
 10
41.333823975717
 20
838.977374289224
 30
0.0
 11
41.330890636215
 21
838.920293596171
 31
0.0
  0
LINE
  5
1378
330
1D
100
AcDbEntity
  8
0
100
AcDbLine
 10
27.410814319859
 20
844.783214171007
 30
0.0
 11
27.844944625639
 21
844.330149917723
 31
0.0
  0
LINE
  5
1379
330
1D
100
AcDbEntity
  8
0
100
AcDbLine
 10
112.827797688799
 20
792.541569195276
 30
0.0
 11
119.153264465545
 21
782.80959903419
 31
0.0
  0
LINE
  5
137A
330
1D
100
AcDbEntity
  8
0
100
AcDbLine
 10
95.760829950514
 20
791.774713941429
 30
0.0
 11
94.534822024336
 21
793.514748066912
 31
0.0
  0
LINE
  5
137B
330
1D
100
AcDbEntity
  8
0
100
AcDbLine
 10
71.49205037857
 20
837.110554685131
 30
0.0
 11
57.892459048288
 21
849.35557153891
 31
0.0
  0
ENDSEC
  0
SECTION
  2
OBJECTS
  0
DICTIONARY
  5
C
330
0
100
AcDbDictionary
281
     1
  3
ACAD_GROUP
350
D
  3
ACAD_LAYOUT
350
1A
  3
ACAD_MLEADERSTYLE
350
137E
  3
ACAD_MLINESTYLE
350
17
  3
ACAD_PLOTSETTINGS
350
19
  3
ACAD_PLOTSTYLENAME
350
E
  3
ACAD_SCALELIST
350
7CF
  3
AcDbVariableDictionary
350
137C
  3
DWGPROPS
350
1381
  0
DICTIONARY
  5
D
102
{ACAD_REACTORS
330
C
102
}
330
C
100
AcDbDictionary
281
     1
  0
DICTIONARY
  5
1A
102
{ACAD_REACTORS
330
C
102
}
330
C
100
AcDbDictionary
281
     1
  3
Layout1
350
1C
  3
Model
350
1E
  0
DICTIONARY
  5
137E
102
{ACAD_REACTORS
330
C
102
}
330
C
100
AcDbDictionary
281
     1
  0
DICTIONARY
  5
17
102
{ACAD_REACTORS
330
C
102
}
330
C
100
AcDbDictionary
281
     1
  3
Standard
350
18
  0
DICTIONARY
  5
19
102
{ACAD_REACTORS
330
C
102
}
330
C
100
AcDbDictionary
281
     1
  0
ACDBDICTIONARYWDFLT
  5
E
102
{ACAD_REACTORS
330
C
102
}
330
C
100
AcDbDictionary
281
     1
  3
Normal
350
F
100
AcDbDictionaryWithDefault
340
F
  0
DICTIONARY
  5
7CF
102
{ACAD_REACTORS
330
C
102
}
330
C
100
AcDbDictionary
281
     1
  3
A0
350
7D0
  3
A1
350
7D1
  3
A2
350
7D2
  3
A3
350
7D3
  3
A4
350
7D4
  3
A5
350
7D5
  3
A6
350
7D6
  3
A7
350
7D7
  3
A8
350
7D8
  3
A9
350
7D9
  3
B0
350
7DA
  3
B1
350
7DB
  3
B2
350
7DC
  3
B3
350
7DD
  3
B4
350
7DE
  3
B5
350
7DF
  3
B6
350
7E0
  3
B7
350
7E1
  3
B8
350
7E2
  3
B9
350
7E3
  3
C0
350
7E4
  3
C1
350
7E5
  3
C2
350
7E6
  3
C3
350
7E7
  3
C4
350
7E8
  3
C5
350
7E9
  3
C6
350
7EA
  3
C7
350
7EB
  3
C8
350
7EC
  3
C9
350
7ED
  3
D0
350
7EE
  3
D1
350
7EF
  3
D2
350
7F0
  0
DICTIONARY
  5
137C
102
{ACAD_REACTORS
330
C
102
}
330
C
100
AcDbDictionary
281
     1
  3
CANNOSCALE
350
137F
  0
XRECORD
  5
1381
102
{ACAD_REACTORS
330
C
102
}
330
C
100
AcDbXrecord
280
     1
  1
DWGPROPS COOKIE
  2

  3

  4

  6

  7

  8
MARTIN
  9

300
=
301
=
302
=
303
=
304
=
305
=
306
=
307
=
308
=
309
=
 40
0.0
 41
2456465.844317488
 42
2456465.846730139
  1

 90
        0
  0
LAYOUT
  5
1C
102
{ACAD_REACTORS
330
1A
102
}
330
1A
100
AcDbPlotSettings
  1

  2
none_device
  4

  6

 40
0.0
 41
0.0
 42
0.0
 43
0.0
 44
0.0
 45
0.0
 46
0.0
 47
0.0
 48
0.0
 49
0.0
140
0.0
141
0.0
142
1.0
143
1.0
 70
   688
 72
     0
 73
     0
 74
     5
  7

 75
    16
147
1.0
148
0.0
149
0.0
100
AcDbLayout
  1
Layout1
 70
     1
 71
     1
 10
0.0
 20
0.0
 11
12.0
 21
9.0
 12
0.0
 22
0.0
 32
0.0
 14
1.000000000000E+20
 24
1.000000000000E+20
 34
1.000000000000E+20
 15
-1.000000000000E+20
 25
-1.000000000000E+20
 35
-1.000000000000E+20
146
0.0
 13
0.0
 23
0.0
 33
0.0
 16
1.0
 26
0.0
 36
0.0
 17
0.0
 27
1.0
 37
0.0
 76
     0
330
1B
  0
LAYOUT
  5
1E
102
{ACAD_REACTORS
330
1A
102
}
330
1A
100
AcDbPlotSettings
  1

  2
none_device
  4

  6

 40
0.0
 41
0.0
 42
0.0
 43
0.0
 44
0.0
 45
0.0
 46
0.0
 47
0.0
 48
0.0
 49
0.0
140
0.0
141
0.0
142
1.0
143
1.0
 70
  1712
 72
     0
 73
     0
 74
     0
  7

 75
     0
147
1.0
148
0.0
149
0.0
100
AcDbLayout
  1
Model
 70
     1
 71
     0
 10
0.0
 20
0.0
 11
12.0
 21
9.0
 12
0.0
 22
0.0
 32
0.0
 14
0.082648702272
 24
0.0
 34
0.0
 15
205.9498
 25
1008.0
 35
0.0
146
0.0
 13
0.0
 23
0.0
 33
0.0
 16
1.0
 26
0.0
 36
0.0
 17
0.0
 27
1.0
 37
0.0
 76
     0
330
1D
331
7CA
  0
MLINESTYLE
  5
18
102
{ACAD_REACTORS
330
17
102
}
330
17
100
AcDbMlineStyle
  2
Standard
 70
     0
  3

 62
   256
 51
90.0
 52
90.0
 71
     2
 49
0.5
 62
   256
  6
BYLAYER
 49
-0.5
 62
   256
  6
BYLAYER
  0
ACDBPLACEHOLDER
  5
F
102
{ACAD_REACTORS
330
E
102
}
330
E
  0
SCALE
  5
7D0
102
{ACAD_REACTORS
330
7CF
102
}
330
7CF
100
AcDbScale
 70
     0
300
1:1
140
1.0
141
1.0
290
     1
  0
SCALE
  5
7D1
102
{ACAD_REACTORS
330
7CF
102
}
330
7CF
100
AcDbScale
 70
     0
300
1:2
140
1.0
141
2.0
290
     0
  0
SCALE
  5
7D2
102
{ACAD_REACTORS
330
7CF
102
}
330
7CF
100
AcDbScale
 70
     0
300
1:4
140
1.0
141
4.0
290
     0
  0
SCALE
  5
7D3
102
{ACAD_REACTORS
330
7CF
102
}
330
7CF
100
AcDbScale
 70
     0
300
1:5
140
1.0
141
5.0
290
     0
  0
SCALE
  5
7D4
102
{ACAD_REACTORS
330
7CF
102
}
330
7CF
100
AcDbScale
 70
     0
300
1:8
140
1.0
141
8.0
290
     0
  0
SCALE
  5
7D5
102
{ACAD_REACTORS
330
7CF
102
}
330
7CF
100
AcDbScale
 70
     0
300
1:10
140
1.0
141
10.0
290
     0
  0
SCALE
  5
7D6
102
{ACAD_REACTORS
330
7CF
102
}
330
7CF
100
AcDbScale
 70
     0
300
1:16
140
1.0
141
16.0
290
     0
  0
SCALE
  5
7D7
102
{ACAD_REACTORS
330
7CF
102
}
330
7CF
100
AcDbScale
 70
     0
300
1:20
140
1.0
141
20.0
290
     0
  0
SCALE
  5
7D8
102
{ACAD_REACTORS
330
7CF
102
}
330
7CF
100
AcDbScale
 70
     0
300
1:30
140
1.0
141
30.0
290
     0
  0
SCALE
  5
7D9
102
{ACAD_REACTORS
330
7CF
102
}
330
7CF
100
AcDbScale
 70
     0
300
1:40
140
1.0
141
40.0
290
     0
  0
SCALE
  5
7DA
102
{ACAD_REACTORS
330
7CF
102
}
330
7CF
100
AcDbScale
 70
     0
300
1:50
140
1.0
141
50.0
290
     0
  0
SCALE
  5
7DB
102
{ACAD_REACTORS
330
7CF
102
}
330
7CF
100
AcDbScale
 70
     0
300
1:100
140
1.0
141
100.0
290
     0
  0
SCALE
  5
7DC
102
{ACAD_REACTORS
330
7CF
102
}
330
7CF
100
AcDbScale
 70
     0
300
2:1
140
2.0
141
1.0
290
     0
  0
SCALE
  5
7DD
102
{ACAD_REACTORS
330
7CF
102
}
330
7CF
100
AcDbScale
 70
     0
300
4:1
140
4.0
141
1.0
290
     0
  0
SCALE
  5
7DE
102
{ACAD_REACTORS
330
7CF
102
}
330
7CF
100
AcDbScale
 70
     0
300
8:1
140
8.0
141
1.0
290
     0
  0
SCALE
  5
7DF
102
{ACAD_REACTORS
330
7CF
102
}
330
7CF
100
AcDbScale
 70
     0
300
10:1
140
10.0
141
1.0
290
     0
  0
SCALE
  5
7E0
102
{ACAD_REACTORS
330
7CF
102
}
330
7CF
100
AcDbScale
 70
     0
300
100:1
140
100.0
141
1.0
290
     0
  0
SCALE
  5
7E1
102
{ACAD_REACTORS
330
7CF
102
}
330
7CF
100
AcDbScale
 70
     0
300
1/128" = 1'-0"
140
0.0078125
141
12.0
290
     0
  0
SCALE
  5
7E2
102
{ACAD_REACTORS
330
7CF
102
}
330
7CF
100
AcDbScale
 70
     0
300
1/64" = 1'-0"
140
0.015625
141
12.0
290
     0
  0
SCALE
  5
7E3
102
{ACAD_REACTORS
330
7CF
102
}
330
7CF
100
AcDbScale
 70
     0
300
1/32" = 1'-0"
140
0.03125
141
12.0
290
     0
  0
SCALE
  5
7E4
102
{ACAD_REACTORS
330
7CF
102
}
330
7CF
100
AcDbScale
 70
     0
300
1/16" = 1'-0"
140
0.0625
141
12.0
290
     0
  0
SCALE
  5
7E5
102
{ACAD_REACTORS
330
7CF
102
}
330
7CF
100
AcDbScale
 70
     0
300
3/32" = 1'-0"
140
0.09375
141
12.0
290
     0
  0
SCALE
  5
7E6
102
{ACAD_REACTORS
330
7CF
102
}
330
7CF
100
AcDbScale
 70
     0
300
1/8" = 1'-0"
140
0.125
141
12.0
290
     0
  0
SCALE
  5
7E7
102
{ACAD_REACTORS
330
7CF
102
}
330
7CF
100
AcDbScale
 70
     0
300
3/16" = 1'-0"
140
0.1875
141
12.0
290
     0
  0
SCALE
  5
7E8
102
{ACAD_REACTORS
330
7CF
102
}
330
7CF
100
AcDbScale
 70
     0
300
1/4" = 1'-0"
140
0.25
141
12.0
290
     0
  0
SCALE
  5
7E9
102
{ACAD_REACTORS
330
7CF
102
}
330
7CF
100
AcDbScale
 70
     0
300
3/8" = 1'-0"
140
0.375
141
12.0
290
     0
  0
SCALE
  5
7EA
102
{ACAD_REACTORS
330
7CF
102
}
330
7CF
100
AcDbScale
 70
     0
300
1/2" = 1'-0"
140
0.5
141
12.0
290
     0
  0
SCALE
  5
7EB
102
{ACAD_REACTORS
330
7CF
102
}
330
7CF
100
AcDbScale
 70
     0
300
3/4" = 1'-0"
140
0.75
141
12.0
290
     0
  0
SCALE
  5
7EC
102
{ACAD_REACTORS
330
7CF
102
}
330
7CF
100
AcDbScale
 70
     0
300
1" = 1'-0"
140
1.0
141
12.0
290
     0
  0
SCALE
  5
7ED
102
{ACAD_REACTORS
330
7CF
102
}
330
7CF
100
AcDbScale
 70
     0
300
1-1/2" = 1'-0"
140
1.5
141
12.0
290
     0
  0
SCALE
  5
7EE
102
{ACAD_REACTORS
330
7CF
102
}
330
7CF
100
AcDbScale
 70
     0
300
3" = 1'-0"
140
3.0
141
12.0
290
     0
  0
SCALE
  5
7EF
102
{ACAD_REACTORS
330
7CF
102
}
330
7CF
100
AcDbScale
 70
     0
300
6" = 1'-0"
140
6.0
141
12.0
290
     0
  0
SCALE
  5
7F0
102
{ACAD_REACTORS
330
7CF
102
}
330
7CF
100
AcDbScale
 70
     0
300
1'-0" = 1'-0"
140
12.0
141
12.0
290
     0
  0
DICTIONARYVAR
  5
137F
102
{ACAD_REACTORS
330
137C
102
}
330
137C
100
DictionaryVariables
280
     0
  1
1:1
  0
ENDSEC
  0
SECTION
  2
THUMBNAILIMAGE
 90
    16364
310
28000000B40000005500000001000800000000000000000000000000000000000000000000000000FFFFFF000000FF0000FFFF0000FF0000FFFF0000FF000000FF00FF000000000080808000C0C0C0000000FF007F7FFF000000A5005252A50000007F003F3F7F0000004C0026264C000000260013132600003FFF007F9FFF
310
000029A5005267A500001F7F003F4F7F0000134C00262F4C000009260013172600007FFF007FBFFF000052A500527CA500003F7F003F5F7F0000264C0026394C0000132600131C260000BFFF007FDFFF00007CA5005291A500005F7F003F6F7F0000394C0026424C00001C26001321260000FFFF007FFFFF0000A5A50052A5
310
A500007F7F003F7F7F00004C4C00264C4C00002626001326260000FFBF007FFFDF0000A57C0052A59100007F5F003F7F6F00004C3900264C420000261C001326210000FF7F007FFFBF0000A5520052A57C00007F3F003F7F5F00004C2600264C39000026130013261C0000FF3F007FFF9F0000A5290052A56700007F1F003F
310
7F4F00004C1300264C2F00002609001326170000FF00007FFF7F0000A5000052A55200007F00003F7F3F00004C0000264C260000260000132613003FFF00009FFF7F0029A5000067A552001F7F00004F7F3F00134C00002F4C260009260000172613007FFF0000BFFF7F0052A500007CA552003F7F00005F7F3F00264C0000
310
394C2600132600001C261300BFFF0000DFFF7F007CA5000091A552005F7F00006F7F3F00394C0000424C26001C26000021261300FFFF0000FFFF7F00A5A50000A5A552007F7F00007F7F3F004C4C00004C4C26002626000026261300FFBF0000FFDF7F00A57C0000A59152007F5F00007F6F3F004C3900004C422600261C00
310
0026211300FF7F0000FFBF7F00A5520000A57C52007F3F00007F5F3F004C2600004C39260026130000261C1300FF3F0000FF9F7F00A5290000A56752007F1F00007F4F3F004C1300004C2F26002609000026171300FF000000FF7F7F00A5000000A55252007F0000007F3F3F004C0000004C2626002600000026131300FF00
310
3F00FF7F9F00A5002900A55267007F001F007F3F4F004C0013004C262F002600090026131700FF007F00FF7FBF00A5005200A5527C007F003F007F3F5F004C0026004C2639002600130026131C00FF00BF00FF7FDF00A5007C00A55291007F005F007F3F6F004C0039004C26420026001C0026132100FF00FF00FF7FFF00A5
310
00A500A552A5007F007F007F3F7F004C004C004C264C002600260026132600BF00FF00DF7FFF007C00A5009152A5005F007F006F3F7F0039004C0042264C001C002600211326007F00FF00BF7FFF005200A5007C52A5003F007F005F3F7F0026004C0039264C00130026001C1326003F00FF009F7FFF002900A5006752A500
310
1F007F004F3F7F0013004C002F264C000900260017132600000000002D2D2D005B5B5B0089898900B7B7B700B3B3B30000000000000000000000000000000000000000000000000000000000000000000000000000000000000000000000000000000000000000000000000000000000000000000000000000000000000000
310
00000000000000000000000000000007070707070000000000000000000000000000000000000000000000000000000000000000000000000000000000000000000000000000000000000000000000000000000000000000000000000000000000000000000000000000000000000000000000000000000000000000000000
310
00000000000000000000000000000000000000000000000000000000000000000000000000000000000000000000000000000000000000000000000000000000000000000700070700070000000000000000000000000000000000000000000000000000000000000000000000000000000000000000000000000000000000
310
00000000000000000000000000000000000000000000000000000000000000000000000000000000000000000000000000000000000000000000000000000000000000000000000000000000000000000000000000000000000000000000000000000000000000000000000000000000000000000000000000070007070007
310
00000000000000000000000000000000000000000000000000000000000000000000000000000000000000000000000000000000000000000000000000000000000000000000000000000000000000000000000000000000000000000000000000000000000000000000000000000000000000000000000000000000000000
310
00000000000000000000000000000000000000000000000000000000000000000000000000000000000000000000000700000700070000000000000000000000000000000000000000000000000000000000000000000000000000000000000000000000000000000000000000000000000000000000000000000000000000
310
00000000000000000000000000000000000000000000000000000000000000000000000000000000000000000000000000000000000000000000000000000000000000000000000000000000000000000000000000000000000000000000000000000000070000070007000000000000000000000000000000000000000000
310
00000000000000000000000000000000000000000000000000000000000000000000000000000000000000000000000000000000000000000000000000000000000000000000000000000000000000000000000000000000000000000000000000000000000000000000000000000000000000000000000000000000000000
310
00000000000000000000000000000000000000000000000000000700000700070000000000000000000000000000000000000000000000000000000000000000000000000000000000000000000000000000000000000000000000000000000000000000000000000000000000000000000000000000000000000000000000
310
00000000000000000000000000000000000000000000000000000000000000000000000000000000000000000000000000000000000000000000000000000000000000000000000000000000000000070707070007000000000000000000000000000000000000000000000000000000000000000000000000000000000000
310
00000000000000000000000000000000000000000000000000000000000000000000000000000000000000000000000000000000000000000000000000000000000000000000000000000000000000000000000000000000000000000000000000000000000000000000000000000000000000000000000000000000000000
310
00000000000700070700070000000000000000000000000000000000000000000000000000000000000000000000000000000000000000000000000000000000000000000000000000000000000000000000000000000000000000000000000000000000000000000000000000000000000000000000000000000000000000
310
00000000000000000000000000000000000000000000000000000000000000000000000000000000000000000000000000000000000000000000070007070007000000000000000000000000000000000000000000000000000000000000000000000000000000000000000000000000000000000000000000000000000000
310
00000000000000000000000000000000000000000000000000000000000000000000000000000000000000000000000000000000000000000000000000000000000000000000000000000000000000000000000000000000000000000000000000000000000000000000000000000007000707000700000000000000000000
310
00000000000000000000000000000000000000000000000000000000000000000000000000000000000000000000000000000000000000000000000000000000000000000000000000000000000000000000000000000000000000000000000000000000000000000000000000000000000000000000000000000000000000
310
00000000000000000000000000000000000000000000000000000000000000000000000000070007070007000000000000000000000000000000000000000000000000000000000000000000000000000000000000000000000000000000000000000000000000000000000000000000000000000000000000000000000000
310
00000000000000000000000000000000000000000000000000000000000000000000000000000000000000000000000000000000000000000000000000000000000000000000000000000000000000000000000000000000000007000707000700000000000000000000000000000000000000000000000000000000000000
310
00000000000000000000000000000000000000000000000000000000000000000000000000000000000000000000000000000000000000000000000000000000000000000000000000000000000000000000000000000000000000000000000000000000000000000000000000000000000000000000000000000000000000
310
00000000000000000000000000000000070007070007000000000000000000000000000000000000000000000000000000000000000000000000000000000000000000000000000000000000000000000000000000000000000000000000000000000000000000000000000000000000000000000000000000000000000000
310
00000000000000000000000000000000000000000000000000000000000000000000000000000000000000000000000000000000000000000000000000000000000000000007000707000700000000000000000000000000000000000000000000000000000000000000000000000000000000000000000000000000000000
310
00000000000000000000000000000000000000000000000000000000000000000000000000000000000000000000000000000000000000000000000000000000000000000000000000000000000000000000000000000000000000000000000000000000000000000000000000000000000000000000000000000700070700
310
07000000000000000000000000000000000000000000000000000000000000000000000000000000000000000000000000000000000000000000000000000000000000000000000000000000000000000000000000000000000000000000000000000000000000000000000000000000000000000000000000000000000000
310
00000000000000000000000000000000000000000000000000000000000000000000000000000000000000000000000007000707000700000000000000000000000000000000000000000000000000000000000000000000000000000000000000000000000000000000000000000000000000000000000000000000000000
310
00000000000000000000000000000000000000000000000000000000000000000000000000000000000000000000000000000000000000000000000000000000000000000000000000000000000000000000000000000000000000000707070707070707070707070700070000000000000000000000000000000000000000
310
00000000000000000000000000000000000000000000000000000000000000000000000000000000000000000000000000000000000000000000000000000000000000000000000000000000000000000000000000000000000000000000000000000000000000000000000000000000000000000000000000000000000000
310
00000000000000000000000000000000000007000000000000000007000707000700000000000000000000000000000000000000000000000000000000000000000000000000000000000000000000000000000000000000000000000000000000000000000000000000000000000000000000000000000000000000000000
310
00000000000000000000000000000000000000000000000000000000000000000000000000000000000000000000000000000000000000000000000000000000000000000000000707070707070707070707070700070000000000000000000000000000000000000000000000000000000000000000000000000000000000
310
00000000000000000000000000000000000000000000000000000000000000000000000000000000000000000000000000000000000000000000000000000000000000000000000000000000000000000000000000000000000000000000000000000000000000000000000000000000000000000000000000000000000000
310
00000000000007000707000700000000000000000000000000000000000000000000000000000000000000000000000000000000000000000000000000000000000000000000000000000000000000000000000000000000000000000000000000000000000000000000000000000000000000000000000000000000000000
310
00000000000000000000000000000000000000000000000000000000000000000000000000000000000000000000000000000000000000000000000700070700070000000000000000000000000000000000000000000000000000000000000000000000000000000000000000000000000000000000000000000000000000
310
00000000000000000000000000000000000000000000000000000000000000000000000000000000000000000000000000000000000000000000000000000000000000000000000000000000000000000000000000000000000000000000000000000000000000000000000000000000070007070007000000000000000000
310
00000000000000000000000000000000000000000000000000000000000000000000000000000000000000000000000000000000000000000000000000000000000000000000000000000000000000000000000000000000000000000000000000000000000000000000000000000000000000000000000000000000000000
310
00000000000000000000000000000000000000000000000000000000000000000000000000000700070707000000000000000000000000000000000000000000000000000000000000000000000000000000000000000000000000000000000000000000000000000000000000000000000000000000000000000000000000
310
00000000000000000000000000000000000000000000000000000000000000000000000000000000000000000000000000000000000000000000000000000000000000000000000000000000000000000000000000000000000000070007070700000000000000000000000000000000000000000000000000000000000000
310
00000000000000000000000000000000000000000000000000000000000000000000000000000000000000000000000000000000000000000000000000000000000000000000000000000000000000000000000000000000000000000000000000000000000000000000000000000000000000000000000000000000000000
310
00000000000000000000000000000000000700070707000000000000000000000000000000000000000000000000000000000000000000000000000000000000000000000000000000000000000000000000000000000000000000000000000000000000000000000000000000000000000000000000000000000000000000
310
00000000000000000000000000000000000000000000000000000000000000000000000000000000000000000000000000000000000000000000000000000000000000000000070007070700000000000000000000000000000000000000000000000000000000000000000000000000000000000000000000000000000000
310
00000000000000000000000000000000000000000000000000000000000000000000000000000000000000000000000000000000000000000000000000000000000000000000000000000000000000000000000000000000000000000000000000000000000000000000000000000000000000000000000000000007000707
310
07000000000000000000000000000000000000000000000000000000000000000000000000000000000000000000000000000000000000000000000000000000000000000000000000000000000000000000000000000000000000000000000000000000000000000000000000000000000000000000000000000000000000
310
00000000000000000000000000000000000000000000000000000000000000000000000000000000000000000000000000070007070700000000000000000000000000000000000000000000000000000000000000000000000000000000000000000000000000000000000000000000000000000000000000000000000000
310
00000000000000000000000000000000000000000000000000000000000000000000000000000000000000000000000000000000000000000000000000000000000000000000000000000000000000000000000000000000000000000000000000000000000007000707070000000000000000000000000000000000000000
310
00000000000000000000000000000000000000000000000000000000000000000000000000000000000000000000000000000000000000000000000000000000000000000000000000000000000000000000000000000000000000000000000000000000000000000000000000000000000000000000000000000000000000
310
00000000000000000000000000000000000000000000000000000000070007070700000000000000000000000000000000000000000000000000000000000000000000000000000000000000000000000000000000000000000000000000000000000000000000000000000000000000000000000000000000000000000000
310
00000000000000000000000000000000000000000000000000000000000000000000000000000000000000000000000000000000000000000000000000000000000000000000000000000000000000000007000707070000000000000000000000000000000000000000000000000000000000000000000000000000000000
310
00000000000000000000000000000000000000000000000000000000000000000000000000000000000000000000000000000000000000000000000000000000000000000000000000000000000000000000000000000000000000000000000000000000000000000000000000000000000000000000000000000000000000
310
00000000000000070007070700000000000000000000000000000000000000000000000000000000000000000000000000000000000000000000000000000000000000000000000000000000000000000000000000000000000000000000000000000000000000000000000000000000000000000000000000000000000000
310
00000000000000000000000000000000000000000000000000000000000000000000000000000000000000000000000000000000000000000000000007000707070000000000000000000000000000000000000000000000000000000000000000000000000000000000000000000000000000000000000000000000000000
310
00000000000000000000000000000000000000000000000000000000000000000000000000000000000000000000000000000000000000000000000000000000000000000000000000000000000000000000000000000000000000000000000000000000000000000000000000000000000700070707000000000000000000
310
00000000000000000000000000000000000000000000000000000000000000000000000000000000000000000000000000000000000000000000000000000000000000000000000000000000000000000000000000000000000000000000000000000000000000000000000000000000000000000000000000000000000000
310
00000000000000000000000000000000000000000000000000000000000000000000000000000007000707070000000000000000000000000000000000000000000000000000000000000000000000000000000000000000000000000000000000000000000000000000000000000000000000000000000000000000000000
310
00000000000000000000000000000000000000000000000000000000000000000000000000000000000000000000000000000000000000000000000000000000000000000000000000000000000000000000000000000000000000000700070707000000000000000000000000000000000000000000000000000000000000
310
00000000000000000000000000000000000000000000000000000000000000000000000000000000000000000000000000000000000000000000000000000000000000000000000000000000000000000000000000000000000000000000000000000000000000000000000000000000000000000000000000000000000000
310
00000000000000000000000000000000000007000707070000000000000000000000000000000000000000000000000000000000000000000000000000000000000000000000000000000000000000000000000000000000000000000000000000000000000000000000000000000000000000000000000000000000000000
310
00000000000000000000000000000000000000000000000000000000000000000000000000000000000000000000000000000000000000000000000000000000000000000000000700070707000000000000000000000000000000000000000000000000000000000000000000000000000000000000000000000000000000
310
00000000000000000000000000000000000000000000000000000000000000000000000000000000000000000000000000000000000000000000000000000000000000000000000000000000000000000000000000000000000000000000000000000000000000000000000000000000000000000000000000000000070007
310
07070000000000000000000000000000000000000000000000000000000000000000000000000000000000000000000000000000000000000000000000000000000000000000000000000000000000000000000000000000000000000000000000000000000000000000000000000000000000000000000000000000000000
310
00000000000000000000000000000000000000000000000000000000000000000000000000000000000000000000000000000700070707000000000000000000000000000000000000000000000000000000000000000000000000000000000000000000000000000000000000000000000000000000000000000000000000
310
00000000000000000000000000000000000000000000000000000000000000000000000000000000000000000000000000000000000000000000000000000000000000000000000000000000000000000000000000000000000000000000000000000000000000070007070700000000000000000000000000000000000000
310
00000000000000000000000000000000000000000000000000000000000000000000000000000000000000000000000000000000000000000000000000000000000000000000000000000000000000000000000000000000000000000000000000000000000000000000000000000000000000000000000000000000000000
310
00000000000000000000000000000000000000000000000000000000000700070707000000000000000000000000000000000000000000000000000000000000000000000000000000000000000000000000000000000000000000000000000000000000000000000000000000000000000000000000000000000000000000
310
00000000000000000000000000000000000000000000000000000000000000000000000000000000000000000000000000000000000000000000000000000000000000000000000000000000000000000000070007070700000000000000000000000000000000000000000000000000000000000000000000000000000000
310
00000000000000000000000000000000000000000000000000000000000000000000000000000000000000000000000000000000000000000000000000000000000000000000000000000000000000000000000000000000000000000000000000000000000000000000000000000000000000000000000000000000000000
310
00000000000000000700070707000000000000000000000000000000000000000000000000000000000000000000000000000000000000000000000000000000000000000000000000000000000000000000000000000000000000000000000000000000000000000000000000000000000000000000000000000000000000
310
00000000000000000000000000000000000000000000000000000000000000000000000000000000000000000000000000000000000000000000000000070007070700000000000000000000000000000000000000000000000000000000000000000000000000000000000000000000000000000000000000000000000000
310
00000000000000000000000000000000000000000000000000000000000000000000000000000000000000000000000000000000000000000000000000000000000000000000000000000000000000000000000000000000000000000000000000000000000000000000000000000000000007000707070000000000000000
310
00000000000000000000000000000000000000000000000000000000000000000000000000000000000000000000000000000000000000000000000000000000000000000000000000000000000000000000000000000000000000000000000000000000000000000000000000000000000000000000000000000000000000
310
00000000000000000000000000000000000000000000000000000000000000000000000000000000070007070700000000000000000000000000000000000000000000000000000000000000000000000000000000000000000000000000000000000000000000000000000000000000000000000000000000000000000000
310
00000000000000000000000000000000000000000000000000000000000000000000000000000000000000000000000000000000000000000000000000000000000000000000000000000000000000000000000000000000000000000007000707070000000000000000000000000000000000000000000000000000000000
310
00000000000000000000000000000000000000000000000000000000000000000000000000000000000000000000000000000000000000000000000000000000000000000000000000000000000000000000000000000000000000000000000000000000000000000000000000000000000000000000000000000000000000
310
00000000000000000000000000000000000000070007070700000000000000000000000000000000000000000000000000000000000000000000000000000000000000000000000000000000000000000000000000000000000000000000000000000000000000000000000000000000000000000000000000000000000000
310
00000000000000000000000000000000000000000000000000000000000000000000000000000000000000000000000000000000000000000000000000000000000000000000000007000700070000000000000000000000000000000000000000000000000000000000000000000000000000000000000000000000000000
310
00000000000000000000000000000000000000000000000000000000000000000000000000000000000000000000000000000000000000000000000000000000000000000000000000000000000000000000000000000000000000000000000000000000000000000000000000000000000000000000000000000000000700
310
07000700000000000000000000000000000000000000000000000000000000000000000000000000000000000000000000000000000000000000000000000000000000000000000000000000000000000000000000000000000000000000000000000000000000000000000000000000000000000000000000000000000000
310
00000000000000000000000000000000000000000000000000000000000000000000000000000000000000000000000000000007000707000000000000000000000000000000000000000000000000000000000000000000000000000000000000000000000000000000000000000000000000000000000000000000000000
310
00000000000000000000000000000000000000000000000000000000000000000000000000000000000000000000000000000000000000000000000000000000000000000000000000000000000000000000000000000000000000000000000000000000000000000700070700000000000000000000000000000000000000
310
00000000000000000000000000000000000000000000000000000000000000000000000000000000000000000000000000000000000000000000000000000000000000000000000000000000000000000000000000000000000000000000000000000000000000000000000000000000000000000000000000000000000000
310
00000000000000000000000000000000000000000000000000000000000007070700000000000000000000000000000000000000000000000000000000000000000000000000000000000000000000000000000000000000000000000000000000000000000000000000000000000000000000000000000000000000000000
310
00000000000000000000000000000000000000000000000000000000000000000000000000000000000000000000000000000000000000000000000000000000000000000000000000000000000000000000000707070000000000000000000000000000000000000000000000000000000000000000000000000000000000
310
00000000000000000000000000000000000000000000000000000000000000000000000000000000000000000000000000000000000000000000000000000000000000000000000000000000000000000000000000000000000000000000000000000000000000000000000000000000000000000000000000000000000000
310
00000000000000000007070700000000000000000000000000000000000000000000000000000000000000000000000000000000000000000000000000000000000000000000000000000000000000000000000000000000000000000000000000000000000000000000000000000000000000000000000000000000000000
310
00000000000000000000000000000000000000000000000000000000000000000000000000000000000000000000000000000000000000000000000000070000070000000000000000000000000000000000000000000000000000000000000000000000000000000000000000000000000000000000000000000000000000
310
00000000000000000000000000000000000000000000000000000000000000000000000000000000000000000000000000000000000000000000000000000000000000000000000000000000000000000000000000000000000000000000000000000000000000000000000000000000000007000707000000000000000000
310
00000000000000000000000000000000000000000000000000000000000000000000000000000000000000000000000000000000000000000000000000000000000000000000000000000000000000000000000000000000000000000000000000000000000000000000000000000000000000000000000000000000000000
310
00000000000000000000000000000000000000000000000000000000000000000000000000000000070707070000000000000000000000000000000000000000000000000000000000000000000000000000000000000000000000000000000000000000000000000000000000000000000000000000000000000000000000
310
00000000000000000000000000000000000000000000000000000000000000000000000000000000000000000000000000000000000000000000000000000000000000000000000000000000000000000000000000000000000000000700000007000000000000000000000000000000000000000000000000000000000000
310
00000000000000000000000000000000000000000000000000000000000000000000000000000000000000000000000000000000000000000000000000000000000000000000000000000000000000000000000000000000000000000000000000000000000000000000000000000000000000000000000000000000000000
310
00000000000000000000000000000000000007000700070000000000000000000000000000000000000000000000000000000000000000000000000000000000000000000000000000000000000000000000000000000000000000000000000000000000000000000000000000000000000000000000000000000000000000
310
00000000000000000000000000000000000000000000000000000000000000000000000000000000000000000000000000000000000000000000000000000000000000000000070000070007000000000000000000000000000000000000000000000000000000000000000000000000000000000000000000000000000000
310
00000000000000000000000000000000000000000000000000000000000000000000000000000000000000000000000000000000000000000000000000000000000000000000000000000000000000000000000000000000000000000000000000000000000000000000000000000000000000000000000000000007000707
310
00070000000000000000000000000000000000000000000000000000000000000000000000000000000000000000000000000000000000000000000000000000000000000000000000000000000000000000000000000000000000000000000000000000000000000000000000000000000000000000000000000000000000
310
00000000000000000000000000000000000000000000000000000000000000000000000000000000000000000000000007000700070007000000000000000000000000000000000000000000000000000000000000000000000000000000000000000000000000000000000000000000000000000000000000000000000000
310
00000000000000000000000000000000000000000000000000000000000000000000000000000000000000000000000000000000000000000000000000000000000000000000000000000000000000000000000000000000000000000000000000000000000700070007000700000000000000000000000000000000000000
310
00000000000000000000000000000000000000000000000000000000000000000000000000000000000000000000000000000000000000000000000000000000000000000000000000000000000000000000000000000000000000000000000000000000000000000000000000000000000000000000000000000000000000
310
00000000000000000000000000000000000000000000000000000707070000070007000000000000000000000000000000000000000000000000000000000000000000000000000000000000000000000000000000000000000000000000000000000000000000000000000000000000000000000000000000000000000000
310
00000000000000000000000000000000000000000000000000000000000000000000000000000000000000000000000000000000000000000000000000000000000000000000000000000000000007070700000007000700000000000000000000000000000000000000000000000000000000000000000000000000000000
310
00000000000000000000000000000000000000000000000000000000000000000000000000000000000000000000000000000000000000000000000000000000000000000000000000000000000000000000000000000000000000000000000000000000000000000000000000000000000000000000000000000000000000
310
00000007070707000000070007000000000000000000000000000000000000000000000000000000000000000000000000000000000000000000000000000000000000000000000000000000000000000000000000000000000000000000000000000000000000000000000000000000000000000000000000000000000000
310
00000000000000000000000000000000000000000000000000000000000000000000000000000000000000000000000000000000000007070707070000000007000700000000000000000000000000000000000000000000000000000000000000000000000000000000000000000000000000000000000000000000000000
310
00000000000000000000000000000000000000000000000000000000000000000000000000000000000000000000000000000000000000000000000000000000000000000000000000000000000000000000000000000000000000000000000000000000000000000000070707070000000000000700070000000000000000
310
00000000000000000000000000000000000000000000000000000000000000000000000000000000000000000000000000000000000000000000000000000000000000000000000000000000000000000000000000000000000000000000000000000000000000000000000000000000000000000000000000000000000000
310
00000000000000000000000000000000000000000000000000000000000000070707070000000000000007000700000000000000000000000000000000000000000000000000000000000000000000000000000000000000000000000000000000000000000000000000000000000000000000000000000000000000000000
310
00000000000000000000000000000000000000000000000000000000000000000000000000000000000000000000000000000000000000000000000000000000000000000000000000000000000000000000000707070707000000000000000700070000000000000000000000000000000000000000000000000000000000
310
00000000000000000000000000000000000000000000000000000000000000000000000000000000000000000000000000000000000000000000000000000000000000000000000000000000000000000000000000000000000000000000000000000000000000000000000000000000000000000000000000000000000000
310
00000000000000000007070700000000000000000007000700000000000000000000000000000000000000000000000000000000000000000000000000000000000000000000000000000000000000000000000000000000000000000000000000000000000000000000000000000000000000000000000000000000000000
310
00000000000000000000000000000000000000000000000000000000000000000000000000000000000000000000000000000000000000000000000000070707000000000000000000000700070000000000000000000000000000000000000000000000000000000000000000000000000000000000000000000000000000
310
00000000000000000000000000000000000000000000000000000000000000000000000000000000000000000000000000000000000000000000000000000000000000000000000000000000000000000000000000000000000000000000000000000000000000000000000000000000000000070000000000000000000000
310
07000700000000000000000000000000000000000000000000000000000000000000000000000000000000000000000000000000000000000000000000000000000000000000000000000000000000000000000000000000000000000000000000000000000000000000000000000000000000000000000000000000000000
310
00000000000000000000000000000000000000000000000000000000000000000000000000000000000000000000000000000000000700070000000000000000000000000000000000000000000000000000000000000000000000000000000000000000000000000000000000000000000000000000000000000000000000
310
00000000000000000000000000000000000000000000000000000000000000000000000000000000000000000000000000000000000000000000000000000000000000000000000000000000000000000000000000000000000000000000000000000000000000000000070007000000000000000000000000000000000000
310
00000000000000000000000000000000000000000000000000000000000000000000000000000000000000000000000000000000000000000000000000000000000000000000000000000000000000000000000000000000000000000000000000000000000000000000000000000000000000000000000000000000000000
310
00000000000000000000000000000000000000000000000000000000000000000707070707000000000000000000000000000000000000000000000000000000000000000000000000000000000000000000000000000000000000000000000000000000000000000000000000000000000000000000000000000000000000
310
00000000000000000000000000000000000000000000000000000000000000000000000000000000000000000000000000000000000000000000000000000000000000000000000000000000000000000000000000070000000700000000000000000000000000000000000000000000000000000000000000000000000000
310
00000000000000000000000000000000000000000000000000000000000000000000000000000000000000000000000000000000000000000000000000000000000000000000000000000000000000000000000000000000000000000000000000000000000000000000000000000000000000000000000000000000000000
310
00000000000000000000000700000007000000000000000000000000000000000000000000000000000000000000000000000000000000000000000000000000000000000000000000000000000000000000000000000000000000000000000000000000000000000000000000000000000000000000000000000000000000
310
00000000000000000000000000000000000000000000000000000000000000000000000000000000000000000000000000000000000000000000000000000000070000000700000000000000000000000000000000000000000000000000000000000000000000000000000000000000000000000000000000000000000000
310
00000000000000000000000000000000000000000000000000000000000000000000000000000000000000000000000000000000000000000000000000000000000000000000000000000000000000000000000000000000000000000000000000000000000000000000000000000000000000000007070707070000000000
310
00000000000000000000000000000000000000000000000000000000000000000000000000000000000000000000000000000000000000000000000000000000000000000000000000000000000000000000000000000000000000000000000000000000000000000000000000000000000000000000000000000000000000
310
00000000000000000000000000000000000000000000000000000000000000000000000000000000000000070007000000000000000000000000000000000000000000000000000000000000000000000000000000000000000000000000000000000000000000000000000000000000000000000000000000000000000000
310
00000000000000000000000000000000000000000000000000000000000000000000000000000000000000000000000000000000000000000000000000000000000000000000000000000000000000000000000000000000000000000000000007070700000000000000000000000000000000000000000000000000000000
310
00000000000000000000000000000000000000000000000000000000000000000000000000000000000000000000000000000000000000000000000000000000000000000000000000000000000000000000000000000000000000000000000000000000000000000000000000000000000000000000000000000000000000
310
000000000000000000000000000000000000000000000000000000000000000000000000000000000000000000000000000000000000000000000000000000000000000000000000000000000000000000000000000000000000000000000000000000000000000000000000
  0
ENDSEC
  0
EOF
