  0
SECTION
  2
HEADER
  9
$ACADVER
  1
AC1015
  9
$ACADMAINTVER
 70
     6
  9
$DWGCODEPAGE
  3
ANSI_1252
  9
$INSBASE
 10
0.0
 20
0.0
 30
0.0
  9
$EXTMIN
 10
0.18875
 20
0.25
 30
0.0
  9
$EXTMAX
 10
574.81125
 20
102.75
 30
0.0
  9
$LIMMIN
 10
0.0
 20
0.0
  9
$LIMMAX
 10
12.0
 20
9.0
  9
$ORTHOMODE
 70
     0
  9
$REGENMODE
 70
     1
  9
$FILLMODE
 70
     1
  9
$QTEXTMODE
 70
     0
  9
$MIRRTEXT
 70
     1
  9
$LTSCALE
 40
1.0
  9
$ATTMODE
 70
     1
  9
$TEXTSIZE
 40
0.2
  9
$TRACEWID
 40
0.05
  9
$TEXTSTYLE
  7
Standard
  9
$CLAYER
  8
0
  9
$CELTYPE
  6
Continuous
  9
$CECOLOR
 62
   256
  9
$CELTSCALE
 40
1.0
  9
$DISPSILH
 70
     0
  9
$DIMSCALE
 40
1.0
  9
$DIMASZ
 40
0.18
  9
$DIMEXO
 40
0.0625
  9
$DIMDLI
 40
0.38
  9
$DIMRND
 40
0.0
  9
$DIMDLE
 40
0.0
  9
$DIMEXE
 40
0.18
  9
$DIMTP
 40
0.0
  9
$DIMTM
 40
0.0
  9
$DIMTXT
 40
0.18
  9
$DIMCEN
 40
0.09
  9
$DIMTSZ
 40
0.0
  9
$DIMTOL
 70
     0
  9
$DIMLIM
 70
     0
  9
$DIMTIH
 70
     1
  9
$DIMTOH
 70
     1
  9
$DIMSE1
 70
     0
  9
$DIMSE2
 70
     0
  9
$DIMTAD
 70
     0
  9
$DIMZIN
 70
     0
  9
$DIMBLK
  1

  9
$DIMASO
 70
     1
  9
$DIMSHO
 70
     1
  9
$DIMPOST
  1

  9
$DIMAPOST
  1

  9
$DIMALT
 70
     0
  9
$DIMALTD
 70
     2
  9
$DIMALTF
 40
25.4
  9
$DIMLFAC
 40
1.0
  9
$DIMTOFL
 70
     0
  9
$DIMTVP
 40
0.0
  9
$DIMTIX
 70
     0
  9
$DIMSOXD
 70
     0
  9
$DIMSAH
 70
     0
  9
$DIMBLK1
  1

  9
$DIMBLK2
  1

  9
$DIMSTYLE
  2
Standard
  9
$DIMCLRD
 70
     0
  9
$DIMCLRE
 70
     0
  9
$DIMCLRT
 70
     0
  9
$DIMTFAC
 40
1.0
  9
$DIMGAP
 40
0.09
  9
$DIMJUST
 70
     0
  9
$DIMSD1
 70
     0
  9
$DIMSD2
 70
     0
  9
$DIMTOLJ
 70
     1
  9
$DIMTZIN
 70
     0
  9
$DIMALTZ
 70
     0
  9
$DIMALTTZ
 70
     0
  9
$DIMUPT
 70
     0
  9
$DIMDEC
 70
     4
  9
$DIMTDEC
 70
     4
  9
$DIMALTU
 70
     2
  9
$DIMALTTD
 70
     2
  9
$DIMTXSTY
  7
Standard
  9
$DIMAUNIT
 70
     0
  9
$DIMADEC
 70
     0
  9
$DIMALTRND
 40
0.0
  9
$DIMAZIN
 70
     0
  9
$DIMDSEP
 70
    46
  9
$DIMATFIT
 70
     3
  9
$DIMFRAC
 70
     0
  9
$DIMLDRBLK
  1

  9
$DIMLUNIT
 70
     2
  9
$DIMLWD
 70
    -2
  9
$DIMLWE
 70
    -2
  9
$DIMTMOVE
 70
     0
  9
$LUNITS
 70
     2
  9
$LUPREC
 70
     4
  9
$SKETCHINC
 40
0.1
  9
$FILLETRAD
 40
0.0
  9
$AUNITS
 70
     0
  9
$AUPREC
 70
     0
  9
$MENU
  1
.
  9
$ELEVATION
 40
0.0
  9
$PELEVATION
 40
0.0
  9
$THICKNESS
 40
0.0
  9
$LIMCHECK
 70
     0
  9
$CHAMFERA
 40
0.0
  9
$CHAMFERB
 40
0.0
  9
$CHAMFERC
 40
0.0
  9
$CHAMFERD
 40
0.0
  9
$SKPOLY
 70
     0
  9
$TDCREATE
 40
2454780.842529282
  9
$TDUCREATE
 40
2454780.759195949
  9
$TDUPDATE
 40
2456213.562694768
  9
$TDUUPDATE
 40
2456213.479361435
  9
$TDINDWG
 40
0.0074542477
  9
$TDUSRTIMER
 40
0.0074542477
  9
$USRTIMER
 70
     1
  9
$ANGBASE
 50
0.0
  9
$ANGDIR
 70
     0
  9
$PDMODE
 70
     0
  9
$PDSIZE
 40
0.0
  9
$PLINEWID
 40
0.0
  9
$SPLFRAME
 70
     0
  9
$SPLINETYPE
 70
     6
  9
$SPLINESEGS
 70
     8
  9
$HANDSEED
  5
4C4
  9
$SURFTAB1
 70
     6
  9
$SURFTAB2
 70
     6
  9
$SURFTYPE
 70
     6
  9
$SURFU
 70
     6
  9
$SURFV
 70
     6
  9
$UCSBASE
  2

  9
$UCSNAME
  2

  9
$UCSORG
 10
0.0
 20
0.0
 30
0.0
  9
$UCSXDIR
 10
1.0
 20
0.0
 30
0.0
  9
$UCSYDIR
 10
0.0
 20
1.0
 30
0.0
  9
$UCSORTHOREF
  2

  9
$UCSORTHOVIEW
 70
     1
  9
$UCSORGTOP
 10
0.0
 20
0.0
 30
0.0
  9
$UCSORGBOTTOM
 10
0.0
 20
0.0
 30
0.0
  9
$UCSORGLEFT
 10
0.0
 20
0.0
 30
0.0
  9
$UCSORGRIGHT
 10
0.0
 20
0.0
 30
0.0
  9
$UCSORGFRONT
 10
0.0
 20
0.0
 30
0.0
  9
$UCSORGBACK
 10
0.0
 20
0.0
 30
0.0
  9
$PUCSBASE
  2

  9
$PUCSNAME
  2

  9
$PUCSORG
 10
0.0
 20
0.0
 30
0.0
  9
$PUCSXDIR
 10
1.0
 20
0.0
 30
0.0
  9
$PUCSYDIR
 10
0.0
 20
1.0
 30
0.0
  9
$PUCSORTHOREF
  2

  9
$PUCSORTHOVIEW
 70
     0
  9
$PUCSORGTOP
 10
0.0
 20
0.0
 30
0.0
  9
$PUCSORGBOTTOM
 10
0.0
 20
0.0
 30
0.0
  9
$PUCSORGLEFT
 10
0.0
 20
0.0
 30
0.0
  9
$PUCSORGRIGHT
 10
0.0
 20
0.0
 30
0.0
  9
$PUCSORGFRONT
 10
0.0
 20
0.0
 30
0.0
  9
$PUCSORGBACK
 10
0.0
 20
0.0
 30
0.0
  9
$USERI1
 70
     0
  9
$USERI2
 70
     0
  9
$USERI3
 70
     0
  9
$USERI4
 70
     0
  9
$USERI5
 70
     0
  9
$USERR1
 40
0.0
  9
$USERR2
 40
0.0
  9
$USERR3
 40
0.0
  9
$USERR4
 40
0.0
  9
$USERR5
 40
0.0
  9
$WORLDVIEW
 70
     1
  9
$SHADEDGE
 70
     3
  9
$SHADEDIF
 70
    70
  9
$TILEMODE
 70
     1
  9
$MAXACTVP
 70
    64
  9
$PINSBASE
 10
0.0
 20
0.0
 30
0.0
  9
$PLIMCHECK
 70
     0
  9
$PEXTMIN
 10
1.000000000000E+20
 20
1.000000000000E+20
 30
1.000000000000E+20
  9
$PEXTMAX
 10
-1.000000000000E+20
 20
-1.000000000000E+20
 30
-1.000000000000E+20
  9
$PLIMMIN
 10
0.0
 20
0.0
  9
$PLIMMAX
 10
12.0
 20
9.0
  9
$UNITMODE
 70
     0
  9
$VISRETAIN
 70
     1
  9
$PLINEGEN
 70
     0
  9
$PSLTSCALE
 70
     1
  9
$TREEDEPTH
 70
  3020
  9
$CMLSTYLE
  2
Standard
  9
$CMLJUST
 70
     0
  9
$CMLSCALE
 40
1.0
  9
$PROXYGRAPHICS
 70
     1
  9
$MEASUREMENT
 70
     0
  9
$CELWEIGHT
370
    -1
  9
$ENDCAPS
280
     0
  9
$JOINSTYLE
280
     0
  9
$LWDISPLAY
290
     0
  9
$INSUNITS
 70
     0
  9
$HYPERLINKBASE
  1

  9
$STYLESHEET
  1

  9
$XEDIT
290
     1
  9
$CEPSNTYPE
380
     0
  9
$PSTYLEMODE
290
     1
  9
$FINGERPRINTGUID
  2
{0FF6B2CD-D1B6-4F36-9C51-E795F9FA33B9}
  9
$VERSIONGUID
  2
{75EBFC82-818C-431B-ABBA-BE9B06EC4A1C}
  9
$EXTNAMES
290
     1
  9
$PSVPSCALE
 40
0.0
  9
$OLESTARTUP
290
     0
  0
ENDSEC
  0
SECTION
  2
CLASSES
  0
CLASS
  1
ACDBDICTIONARYWDFLT
  2
AcDbDictionaryWithDefault
  3
ObjectDBX Classes
 90
        0
280
     0
281
     0
  0
CLASS
  1
ACDBPLACEHOLDER
  2
AcDbPlaceHolder
  3
ObjectDBX Classes
 90
        0
280
     0
281
     0
  0
CLASS
  1
LAYOUT
  2
AcDbLayout
  3
ObjectDBX Classes
 90
        0
280
     0
281
     0
  0
CLASS
  1
DICTIONARYVAR
  2
AcDbDictionaryVar
  3
ObjectDBX Classes
 90
        0
280
     0
281
     0
  0
CLASS
  1
SCALE
  2
AcDbScale
  3
ObjectDBX Classes
 90
     1153
280
     0
281
     0
  0
ENDSEC
  0
SECTION
  2
TABLES
  0
TABLE
  2
VPORT
  5
8
330
0
100
AcDbSymbolTable
 70
     1
  0
VPORT
  5
39C
330
8
100
AcDbSymbolTableRecord
100
AcDbViewportTableRecord
  2
*Active
 70
     0
 10
0.0
 20
0.0
 11
1.0
 21
1.0
 12
287.405625
 22
51.375
 13
0.0
 23
0.0
 14
1.0
 24
1.0
 15
0.0
 25
0.0
 16
0.0
 26
0.0
 36
1.0
 17
0.0
 27
0.0
 37
0.0
 40
314.635765636565
 41
1.863448275862
 42
50.0
 43
0.0
 44
0.0
 50
0.0
 51
0.0
 71
    16
 72
   100
 73
     1
 74
     3
 75
     0
 76
     0
 77
     0
 78
     0
281
     0
 65
     1
110
0.0
120
0.0
130
0.0
111
1.0
121
0.0
131
0.0
112
0.0
122
1.0
132
0.0
 79
     1
146
0.0
  0
ENDTAB
  0
TABLE
  2
LTYPE
  5
5
330
0
100
AcDbSymbolTable
 70
     1
  0
LTYPE
  5
13
330
5
100
AcDbSymbolTableRecord
100
AcDbLinetypeTableRecord
  2
ByBlock
 70
     0
  3

 72
    65
 73
     0
 40
0.0
  0
LTYPE
  5
14
330
5
100
AcDbSymbolTableRecord
100
AcDbLinetypeTableRecord
  2
ByLayer
 70
     0
  3

 72
    65
 73
     0
 40
0.0
  0
LTYPE
  5
15
330
5
100
AcDbSymbolTableRecord
100
AcDbLinetypeTableRecord
  2
Continuous
 70
     0
  3
Solid line
 72
    65
 73
     0
 40
0.0
  0
ENDTAB
  0
TABLE
  2
LAYER
  5
2
330
0
100
AcDbSymbolTable
 70
     1
  0
LAYER
  5
10
330
2
100
AcDbSymbolTableRecord
100
AcDbLayerTableRecord
  2
0
 70
     0
 62
     7
  6
Continuous
370
    -3
390
F
  0
ENDTAB
  0
TABLE
  2
STYLE
  5
3
330
0
100
AcDbSymbolTable
 70
     1
  0
STYLE
  5
11
330
3
100
AcDbSymbolTableRecord
100
AcDbTextStyleTableRecord
  2
Standard
 70
     0
 40
0.0
 41
1.0
 50
0.0
 71
     0
 42
0.2
  3
txt
  4

  0
ENDTAB
  0
TABLE
  2
VIEW
  5
6
330
0
100
AcDbSymbolTable
 70
     0
  0
ENDTAB
  0
TABLE
  2
UCS
  5
7
330
0
100
AcDbSymbolTable
 70
     0
  0
ENDTAB
  0
TABLE
  2
APPID
  5
9
330
0
100
AcDbSymbolTable
 70
     1
  0
APPID
  5
12
330
9
100
AcDbSymbolTableRecord
100
AcDbRegAppTableRecord
  2
ACAD
 70
     0
  0
ENDTAB
  0
TABLE
  2
DIMSTYLE
  5
A
330
0
100
AcDbSymbolTable
 70
     1
100
AcDbDimStyleTable
  0
DIMSTYLE
105
38C
330
A
100
AcDbSymbolTableRecord
100
AcDbDimStyleTableRecord
  2
Standard
 70
     0
340
11
  0
ENDTAB
  0
TABLE
  2
BLOCK_RECORD
  5
1
330
0
100
AcDbSymbolTable
 70
     1
  0
BLOCK_RECORD
  5
1E
330
1
100
AcDbSymbolTableRecord
100
AcDbBlockTableRecord
  2
*Model_Space
340
21
  0
BLOCK_RECORD
  5
1A
330
1
100
AcDbSymbolTableRecord
100
AcDbBlockTableRecord
  2
*Paper_Space
340
1D
  0
ENDTAB
  0
ENDSEC
  0
SECTION
  2
BLOCKS
  0
BLOCK
  5
1F
330
1E
100
AcDbEntity
  8
0
100
AcDbBlockBegin
  2
*Model_Space
 70
     0
 10
0.0
 20
0.0
 30
0.0
  3
*Model_Space
  1
*Model_Space
  0
ENDBLK
  5
20
330
1E
100
AcDbEntity
  8
0
100
AcDbBlockEnd
  0
BLOCK
  5
1B
330
1A
100
AcDbEntity
 67
     1
  8
0
100
AcDbBlockBegin
  2
*Paper_Space
 70
     0
 10
0.0
 20
0.0
 30
0.0
  3
*Paper_Space
  1
*Paper_Space
  0
ENDBLK
  5
1C
330
1A
100
AcDbEntity
 67
     1
  8
0
100
AcDbBlockEnd
  0
ENDSEC
  0
SECTION
  2
ENTITIES
  0
LINE
  5
22
330
1E
100
AcDbEntity
  8
0
100
AcDbLine
 10
4.08555
 20
0.25
 30
0.0
 11
7.36105
 21
0.25
 31
0.0
  0
LINE
  5
23
330
1E
100
AcDbEntity
  8
0
100
AcDbLine
 10
7.36105
 20
0.25
 30
0.0
 11
11.32595
 21
0.25
 31
0.0
  0
LINE
  5
24
330
1E
100
AcDbEntity
  8
0
100
AcDbLine
 10
11.32595
 20
0.25
 30
0.0
 11
15.65885
 21
0.25
 31
0.0
  0
LINE
  5
25
330
1E
100
AcDbEntity
  8
0
100
AcDbLine
 10
15.65885
 20
0.25
 30
0.0
 11
20.04696
 21
0.25
 31
0.0
  0
LINE
  5
26
330
1E
100
AcDbEntity
  8
0
100
AcDbLine
 10
27.969195
 20
0.25
 30
0.0
 11
30.99641
 21
0.25
 31
0.0
  0
LINE
  5
27
330
1E
100
AcDbEntity
  8
0
100
AcDbLine
 10
24.22669
 20
0.25
 30
0.0
 11
27.969195
 21
0.25
 31
0.0
  0
LINE
  5
28
330
1E
100
AcDbEntity
  8
0
100
AcDbLine
 10
20.04696
 20
0.25
 30
0.0
 11
24.22669
 21
0.25
 31
0.0
  0
LINE
  5
29
330
1E
100
AcDbEntity
  8
0
100
AcDbLine
 10
0.18875
 20
0.25
 30
0.0
 11
0.35325
 21
0.25
 31
0.0
  0
LINE
  5
2A
330
1E
100
AcDbEntity
  8
0
100
AcDbLine
 10
0.18875
 20
0.25
 30
0.0
 11
0.18875
 21
82.4167
 31
0.0
  0
LINE
  5
2B
330
1E
100
AcDbEntity
  8
0
100
AcDbLine
 10
0.18875
 20
0.25
 30
0.0
 11
1.15095
 21
0.25
 31
0.0
  0
LINE
  5
2C
330
1E
100
AcDbEntity
  8
0
100
AcDbLine
 10
1.69945
 20
0.25
 30
0.0
 11
4.08555
 21
0.25
 31
0.0
  0
LINE
  5
2D
330
1E
100
AcDbEntity
  8
0
100
AcDbLine
 10
0.35325
 20
0.25
 30
0.0
 11
1.69945
 21
0.25
 31
0.0
  0
LINE
  5
2E
330
1E
100
AcDbEntity
  8
0
100
AcDbLine
 10
30.99641
 20
0.25
 30
0.0
 11
33.03894
 21
0.25
 31
0.0
  0
LINE
  5
2F
330
1E
100
AcDbEntity
  8
0
100
AcDbLine
 10
33.03894
 20
0.25
 30
0.0
 11
34.00116
 21
0.25
 31
0.0
  0
LINE
  5
30
330
1E
100
AcDbEntity
  8
0
100
AcDbLine
 10
1.15095
 20
0.25
 30
0.0
 11
3.19345
 21
0.25
 31
0.0
  0
LINE
  5
31
330
1E
100
AcDbEntity
  8
0
100
AcDbLine
 10
3.19345
 20
0.25
 30
0.0
 11
6.22065
 21
0.25
 31
0.0
  0
LINE
  5
32
330
1E
100
AcDbEntity
  8
0
100
AcDbLine
 10
26.828856
 20
0.25
 30
0.0
 11
30.10429
 21
0.25
 31
0.0
  0
LINE
  5
33
330
1E
100
AcDbEntity
  8
0
100
AcDbLine
 10
30.10429
 20
0.25
 30
0.0
 11
32.49042
 21
0.25
 31
0.0
  0
LINE
  5
34
330
1E
100
AcDbEntity
  8
0
100
AcDbLine
 10
32.49042
 20
0.25
 30
0.0
 11
33.83667
 21
0.25
 31
0.0
  0
LINE
  5
35
330
1E
100
AcDbEntity
  8
0
100
AcDbLine
 10
6.22065
 20
0.25
 30
0.0
 11
9.96315
 21
0.25
 31
0.0
  0
LINE
  5
36
330
1E
100
AcDbEntity
  8
0
100
AcDbLine
 10
22.86394
 20
0.25
 30
0.0
 11
26.828856
 21
0.25
 31
0.0
  0
LINE
  5
37
330
1E
100
AcDbEntity
  8
0
100
AcDbLine
 10
32.62941
 20
24.19
 30
0.0
 11
34.40757
 21
22.75
 31
0.0
  0
LINE
  5
38
330
1E
100
AcDbEntity
  8
0
100
AcDbLine
 10
18.53102
 20
0.25
 30
0.0
 11
22.86394
 21
0.25
 31
0.0
  0
LINE
  5
39
330
1E
100
AcDbEntity
  8
0
100
AcDbLine
 10
14.14295
 20
0.25
 30
0.0
 11
18.53102
 21
0.25
 31
0.0
  0
LINE
  5
3A
330
1E
100
AcDbEntity
  8
0
100
AcDbLine
 10
9.96315
 20
0.25
 30
0.0
 11
14.14295
 21
0.25
 31
0.0
  0
LINE
  5
3B
330
1E
100
AcDbEntity
  8
0
100
AcDbLine
 10
34.00116
 20
23.079121338912
 30
0.0
 11
34.00116
 21
0.25
 31
0.0
  0
LINE
  5
3C
330
1E
100
AcDbEntity
  8
0
100
AcDbLine
 10
33.83667
 20
0.25
 30
0.0
 11
34.00116
 21
0.25
 31
0.0
  0
LINE
  5
3D
330
1E
100
AcDbEntity
  8
0
100
AcDbLine
 10
41.33565
 20
24.19
 30
0.0
 11
43.11385
 21
22.75
 31
0.0
  0
LINE
  5
3E
330
1E
100
AcDbEntity
  8
0
100
AcDbLine
 10
34.40757
 20
22.75
 30
0.0
 11
43.11385
 21
22.75
 31
0.0
  0
LINE
  5
3F
330
1E
100
AcDbEntity
  8
0
100
AcDbLine
 10
43.11385
 20
22.75
 30
0.0
 11
44.89205
 21
24.19
 31
0.0
  0
LINE
  5
40
330
1E
100
AcDbEntity
  8
0
100
AcDbLine
 10
44.89205
 20
24.19
 30
0.0
 11
45.208858333333
 21
24.75
 31
0.0
  0
LINE
  5
41
330
1E
100
AcDbEntity
  8
0
100
AcDbLine
 10
34.00116
 20
0.25
 30
0.0
 11
34.00116
 21
23.079121338912
 31
0.0
  0
LINE
  5
42
330
1E
100
AcDbEntity
  8
0
100
AcDbLine
 10
32.0863
 20
25.15
 30
0.0
 11
32.62941
 21
24.19
 31
0.0
  0
LINE
  5
43
330
1E
100
AcDbEntity
  8
0
100
AcDbLine
 10
41.99555
 20
26.118
 30
0.0
 11
43.68475
 21
24.75
 31
0.0
  0
LINE
  5
44
330
1E
100
AcDbEntity
  8
0
100
AcDbLine
 10
44.37905
 20
26.118
 30
0.0
 11
46.06825
 21
24.75
 31
0.0
  0
LINE
  5
45
330
1E
100
AcDbEntity
  8
0
100
AcDbLine
 10
43.68475
 20
24.75
 30
0.0
 11
46.06825
 21
24.75
 31
0.0
  0
LINE
  5
4A
330
1E
100
AcDbEntity
  8
0
100
AcDbLine
 10
90.08305
 20
22.6473
 30
0.0
 11
90.89415
 21
23.6473
 31
0.0
  0
LINE
  5
55
330
1E
100
AcDbEntity
  8
0
100
AcDbLine
 10
46.06825
 20
24.75
 30
0.0
 11
47.75755
 21
26.118
 31
0.0
  0
LINE
  5
56
330
1E
100
AcDbEntity
  8
0
100
AcDbLine
 10
30.47484
 20
28.99
 30
0.0
 11
32.0863
 21
25.15
 31
0.0
  0
LINE
  5
57
330
1E
100
AcDbEntity
  8
0
100
AcDbLine
 10
30.96239
 20
28.03
 30
0.0
 11
32.62941
 21
24.19
 31
0.0
  0
LINE
  5
58
330
1E
100
AcDbEntity
  8
0
100
AcDbLine
 10
38.19615
 20
34.43
 30
0.0
 11
39.66865
 21
28.03
 31
0.0
  0
LINE
  5
59
330
1E
100
AcDbEntity
  8
0
100
AcDbLine
 10
29.05788
 20
35.23
 30
0.0
 11
30.47484
 21
28.99
 31
0.0
  0
LINE
  5
5A
330
1E
100
AcDbEntity
  8
0
100
AcDbLine
 10
29.48985
 20
34.43
 30
0.0
 11
30.96239
 21
28.03
 31
0.0
  0
LINE
  5
5B
330
1E
100
AcDbEntity
  8
0
100
AcDbLine
 10
39.66865
 20
28.03
 30
0.0
 11
41.33565
 21
24.19
 31
0.0
  0
LINE
  5
64
330
1E
100
AcDbEntity
  8
0
100
AcDbLine
 10
42.79535
 20
29.766
 30
0.0
 11
44.37905
 21
26.118
 31
0.0
  0
LINE
  5
65
330
1E
100
AcDbEntity
  8
0
100
AcDbLine
 10
40.41185
 20
29.766
 30
0.0
 11
41.99555
 21
26.118
 31
0.0
  0
LINE
  5
66
330
1E
100
AcDbEntity
  8
0
100
AcDbLine
 10
41.39645
 20
35.846
 30
0.0
 11
42.79535
 21
29.766
 31
0.0
  0
LINE
  5
67
330
1E
100
AcDbEntity
  8
0
100
AcDbLine
 10
39.01295
 20
35.846
 30
0.0
 11
40.41185
 21
29.766
 31
0.0
  0
LINE
  5
68
330
1E
100
AcDbEntity
  8
0
100
AcDbLine
 10
47.75755
 20
26.118
 30
0.0
 11
48.02057819523
 21
26.558554112121
 31
0.0
  0
LINE
  5
69
330
1E
100
AcDbEntity
  8
0
100
AcDbLine
 10
154.36725
 20
29.93
 30
0.0
 11
154.67625
 21
30.41
 31
0.0
  0
LINE
  5
6A
330
1E
100
AcDbEntity
  8
0
100
AcDbLine
 10
154.67625
 20
30.41
 30
0.0
 11
154.95025
 21
31.21
 31
0.0
  0
LINE
  5
6B
330
1E
100
AcDbEntity
  8
0
100
AcDbLine
 10
154.03625
 20
29.75
 30
0.0
 11
198.13325
 21
29.75
 31
0.0
  0
LINE
  5
6C
330
1E
100
AcDbEntity
  8
0
100
AcDbLine
 10
154.03625
 20
29.75
 30
0.0
 11
154.36725
 21
29.93
 31
0.0
  0
LINE
  5
6D
330
1E
100
AcDbEntity
  8
0
100
AcDbLine
 10
153.70625
 20
29.93
 30
0.0
 11
154.03625
 21
29.75
 31
0.0
  0
LINE
  5
6E
330
1E
100
AcDbEntity
  8
0
100
AcDbLine
 10
154.95025
 20
31.21
 30
0.0
 11
155.15625
 21
32.27
 31
0.0
  0
LINE
  5
6F
330
1E
100
AcDbEntity
  8
0
100
AcDbLine
 10
155.15625
 20
32.27
 30
0.0
 11
155.28025
 21
33.47
 31
0.0
  0
LINE
  5
70
330
1E
100
AcDbEntity
  8
0
100
AcDbLine
 10
153.39625
 20
30.41
 30
0.0
 11
153.70625
 21
29.93
 31
0.0
  0
LINE
  5
71
330
1E
100
AcDbEntity
  8
0
100
AcDbLine
 10
153.12325
 20
31.21
 30
0.0
 11
153.39625
 21
30.41
 31
0.0
  0
LINE
  5
72
330
1E
100
AcDbEntity
  8
0
100
AcDbLine
 10
155.28025
 20
33.47
 30
0.0
 11
155.32725
 21
34.75
 31
0.0
  0
LINE
  5
73
330
1E
100
AcDbEntity
  8
0
100
AcDbLine
 10
152.91625
 20
32.27
 30
0.0
 11
153.12325
 21
31.21
 31
0.0
  0
LINE
  5
74
330
1E
100
AcDbEntity
  8
0
100
AcDbLine
 10
152.79225
 20
33.47
 30
0.0
 11
152.91625
 21
32.27
 31
0.0
  0
LINE
  5
75
330
1E
100
AcDbEntity
  8
0
100
AcDbLine
 10
152.91625
 20
37.23
 30
0.0
 11
153.12325
 21
38.29
 31
0.0
  0
LINE
  5
76
330
1E
100
AcDbEntity
  8
0
100
AcDbLine
 10
152.79225
 20
36.03
 30
0.0
 11
152.91625
 21
37.23
 31
0.0
  0
LINE
  5
77
330
1E
100
AcDbEntity
  8
0
100
AcDbLine
 10
152.74625
 20
34.75
 30
0.0
 11
152.79225
 21
36.03
 31
0.0
  0
LINE
  5
78
330
1E
100
AcDbEntity
  8
0
100
AcDbLine
 10
152.74625
 20
34.75
 30
0.0
 11
152.79225
 21
33.47
 31
0.0
  0
LINE
  5
79
330
1E
100
AcDbEntity
  8
0
100
AcDbLine
 10
155.15625
 20
37.23
 30
0.0
 11
155.28025
 21
36.03
 31
0.0
  0
LINE
  5
7A
330
1E
100
AcDbEntity
  8
0
100
AcDbLine
 10
198.13325
 20
27.75
 30
0.0
 11
198.13325
 21
28.002
 31
0.0
  0
LINE
  5
7B
330
1E
100
AcDbEntity
  8
0
100
AcDbLine
 10
198.13325
 20
27.75
 30
0.0
 11
218.13325
 21
27.75
 31
0.0
  0
LINE
  5
7C
330
1E
100
AcDbEntity
  8
0
100
AcDbLine
 10
198.13325
 20
28.002
 30
0.0
 11
198.13325
 21
28.674
 31
0.0
  0
LINE
  5
7D
330
1E
100
AcDbEntity
  8
0
100
AcDbLine
 10
198.13325
 20
28.002
 30
0.0
 11
198.13325
 21
27.75
 31
0.0
  0
LINE
  5
7E
330
1E
100
AcDbEntity
  8
0
100
AcDbLine
 10
198.13325
 20
28.674
 30
0.0
 11
198.13325
 21
29.75
 31
0.0
  0
LINE
  5
7F
330
1E
100
AcDbEntity
  8
0
100
AcDbLine
 10
198.13325
 20
28.674
 30
0.0
 11
198.13325
 21
28.002
 31
0.0
  0
LINE
  5
80
330
1E
100
AcDbEntity
  8
0
100
AcDbLine
 10
198.13325
 20
28.674
 30
0.0
 11
198.13325
 21
29.794
 31
0.0
  0
LINE
  5
81
330
1E
100
AcDbEntity
  8
0
100
AcDbLine
 10
198.13325
 20
29.794
 30
0.0
 11
198.13325
 21
28.674
 31
0.0
  0
LINE
  5
82
330
1E
100
AcDbEntity
  8
0
100
AcDbLine
 10
198.13325
 20
29.794
 30
0.0
 11
198.13325
 21
31.278
 31
0.0
  0
LINE
  5
83
330
1E
100
AcDbEntity
  8
0
100
AcDbLine
 10
198.13325
 20
29.75
 30
0.0
 11
198.13325
 21
29.93
 31
0.0
  0
LINE
  5
84
330
1E
100
AcDbEntity
  8
0
100
AcDbLine
 10
198.13325
 20
29.75
 30
0.0
 11
198.13325
 21
28.674
 31
0.0
  0
LINE
  5
85
330
1E
100
AcDbEntity
  8
0
100
AcDbLine
 10
198.13325
 20
29.93
 30
0.0
 11
198.13325
 21
29.75
 31
0.0
  0
LINE
  5
86
330
1E
100
AcDbEntity
  8
0
100
AcDbLine
 10
198.13325
 20
29.93
 30
0.0
 11
198.13325
 21
30.41
 31
0.0
  0
LINE
  5
87
330
1E
100
AcDbEntity
  8
0
100
AcDbLine
 10
198.13325
 20
31.278
 30
0.0
 11
198.13325
 21
29.794
 31
0.0
  0
LINE
  5
88
330
1E
100
AcDbEntity
  8
0
100
AcDbLine
 10
198.13325
 20
31.278
 30
0.0
 11
198.13325
 21
32.958
 31
0.0
  0
LINE
  5
89
330
1E
100
AcDbEntity
  8
0
100
AcDbLine
 10
198.13325
 20
30.41
 30
0.0
 11
198.13325
 21
29.93
 31
0.0
  0
LINE
  5
8A
330
1E
100
AcDbEntity
  8
0
100
AcDbLine
 10
198.13325
 20
30.41
 30
0.0
 11
198.13325
 21
31.21
 31
0.0
  0
LINE
  5
8B
330
1E
100
AcDbEntity
  8
0
100
AcDbLine
 10
198.13325
 20
31.21
 30
0.0
 11
198.13325
 21
30.41
 31
0.0
  0
LINE
  5
8C
330
1E
100
AcDbEntity
  8
0
100
AcDbLine
 10
198.13325
 20
31.21
 30
0.0
 11
198.13325
 21
32.27
 31
0.0
  0
LINE
  5
8D
330
1E
100
AcDbEntity
  8
0
100
AcDbLine
 10
198.13325
 20
32.958
 30
0.0
 11
198.13325
 21
31.278
 31
0.0
  0
LINE
  5
8E
330
1E
100
AcDbEntity
  8
0
100
AcDbLine
 10
198.13325
 20
32.958
 30
0.0
 11
198.13325
 21
34.75
 31
0.0
  0
LINE
  5
8F
330
1E
100
AcDbEntity
  8
0
100
AcDbLine
 10
198.13325
 20
32.27
 30
0.0
 11
198.13325
 21
31.21
 31
0.0
  0
LINE
  5
90
330
1E
100
AcDbEntity
  8
0
100
AcDbLine
 10
198.13325
 20
32.27
 30
0.0
 11
198.13325
 21
33.47
 31
0.0
  0
LINE
  5
91
330
1E
100
AcDbEntity
  8
0
100
AcDbLine
 10
198.13325
 20
33.47
 30
0.0
 11
198.13325
 21
32.27
 31
0.0
  0
LINE
  5
92
330
1E
100
AcDbEntity
  8
0
100
AcDbLine
 10
198.13325
 20
33.47
 30
0.0
 11
198.13325
 21
34.75
 31
0.0
  0
LINE
  5
93
330
1E
100
AcDbEntity
  8
0
100
AcDbLine
 10
198.13325
 20
36.542
 30
0.0
 11
198.13325
 21
34.75
 31
0.0
  0
LINE
  5
94
330
1E
100
AcDbEntity
  8
0
100
AcDbLine
 10
198.13325
 20
36.542
 30
0.0
 11
198.13325
 21
38.222
 31
0.0
  0
LINE
  5
95
330
1E
100
AcDbEntity
  8
0
100
AcDbLine
 10
198.13325
 20
34.75
 30
0.0
 11
198.13325
 21
36.03
 31
0.0
  0
LINE
  5
96
330
1E
100
AcDbEntity
  8
0
100
AcDbLine
 10
198.13325
 20
34.75
 30
0.0
 11
198.13325
 21
33.47
 31
0.0
  0
LINE
  5
97
330
1E
100
AcDbEntity
  8
0
100
AcDbLine
 10
198.13325
 20
34.75
 30
0.0
 11
198.13325
 21
36.542
 31
0.0
  0
LINE
  5
98
330
1E
100
AcDbEntity
  8
0
100
AcDbLine
 10
198.13325
 20
34.75
 30
0.0
 11
198.13325
 21
32.958
 31
0.0
  0
LINE
  5
99
330
1E
100
AcDbEntity
  8
0
100
AcDbLine
 10
155.28025
 20
36.03
 30
0.0
 11
155.32725
 21
34.75
 31
0.0
  0
LINE
  5
9C
330
1E
100
AcDbEntity
  8
0
100
AcDbLine
 10
153.39625
 20
39.09
 30
0.0
 11
153.70625
 21
39.57
 31
0.0
  0
LINE
  5
9D
330
1E
100
AcDbEntity
  8
0
100
AcDbLine
 10
153.12325
 20
38.29
 30
0.0
 11
153.39625
 21
39.09
 31
0.0
  0
LINE
  5
9E
330
1E
100
AcDbEntity
  8
0
100
AcDbLine
 10
154.67625
 20
39.09
 30
0.0
 11
154.95025
 21
38.29
 31
0.0
  0
LINE
  5
9F
330
1E
100
AcDbEntity
  8
0
100
AcDbLine
 10
198.13325
 20
38.222
 30
0.0
 11
198.13325
 21
36.542
 31
0.0
  0
LINE
  5
A0
330
1E
100
AcDbEntity
  8
0
100
AcDbLine
 10
198.13325
 20
38.222
 30
0.0
 11
198.13325
 21
39.706
 31
0.0
  0
LINE
  5
A1
330
1E
100
AcDbEntity
  8
0
100
AcDbLine
 10
154.95025
 20
38.29
 30
0.0
 11
155.15625
 21
37.23
 31
0.0
  0
LINE
  5
A2
330
1E
100
AcDbEntity
  8
0
100
AcDbLine
 10
153.70625
 20
39.57
 30
0.0
 11
154.03625
 21
39.75
 31
0.0
  0
LINE
  5
A3
330
1E
100
AcDbEntity
  8
0
100
AcDbLine
 10
154.03625
 20
39.75
 30
0.0
 11
154.36725
 21
39.57
 31
0.0
  0
LINE
  5
A4
330
1E
100
AcDbEntity
  8
0
100
AcDbLine
 10
154.03625
 20
39.75
 30
0.0
 11
198.13325
 21
39.75
 31
0.0
  0
LINE
  5
A5
330
1E
100
AcDbEntity
  8
0
100
AcDbLine
 10
198.13325
 20
39.706
 30
0.0
 11
198.13325
 21
38.222
 31
0.0
  0
LINE
  5
A6
330
1E
100
AcDbEntity
  8
0
100
AcDbLine
 10
198.13325
 20
39.706
 30
0.0
 11
198.13325
 21
40.826
 31
0.0
  0
LINE
  5
A7
330
1E
100
AcDbEntity
  8
0
100
AcDbLine
 10
154.36725
 20
39.57
 30
0.0
 11
154.67625
 21
39.09
 31
0.0
  0
LINE
  5
A8
330
1E
100
AcDbEntity
  8
0
100
AcDbLine
 10
198.13325
 20
40.826
 30
0.0
 11
198.13325
 21
41.498
 31
0.0
  0
LINE
  5
A9
330
1E
100
AcDbEntity
  8
0
100
AcDbLine
 10
198.13325
 20
40.826
 30
0.0
 11
198.13325
 21
39.75
 31
0.0
  0
LINE
  5
AA
330
1E
100
AcDbEntity
  8
0
100
AcDbLine
 10
198.13325
 20
40.826
 30
0.0
 11
198.13325
 21
39.706
 31
0.0
  0
LINE
  5
AB
330
1E
100
AcDbEntity
  8
0
100
AcDbLine
 10
198.13325
 20
40.826
 30
0.0
 11
198.13325
 21
41.498
 31
0.0
  0
LINE
  5
AC
330
1E
100
AcDbEntity
  8
0
100
AcDbLine
 10
198.13325
 20
39.75
 30
0.0
 11
198.13325
 21
39.57
 31
0.0
  0
LINE
  5
AD
330
1E
100
AcDbEntity
  8
0
100
AcDbLine
 10
198.13325
 20
39.75
 30
0.0
 11
198.13325
 21
40.826
 31
0.0
  0
LINE
  5
AE
330
1E
100
AcDbEntity
  8
0
100
AcDbLine
 10
198.13325
 20
39.57
 30
0.0
 11
198.13325
 21
39.09
 31
0.0
  0
LINE
  5
AF
330
1E
100
AcDbEntity
  8
0
100
AcDbLine
 10
198.13325
 20
39.57
 30
0.0
 11
198.13325
 21
39.75
 31
0.0
  0
LINE
  5
B0
330
1E
100
AcDbEntity
  8
0
100
AcDbLine
 10
198.13325
 20
39.09
 30
0.0
 11
198.13325
 21
38.29
 31
0.0
  0
LINE
  5
B1
330
1E
100
AcDbEntity
  8
0
100
AcDbLine
 10
198.13325
 20
39.09
 30
0.0
 11
198.13325
 21
39.57
 31
0.0
  0
LINE
  5
B2
330
1E
100
AcDbEntity
  8
0
100
AcDbLine
 10
198.13325
 20
38.29
 30
0.0
 11
198.13325
 21
37.23
 31
0.0
  0
LINE
  5
B3
330
1E
100
AcDbEntity
  8
0
100
AcDbLine
 10
198.13325
 20
38.29
 30
0.0
 11
198.13325
 21
39.09
 31
0.0
  0
LINE
  5
B4
330
1E
100
AcDbEntity
  8
0
100
AcDbLine
 10
198.13325
 20
37.23
 30
0.0
 11
198.13325
 21
36.03
 31
0.0
  0
LINE
  5
B5
330
1E
100
AcDbEntity
  8
0
100
AcDbLine
 10
198.13325
 20
37.23
 30
0.0
 11
198.13325
 21
38.29
 31
0.0
  0
LINE
  5
B6
330
1E
100
AcDbEntity
  8
0
100
AcDbLine
 10
198.13325
 20
36.03
 30
0.0
 11
198.13325
 21
34.75
 31
0.0
  0
LINE
  5
B7
330
1E
100
AcDbEntity
  8
0
100
AcDbLine
 10
198.13325
 20
36.03
 30
0.0
 11
198.13325
 21
37.23
 31
0.0
  0
LINE
  5
B8
330
1E
100
AcDbEntity
  8
0
100
AcDbLine
 10
198.13325
 20
41.75
 30
0.0
 11
198.13325
 21
41.498
 31
0.0
  0
LINE
  5
B9
330
1E
100
AcDbEntity
  8
0
100
AcDbLine
 10
198.13325
 20
41.75
 30
0.0
 11
216.13325
 21
41.75
 31
0.0
  0
LINE
  5
BA
330
1E
100
AcDbEntity
  8
0
100
AcDbLine
 10
198.13325
 20
41.498
 30
0.0
 11
198.13325
 21
40.826
 31
0.0
  0
LINE
  5
BB
330
1E
100
AcDbEntity
  8
0
100
AcDbLine
 10
198.13325
 20
41.498
 30
0.0
 11
198.13325
 21
41.75
 31
0.0
  0
LINE
  5
BC
330
1E
100
AcDbEntity
  8
0
100
AcDbLine
 10
198.13325
 20
41.498
 30
0.0
 11
198.13325
 21
40.826
 31
0.0
  0
LINE
  5
BD
330
1E
100
AcDbEntity
  8
0
100
AcDbLine
 10
107.63325
 20
42.75
 30
0.0
 11
115.10985
 21
42.75
 31
0.0
  0
LINE
  5
BE
330
1E
100
AcDbEntity
  8
0
100
AcDbLine
 10
123.13325
 20
42.75
 30
0.0
 11
202.13325
 21
42.75
 31
0.0
  0
LINE
  5
BF
330
1E
100
AcDbEntity
  8
0
100
AcDbLine
 10
115.10985
 20
42.75
 30
0.0
 11
123.13325
 21
42.75
 31
0.0
  0
LINE
  5
C0
330
1E
100
AcDbEntity
  8
0
100
AcDbLine
 10
37.08479
 20
42.91
 30
0.0
 11
38.19615
 21
34.43
 31
0.0
  0
LINE
  5
C1
330
1E
100
AcDbEntity
  8
0
100
AcDbLine
 10
27.974311
 20
43.39
 30
0.0
 11
29.05788
 21
35.23
 31
0.0
  0
LINE
  5
C2
330
1E
100
AcDbEntity
  8
0
100
AcDbLine
 10
28.3785
 20
42.91
 30
0.0
 11
29.48985
 21
34.43
 31
0.0
  0
LINE
  5
C4
330
1E
100
AcDbEntity
  8
0
100
AcDbLine
 10
90.89415
 20
42.75
 30
0.0
 11
93.18955
 21
42.75
 31
0.0
  0
LINE
  5
C5
330
1E
100
AcDbEntity
  8
0
100
AcDbLine
 10
93.18955
 20
42.75
 30
0.0
 11
96.28645
 21
42.75
 31
0.0
  0
LINE
  5
C6
330
1E
100
AcDbEntity
  8
0
100
AcDbLine
 10
96.28645
 20
42.75
 30
0.0
 11
101.21295
 21
42.75
 31
0.0
  0
LINE
  5
C7
330
1E
100
AcDbEntity
  8
0
100
AcDbLine
 10
101.21295
 20
42.75
 30
0.0
 11
107.63325
 21
42.75
 31
0.0
  0
LINE
  5
C8
330
1E
100
AcDbEntity
  8
0
100
AcDbLine
 10
90.21745
 20
43.2873
 30
0.0
 11
90.88425
 21
52.5673
 31
0.0
  0
LINE
  5
CB
330
1E
100
AcDbEntity
  8
0
100
AcDbLine
 10
40.34065
 20
43.902
 30
0.0
 11
41.39645
 21
35.846
 31
0.0
  0
LINE
  5
CC
330
1E
100
AcDbEntity
  8
0
100
AcDbLine
 10
37.95715
 20
43.902
 30
0.0
 11
39.01295
 21
35.846
 31
0.0
  0
LINE
  5
CF
330
1E
100
AcDbEntity
  8
0
100
AcDbLine
 10
180.13325
 20
45.39
 30
0.0
 11
180.13325
 21
48.59
 31
0.0
  0
LINE
  5
D0
330
1E
100
AcDbEntity
  8
0
100
AcDbLine
 10
202.13325
 20
45.39
 30
0.0
 11
202.13325
 21
43.47
 31
0.0
  0
LINE
  5
D1
330
1E
100
AcDbEntity
  8
0
100
AcDbLine
 10
180.13325
 20
43.47
 30
0.0
 11
180.13325
 21
45.39
 31
0.0
  0
LINE
  5
D2
330
1E
100
AcDbEntity
  8
0
100
AcDbLine
 10
180.13325
 20
42.75
 30
0.0
 11
180.13325
 21
43.47
 31
0.0
  0
LINE
  5
D3
330
1E
100
AcDbEntity
  8
0
100
AcDbLine
 10
180.13325
 20
42.75
 30
0.0
 11
202.13325
 21
42.75
 31
0.0
  0
LINE
  5
D4
330
1E
100
AcDbEntity
  8
0
100
AcDbLine
 10
202.13325
 20
43.47
 30
0.0
 11
202.13325
 21
42.75
 31
0.0
  0
LINE
  5
D7
330
1E
100
AcDbEntity
  8
0
100
AcDbLine
 10
40.038895044074
 20
48.246823544587
 30
0.0
 11
40.34065
 21
43.902
 31
0.0
  0
LINE
  5
D9
330
1E
100
AcDbEntity
  8
0
100
AcDbLine
 10
37.653990554245
 20
48.266357077301
 30
0.0
 11
37.95715
 21
43.902
 31
0.0
  0
LINE
  5
DA
330
1E
100
AcDbEntity
  8
0
100
AcDbLine
 10
180.13325
 20
48.59
 30
0.0
 11
180.13325
 21
52.83
 31
0.0
  0
LINE
  5
DB
330
1E
100
AcDbEntity
  8
0
100
AcDbLine
 10
202.13325
 20
48.59
 30
0.0
 11
202.13325
 21
45.39
 31
0.0
  0
LINE
  5
DC
330
1E
100
AcDbEntity
  8
0
100
AcDbLine
 10
202.13325
 20
49.134
 30
0.0
 11
216.13325
 21
49.134
 31
0.0
  0
LINE
  5
DD
330
1E
100
AcDbEntity
  8
0
100
AcDbLine
 10
202.13325
 20
49.134
 30
0.0
 11
202.13325
 21
50.634
 31
0.0
  0
LINE
  5
DE
330
1E
100
AcDbEntity
  8
0
100
AcDbLine
 10
202.13325
 20
49.134
 30
0.0
 11
202.13325
 21
50.866
 31
0.0
  0
LINE
  5
DF
330
1E
100
AcDbEntity
  8
0
100
AcDbLine
 10
202.13325
 20
46.466
 30
0.0
 11
202.13325
 21
51.342
 31
0.0
  0
LINE
  5
E0
330
1E
100
AcDbEntity
  8
0
100
AcDbLine
 10
202.13325
 20
46.466
 30
0.0
 11
202.13325
 21
42.786
 31
0.0
  0
LINE
  5
E1
330
1E
100
AcDbEntity
  8
0
100
AcDbLine
 10
202.13325
 20
42.786
 30
0.0
 11
202.13325
 21
46.466
 31
0.0
  0
LINE
  5
E2
330
1E
100
AcDbEntity
  8
0
100
AcDbLine
 10
202.13325
 20
42.786
 30
0.0
 11
202.13325
 21
41.75
 31
0.0
  0
LINE
  5
E3
330
1E
100
AcDbEntity
  8
0
100
AcDbLine
 10
202.13325
 20
41.75
 30
0.0
 11
202.13325
 21
42.75
 31
0.0
  0
LINE
  5
E4
330
1E
100
AcDbEntity
  8
0
100
AcDbLine
 10
202.13325
 20
41.75
 30
0.0
 11
202.13325
 21
42.786
 31
0.0
  0
LINE
  5
E5
330
1E
100
AcDbEntity
  8
0
100
AcDbLine
 10
216.13325
 20
49.134
 30
0.0
 11
216.13325
 21
46.466
 31
0.0
  0
LINE
  5
E6
330
1E
100
AcDbEntity
  8
0
100
AcDbLine
 10
216.13325
 20
49.134
 30
0.0
 11
216.13325
 21
50.866
 31
0.0
  0
LINE
  5
E7
330
1E
100
AcDbEntity
  8
0
100
AcDbLine
 10
216.13325
 20
46.466
 30
0.0
 11
216.13325
 21
49.134
 31
0.0
  0
LINE
  5
E8
330
1E
100
AcDbEntity
  8
0
100
AcDbLine
 10
216.13325
 20
46.466
 30
0.0
 11
216.13325
 21
42.786
 31
0.0
  0
LINE
  5
E9
330
1E
100
AcDbEntity
  8
0
100
AcDbLine
 10
216.13325
 20
42.786
 30
0.0
 11
216.13325
 21
46.466
 31
0.0
  0
LINE
  5
EA
330
1E
100
AcDbEntity
  8
0
100
AcDbLine
 10
216.13325
 20
42.786
 30
0.0
 11
216.13325
 21
41.75
 31
0.0
  0
LINE
  5
EB
330
1E
100
AcDbEntity
  8
0
100
AcDbLine
 10
216.13325
 20
41.75
 30
0.0
 11
216.13325
 21
42.786
 31
0.0
  0
LINE
  5
EC
330
1E
100
AcDbEntity
  8
0
100
AcDbLine
 10
202.13325
 20
42.75
 30
0.0
 11
202.13325
 21
41.75
 31
0.0
  0
LINE
  5
ED
330
1E
100
AcDbEntity
  8
0
100
AcDbLine
 10
90.89415
 20
50.797635992384
 30
0.0
 11
91.29875
 21
51.342
 31
0.0
  0
LINE
  5
EE
330
1E
100
AcDbEntity
  8
0
100
AcDbLine
 10
90.89415
 20
51.342
 30
0.0
 11
91.29875
 21
51.342
 31
0.0
  0
LINE
  5
EF
330
1E
100
AcDbEntity
  8
0
100
AcDbLine
 10
91.29875
 20
51.342
 30
0.0
 11
93.47325
 21
56.862
 31
0.0
  0
LINE
  5
F0
330
1E
100
AcDbEntity
  8
0
100
AcDbLine
 10
37.46855
 20
51.8038
 30
0.0
 11
37.64875
 21
48.2664
 31
0.0
  0
LINE
  5
F3
330
1E
100
AcDbEntity
  8
0
100
AcDbLine
 10
202.13325
 20
50.634
 30
0.0
 11
202.13325
 21
52.366
 31
0.0
  0
LINE
  5
F4
330
1E
100
AcDbEntity
  8
0
100
AcDbLine
 10
202.13325
 20
50.634
 30
0.0
 11
202.13325
 21
49.134
 31
0.0
  0
LINE
  5
F5
330
1E
100
AcDbEntity
  8
0
100
AcDbLine
 10
27.307502
 20
52.67
 30
0.0
 11
27.974311
 21
43.39
 31
0.0
  0
LINE
  5
F7
330
1E
100
AcDbEntity
  8
0
100
AcDbLine
 10
90.88425
 20
52.5673
 30
0.0
 11
91.13425
 21
62.647339
 31
0.0
  0
LINE
  5
F9
330
1E
100
AcDbEntity
  8
0
100
AcDbLine
 10
36.41798
 20
52.51
 30
0.0
 11
37.08479
 21
42.91
 31
0.0
  0
LINE
  5
FA
330
1E
100
AcDbEntity
  8
0
100
AcDbLine
 10
27.711692
 20
52.51
 30
0.0
 11
28.3785
 21
42.91
 31
0.0
  0
LINE
  5
FD
330
1E
100
AcDbEntity
  8
0
100
AcDbLine
 10
37.33255
 20
55.19304
 30
0.0
 11
37.46855
 21
51.8038
 31
0.0
  0
LINE
  5
101
330
1E
100
AcDbEntity
  8
0
100
AcDbLine
 10
37.32365
 20
53.02202
 30
0.0
 11
37.634344391221
 21
48.549188016063
 31
0.0
  0
LINE
  5
102
330
1E
100
AcDbEntity
  8
0
100
AcDbLine
 10
180.13325
 20
52.83
 30
0.0
 11
180.13325
 21
57.63
 31
0.0
  0
LINE
  5
103
330
1E
100
AcDbEntity
  8
0
100
AcDbLine
 10
202.13325
 20
52.83
 30
0.0
 11
202.13325
 21
48.59
 31
0.0
  0
LINE
  5
104
330
1E
100
AcDbEntity
  8
0
100
AcDbLine
 10
202.13325
 20
52.366
 30
0.0
 11
202.13325
 21
50.866
 31
0.0
  0
LINE
  5
105
330
1E
100
AcDbEntity
  8
0
100
AcDbLine
 10
202.13325
 20
52.366
 30
0.0
 11
202.13325
 21
50.634
 31
0.0
  0
LINE
  5
106
330
1E
100
AcDbEntity
  8
0
100
AcDbLine
 10
202.13325
 20
50.866
 30
0.0
 11
216.13325
 21
50.866
 31
0.0
  0
LINE
  5
107
330
1E
100
AcDbEntity
  8
0
100
AcDbLine
 10
202.13325
 20
50.866
 30
0.0
 11
202.13325
 21
49.134
 31
0.0
  0
LINE
  5
108
330
1E
100
AcDbEntity
  8
0
100
AcDbLine
 10
202.13325
 20
50.866
 30
0.0
 11
202.13325
 21
52.366
 31
0.0
  0
LINE
  5
10A
330
1E
100
AcDbEntity
  8
0
100
AcDbLine
 10
93.47325
 20
56.862
 30
0.0
 11
94.28865
 21
62.75
 31
0.0
  0
LINE
  5
10B
330
1E
100
AcDbEntity
  8
0
100
AcDbLine
 10
37.24435
 20
58.26444
 30
0.0
 11
37.33255
 21
55.19304
 31
0.0
  0
LINE
  5
10C
330
1E
100
AcDbEntity
  8
0
100
AcDbLine
 10
37.18915
 20
62.647339
 30
0.0
 11
37.24435
 21
58.26444
 31
0.0
  0
LINE
  5
10D
330
1E
100
AcDbEntity
  8
0
100
AcDbLine
 10
37.18915
 20
62.647339
 30
0.0
 11
37.24435
 21
67.03024
 31
0.0
  0
LINE
  5
118
330
1E
100
AcDbEntity
  8
0
100
AcDbLine
 10
180.13325
 20
62.75
 30
0.0
 11
180.13325
 21
67.87
 31
0.0
  0
LINE
  5
119
330
1E
100
AcDbEntity
  8
0
100
AcDbLine
 10
180.13325
 20
57.63
 30
0.0
 11
180.13325
 21
62.75
 31
0.0
  0
LINE
  5
11A
330
1E
100
AcDbEntity
  8
0
100
AcDbLine
 10
202.13325
 20
57.63
 30
0.0
 11
202.13325
 21
52.83
 31
0.0
  0
LINE
  5
11B
330
1E
100
AcDbEntity
  8
0
100
AcDbLine
 10
202.13325
 20
56.862
 30
0.0
 11
202.13325
 21
62.75
 31
0.0
  0
LINE
  5
11C
330
1E
100
AcDbEntity
  8
0
100
AcDbLine
 10
202.13325
 20
56.862
 30
0.0
 11
202.13325
 21
51.342
 31
0.0
  0
LINE
  5
11D
330
1E
100
AcDbEntity
  8
0
100
AcDbLine
 10
202.13325
 20
51.342
 30
0.0
 11
202.13325
 21
56.862
 31
0.0
  0
LINE
  5
11E
330
1E
100
AcDbEntity
  8
0
100
AcDbLine
 10
202.13325
 20
51.342
 30
0.0
 11
202.13325
 21
46.466
 31
0.0
  0
LINE
  5
121
330
1E
100
AcDbEntity
  8
0
100
AcDbLine
 10
27.057448
 20
62.750016
 30
0.0
 11
27.307502
 21
52.67
 31
0.0
  0
LINE
  5
122
330
1E
100
AcDbEntity
  8
0
100
AcDbLine
 10
27.057448
 20
62.750016
 30
0.0
 11
27.307502
 21
72.83
 31
0.0
  0
LINE
  5
124
330
1E
100
AcDbEntity
  8
0
100
AcDbLine
 10
36.16793
 20
62.750016
 30
0.0
 11
36.41798
 21
52.51
 31
0.0
  0
LINE
  5
125
330
1E
100
AcDbEntity
  8
0
100
AcDbLine
 10
36.16793
 20
62.750016
 30
0.0
 11
36.41798
 21
72.99
 31
0.0
  0
LINE
  5
126
330
1E
100
AcDbEntity
  8
0
100
AcDbLine
 10
27.461639
 20
62.750016
 30
0.0
 11
27.711692
 21
52.51
 31
0.0
  0
LINE
  5
127
330
1E
100
AcDbEntity
  8
0
100
AcDbLine
 10
27.461639
 20
62.750016
 30
0.0
 11
27.711692
 21
72.99
 31
0.0
  0
LINE
  5
12C
330
1E
100
AcDbEntity
  8
0
100
AcDbLine
 10
37.24435
 20
67.03024
 30
0.0
 11
37.33255
 21
70.10164
 31
0.0
  0
LINE
  5
12D
330
1E
100
AcDbEntity
  8
0
100
AcDbLine
 10
37.08612
 20
62.750016
 30
0.0
 11
37.32365
 21
53.02202
 31
0.0
  0
LINE
  5
12E
330
1E
100
AcDbEntity
  8
0
100
AcDbLine
 10
37.08612
 20
62.750016
 30
0.0
 11
37.32365
 21
72.47802
 31
0.0
  0
LINE
  5
12F
330
1E
100
AcDbEntity
  8
0
100
AcDbLine
 10
202.13325
 20
67.87
 30
0.0
 11
202.13325
 21
62.75
 31
0.0
  0
LINE
  5
130
330
1E
100
AcDbEntity
  8
0
100
AcDbLine
 10
180.13325
 20
67.87
 30
0.0
 11
180.13325
 21
72.67
 31
0.0
  0
LINE
  5
131
330
1E
100
AcDbEntity
  8
0
100
AcDbLine
 10
202.13325
 20
62.75
 30
0.0
 11
202.13325
 21
68.638
 31
0.0
  0
LINE
  5
132
330
1E
100
AcDbEntity
  8
0
100
AcDbLine
 10
202.13325
 20
62.75
 30
0.0
 11
202.13325
 21
56.862
 31
0.0
  0
LINE
  5
133
330
1E
100
AcDbEntity
  8
0
100
AcDbLine
 10
202.13325
 20
62.75
 30
0.0
 11
202.13325
 21
57.63
 31
0.0
  0
LINE
  5
134
330
1E
100
AcDbEntity
  8
0
100
AcDbLine
 10
216.13325
 20
50.866
 30
0.0
 11
216.13325
 21
52.366
 31
0.0
  0
LINE
  5
135
330
1E
100
AcDbEntity
  8
0
100
AcDbLine
 10
216.13325
 20
50.866
 30
0.0
 11
216.13325
 21
49.134
 31
0.0
  0
LINE
  5
136
330
1E
100
AcDbEntity
  8
0
100
AcDbLine
 10
216.13325
 20
56.862
 30
0.0
 11
216.13325
 21
62.75
 31
0.0
  0
LINE
  5
137
330
1E
100
AcDbEntity
  8
0
100
AcDbLine
 10
216.13325
 20
56.862
 30
0.0
 11
216.13325
 21
52.366
 31
0.0
  0
LINE
  5
138
330
1E
100
AcDbEntity
  8
0
100
AcDbLine
 10
216.13325
 20
52.366
 30
0.0
 11
216.13325
 21
56.862
 31
0.0
  0
LINE
  5
139
330
1E
100
AcDbEntity
  8
0
100
AcDbLine
 10
216.13325
 20
52.366
 30
0.0
 11
216.13325
 21
50.866
 31
0.0
  0
LINE
  5
13A
330
1E
100
AcDbEntity
  8
0
100
AcDbLine
 10
202.13325
 20
68.638
 30
0.0
 11
202.13325
 21
74.158
 31
0.0
  0
LINE
  5
13B
330
1E
100
AcDbEntity
  8
0
100
AcDbLine
 10
202.13325
 20
68.638
 30
0.0
 11
202.13325
 21
62.75
 31
0.0
  0
LINE
  5
13D
330
1E
100
AcDbEntity
  8
0
100
AcDbLine
 10
93.47325
 20
68.638
 30
0.0
 11
94.28865
 21
62.75
 31
0.0
  0
LINE
  5
13E
330
1E
100
AcDbEntity
  8
0
100
AcDbLine
 10
216.13325
 20
68.638
 30
0.0
 11
216.13325
 21
73.134
 31
0.0
  0
LINE
  5
13F
330
1E
100
AcDbEntity
  8
0
100
AcDbLine
 10
216.13325
 20
68.638
 30
0.0
 11
216.13325
 21
62.75
 31
0.0
  0
LINE
  5
140
330
1E
100
AcDbEntity
  8
0
100
AcDbLine
 10
216.13325
 20
56.094
 30
0.0
 11
216.13325
 21
62.75
 31
0.0
  0
LINE
  5
141
330
1E
100
AcDbEntity
  8
0
100
AcDbLine
 10
216.13325
 20
56.094
 30
0.0
 11
216.13325
 21
49.854
 31
0.0
  0
LINE
  5
142
330
1E
100
AcDbEntity
  8
0
100
AcDbLine
 10
216.13325
 20
49.854
 30
0.0
 11
216.13325
 21
56.094
 31
0.0
  0
LINE
  5
143
330
1E
100
AcDbEntity
  8
0
100
AcDbLine
 10
216.13325
 20
49.854
 30
0.0
 11
216.13325
 21
44.342
 31
0.0
  0
LINE
  5
144
330
1E
100
AcDbEntity
  8
0
100
AcDbLine
 10
216.13325
 20
44.342
 30
0.0
 11
216.13325
 21
49.854
 31
0.0
  0
LINE
  5
145
330
1E
100
AcDbEntity
  8
0
100
AcDbLine
 10
216.13325
 20
44.342
 30
0.0
 11
216.13325
 21
41.75
 31
0.0
  0
LINE
  5
146
330
1E
100
AcDbEntity
  8
0
100
AcDbLine
 10
216.13325
 20
41.75
 30
0.0
 11
216.13325
 21
44.342
 31
0.0
  0
LINE
  5
147
330
1E
100
AcDbEntity
  8
0
100
AcDbLine
 10
216.13325
 20
62.75
 30
0.0
 11
216.13325
 21
69.406
 31
0.0
  0
LINE
  5
148
330
1E
100
AcDbEntity
  8
0
100
AcDbLine
 10
216.13325
 20
62.75
 30
0.0
 11
216.13325
 21
56.094
 31
0.0
  0
LINE
  5
149
330
1E
100
AcDbEntity
  8
0
100
AcDbLine
 10
216.13325
 20
62.75
 30
0.0
 11
216.13325
 21
68.638
 31
0.0
  0
LINE
  5
14A
330
1E
100
AcDbEntity
  8
0
100
AcDbLine
 10
216.13325
 20
62.75
 30
0.0
 11
216.13325
 21
56.862
 31
0.0
  0
LINE
  5
14E
330
1E
100
AcDbEntity
  8
0
100
AcDbLine
 10
37.33255
 20
70.10164
 30
0.0
 11
37.46855
 21
73.4908
 31
0.0
  0
LINE
  5
151
330
1E
100
AcDbEntity
  8
0
100
AcDbLine
 10
37.32365
 20
72.47802
 30
0.0
 11
37.95715
 21
81.598
 31
0.0
  0
LINE
  5
152
330
1E
100
AcDbEntity
  8
0
100
AcDbLine
 10
202.13325
 20
72.67
 30
0.0
 11
202.13325
 21
67.87
 31
0.0
  0
LINE
  5
153
330
1E
100
AcDbEntity
  8
0
100
AcDbLine
 10
27.307502
 20
72.83
 30
0.0
 11
27.974311
 21
82.11
 31
0.0
  0
LINE
  5
154
330
1E
100
AcDbEntity
  8
0
100
AcDbLine
 10
90.88425
 20
72.72734
 30
0.0
 11
91.13425
 21
62.647339
 31
0.0
  0
LINE
  5
157
330
1E
100
AcDbEntity
  8
0
100
AcDbLine
 10
36.41798
 20
72.99
 30
0.0
 11
37.08479
 21
82.59
 31
0.0
  0
LINE
  5
158
330
1E
100
AcDbEntity
  8
0
100
AcDbLine
 10
27.711692
 20
72.99
 30
0.0
 11
28.3785
 21
82.59
 31
0.0
  0
LINE
  5
159
330
1E
100
AcDbEntity
  8
0
100
AcDbLine
 10
11.43625
 20
72.8788
 30
0.0
 11
13.596828975834
 21
73.18378304717
 31
0.0
  0
LINE
  5
15A
330
1E
100
AcDbEntity
  8
0
100
AcDbLine
 10
90.89415
 20
74.158
 30
0.0
 11
91.29875
 21
74.158
 31
0.0
  0
LINE
  5
15B
330
1E
100
AcDbEntity
  8
0
100
AcDbLine
 10
91.29875
 20
74.158
 30
0.0
 11
93.47325
 21
68.638
 31
0.0
  0
LINE
  5
15E
330
1E
100
AcDbEntity
  8
0
100
AcDbLine
 10
37.46855
 20
73.4908
 30
0.0
 11
37.64875
 21
77.0282
 31
0.0
  0
LINE
  5
15F
330
1E
100
AcDbEntity
  8
0
100
AcDbLine
 10
9.14105
 20
73.2028
 30
0.0
 11
11.43625
 21
72.8788
 31
0.0
  0
LINE
  5
160
330
1E
100
AcDbEntity
  8
0
100
AcDbLine
 10
6.98925
 20
74.0668
 30
0.0
 11
9.14105
 21
73.2028
 31
0.0
  0
LINE
  5
161
330
1E
100
AcDbEntity
  8
0
100
AcDbLine
 10
180.13325
 20
72.67
 30
0.0
 11
180.13325
 21
76.91
 31
0.0
  0
LINE
  5
162
330
1E
100
AcDbEntity
  8
0
100
AcDbLine
 10
202.13325
 20
73.134
 30
0.0
 11
202.13325
 21
74.866
 31
0.0
  0
LINE
  5
163
330
1E
100
AcDbEntity
  8
0
100
AcDbLine
 10
202.13325
 20
73.134
 30
0.0
 11
202.13325
 21
74.634
 31
0.0
  0
LINE
  5
164
330
1E
100
AcDbEntity
  8
0
100
AcDbLine
 10
90.89415
 20
74.702364007616
 30
0.0
 11
91.29875
 21
74.158
 31
0.0
  0
LINE
  5
165
330
1E
100
AcDbEntity
  8
0
100
AcDbLine
 10
5.08855
 20
75.5068
 30
0.0
 11
6.98925
 21
74.0668
 31
0.0
  0
LINE
  5
166
330
1E
100
AcDbEntity
  8
0
100
AcDbLine
 10
202.13325
 20
74.634
 30
0.0
 11
216.13325
 21
74.634
 31
0.0
  0
LINE
  5
167
330
1E
100
AcDbEntity
  8
0
100
AcDbLine
 10
202.13325
 20
74.634
 30
0.0
 11
202.13325
 21
73.134
 31
0.0
  0
LINE
  5
168
330
1E
100
AcDbEntity
  8
0
100
AcDbLine
 10
202.13325
 20
74.634
 30
0.0
 11
202.13325
 21
76.366
 31
0.0
  0
LINE
  5
169
330
1E
100
AcDbEntity
  8
0
100
AcDbLine
 10
202.13325
 20
74.866
 30
0.0
 11
202.13325
 21
76.366
 31
0.0
  0
LINE
  5
16A
330
1E
100
AcDbEntity
  8
0
100
AcDbLine
 10
202.13325
 20
74.866
 30
0.0
 11
202.13325
 21
73.134
 31
0.0
  0
LINE
  5
16B
330
1E
100
AcDbEntity
  8
0
100
AcDbLine
 10
202.13325
 20
76.366
 30
0.0
 11
216.13325
 21
76.366
 31
0.0
  0
LINE
  5
16C
330
1E
100
AcDbEntity
  8
0
100
AcDbLine
 10
202.13325
 20
76.366
 30
0.0
 11
202.13325
 21
74.634
 31
0.0
  0
LINE
  5
16D
330
1E
100
AcDbEntity
  8
0
100
AcDbLine
 10
202.13325
 20
76.366
 30
0.0
 11
202.13325
 21
74.866
 31
0.0
  0
LINE
  5
16E
330
1E
100
AcDbEntity
  8
0
100
AcDbLine
 10
216.13325
 20
74.634
 30
0.0
 11
216.13325
 21
76.366
 31
0.0
  0
LINE
  5
16F
330
1E
100
AcDbEntity
  8
0
100
AcDbLine
 10
216.13325
 20
74.634
 30
0.0
 11
216.13325
 21
73.134
 31
0.0
  0
LINE
  5
170
330
1E
100
AcDbEntity
  8
0
100
AcDbLine
 10
216.13325
 20
73.134
 30
0.0
 11
216.13325
 21
68.638
 31
0.0
  0
LINE
  5
171
330
1E
100
AcDbEntity
  8
0
100
AcDbLine
 10
216.13325
 20
73.134
 30
0.0
 11
216.13325
 21
74.634
 31
0.0
  0
LINE
  5
172
330
1E
100
AcDbEntity
  8
0
100
AcDbLine
 10
202.13325
 20
74.158
 30
0.0
 11
202.13325
 21
79.034
 31
0.0
  0
LINE
  5
173
330
1E
100
AcDbEntity
  8
0
100
AcDbLine
 10
202.13325
 20
74.158
 30
0.0
 11
202.13325
 21
68.638
 31
0.0
  0
LINE
  5
175
330
1E
100
AcDbEntity
  8
0
100
AcDbLine
 10
3.65405
 20
77.4148
 30
0.0
 11
5.08855
 21
75.5068
 31
0.0
  0
LINE
  5
176
330
1E
100
AcDbEntity
  8
0
100
AcDbLine
 10
2.79335
 20
79.5748
 30
0.0
 11
3.65405
 21
77.4148
 31
0.0
  0
LINE
  5
17B
330
1E
100
AcDbEntity
  8
0
100
AcDbLine
 10
40.024620178764
 20
77.047659537293
 30
0.0
 11
40.34065
 21
81.598
 31
0.0
  0
LINE
  5
17C
330
1E
100
AcDbEntity
  8
0
100
AcDbLine
 10
202.13325
 20
76.91
 30
0.0
 11
202.13325
 21
72.67
 31
0.0
  0
LINE
  5
17D
330
1E
100
AcDbEntity
  8
0
100
AcDbLine
 10
202.13325
 20
80.11
 30
0.0
 11
202.13325
 21
76.91
 31
0.0
  0
LINE
  5
17E
330
1E
100
AcDbEntity
  8
0
100
AcDbLine
 10
180.13325
 20
76.91
 30
0.0
 11
180.13325
 21
80.11
 31
0.0
  0
LINE
  5
17F
330
1E
100
AcDbEntity
  8
0
100
AcDbLine
 10
180.13325
 20
80.11
 30
0.0
 11
180.13325
 21
82.03
 31
0.0
  0
LINE
  5
180
330
1E
100
AcDbEntity
  8
0
100
AcDbLine
 10
202.13325
 20
79.034
 30
0.0
 11
202.13325
 21
82.714
 31
0.0
  0
LINE
  5
181
330
1E
100
AcDbEntity
  8
0
100
AcDbLine
 10
202.13325
 20
79.034
 30
0.0
 11
202.13325
 21
74.158
 31
0.0
  0
LINE
  5
182
330
1E
100
AcDbEntity
  8
0
100
AcDbLine
 10
216.13325
 20
76.366
 30
0.0
 11
216.13325
 21
79.034
 31
0.0
  0
LINE
  5
183
330
1E
100
AcDbEntity
  8
0
100
AcDbLine
 10
216.13325
 20
76.366
 30
0.0
 11
216.13325
 21
74.634
 31
0.0
  0
LINE
  5
184
330
1E
100
AcDbEntity
  8
0
100
AcDbLine
 10
216.13325
 20
79.034
 30
0.0
 11
216.13325
 21
82.714
 31
0.0
  0
LINE
  5
185
330
1E
100
AcDbEntity
  8
0
100
AcDbLine
 10
216.13325
 20
79.034
 30
0.0
 11
216.13325
 21
76.366
 31
0.0
  0
LINE
  5
186
330
1E
100
AcDbEntity
  8
0
100
AcDbLine
 10
216.13325
 20
69.406
 30
0.0
 11
216.13325
 21
75.646
 31
0.0
  0
LINE
  5
187
330
1E
100
AcDbEntity
  8
0
100
AcDbLine
 10
216.13325
 20
69.406
 30
0.0
 11
216.13325
 21
62.75
 31
0.0
  0
LINE
  5
188
330
1E
100
AcDbEntity
  8
0
100
AcDbLine
 10
216.13325
 20
75.646
 30
0.0
 11
216.13325
 21
81.158
 31
0.0
  0
LINE
  5
189
330
1E
100
AcDbEntity
  8
0
100
AcDbLine
 10
216.13325
 20
75.646
 30
0.0
 11
216.13325
 21
69.406
 31
0.0
  0
LINE
  5
18A
330
1E
100
AcDbEntity
  8
0
100
AcDbLine
 10
40.34065
 20
81.598
 30
0.0
 11
41.39645
 21
89.654
 31
0.0
  0
LINE
  5
18B
330
1E
100
AcDbEntity
  8
0
100
AcDbLine
 10
27.974311
 20
82.11
 30
0.0
 11
29.05788
 21
90.27
 31
0.0
  0
LINE
  5
18C
330
1E
100
AcDbEntity
  8
0
100
AcDbLine
 10
90.21745
 20
82.0073
 30
0.0
 11
90.88425
 21
72.72734
 31
0.0
  0
LINE
  5
190
330
1E
100
AcDbEntity
  8
0
100
AcDbLine
 10
37.08479
 20
82.59
 30
0.0
 11
38.19615
 21
91.07
 31
0.0
  0
LINE
  5
191
330
1E
100
AcDbEntity
  8
0
100
AcDbLine
 10
28.3785
 20
82.59
 30
0.0
 11
29.48985
 21
91.07
 31
0.0
  0
LINE
  5
192
330
1E
100
AcDbEntity
  8
0
100
AcDbLine
 10
2.47055
 20
81.8788
 30
0.0
 11
2.79335
 21
84.1828
 31
0.0
  0
LINE
  5
193
330
1E
100
AcDbEntity
  8
0
100
AcDbLine
 10
2.47055
 20
81.8788
 30
0.0
 11
2.79335
 21
79.5748
 31
0.0
  0
LINE
  5
194
330
1E
100
AcDbEntity
  8
0
100
AcDbLine
 10
0.18875
 20
82.4167
 30
0.0
 11
0.18875
 21
0.25
 31
0.0
  0
LINE
  5
195
330
1E
100
AcDbEntity
  8
0
100
AcDbLine
 10
0.18875
 20
82.4167
 30
0.0
 11
0.44365
 21
84.3056
 31
0.0
  0
LINE
  5
196
330
1E
100
AcDbEntity
  8
0
100
AcDbLine
 10
37.95715
 20
81.598
 30
0.0
 11
39.01295
 21
89.654
 31
0.0
  0
LINE
  5
197
330
1E
100
AcDbEntity
  8
0
100
AcDbLine
 10
202.13325
 20
82.03
 30
0.0
 11
202.13325
 21
80.11
 31
0.0
  0
LINE
  5
198
330
1E
100
AcDbEntity
  8
0
100
AcDbLine
 10
180.13325
 20
82.03
 30
0.0
 11
180.13325
 21
82.75
 31
0.0
  0
LINE
  5
199
330
1E
100
AcDbEntity
  8
0
100
AcDbLine
 10
115.10985
 20
82.75
 30
0.0
 11
123.13325
 21
82.75
 31
0.0
  0
LINE
  5
19A
330
1E
100
AcDbEntity
  8
0
100
AcDbLine
 10
107.63325
 20
82.75
 30
0.0
 11
115.10985
 21
82.75
 31
0.0
  0
LINE
  5
19B
330
1E
100
AcDbEntity
  8
0
100
AcDbLine
 10
93.18955
 20
82.75
 30
0.0
 11
96.28645
 21
82.75
 31
0.0
  0
LINE
  5
19C
330
1E
100
AcDbEntity
  8
0
100
AcDbLine
 10
96.28645
 20
82.75
 30
0.0
 11
101.21295
 21
82.75
 31
0.0
  0
LINE
  5
19D
330
1E
100
AcDbEntity
  8
0
100
AcDbLine
 10
101.21295
 20
82.75
 30
0.0
 11
107.63325
 21
82.75
 31
0.0
  0
LINE
  5
19E
330
1E
100
AcDbEntity
  8
0
100
AcDbLine
 10
90.89415
 20
82.75
 30
0.0
 11
93.18955
 21
82.75
 31
0.0
  0
LINE
  5
19F
330
1E
100
AcDbEntity
  8
0
100
AcDbLine
 10
123.13325
 20
82.75
 30
0.0
 11
202.13325
 21
82.75
 31
0.0
  0
LINE
  5
1A0
330
1E
100
AcDbEntity
  8
0
100
AcDbLine
 10
2.79335
 20
84.1828
 30
0.0
 11
3.65405
 21
86.3428
 31
0.0
  0
LINE
  5
1A1
330
1E
100
AcDbEntity
  8
0
100
AcDbLine
 10
0.44365
 20
84.3056
 30
0.0
 11
0.95335
 21
85.25
 31
0.0
  0
LINE
  5
1A2
330
1E
100
AcDbEntity
  8
0
100
AcDbLine
 10
180.13325
 20
82.75
 30
0.0
 11
202.13325
 21
82.75
 31
0.0
  0
LINE
  5
1A3
330
1E
100
AcDbEntity
  8
0
100
AcDbLine
 10
202.13325
 20
82.714
 30
0.0
 11
202.13325
 21
84.922
 31
0.0
  0
LINE
  5
1A4
330
1E
100
AcDbEntity
  8
0
100
AcDbLine
 10
202.13325
 20
82.714
 30
0.0
 11
202.13325
 21
79.034
 31
0.0
  0
LINE
  5
1A5
330
1E
100
AcDbEntity
  8
0
100
AcDbLine
 10
202.13325
 20
82.75
 30
0.0
 11
202.13325
 21
84.922
 31
0.0
  0
LINE
  5
1A6
330
1E
100
AcDbEntity
  8
0
100
AcDbLine
 10
202.13325
 20
82.75
 30
0.0
 11
202.13325
 21
82.03
 31
0.0
  0
LINE
  5
1A7
330
1E
100
AcDbEntity
  8
0
100
AcDbLine
 10
3.65405
 20
86.3428
 30
0.0
 11
5.08855
 21
88.2508
 31
0.0
  0
LINE
  5
1AA
330
1E
100
AcDbEntity
  8
0
100
AcDbLine
 10
1.85185
 20
85.25
 30
0.0
 11
3.218599555555
 21
85.25
 31
0.0
  0
LINE
  5
1AB
330
1E
100
AcDbEntity
  8
0
100
AcDbLine
 10
0.95335
 20
85.25
 30
0.0
 11
1.85185
 21
85.25
 31
0.0
  0
LINE
  5
1AC
330
1E
100
AcDbEntity
  8
0
100
AcDbLine
 10
202.13325
 20
85.25
 30
0.0
 11
202.13325
 21
88.25
 31
0.0
  0
LINE
  5
1AD
330
1E
100
AcDbEntity
  8
0
100
AcDbLine
 10
202.13325
 20
84.922
 30
0.0
 11
202.13325
 21
85.75
 31
0.0
  0
LINE
  5
1AE
330
1E
100
AcDbEntity
  8
0
100
AcDbLine
 10
202.13325
 20
84.922
 30
0.0
 11
202.13325
 21
82.714
 31
0.0
  0
LINE
  5
1AF
330
1E
100
AcDbEntity
  8
0
100
AcDbLine
 10
202.13325
 20
84.922
 30
0.0
 11
202.13325
 21
82.75
 31
0.0
  0
LINE
  5
1B0
330
1E
100
AcDbEntity
  8
0
100
AcDbLine
 10
202.13325
 20
84.922
 30
0.0
 11
202.13325
 21
85.75
 31
0.0
  0
LINE
  5
1B1
330
1E
100
AcDbEntity
  8
0
100
AcDbLine
 10
216.13325
 20
82.714
 30
0.0
 11
216.13325
 21
84.922
 31
0.0
  0
LINE
  5
1B2
330
1E
100
AcDbEntity
  8
0
100
AcDbLine
 10
216.13325
 20
82.714
 30
0.0
 11
216.13325
 21
79.034
 31
0.0
  0
LINE
  5
1B3
330
1E
100
AcDbEntity
  8
0
100
AcDbLine
 10
216.13325
 20
85.75
 30
0.0
 11
216.13325
 21
84.922
 31
0.0
  0
LINE
  5
1B4
330
1E
100
AcDbEntity
  8
0
100
AcDbLine
 10
216.13325
 20
85.75
 30
0.0
 11
216.13325
 21
88.25
 31
0.0
  0
LINE
  5
1B5
330
1E
100
AcDbEntity
  8
0
100
AcDbLine
 10
216.13325
 20
84.922
 30
0.0
 11
216.13325
 21
85.75
 31
0.0
  0
LINE
  5
1B6
330
1E
100
AcDbEntity
  8
0
100
AcDbLine
 10
216.13325
 20
84.922
 30
0.0
 11
216.13325
 21
82.714
 31
0.0
  0
LINE
  5
1B7
330
1E
100
AcDbEntity
  8
0
100
AcDbLine
 10
202.13325
 20
85.75
 30
0.0
 11
202.13325
 21
84.922
 31
0.0
  0
LINE
  5
1B8
330
1E
100
AcDbEntity
  8
0
100
AcDbLine
 10
202.13325
 20
85.75
 30
0.0
 11
202.13325
 21
84.922
 31
0.0
  0
LINE
  5
1B9
330
1E
100
AcDbEntity
  8
0
100
AcDbLine
 10
216.13325
 20
81.158
 30
0.0
 11
216.13325
 21
85.318
 31
0.0
  0
LINE
  5
1BA
330
1E
100
AcDbEntity
  8
0
100
AcDbLine
 10
216.13325
 20
81.158
 30
0.0
 11
216.13325
 21
75.646
 31
0.0
  0
LINE
  5
1BB
330
1E
100
AcDbEntity
  8
0
100
AcDbLine
 10
216.13325
 20
85.318
 30
0.0
 11
216.13325
 21
87.814
 31
0.0
  0
LINE
  5
1BC
330
1E
100
AcDbEntity
  8
0
100
AcDbLine
 10
216.13325
 20
85.318
 30
0.0
 11
216.13325
 21
81.158
 31
0.0
  0
LINE
  5
1BD
330
1E
100
AcDbEntity
  8
0
100
AcDbLine
 10
5.08855
 20
88.2508
 30
0.0
 11
6.98925
 21
89.6908
 31
0.0
  0
LINE
  5
1BE
330
1E
100
AcDbEntity
  8
0
100
AcDbLine
 10
202.13325
 20
88.25
 30
0.0
 11
216.13325
 21
88.25
 31
0.0
  0
LINE
  5
1BF
330
1E
100
AcDbEntity
  8
0
100
AcDbLine
 10
202.13325
 20
88.25
 30
0.0
 11
202.13325
 21
85.25
 31
0.0
  0
LINE
  5
1C0
330
1E
100
AcDbEntity
  8
0
100
AcDbLine
 10
216.13325
 20
87.814
 30
0.0
 11
216.13325
 21
88.75
 31
0.0
  0
LINE
  5
1C1
330
1E
100
AcDbEntity
  8
0
100
AcDbLine
 10
216.13325
 20
87.814
 30
0.0
 11
216.13325
 21
85.318
 31
0.0
  0
LINE
  5
1C2
330
1E
100
AcDbEntity
  8
0
100
AcDbLine
 10
218.13325
 20
25.75
 30
0.0
 11
218.13325
 21
26.074
 31
0.0
  0
LINE
  5
1C3
330
1E
100
AcDbEntity
  8
0
100
AcDbLine
 10
218.13325
 20
25.75
 30
0.0
 11
228.13325
 21
25.75
 31
0.0
  0
LINE
  5
1C4
330
1E
100
AcDbEntity
  8
0
100
AcDbLine
 10
218.13325
 20
26.074
 30
0.0
 11
218.13325
 21
26.938
 31
0.0
  0
LINE
  5
1C5
330
1E
100
AcDbEntity
  8
0
100
AcDbLine
 10
218.13325
 20
26.074
 30
0.0
 11
218.13325
 21
25.75
 31
0.0
  0
LINE
  5
1C6
330
1E
100
AcDbEntity
  8
0
100
AcDbLine
 10
218.13325
 20
26.938
 30
0.0
 11
218.13325
 21
27.75
 31
0.0
  0
LINE
  5
1C7
330
1E
100
AcDbEntity
  8
0
100
AcDbLine
 10
218.13325
 20
26.938
 30
0.0
 11
218.13325
 21
26.074
 31
0.0
  0
LINE
  5
1C8
330
1E
100
AcDbEntity
  8
0
100
AcDbLine
 10
218.13325
 20
26.938
 30
0.0
 11
218.13325
 21
28.378
 31
0.0
  0
LINE
  5
1C9
330
1E
100
AcDbEntity
  8
0
100
AcDbLine
 10
218.13325
 20
27.75
 30
0.0
 11
218.13325
 21
28.002
 31
0.0
  0
LINE
  5
1CA
330
1E
100
AcDbEntity
  8
0
100
AcDbLine
 10
218.13325
 20
27.75
 30
0.0
 11
218.13325
 21
26.938
 31
0.0
  0
LINE
  5
1CB
330
1E
100
AcDbEntity
  8
0
100
AcDbLine
 10
218.13325
 20
28.378
 30
0.0
 11
218.13325
 21
26.938
 31
0.0
  0
LINE
  5
1CC
330
1E
100
AcDbEntity
  8
0
100
AcDbLine
 10
218.13325
 20
28.378
 30
0.0
 11
218.13325
 21
30.286
 31
0.0
  0
LINE
  5
1CD
330
1E
100
AcDbEntity
  8
0
100
AcDbLine
 10
218.13325
 20
28.002
 30
0.0
 11
218.13325
 21
27.75
 31
0.0
  0
LINE
  5
1CE
330
1E
100
AcDbEntity
  8
0
100
AcDbLine
 10
218.13325
 20
28.002
 30
0.0
 11
218.13325
 21
28.674
 31
0.0
  0
LINE
  5
1CF
330
1E
100
AcDbEntity
  8
0
100
AcDbLine
 10
218.13325
 20
28.674
 30
0.0
 11
218.13325
 21
28.002
 31
0.0
  0
LINE
  5
1D0
330
1E
100
AcDbEntity
  8
0
100
AcDbLine
 10
218.13325
 20
28.674
 30
0.0
 11
218.13325
 21
29.794
 31
0.0
  0
LINE
  5
1D1
330
1E
100
AcDbEntity
  8
0
100
AcDbLine
 10
218.13325
 20
30.286
 30
0.0
 11
218.13325
 21
28.378
 31
0.0
  0
LINE
  5
1D2
330
1E
100
AcDbEntity
  8
0
100
AcDbLine
 10
218.13325
 20
30.286
 30
0.0
 11
218.13325
 21
32.446
 31
0.0
  0
LINE
  5
1D3
330
1E
100
AcDbEntity
  8
0
100
AcDbLine
 10
218.13325
 20
32.446
 30
0.0
 11
218.13325
 21
30.286
 31
0.0
  0
LINE
  5
1D4
330
1E
100
AcDbEntity
  8
0
100
AcDbLine
 10
218.13325
 20
32.446
 30
0.0
 11
218.13325
 21
34.75
 31
0.0
  0
LINE
  5
1D5
330
1E
100
AcDbEntity
  8
0
100
AcDbLine
 10
218.13325
 20
29.794
 30
0.0
 11
218.13325
 21
28.674
 31
0.0
  0
LINE
  5
1D6
330
1E
100
AcDbEntity
  8
0
100
AcDbLine
 10
218.13325
 20
29.794
 30
0.0
 11
218.13325
 21
31.278
 31
0.0
  0
LINE
  5
1D7
330
1E
100
AcDbEntity
  8
0
100
AcDbLine
 10
218.13325
 20
31.278
 30
0.0
 11
218.13325
 21
29.794
 31
0.0
  0
LINE
  5
1D8
330
1E
100
AcDbEntity
  8
0
100
AcDbLine
 10
218.13325
 20
31.278
 30
0.0
 11
218.13325
 21
32.958
 31
0.0
  0
LINE
  5
1D9
330
1E
100
AcDbEntity
  8
0
100
AcDbLine
 10
218.13325
 20
37.054
 30
0.0
 11
218.13325
 21
34.75
 31
0.0
  0
LINE
  5
1DA
330
1E
100
AcDbEntity
  8
0
100
AcDbLine
 10
218.13325
 20
37.054
 30
0.0
 11
218.13325
 21
39.214
 31
0.0
  0
LINE
  5
1DB
330
1E
100
AcDbEntity
  8
0
100
AcDbLine
 10
218.13325
 20
32.958
 30
0.0
 11
218.13325
 21
31.278
 31
0.0
  0
LINE
  5
1DC
330
1E
100
AcDbEntity
  8
0
100
AcDbLine
 10
218.13325
 20
32.958
 30
0.0
 11
218.13325
 21
34.75
 31
0.0
  0
LINE
  5
1DD
330
1E
100
AcDbEntity
  8
0
100
AcDbLine
 10
218.13325
 20
34.75
 30
0.0
 11
218.13325
 21
36.542
 31
0.0
  0
LINE
  5
1DE
330
1E
100
AcDbEntity
  8
0
100
AcDbLine
 10
218.13325
 20
34.75
 30
0.0
 11
218.13325
 21
32.958
 31
0.0
  0
LINE
  5
1DF
330
1E
100
AcDbEntity
  8
0
100
AcDbLine
 10
218.13325
 20
34.75
 30
0.0
 11
218.13325
 21
37.054
 31
0.0
  0
LINE
  5
1E0
330
1E
100
AcDbEntity
  8
0
100
AcDbLine
 10
218.13325
 20
34.75
 30
0.0
 11
218.13325
 21
32.446
 31
0.0
  0
LINE
  5
1E1
330
1E
100
AcDbEntity
  8
0
100
AcDbLine
 10
218.13325
 20
39.214
 30
0.0
 11
218.13325
 21
37.054
 31
0.0
  0
LINE
  5
1E2
330
1E
100
AcDbEntity
  8
0
100
AcDbLine
 10
218.13325
 20
39.214
 30
0.0
 11
218.13325
 21
41.122
 31
0.0
  0
LINE
  5
1E3
330
1E
100
AcDbEntity
  8
0
100
AcDbLine
 10
218.13325
 20
39.706
 30
0.0
 11
218.13325
 21
38.222
 31
0.0
  0
LINE
  5
1E4
330
1E
100
AcDbEntity
  8
0
100
AcDbLine
 10
218.13325
 20
39.706
 30
0.0
 11
218.13325
 21
40.826
 31
0.0
  0
LINE
  5
1E5
330
1E
100
AcDbEntity
  8
0
100
AcDbLine
 10
218.13325
 20
38.222
 30
0.0
 11
218.13325
 21
36.542
 31
0.0
  0
LINE
  5
1E6
330
1E
100
AcDbEntity
  8
0
100
AcDbLine
 10
218.13325
 20
38.222
 30
0.0
 11
218.13325
 21
39.706
 31
0.0
  0
LINE
  5
1E7
330
1E
100
AcDbEntity
  8
0
100
AcDbLine
 10
218.13325
 20
36.542
 30
0.0
 11
218.13325
 21
34.75
 31
0.0
  0
LINE
  5
1E8
330
1E
100
AcDbEntity
  8
0
100
AcDbLine
 10
218.13325
 20
36.542
 30
0.0
 11
218.13325
 21
38.222
 31
0.0
  0
LINE
  5
1E9
330
1E
100
AcDbEntity
  8
0
100
AcDbLine
 10
218.13325
 20
43.75
 30
0.0
 11
228.13325
 21
43.75
 31
0.0
  0
LINE
  5
1EA
330
1E
100
AcDbEntity
  8
0
100
AcDbLine
 10
218.13325
 20
42.562
 30
0.0
 11
218.13325
 21
41.122
 31
0.0
  0
LINE
  5
1EB
330
1E
100
AcDbEntity
  8
0
100
AcDbLine
 10
218.13325
 20
41.122
 30
0.0
 11
218.13325
 21
39.214
 31
0.0
  0
LINE
  5
1EC
330
1E
100
AcDbEntity
  8
0
100
AcDbLine
 10
218.13325
 20
41.122
 30
0.0
 11
218.13325
 21
42.562
 31
0.0
  0
LINE
  5
1ED
330
1E
100
AcDbEntity
  8
0
100
AcDbLine
 10
218.13325
 20
56.094
 30
0.0
 11
218.13325
 21
62.75
 31
0.0
  0
LINE
  5
1EE
330
1E
100
AcDbEntity
  8
0
100
AcDbLine
 10
218.13325
 20
56.094
 30
0.0
 11
218.13325
 21
49.854
 31
0.0
  0
LINE
  5
1EF
330
1E
100
AcDbEntity
  8
0
100
AcDbLine
 10
218.13325
 20
49.854
 30
0.0
 11
218.13325
 21
56.094
 31
0.0
  0
LINE
  5
1F0
330
1E
100
AcDbEntity
  8
0
100
AcDbLine
 10
218.13325
 20
49.854
 30
0.0
 11
218.13325
 21
44.342
 31
0.0
  0
LINE
  5
1F1
330
1E
100
AcDbEntity
  8
0
100
AcDbLine
 10
218.13325
 20
44.342
 30
0.0
 11
218.13325
 21
49.854
 31
0.0
  0
LINE
  5
1F2
330
1E
100
AcDbEntity
  8
0
100
AcDbLine
 10
218.13325
 20
44.342
 30
0.0
 11
218.13325
 21
40.826
 31
0.0
  0
LINE
  5
1F3
330
1E
100
AcDbEntity
  8
0
100
AcDbLine
 10
218.13325
 20
40.826
 30
0.0
 11
218.13325
 21
44.342
 31
0.0
  0
LINE
  5
1F4
330
1E
100
AcDbEntity
  8
0
100
AcDbLine
 10
218.13325
 20
40.826
 30
0.0
 11
218.13325
 21
39.706
 31
0.0
  0
LINE
  5
1F5
330
1E
100
AcDbEntity
  8
0
100
AcDbLine
 10
218.13325
 20
62.75
 30
0.0
 11
218.13325
 21
69.406
 31
0.0
  0
LINE
  5
1F6
330
1E
100
AcDbEntity
  8
0
100
AcDbLine
 10
218.13325
 20
62.75
 30
0.0
 11
218.13325
 21
56.094
 31
0.0
  0
LINE
  5
1F7
330
1E
100
AcDbEntity
  8
0
100
AcDbLine
 10
218.13325
 20
69.406
 30
0.0
 11
218.13325
 21
75.646
 31
0.0
  0
LINE
  5
1F8
330
1E
100
AcDbEntity
  8
0
100
AcDbLine
 10
218.13325
 20
69.406
 30
0.0
 11
218.13325
 21
62.75
 31
0.0
  0
LINE
  5
1F9
330
1E
100
AcDbEntity
  8
0
100
AcDbLine
 10
218.13325
 20
75.646
 30
0.0
 11
218.13325
 21
81.158
 31
0.0
  0
LINE
  5
1FA
330
1E
100
AcDbEntity
  8
0
100
AcDbLine
 10
218.13325
 20
75.646
 30
0.0
 11
218.13325
 21
69.406
 31
0.0
  0
LINE
  5
1FB
330
1E
100
AcDbEntity
  8
0
100
AcDbLine
 10
218.13325
 20
82.75
 30
0.0
 11
255.018683962264
 21
82.75
 31
0.0
  0
LINE
  5
1FC
330
1E
100
AcDbEntity
  8
0
100
AcDbLine
 10
218.13325
 20
81.158
 30
0.0
 11
218.13325
 21
85.318
 31
0.0
  0
LINE
  5
1FD
330
1E
100
AcDbEntity
  8
0
100
AcDbLine
 10
218.13325
 20
81.158
 30
0.0
 11
218.13325
 21
75.646
 31
0.0
  0
LINE
  5
1FE
330
1E
100
AcDbEntity
  8
0
100
AcDbLine
 10
228.13325
 20
25.75
 30
0.0
 11
228.13325
 21
26.074
 31
0.0
  0
LINE
  5
1FF
330
1E
100
AcDbEntity
  8
0
100
AcDbLine
 10
228.13325
 20
26.074
 30
0.0
 11
228.13325
 21
25.75
 31
0.0
  0
LINE
  5
200
330
1E
100
AcDbEntity
  8
0
100
AcDbLine
 10
228.13325
 20
26.074
 30
0.0
 11
228.13325
 21
26.938
 31
0.0
  0
LINE
  5
201
330
1E
100
AcDbEntity
  8
0
100
AcDbLine
 10
228.13325
 20
26.938
 30
0.0
 11
228.13325
 21
26.074
 31
0.0
  0
LINE
  5
202
330
1E
100
AcDbEntity
  8
0
100
AcDbLine
 10
228.13325
 20
26.938
 30
0.0
 11
228.13325
 21
28.378
 31
0.0
  0
LINE
  5
203
330
1E
100
AcDbEntity
  8
0
100
AcDbLine
 10
228.13325
 20
28.378
 30
0.0
 11
228.13325
 21
26.938
 31
0.0
  0
LINE
  5
204
330
1E
100
AcDbEntity
  8
0
100
AcDbLine
 10
228.13325
 20
28.378
 30
0.0
 11
228.13325
 21
30.286
 31
0.0
  0
LINE
  5
205
330
1E
100
AcDbEntity
  8
0
100
AcDbLine
 10
228.13325
 20
30.286
 30
0.0
 11
228.13325
 21
28.378
 31
0.0
  0
LINE
  5
206
330
1E
100
AcDbEntity
  8
0
100
AcDbLine
 10
228.13325
 20
30.286
 30
0.0
 11
228.13325
 21
32.446
 31
0.0
  0
LINE
  5
207
330
1E
100
AcDbEntity
  8
0
100
AcDbLine
 10
228.13325
 20
32.446
 30
0.0
 11
228.13325
 21
30.286
 31
0.0
  0
LINE
  5
208
330
1E
100
AcDbEntity
  8
0
100
AcDbLine
 10
228.13325
 20
32.446
 30
0.0
 11
228.13325
 21
34.75
 31
0.0
  0
LINE
  5
209
330
1E
100
AcDbEntity
  8
0
100
AcDbLine
 10
228.13325
 20
34.75
 30
0.0
 11
228.13325
 21
37.054
 31
0.0
  0
LINE
  5
20A
330
1E
100
AcDbEntity
  8
0
100
AcDbLine
 10
228.13325
 20
34.75
 30
0.0
 11
228.13325
 21
32.446
 31
0.0
  0
LINE
  5
20B
330
1E
100
AcDbEntity
  8
0
100
AcDbLine
 10
228.13325
 20
42.562
 30
0.0
 11
228.13325
 21
41.122
 31
0.0
  0
LINE
  5
20C
330
1E
100
AcDbEntity
  8
0
100
AcDbLine
 10
228.13325
 20
42.562
 30
0.0
 11
228.13325
 21
43.426
 31
0.0
  0
LINE
  5
20D
330
1E
100
AcDbEntity
  8
0
100
AcDbLine
 10
228.13325
 20
41.122
 30
0.0
 11
228.13325
 21
39.214
 31
0.0
  0
LINE
  5
20E
330
1E
100
AcDbEntity
  8
0
100
AcDbLine
 10
228.13325
 20
41.122
 30
0.0
 11
228.13325
 21
42.562
 31
0.0
  0
LINE
  5
20F
330
1E
100
AcDbEntity
  8
0
100
AcDbLine
 10
228.13325
 20
39.214
 30
0.0
 11
228.13325
 21
37.054
 31
0.0
  0
LINE
  5
210
330
1E
100
AcDbEntity
  8
0
100
AcDbLine
 10
228.13325
 20
39.214
 30
0.0
 11
228.13325
 21
41.122
 31
0.0
  0
LINE
  5
211
330
1E
100
AcDbEntity
  8
0
100
AcDbLine
 10
228.13325
 20
37.054
 30
0.0
 11
228.13325
 21
34.75
 31
0.0
  0
LINE
  5
212
330
1E
100
AcDbEntity
  8
0
100
AcDbLine
 10
228.13325
 20
37.054
 30
0.0
 11
228.13325
 21
39.214
 31
0.0
  0
LINE
  5
213
330
1E
100
AcDbEntity
  8
0
100
AcDbLine
 10
228.13325
 20
27.75
 30
0.0
 11
238.13325
 21
27.75
 31
0.0
  0
LINE
  5
214
330
1E
100
AcDbEntity
  8
0
100
AcDbLine
 10
238.13325
 20
25.75
 30
0.0
 11
238.13325
 21
62.75
 31
0.0
  0
LINE
  5
215
330
1E
100
AcDbEntity
  8
0
100
AcDbLine
 10
238.13325
 20
25.75
 30
0.0
 11
268.13325
 21
25.75
 31
0.0
  0
LINE
  5
216
330
1E
100
AcDbEntity
  8
0
100
AcDbLine
 10
238.13325
 20
27.75
 30
0.0
 11
238.13325
 21
25.75
 31
0.0
  0
LINE
  5
217
330
1E
100
AcDbEntity
  8
0
100
AcDbLine
 10
238.13325
 20
42.75
 30
0.0
 11
238.13325
 21
41.75
 31
0.0
  0
LINE
  5
218
330
1E
100
AcDbEntity
  8
0
100
AcDbLine
 10
238.13325
 20
41.75
 30
0.0
 11
238.13325
 21
42.75
 31
0.0
  0
LINE
  5
219
330
1E
100
AcDbEntity
  8
0
100
AcDbLine
 10
238.13325
 20
25.75
 30
0.0
 11
238.13325
 21
27.75
 31
0.0
  0
LINE
  5
21A
330
1E
100
AcDbEntity
  8
0
100
AcDbLine
 10
238.13325
 20
25.75
 30
0.0
 11
268.13325
 21
25.75
 31
0.0
  0
LINE
  5
21B
330
1E
100
AcDbEntity
  8
0
100
AcDbLine
 10
228.13325
 20
41.75
 30
0.0
 11
238.13325
 21
41.75
 31
0.0
  0
LINE
  5
21C
330
1E
100
AcDbEntity
  8
0
100
AcDbLine
 10
228.13325
 20
43.75
 30
0.0
 11
228.13325
 21
43.426
 31
0.0
  0
LINE
  5
21D
330
1E
100
AcDbEntity
  8
0
100
AcDbLine
 10
250.50125
 20
53.022
 30
0.0
 11
254.14925
 21
43.902
 31
0.0
  0
LINE
  5
21E
330
1E
100
AcDbEntity
  8
0
100
AcDbLine
 10
249.13325
 20
62.75
 30
0.0
 11
250.50125
 21
53.022
 31
0.0
  0
LINE
  5
21F
330
1E
100
AcDbEntity
  8
0
100
AcDbLine
 10
249.13325
 20
62.75
 30
0.0
 11
250.50125
 21
72.478
 31
0.0
  0
LINE
  5
220
330
1E
100
AcDbEntity
  8
0
100
AcDbLine
 10
250.50125
 20
72.478
 30
0.0
 11
254.14925
 21
81.598
 31
0.0
  0
LINE
  5
221
330
1E
100
AcDbEntity
  8
0
100
AcDbLine
 10
238.13325
 20
62.75
 30
0.0
 11
238.13325
 21
25.75
 31
0.0
  0
LINE
  5
222
330
1E
100
AcDbEntity
  8
0
100
AcDbLine
 10
238.13325
 20
62.75
 30
0.0
 11
249.13325
 21
62.75
 31
0.0
  0
LINE
  5
223
330
1E
100
AcDbEntity
  8
0
100
AcDbLine
 10
228.13325
 20
43.426
 30
0.0
 11
228.13325
 21
42.562
 31
0.0
  0
LINE
  5
224
330
1E
100
AcDbEntity
  8
0
100
AcDbLine
 10
228.13325
 20
43.426
 30
0.0
 11
228.13325
 21
43.75
 31
0.0
  0
LINE
  5
225
330
1E
100
AcDbEntity
  8
0
100
AcDbLine
 10
228.13325
 20
42.75
 30
0.0
 11
238.13325
 21
42.75
 31
0.0
  0
LINE
  5
226
330
1E
100
AcDbEntity
  8
0
100
AcDbLine
 10
218.13325
 20
85.318
 30
0.0
 11
218.13325
 21
87.814
 31
0.0
  0
LINE
  5
227
330
1E
100
AcDbEntity
  8
0
100
AcDbLine
 10
218.13325
 20
85.318
 30
0.0
 11
218.13325
 21
81.158
 31
0.0
  0
LINE
  5
228
330
1E
100
AcDbEntity
  8
0
100
AcDbLine
 10
218.13325
 20
88.75
 30
0.0
 11
218.13325
 21
87.814
 31
0.0
  0
LINE
  5
229
330
1E
100
AcDbEntity
  8
0
100
AcDbLine
 10
218.13325
 20
87.814
 30
0.0
 11
218.13325
 21
88.75
 31
0.0
  0
LINE
  5
22A
330
1E
100
AcDbEntity
  8
0
100
AcDbLine
 10
218.13325
 20
87.814
 30
0.0
 11
218.13325
 21
85.318
 31
0.0
  0
LINE
  5
22B
330
1E
100
AcDbEntity
  8
0
100
AcDbLine
 10
216.13325
 20
88.25
 30
0.0
 11
216.13325
 21
88.75
 31
0.0
  0
LINE
  5
22C
330
1E
100
AcDbEntity
  8
0
100
AcDbLine
 10
216.13325
 20
88.25
 30
0.0
 11
216.13325
 21
85.75
 31
0.0
  0
LINE
  5
22D
330
1E
100
AcDbEntity
  8
0
100
AcDbLine
 10
41.39645
 20
89.654
 30
0.0
 11
42.26305
 21
93.420479376653
 31
0.0
  0
LINE
  5
22E
330
1E
100
AcDbEntity
  8
0
100
AcDbLine
 10
9.14105
 20
90.5548
 30
0.0
 11
11.43625
 21
90.8788
 31
0.0
  0
LINE
  5
22F
330
1E
100
AcDbEntity
  8
0
100
AcDbLine
 10
6.98925
 20
89.6908
 30
0.0
 11
9.14105
 21
90.5548
 31
0.0
  0
LINE
  5
231
330
1E
100
AcDbEntity
  8
0
100
AcDbLine
 10
11.43625
 20
90.8788
 30
0.0
 11
15.79405
 21
90.8788
 31
0.0
  0
LINE
  5
233
330
1E
100
AcDbEntity
  8
0
100
AcDbLine
 10
15.79405
 20
90.8788
 30
0.0
 11
15.978034775567
 21
90.852828621035
 31
0.0
  0
LINE
  5
234
330
1E
100
AcDbEntity
  8
0
100
AcDbLine
 10
15.978034775567
 20
90.852828621035
 30
0.0
 11
17.563
 21
94.9706
 31
0.0
  0
LINE
  5
235
330
1E
100
AcDbEntity
  8
0
100
AcDbLine
 10
17.563
 20
94.9706
 30
0.0
 11
18.01967
 21
96.0
 31
0.0
  0
LINE
  5
237
330
1E
100
AcDbEntity
  8
0
100
AcDbLine
 10
18.01967
 20
96.0
 30
0.0
 11
19.55696
 21
97.2353
 31
0.0
  0
LINE
  5
238
330
1E
100
AcDbEntity
  8
0
100
AcDbLine
 10
29.05788
 20
90.27
 30
0.0
 11
30.47484
 21
96.51
 31
0.0
  0
LINE
  5
239
330
1E
100
AcDbEntity
  8
0
100
AcDbLine
 10
38.19615
 20
91.07
 30
0.0
 11
39.66865
 21
97.47
 31
0.0
  0
LINE
  5
23A
330
1E
100
AcDbEntity
  8
0
100
AcDbLine
 10
30.47484
 20
96.51
 30
0.0
 11
32.0863
 21
100.35
 31
0.0
  0
LINE
  5
23B
330
1E
100
AcDbEntity
  8
0
100
AcDbLine
 10
39.66865
 20
97.47
 30
0.0
 11
41.33565
 21
101.31
 31
0.0
  0
LINE
  5
23C
330
1E
100
AcDbEntity
  8
0
100
AcDbLine
 10
30.96239
 20
97.47
 30
0.0
 11
32.62941
 21
101.31
 31
0.0
  0
LINE
  5
23D
330
1E
100
AcDbEntity
  8
0
100
AcDbLine
 10
29.48985
 20
91.07
 30
0.0
 11
30.96239
 21
97.47
 31
0.0
  0
LINE
  5
23E
330
1E
100
AcDbEntity
  8
0
100
AcDbLine
 10
19.55696
 20
97.2353
 30
0.0
 11
20.54177
 21
97.75
 31
0.0
  0
LINE
  5
23F
330
1E
100
AcDbEntity
  8
0
100
AcDbLine
 10
32.0863
 20
100.35
 30
0.0
 11
32.62941
 21
101.31
 31
0.0
  0
LINE
  5
240
330
1E
100
AcDbEntity
  8
0
100
AcDbLine
 10
20.54177
 20
97.75
 30
0.0
 11
30.995207291667
 21
97.75
 31
0.0
  0
LINE
  5
241
330
1E
100
AcDbEntity
  8
0
100
AcDbLine
 10
41.99555
 20
99.382
 30
0.0
 11
43.68475
 21
100.75
 31
0.0
  0
LINE
  5
243
330
1E
100
AcDbEntity
  8
0
100
AcDbLine
 10
40.41185
 20
95.734
 30
0.0
 11
41.99555
 21
99.382
 31
0.0
  0
LINE
  5
244
330
1E
100
AcDbEntity
  8
0
100
AcDbLine
 10
39.01295
 20
89.654
 30
0.0
 11
40.41185
 21
95.734
 31
0.0
  0
LINE
  5
248
330
1E
100
AcDbEntity
  8
0
100
AcDbLine
 10
43.68475
 20
100.75
 30
0.0
 11
46.06825
 21
100.75
 31
0.0
  0
LINE
  5
249
330
1E
100
AcDbEntity
  8
0
100
AcDbLine
 10
32.62941
 20
101.31
 30
0.0
 11
34.40757
 21
102.75
 31
0.0
  0
LINE
  5
24A
330
1E
100
AcDbEntity
  8
0
100
AcDbLine
 10
41.33565
 20
101.31
 30
0.0
 11
43.11385
 21
102.75
 31
0.0
  0
LINE
  5
24B
330
1E
100
AcDbEntity
  8
0
100
AcDbLine
 10
34.40757
 20
102.75
 30
0.0
 11
43.11385
 21
102.75
 31
0.0
  0
LINE
  5
24C
330
1E
100
AcDbEntity
  8
0
100
AcDbLine
 10
43.11385
 20
102.75
 30
0.0
 11
44.89205
 21
101.31
 31
0.0
  0
LINE
  5
24D
330
1E
100
AcDbEntity
  8
0
100
AcDbLine
 10
44.89205
 20
101.31
 30
0.0
 11
45.208858333333
 21
100.75
 31
0.0
  0
LINE
  5
24E
330
1E
100
AcDbEntity
  8
0
100
AcDbLine
 10
46.06825
 20
100.75
 30
0.0
 11
47.429939407895
 21
99.6473
 31
0.0
  0
LINE
  5
263
330
1E
100
AcDbEntity
  8
0
100
AcDbLine
 10
216.13325
 20
88.75
 30
0.0
 11
216.13325
 21
88.25
 31
0.0
  0
LINE
  5
264
330
1E
100
AcDbEntity
  8
0
100
AcDbLine
 10
216.13325
 20
88.75
 30
0.0
 11
218.13325
 21
88.75
 31
0.0
  0
LINE
  5
265
330
1E
100
AcDbEntity
  8
0
100
AcDbLine
 10
216.13325
 20
88.75
 30
0.0
 11
216.13325
 21
87.814
 31
0.0
  0
LINE
  5
266
330
1E
100
AcDbEntity
  8
0
100
AcDbLine
 10
254.14925
 20
43.902
 30
0.0
 11
260.22925
 21
35.846
 31
0.0
  0
LINE
  5
267
330
1E
100
AcDbEntity
  8
0
100
AcDbLine
 10
260.22925
 20
35.846
 30
0.0
 11
268.28525
 21
29.766
 31
0.0
  0
LINE
  5
268
330
1E
100
AcDbEntity
  8
0
100
AcDbLine
 10
269.73325
 20
32.45
 30
0.0
 11
278.23325
 21
29.05
 31
0.0
  0
LINE
  5
269
330
1E
100
AcDbEntity
  8
0
100
AcDbLine
 10
268.28525
 20
29.766
 30
0.0
 11
277.40525
 21
26.118
 31
0.0
  0
LINE
  5
26A
330
1E
100
AcDbEntity
  8
0
100
AcDbLine
 10
268.13325
 20
29.880716981132
 30
0.0
 11
268.13325
 21
25.75
 31
0.0
  0
LINE
  5
26B
330
1E
100
AcDbEntity
  8
0
100
AcDbLine
 10
268.13325
 20
25.75
 30
0.0
 11
270.13325
 21
25.75
 31
0.0
  0
LINE
  5
26C
330
1E
100
AcDbEntity
  8
0
100
AcDbLine
 10
268.13325
 20
25.75
 30
0.0
 11
268.13325
 21
29.880716981132
 31
0.0
  0
LINE
  5
26D
330
1E
100
AcDbEntity
  8
0
100
AcDbLine
 10
270.13325
 20
25.75
 30
0.0
 11
270.13325
 21
26.074
 31
0.0
  0
LINE
  5
26E
330
1E
100
AcDbEntity
  8
0
100
AcDbLine
 10
270.13325
 20
26.074
 30
0.0
 11
270.13325
 21
25.75
 31
0.0
  0
LINE
  5
26F
330
1E
100
AcDbEntity
  8
0
100
AcDbLine
 10
270.13325
 20
26.074
 30
0.0
 11
270.13325
 21
26.938
 31
0.0
  0
LINE
  5
270
330
1E
100
AcDbEntity
  8
0
100
AcDbLine
 10
287.13325
 20
24.75
 30
0.0
 11
296.86125
 21
26.118
 31
0.0
  0
LINE
  5
271
330
1E
100
AcDbEntity
  8
0
100
AcDbLine
 10
277.40525
 20
26.118
 30
0.0
 11
287.13325
 21
24.75
 31
0.0
  0
LINE
  5
272
330
1E
100
AcDbEntity
  8
0
100
AcDbLine
 10
270.13325
 20
26.938
 30
0.0
 11
270.13325
 21
26.074
 31
0.0
  0
LINE
  5
273
330
1E
100
AcDbEntity
  8
0
100
AcDbLine
 10
270.13325
 20
26.938
 30
0.0
 11
270.13325
 21
28.378
 31
0.0
  0
LINE
  5
274
330
1E
100
AcDbEntity
  8
0
100
AcDbLine
 10
270.13325
 20
28.378
 30
0.0
 11
270.13325
 21
26.938
 31
0.0
  0
LINE
  5
275
330
1E
100
AcDbEntity
  8
0
100
AcDbLine
 10
270.13325
 20
28.378
 30
0.0
 11
270.13325
 21
29.0268
 31
0.0
  0
LINE
  5
276
330
1E
100
AcDbEntity
  8
0
100
AcDbLine
 10
296.86125
 20
26.118
 30
0.0
 11
305.98125
 21
29.766
 31
0.0
  0
LINE
  5
277
330
1E
100
AcDbEntity
  8
0
100
AcDbLine
 10
296.09325
 20
29.01
 30
0.0
 11
304.49325
 21
32.37
 31
0.0
  0
LINE
  5
278
330
1E
100
AcDbEntity
  8
0
100
AcDbLine
 10
287.13325
 20
27.75
 30
0.0
 11
296.09325
 21
29.01
 31
0.0
  0
LINE
  5
279
330
1E
100
AcDbEntity
  8
0
100
AcDbLine
 10
287.13325
 20
27.75
 30
0.0
 11
296.03325
 21
29.05
 31
0.0
  0
LINE
  5
27A
330
1E
100
AcDbEntity
  8
0
100
AcDbLine
 10
296.03325
 20
29.05
 30
0.0
 11
304.53325
 21
32.45
 31
0.0
  0
LINE
  5
27B
330
1E
100
AcDbEntity
  8
0
100
AcDbLine
 10
278.23325
 20
29.05
 30
0.0
 11
287.13325
 21
27.75
 31
0.0
  0
LINE
  5
27C
330
1E
100
AcDbEntity
  8
0
100
AcDbLine
 10
305.98125
 20
29.766
 30
0.0
 11
314.03725
 21
35.846
 31
0.0
  0
LINE
  5
27D
330
1E
100
AcDbEntity
  8
0
100
AcDbLine
 10
270.13325
 20
29.0268
 30
0.0
 11
270.13325
 21
28.378
 31
0.0
  0
LINE
  5
27E
330
1E
100
AcDbEntity
  8
0
100
AcDbLine
 10
304.53325
 20
32.45
 30
0.0
 11
311.83325
 21
38.05
 31
0.0
  0
LINE
  5
27F
330
1E
100
AcDbEntity
  8
0
100
AcDbLine
 10
304.49325
 20
32.37
 30
0.0
 11
311.91325
 21
37.97
 31
0.0
  0
LINE
  5
280
330
1E
100
AcDbEntity
  8
0
100
AcDbLine
 10
313.91005
 20
35.75
 30
0.0
 11
360.13325
 21
35.75
 31
0.0
  0
LINE
  5
281
330
1E
100
AcDbEntity
  8
0
100
AcDbLine
 10
314.03725
 20
35.846
 30
0.0
 11
320.11725
 21
43.902
 31
0.0
  0
LINE
  5
282
330
1E
100
AcDbEntity
  8
0
100
AcDbLine
 10
314.453853773585
 20
36.398
 30
0.0
 11
360.13325
 21
36.398
 31
0.0
  0
LINE
  5
283
330
1E
100
AcDbEntity
  8
0
100
AcDbLine
 10
360.13325
 20
36.398
 30
0.0
 11
364.847391732283
 21
37.071448818898
 31
0.0
  0
LINE
  5
284
330
1E
100
AcDbEntity
  8
0
100
AcDbLine
 10
360.13325
 20
35.75
 30
0.0
 11
367.04525
 21
36.722
 31
0.0
  0
LINE
  5
285
330
1E
100
AcDbEntity
  8
0
100
AcDbLine
 10
367.04525
 20
36.722
 30
0.0
 11
367.119932080925
 21
36.75187283237
 31
0.0
  0
LINE
  5
286
330
1E
100
AcDbEntity
  8
0
100
AcDbLine
 10
360.47725
 20
37.686
 30
0.0
 11
367.13325
 21
36.75
 31
0.0
  0
LINE
  5
287
330
1E
100
AcDbEntity
  8
0
100
AcDbLine
 10
373.78925
 20
37.686
 30
0.0
 11
380.02925
 21
40.182
 31
0.0
  0
LINE
  5
288
330
1E
100
AcDbEntity
  8
0
100
AcDbLine
 10
367.13325
 20
36.75
 30
0.0
 11
373.78925
 21
37.686
 31
0.0
  0
LINE
  5
289
330
1E
100
AcDbEntity
  8
0
100
AcDbLine
 10
414.13325
 20
37.25
 30
0.0
 11
428.13325
 21
37.25
 31
0.0
  0
LINE
  5
28A
330
1E
100
AcDbEntity
  8
0
100
AcDbLine
 10
428.13325
 20
37.25
 30
0.0
 11
428.13325
 21
39.75
 31
0.0
  0
LINE
  5
28B
330
1E
100
AcDbEntity
  8
0
100
AcDbLine
 10
414.13325
 20
37.686
 30
0.0
 11
414.13325
 21
40.182
 31
0.0
  0
LINE
  5
28C
330
1E
100
AcDbEntity
  8
0
100
AcDbLine
 10
414.13325
 20
37.686
 30
0.0
 11
414.13325
 21
36.75
 31
0.0
  0
LINE
  5
28D
330
1E
100
AcDbEntity
  8
0
100
AcDbLine
 10
414.13325
 20
36.75
 30
0.0
 11
414.13325
 21
37.686
 31
0.0
  0
LINE
  5
28E
330
1E
100
AcDbEntity
  8
0
100
AcDbLine
 10
412.13325
 20
36.75
 30
0.0
 11
412.13325
 21
37.686
 31
0.0
  0
LINE
  5
28F
330
1E
100
AcDbEntity
  8
0
100
AcDbLine
 10
412.13325
 20
36.75
 30
0.0
 11
414.13325
 21
36.75
 31
0.0
  0
LINE
  5
290
330
1E
100
AcDbEntity
  8
0
100
AcDbLine
 10
412.13325
 20
37.686
 30
0.0
 11
412.13325
 21
36.75
 31
0.0
  0
LINE
  5
291
330
1E
100
AcDbEntity
  8
0
100
AcDbLine
 10
412.13325
 20
37.686
 30
0.0
 11
412.13325
 21
40.182
 31
0.0
  0
LINE
  5
292
330
1E
100
AcDbEntity
  8
0
100
AcDbLine
 10
412.13325
 20
37.686
 30
0.0
 11
412.13325
 21
40.182
 31
0.0
  0
LINE
  5
293
330
1E
100
AcDbEntity
  8
0
100
AcDbLine
 10
526.48425
 20
37.686
 30
0.0
 11
530.89725
 21
40.182
 31
0.0
  0
LINE
  5
294
330
1E
100
AcDbEntity
  8
0
100
AcDbLine
 10
522.48525
 20
36.75
 30
0.0
 11
527.19125
 21
37.686
 31
0.0
  0
LINE
  5
295
330
1E
100
AcDbEntity
  8
0
100
AcDbLine
 10
527.19125
 20
37.686
 30
0.0
 11
531.60425
 21
40.182
 31
0.0
  0
LINE
  5
296
330
1E
100
AcDbEntity
  8
0
100
AcDbLine
 10
521.77825
 20
36.75
 30
0.0
 11
522.48525
 21
36.75
 31
0.0
  0
LINE
  5
297
330
1E
100
AcDbEntity
  8
0
100
AcDbLine
 10
521.77825
 20
36.75
 30
0.0
 11
526.48425
 21
37.686
 31
0.0
  0
LINE
  5
298
330
1E
100
AcDbEntity
  8
0
100
AcDbLine
 10
557.13325
 20
37.75
 30
0.0
 11
561.65925
 21
38.65
 31
0.0
  0
LINE
  5
299
330
1E
100
AcDbEntity
  8
0
100
AcDbLine
 10
527.304403846154
 20
37.75
 30
0.0
 11
557.13325
 21
37.75
 31
0.0
  0
LINE
  5
29A
330
1E
100
AcDbEntity
  8
0
100
AcDbLine
 10
517.07125
 20
37.686
 30
0.0
 11
521.77825
 21
36.75
 31
0.0
  0
LINE
  5
29B
330
1E
100
AcDbEntity
  8
0
100
AcDbLine
 10
311.91325
 20
37.97
 30
0.0
 11
317.51325
 21
45.39
 31
0.0
  0
LINE
  5
29C
330
1E
100
AcDbEntity
  8
0
100
AcDbLine
 10
278.17325
 20
29.01
 30
0.0
 11
287.13325
 21
27.75
 31
0.0
  0
LINE
  5
29D
330
1E
100
AcDbEntity
  8
0
100
AcDbLine
 10
269.77325
 20
32.37
 30
0.0
 11
278.17325
 21
29.01
 31
0.0
  0
LINE
  5
29E
330
1E
100
AcDbEntity
  8
0
100
AcDbLine
 10
311.83325
 20
38.05
 30
0.0
 11
317.43325
 21
45.35
 31
0.0
  0
LINE
  5
29F
330
1E
100
AcDbEntity
  8
0
100
AcDbLine
 10
317.43325
 20
45.35
 30
0.0
 11
320.83325
 21
53.85
 31
0.0
  0
LINE
  5
2A0
330
1E
100
AcDbEntity
  8
0
100
AcDbLine
 10
262.43325
 20
38.05
 30
0.0
 11
269.73325
 21
32.45
 31
0.0
  0
LINE
  5
2A1
330
1E
100
AcDbEntity
  8
0
100
AcDbLine
 10
317.43325
 20
45.35
 30
0.0
 11
320.83325
 21
53.85
 31
0.0
  0
LINE
  5
2A2
330
1E
100
AcDbEntity
  8
0
100
AcDbLine
 10
256.83325
 20
45.35
 30
0.0
 11
262.43325
 21
38.05
 31
0.0
  0
LINE
  5
2A3
330
1E
100
AcDbEntity
  8
0
100
AcDbLine
 10
320.11725
 20
43.902
 30
0.0
 11
323.76525
 21
53.022
 31
0.0
  0
LINE
  5
2A4
330
1E
100
AcDbEntity
  8
0
100
AcDbLine
 10
317.51325
 20
45.39
 30
0.0
 11
320.87325
 21
53.79
 31
0.0
  0
LINE
  5
2A5
330
1E
100
AcDbEntity
  8
0
100
AcDbLine
 10
354.23725
 20
40.182
 30
0.0
 11
360.47725
 21
37.686
 31
0.0
  0
LINE
  5
2A6
330
1E
100
AcDbEntity
  8
0
100
AcDbLine
 10
380.02925
 20
40.182
 30
0.0
 11
383.43185
 21
42.75
 31
0.0
  0
LINE
  5
2A7
330
1E
100
AcDbEntity
  8
0
100
AcDbLine
 10
428.13325
 20
39.75
 30
0.0
 11
428.13325
 21
40.578
 31
0.0
  0
LINE
  5
2A8
330
1E
100
AcDbEntity
  8
0
100
AcDbLine
 10
428.13325
 20
39.75
 30
0.0
 11
428.13325
 21
37.25
 31
0.0
  0
LINE
  5
2A9
330
1E
100
AcDbEntity
  8
0
100
AcDbLine
 10
371.28625
 20
42.75
 30
0.0
 11
376.21325
 21
42.75
 31
0.0
  0
LINE
  5
2AA
330
1E
100
AcDbEntity
  8
0
100
AcDbLine
 10
368.18925
 20
42.75
 30
0.0
 11
371.28625
 21
42.75
 31
0.0
  0
LINE
  5
2AB
330
1E
100
AcDbEntity
  8
0
100
AcDbLine
 10
376.21325
 20
42.75
 30
0.0
 11
382.63325
 21
42.75
 31
0.0
  0
LINE
  5
2AC
330
1E
100
AcDbEntity
  8
0
100
AcDbLine
 10
390.11025
 20
42.75
 30
0.0
 11
398.13325
 21
42.75
 31
0.0
  0
LINE
  5
2AD
330
1E
100
AcDbEntity
  8
0
100
AcDbLine
 10
382.63325
 20
42.75
 30
0.0
 11
390.11025
 21
42.75
 31
0.0
  0
LINE
  5
2AE
330
1E
100
AcDbEntity
  8
0
100
AcDbLine
 10
398.13325
 20
42.75
 30
0.0
 11
412.13325
 21
42.75
 31
0.0
  0
LINE
  5
2AF
330
1E
100
AcDbEntity
  8
0
100
AcDbLine
 10
367.13325
 20
42.75
 30
0.0
 11
368.18925
 21
42.75
 31
0.0
  0
LINE
  5
2B0
330
1E
100
AcDbEntity
  8
0
100
AcDbLine
 10
412.13325
 20
40.182
 30
0.0
 11
412.13325
 21
44.342
 31
0.0
  0
LINE
  5
2B1
330
1E
100
AcDbEntity
  8
0
100
AcDbLine
 10
412.13325
 20
40.182
 30
0.0
 11
412.13325
 21
37.686
 31
0.0
  0
LINE
  5
2B2
330
1E
100
AcDbEntity
  8
0
100
AcDbLine
 10
428.13325
 20
42.75
 30
0.0
 11
450.13325
 21
42.75
 31
0.0
  0
LINE
  5
2B3
330
1E
100
AcDbEntity
  8
0
100
AcDbLine
 10
472.05325
 20
42.75
 30
0.0
 11
518.21325
 21
42.75
 31
0.0
  0
LINE
  5
2B4
330
1E
100
AcDbEntity
  8
0
100
AcDbLine
 10
465.63325
 20
42.75
 30
0.0
 11
472.05325
 21
42.75
 31
0.0
  0
LINE
  5
2B5
330
1E
100
AcDbEntity
  8
0
100
AcDbLine
 10
450.13325
 20
42.75
 30
0.0
 11
458.15625
 21
42.75
 31
0.0
  0
LINE
  5
2B6
330
1E
100
AcDbEntity
  8
0
100
AcDbLine
 10
458.15625
 20
42.75
 30
0.0
 11
465.63325
 21
42.75
 31
0.0
  0
LINE
  5
2B7
330
1E
100
AcDbEntity
  8
0
100
AcDbLine
 10
428.13325
 20
40.578
 30
0.0
 11
428.13325
 21
42.786
 31
0.0
  0
LINE
  5
2B8
330
1E
100
AcDbEntity
  8
0
100
AcDbLine
 10
428.13325
 20
40.578
 30
0.0
 11
428.13325
 21
39.75
 31
0.0
  0
LINE
  5
2B9
330
1E
100
AcDbEntity
  8
0
100
AcDbLine
 10
414.13325
 20
40.182
 30
0.0
 11
414.13325
 21
44.342
 31
0.0
  0
LINE
  5
2BA
330
1E
100
AcDbEntity
  8
0
100
AcDbLine
 10
414.13325
 20
40.182
 30
0.0
 11
414.13325
 21
37.686
 31
0.0
  0
LINE
  5
2BB
330
1E
100
AcDbEntity
  8
0
100
AcDbLine
 10
412.13325
 20
42.75
 30
0.0
 11
412.13325
 21
40.182
 31
0.0
  0
LINE
  5
2BC
330
1E
100
AcDbEntity
  8
0
100
AcDbLine
 10
412.13325
 20
40.182
 30
0.0
 11
412.13325
 21
37.686
 31
0.0
  0
LINE
  5
2BD
330
1E
100
AcDbEntity
  8
0
100
AcDbLine
 10
412.13325
 20
40.182
 30
0.0
 11
412.13325
 21
42.75
 31
0.0
  0
LINE
  5
2BE
330
1E
100
AcDbEntity
  8
0
100
AcDbLine
 10
561.65925
 20
38.65
 30
0.0
 11
565.90125
 21
41.05
 31
0.0
  0
LINE
  5
2BF
330
1E
100
AcDbEntity
  8
0
100
AcDbLine
 10
530.89725
 20
40.182
 30
0.0
 11
534.79425
 21
44.342
 31
0.0
  0
LINE
  5
2C0
330
1E
100
AcDbEntity
  8
0
100
AcDbLine
 10
518.21325
 20
42.75
 30
0.0
 11
521.74925
 21
42.75
 31
0.0
  0
LINE
  5
2C1
330
1E
100
AcDbEntity
  8
0
100
AcDbLine
 10
565.90125
 20
41.05
 30
0.0
 11
569.64925
 21
45.05
 31
0.0
  0
LINE
  5
2C2
330
1E
100
AcDbEntity
  8
0
100
AcDbLine
 10
531.60425
 20
40.182
 30
0.0
 11
535.50125
 21
44.342
 31
0.0
  0
LINE
  5
2C3
330
1E
100
AcDbEntity
  8
0
100
AcDbLine
 10
512.65925
 20
40.182
 30
0.0
 11
517.07125
 21
37.686
 31
0.0
  0
LINE
  5
2C4
330
1E
100
AcDbEntity
  8
0
100
AcDbLine
 10
362.01325
 20
43.47
 30
0.0
 11
367.13325
 21
42.75
 31
0.0
  0
LINE
  5
2C5
330
1E
100
AcDbEntity
  8
0
100
AcDbLine
 10
348.72525
 20
44.342
 30
0.0
 11
354.23725
 21
40.182
 31
0.0
  0
LINE
  5
2C6
330
1E
100
AcDbEntity
  8
0
100
AcDbLine
 10
428.13325
 20
42.786
 30
0.0
 11
428.13325
 21
46.466
 31
0.0
  0
LINE
  5
2C7
330
1E
100
AcDbEntity
  8
0
100
AcDbLine
 10
428.13325
 20
42.786
 30
0.0
 11
428.13325
 21
40.578
 31
0.0
  0
LINE
  5
2C8
330
1E
100
AcDbEntity
  8
0
100
AcDbLine
 10
534.79425
 20
44.342
 30
0.0
 11
537.73625
 21
49.854
 31
0.0
  0
LINE
  5
2C9
330
1E
100
AcDbEntity
  8
0
100
AcDbLine
 10
414.13325
 20
44.342
 30
0.0
 11
414.13325
 21
49.854
 31
0.0
  0
LINE
  5
2CA
330
1E
100
AcDbEntity
  8
0
100
AcDbLine
 10
414.13325
 20
44.342
 30
0.0
 11
414.13325
 21
40.182
 31
0.0
  0
LINE
  5
2CB
330
1E
100
AcDbEntity
  8
0
100
AcDbLine
 10
352.97325
 20
48.59
 30
0.0
 11
357.21325
 21
45.39
 31
0.0
  0
LINE
  5
2CC
330
1E
100
AcDbEntity
  8
0
100
AcDbLine
 10
357.21325
 20
45.39
 30
0.0
 11
362.01325
 21
43.47
 31
0.0
  0
LINE
  5
2CD
330
1E
100
AcDbEntity
  8
0
100
AcDbLine
 10
323.76525
 20
53.022
 30
0.0
 11
325.13325
 21
62.75
 31
0.0
  0
LINE
  5
2CE
330
1E
100
AcDbEntity
  8
0
100
AcDbLine
 10
349.77325
 20
52.83
 30
0.0
 11
352.97325
 21
48.59
 31
0.0
  0
LINE
  5
2CF
330
1E
100
AcDbEntity
  8
0
100
AcDbLine
 10
344.56525
 20
49.854
 30
0.0
 11
348.72525
 21
44.342
 31
0.0
  0
LINE
  5
2D0
330
1E
100
AcDbEntity
  8
0
100
AcDbLine
 10
414.13325
 20
49.134
 30
0.0
 11
428.13325
 21
49.134
 31
0.0
  0
LINE
  5
2D1
330
1E
100
AcDbEntity
  8
0
100
AcDbLine
 10
428.13325
 20
49.134
 30
0.0
 11
428.13325
 21
46.466
 31
0.0
  0
LINE
  5
2D2
330
1E
100
AcDbEntity
  8
0
100
AcDbLine
 10
428.13325
 20
49.134
 30
0.0
 11
428.13325
 21
50.866
 31
0.0
  0
LINE
  5
2D3
330
1E
100
AcDbEntity
  8
0
100
AcDbLine
 10
428.13325
 20
46.466
 30
0.0
 11
428.13325
 21
49.134
 31
0.0
  0
LINE
  5
2D4
330
1E
100
AcDbEntity
  8
0
100
AcDbLine
 10
428.13325
 20
46.466
 30
0.0
 11
428.13325
 21
42.786
 31
0.0
  0
LINE
  5
2D5
330
1E
100
AcDbEntity
  8
0
100
AcDbLine
 10
428.13325
 20
50.866
 30
0.0
 11
428.13325
 21
49.134
 31
0.0
  0
LINE
  5
2D6
330
1E
100
AcDbEntity
  8
0
100
AcDbLine
 10
428.13325
 20
50.866
 30
0.0
 11
428.13325
 21
52.366
 31
0.0
  0
LINE
  5
2D7
330
1E
100
AcDbEntity
  8
0
100
AcDbLine
 10
414.13325
 20
50.866
 30
0.0
 11
428.13325
 21
50.866
 31
0.0
  0
LINE
  5
2D8
330
1E
100
AcDbEntity
  8
0
100
AcDbLine
 10
428.13325
 20
52.366
 30
0.0
 11
428.13325
 21
56.862
 31
0.0
  0
LINE
  5
2D9
330
1E
100
AcDbEntity
  8
0
100
AcDbLine
 10
428.13325
 20
52.366
 30
0.0
 11
428.13325
 21
50.866
 31
0.0
  0
LINE
  5
2DA
330
1E
100
AcDbEntity
  8
0
100
AcDbLine
 10
414.13325
 20
49.854
 30
0.0
 11
414.13325
 21
56.094
 31
0.0
  0
LINE
  5
2DB
330
1E
100
AcDbEntity
  8
0
100
AcDbLine
 10
414.13325
 20
49.854
 30
0.0
 11
414.13325
 21
44.342
 31
0.0
  0
LINE
  5
2DC
330
1E
100
AcDbEntity
  8
0
100
AcDbLine
 10
412.13325
 20
49.854
 30
0.0
 11
412.13325
 21
56.094
 31
0.0
  0
LINE
  5
2DD
330
1E
100
AcDbEntity
  8
0
100
AcDbLine
 10
412.13325
 20
49.854
 30
0.0
 11
412.13325
 21
44.342
 31
0.0
  0
LINE
  5
2DE
330
1E
100
AcDbEntity
  8
0
100
AcDbLine
 10
412.13325
 20
44.342
 30
0.0
 11
412.13325
 21
49.854
 31
0.0
  0
LINE
  5
2DF
330
1E
100
AcDbEntity
  8
0
100
AcDbLine
 10
412.13325
 20
44.342
 30
0.0
 11
412.13325
 21
40.182
 31
0.0
  0
LINE
  5
2E0
330
1E
100
AcDbEntity
  8
0
100
AcDbLine
 10
537.73625
 20
49.854
 30
0.0
 11
539.50125
 21
56.094
 31
0.0
  0
LINE
  5
2E1
330
1E
100
AcDbEntity
  8
0
100
AcDbLine
 10
535.50125
 20
44.342
 30
0.0
 11
538.44325
 21
49.854
 31
0.0
  0
LINE
  5
2E2
330
1E
100
AcDbEntity
  8
0
100
AcDbLine
 10
569.64925
 20
45.05
 30
0.0
 11
572.47725
 21
50.35
 31
0.0
  0
LINE
  5
2E3
330
1E
100
AcDbEntity
  8
0
100
AcDbLine
 10
572.47725
 20
50.35
 30
0.0
 11
574.17425
 21
56.35
 31
0.0
  0
LINE
  5
2E4
330
1E
100
AcDbEntity
  8
0
100
AcDbLine
 10
538.44325
 20
49.854
 30
0.0
 11
540.20825
 21
56.094
 31
0.0
  0
LINE
  5
2E5
330
1E
100
AcDbEntity
  8
0
100
AcDbLine
 10
510.252984615385
 20
42.75
 30
0.0
 11
512.65925
 21
40.182
 31
0.0
  0
LINE
  5
2E6
330
1E
100
AcDbEntity
  8
0
100
AcDbLine
 10
320.87325
 20
53.79
 30
0.0
 11
322.13325
 21
62.75
 31
0.0
  0
LINE
  5
2E7
330
1E
100
AcDbEntity
  8
0
100
AcDbLine
 10
262.35325
 20
37.97
 30
0.0
 11
269.77325
 21
32.37
 31
0.0
  0
LINE
  5
2E8
330
1E
100
AcDbEntity
  8
0
100
AcDbLine
 10
256.75325
 20
45.39
 30
0.0
 11
262.35325
 21
37.97
 31
0.0
  0
LINE
  5
2E9
330
1E
100
AcDbEntity
  8
0
100
AcDbLine
 10
253.43325
 20
71.65
 30
0.0
 11
256.83325
 21
80.15
 31
0.0
  0
LINE
  5
2EA
330
1E
100
AcDbEntity
  8
0
100
AcDbLine
 10
320.83325
 20
71.65
 30
0.0
 11
322.13325
 21
62.75
 31
0.0
  0
LINE
  5
2EB
330
1E
100
AcDbEntity
  8
0
100
AcDbLine
 10
320.83325
 20
53.85
 30
0.0
 11
322.13325
 21
62.75
 31
0.0
  0
LINE
  5
2EC
330
1E
100
AcDbEntity
  8
0
100
AcDbLine
 10
253.43325
 20
53.85
 30
0.0
 11
256.83325
 21
45.35
 31
0.0
  0
LINE
  5
2ED
330
1E
100
AcDbEntity
  8
0
100
AcDbLine
 10
253.43325
 20
53.85
 30
0.0
 11
256.83325
 21
45.35
 31
0.0
  0
LINE
  5
2EE
330
1E
100
AcDbEntity
  8
0
100
AcDbLine
 10
256.75325
 20
80.11
 30
0.0
 11
262.35325
 21
87.53
 31
0.0
  0
LINE
  5
2EF
330
1E
100
AcDbEntity
  8
0
100
AcDbLine
 10
253.39325
 20
71.71
 30
0.0
 11
256.75325
 21
80.11
 31
0.0
  0
LINE
  5
2F0
330
1E
100
AcDbEntity
  8
0
100
AcDbLine
 10
311.83325
 20
87.45
 30
0.0
 11
317.43325
 21
80.15
 31
0.0
  0
LINE
  5
2F1
330
1E
100
AcDbEntity
  8
0
100
AcDbLine
 10
262.43325
 20
87.45
 30
0.0
 11
269.73325
 21
93.05
 31
0.0
  0
LINE
  5
2F2
330
1E
100
AcDbEntity
  8
0
100
AcDbLine
 10
256.83325
 20
80.15
 30
0.0
 11
262.43325
 21
87.45
 31
0.0
  0
LINE
  5
2F3
330
1E
100
AcDbEntity
  8
0
100
AcDbLine
 10
254.14925
 20
81.598
 30
0.0
 11
260.22925
 21
89.654
 31
0.0
  0
LINE
  5
2F4
330
1E
100
AcDbEntity
  8
0
100
AcDbLine
 10
269.73325
 20
93.05
 30
0.0
 11
278.23325
 21
96.45
 31
0.0
  0
LINE
  5
2F5
330
1E
100
AcDbEntity
  8
0
100
AcDbLine
 10
260.22925
 20
89.654
 30
0.0
 11
268.28525
 21
95.734
 31
0.0
  0
LINE
  5
2F6
330
1E
100
AcDbEntity
  8
0
100
AcDbLine
 10
262.35325
 20
87.53
 30
0.0
 11
269.77325
 21
93.13
 31
0.0
  0
LINE
  5
2F7
330
1E
100
AcDbEntity
  8
0
100
AcDbLine
 10
304.53325
 20
93.05
 30
0.0
 11
311.83325
 21
87.45
 31
0.0
  0
LINE
  5
2F8
330
1E
100
AcDbEntity
  8
0
100
AcDbLine
 10
269.77325
 20
93.13
 30
0.0
 11
278.17325
 21
96.49
 31
0.0
  0
LINE
  5
2F9
330
1E
100
AcDbEntity
  8
0
100
AcDbLine
 10
268.28525
 20
95.734
 30
0.0
 11
277.40525
 21
99.382
 31
0.0
  0
LINE
  5
2FA
330
1E
100
AcDbEntity
  8
0
100
AcDbLine
 10
296.03325
 20
96.45
 30
0.0
 11
304.53325
 21
93.05
 31
0.0
  0
LINE
  5
2FB
330
1E
100
AcDbEntity
  8
0
100
AcDbLine
 10
278.23325
 20
96.45
 30
0.0
 11
287.13325
 21
97.75
 31
0.0
  0
LINE
  5
2FC
330
1E
100
AcDbEntity
  8
0
100
AcDbLine
 10
278.17325
 20
96.49
 30
0.0
 11
287.13325
 21
97.75
 31
0.0
  0
LINE
  5
2FD
330
1E
100
AcDbEntity
  8
0
100
AcDbLine
 10
277.40525
 20
99.382
 30
0.0
 11
287.13325
 21
100.75
 31
0.0
  0
LINE
  5
2FE
330
1E
100
AcDbEntity
  8
0
100
AcDbLine
 10
287.13325
 20
100.75
 30
0.0
 11
296.86125
 21
99.382
 31
0.0
  0
LINE
  5
2FF
330
1E
100
AcDbEntity
  8
0
100
AcDbLine
 10
287.13325
 20
97.75
 30
0.0
 11
296.09325
 21
96.49
 31
0.0
  0
LINE
  5
300
330
1E
100
AcDbEntity
  8
0
100
AcDbLine
 10
287.13325
 20
97.75
 30
0.0
 11
296.03325
 21
96.45
 31
0.0
  0
LINE
  5
301
330
1E
100
AcDbEntity
  8
0
100
AcDbLine
 10
296.86125
 20
99.382
 30
0.0
 11
305.98125
 21
95.734
 31
0.0
  0
LINE
  5
302
330
1E
100
AcDbEntity
  8
0
100
AcDbLine
 10
305.98125
 20
95.734
 30
0.0
 11
314.03725
 21
89.654
 31
0.0
  0
LINE
  5
303
330
1E
100
AcDbEntity
  8
0
100
AcDbLine
 10
296.09325
 20
96.49
 30
0.0
 11
304.49325
 21
93.13
 31
0.0
  0
LINE
  5
304
330
1E
100
AcDbEntity
  8
0
100
AcDbLine
 10
304.49325
 20
93.13
 30
0.0
 11
311.91325
 21
87.53
 31
0.0
  0
LINE
  5
305
330
1E
100
AcDbEntity
  8
0
100
AcDbLine
 10
314.03725
 20
89.654
 30
0.0
 11
320.11725
 21
81.598
 31
0.0
  0
LINE
  5
306
330
1E
100
AcDbEntity
  8
0
100
AcDbLine
 10
317.43325
 20
80.15
 30
0.0
 11
320.83325
 21
71.65
 31
0.0
  0
LINE
  5
307
330
1E
100
AcDbEntity
  8
0
100
AcDbLine
 10
320.11725
 20
81.598
 30
0.0
 11
323.76525
 21
72.478
 31
0.0
  0
LINE
  5
308
330
1E
100
AcDbEntity
  8
0
100
AcDbLine
 10
320.11725
 20
81.598
 30
0.0
 11
323.76525
 21
72.478
 31
0.0
  0
LINE
  5
309
330
1E
100
AcDbEntity
  8
0
100
AcDbLine
 10
314.453853773585
 20
89.102
 30
0.0
 11
360.13325
 21
89.102
 31
0.0
  0
LINE
  5
30A
330
1E
100
AcDbEntity
  8
0
100
AcDbLine
 10
313.91005
 20
89.75
 30
0.0
 11
360.13325
 21
89.75
 31
0.0
  0
LINE
  5
30B
330
1E
100
AcDbEntity
  8
0
100
AcDbLine
 10
311.91325
 20
87.53
 30
0.0
 11
317.51325
 21
80.11
 31
0.0
  0
LINE
  5
30C
330
1E
100
AcDbEntity
  8
0
100
AcDbLine
 10
317.51325
 20
80.11
 30
0.0
 11
320.87325
 21
71.71
 31
0.0
  0
LINE
  5
30D
330
1E
100
AcDbEntity
  8
0
100
AcDbLine
 10
342.06925
 20
56.094
 30
0.0
 11
344.56525
 21
49.854
 31
0.0
  0
LINE
  5
30E
330
1E
100
AcDbEntity
  8
0
100
AcDbLine
 10
539.50125
 20
56.094
 30
0.0
 11
540.16225
 21
62.75
 31
0.0
  0
LINE
  5
30F
330
1E
100
AcDbEntity
  8
0
100
AcDbLine
 10
347.13325
 20
62.75
 30
0.0
 11
347.85325
 21
57.63
 31
0.0
  0
LINE
  5
310
330
1E
100
AcDbEntity
  8
0
100
AcDbLine
 10
347.13325
 20
62.75
 30
0.0
 11
347.85325
 21
67.87
 31
0.0
  0
LINE
  5
311
330
1E
100
AcDbEntity
  8
0
100
AcDbLine
 10
347.85325
 20
57.63
 30
0.0
 11
349.77325
 21
52.83
 31
0.0
  0
LINE
  5
312
330
1E
100
AcDbEntity
  8
0
100
AcDbLine
 10
341.13325
 20
62.75
 30
0.0
 11
342.06925
 21
69.406
 31
0.0
  0
LINE
  5
313
330
1E
100
AcDbEntity
  8
0
100
AcDbLine
 10
341.13325
 20
62.75
 30
0.0
 11
342.06925
 21
56.094
 31
0.0
  0
LINE
  5
314
330
1E
100
AcDbEntity
  8
0
100
AcDbLine
 10
412.13325
 20
56.094
 30
0.0
 11
412.13325
 21
62.75
 31
0.0
  0
LINE
  5
315
330
1E
100
AcDbEntity
  8
0
100
AcDbLine
 10
412.13325
 20
56.094
 30
0.0
 11
412.13325
 21
49.854
 31
0.0
  0
LINE
  5
316
330
1E
100
AcDbEntity
  8
0
100
AcDbLine
 10
323.76525
 20
72.478
 30
0.0
 11
325.13325
 21
62.75
 31
0.0
  0
LINE
  5
317
330
1E
100
AcDbEntity
  8
0
100
AcDbLine
 10
342.06925
 20
69.406
 30
0.0
 11
344.56525
 21
75.646
 31
0.0
  0
LINE
  5
318
330
1E
100
AcDbEntity
  8
0
100
AcDbLine
 10
347.85325
 20
67.87
 30
0.0
 11
349.77325
 21
72.67
 31
0.0
  0
LINE
  5
319
330
1E
100
AcDbEntity
  8
0
100
AcDbLine
 10
349.77325
 20
72.67
 30
0.0
 11
352.97325
 21
76.91
 31
0.0
  0
LINE
  5
31A
330
1E
100
AcDbEntity
  8
0
100
AcDbLine
 10
344.56525
 20
75.646
 30
0.0
 11
348.72525
 21
81.158
 31
0.0
  0
LINE
  5
31B
330
1E
100
AcDbEntity
  8
0
100
AcDbLine
 10
412.13325
 20
62.75
 30
0.0
 11
412.13325
 21
69.406
 31
0.0
  0
LINE
  5
31C
330
1E
100
AcDbEntity
  8
0
100
AcDbLine
 10
412.13325
 20
62.75
 30
0.0
 11
412.13325
 21
56.094
 31
0.0
  0
LINE
  5
31D
330
1E
100
AcDbEntity
  8
0
100
AcDbLine
 10
414.13325
 20
56.094
 30
0.0
 11
414.13325
 21
62.75
 31
0.0
  0
LINE
  5
31E
330
1E
100
AcDbEntity
  8
0
100
AcDbLine
 10
414.13325
 20
56.094
 30
0.0
 11
414.13325
 21
49.854
 31
0.0
  0
LINE
  5
31F
330
1E
100
AcDbEntity
  8
0
100
AcDbLine
 10
428.13325
 20
56.862
 30
0.0
 11
428.13325
 21
62.75
 31
0.0
  0
LINE
  5
320
330
1E
100
AcDbEntity
  8
0
100
AcDbLine
 10
428.13325
 20
56.862
 30
0.0
 11
428.13325
 21
52.366
 31
0.0
  0
LINE
  5
321
330
1E
100
AcDbEntity
  8
0
100
AcDbLine
 10
428.13325
 20
62.75
 30
0.0
 11
428.13325
 21
68.638
 31
0.0
  0
LINE
  5
322
330
1E
100
AcDbEntity
  8
0
100
AcDbLine
 10
428.13325
 20
62.75
 30
0.0
 11
428.13325
 21
56.862
 31
0.0
  0
LINE
  5
323
330
1E
100
AcDbEntity
  8
0
100
AcDbLine
 10
428.13325
 20
68.638
 30
0.0
 11
428.13325
 21
73.134
 31
0.0
  0
LINE
  5
324
330
1E
100
AcDbEntity
  8
0
100
AcDbLine
 10
428.13325
 20
68.638
 30
0.0
 11
428.13325
 21
62.75
 31
0.0
  0
LINE
  5
325
330
1E
100
AcDbEntity
  8
0
100
AcDbLine
 10
414.13325
 20
62.75
 30
0.0
 11
414.13325
 21
69.406
 31
0.0
  0
LINE
  5
326
330
1E
100
AcDbEntity
  8
0
100
AcDbLine
 10
414.13325
 20
62.75
 30
0.0
 11
414.13325
 21
56.094
 31
0.0
  0
LINE
  5
327
330
1E
100
AcDbEntity
  8
0
100
AcDbLine
 10
428.13325
 20
74.634
 30
0.0
 11
428.13325
 21
73.134
 31
0.0
  0
LINE
  5
328
330
1E
100
AcDbEntity
  8
0
100
AcDbLine
 10
428.13325
 20
74.634
 30
0.0
 11
428.13325
 21
76.366
 31
0.0
  0
LINE
  5
329
330
1E
100
AcDbEntity
  8
0
100
AcDbLine
 10
414.13325
 20
74.634
 30
0.0
 11
428.13325
 21
74.634
 31
0.0
  0
LINE
  5
32A
330
1E
100
AcDbEntity
  8
0
100
AcDbLine
 10
428.13325
 20
73.134
 30
0.0
 11
428.13325
 21
68.638
 31
0.0
  0
LINE
  5
32B
330
1E
100
AcDbEntity
  8
0
100
AcDbLine
 10
428.13325
 20
73.134
 30
0.0
 11
428.13325
 21
74.634
 31
0.0
  0
LINE
  5
32C
330
1E
100
AcDbEntity
  8
0
100
AcDbLine
 10
414.13325
 20
69.406
 30
0.0
 11
414.13325
 21
75.646
 31
0.0
  0
LINE
  5
32D
330
1E
100
AcDbEntity
  8
0
100
AcDbLine
 10
414.13325
 20
69.406
 30
0.0
 11
414.13325
 21
62.75
 31
0.0
  0
LINE
  5
32E
330
1E
100
AcDbEntity
  8
0
100
AcDbLine
 10
412.13325
 20
69.406
 30
0.0
 11
412.13325
 21
75.646
 31
0.0
  0
LINE
  5
32F
330
1E
100
AcDbEntity
  8
0
100
AcDbLine
 10
412.13325
 20
69.406
 30
0.0
 11
412.13325
 21
62.75
 31
0.0
  0
LINE
  5
330
330
1E
100
AcDbEntity
  8
0
100
AcDbLine
 10
537.73625
 20
75.646
 30
0.0
 11
539.50125
 21
69.406
 31
0.0
  0
LINE
  5
331
330
1E
100
AcDbEntity
  8
0
100
AcDbLine
 10
539.50125
 20
69.406
 30
0.0
 11
540.16225
 21
62.75
 31
0.0
  0
LINE
  5
332
330
1E
100
AcDbEntity
  8
0
100
AcDbLine
 10
352.97325
 20
76.91
 30
0.0
 11
357.21325
 21
80.11
 31
0.0
  0
LINE
  5
333
330
1E
100
AcDbEntity
  8
0
100
AcDbLine
 10
357.21325
 20
80.11
 30
0.0
 11
362.01325
 21
82.03
 31
0.0
  0
LINE
  5
334
330
1E
100
AcDbEntity
  8
0
100
AcDbLine
 10
348.72525
 20
81.158
 30
0.0
 11
354.23725
 21
85.318
 31
0.0
  0
LINE
  5
335
330
1E
100
AcDbEntity
  8
0
100
AcDbLine
 10
412.13325
 20
75.646
 30
0.0
 11
412.13325
 21
81.158
 31
0.0
  0
LINE
  5
336
330
1E
100
AcDbEntity
  8
0
100
AcDbLine
 10
412.13325
 20
75.646
 30
0.0
 11
412.13325
 21
69.406
 31
0.0
  0
LINE
  5
337
330
1E
100
AcDbEntity
  8
0
100
AcDbLine
 10
376.21325
 20
82.75
 30
0.0
 11
382.63325
 21
82.75
 31
0.0
  0
LINE
  5
338
330
1E
100
AcDbEntity
  8
0
100
AcDbLine
 10
371.28625
 20
82.75
 30
0.0
 11
376.21325
 21
82.75
 31
0.0
  0
LINE
  5
339
330
1E
100
AcDbEntity
  8
0
100
AcDbLine
 10
368.18925
 20
82.75
 30
0.0
 11
371.28625
 21
82.75
 31
0.0
  0
LINE
  5
33A
330
1E
100
AcDbEntity
  8
0
100
AcDbLine
 10
367.13325
 20
82.75
 30
0.0
 11
368.18925
 21
82.75
 31
0.0
  0
LINE
  5
33B
330
1E
100
AcDbEntity
  8
0
100
AcDbLine
 10
362.01325
 20
82.03
 30
0.0
 11
367.13325
 21
82.75
 31
0.0
  0
LINE
  5
33C
330
1E
100
AcDbEntity
  8
0
100
AcDbLine
 10
354.23725
 20
85.318
 30
0.0
 11
360.47725
 21
87.814
 31
0.0
  0
LINE
  5
33D
330
1E
100
AcDbEntity
  8
0
100
AcDbLine
 10
398.13325
 20
82.75
 30
0.0
 11
412.13325
 21
82.75
 31
0.0
  0
LINE
  5
33E
330
1E
100
AcDbEntity
  8
0
100
AcDbLine
 10
390.11025
 20
82.75
 30
0.0
 11
398.13325
 21
82.75
 31
0.0
  0
LINE
  5
33F
330
1E
100
AcDbEntity
  8
0
100
AcDbLine
 10
382.63325
 20
82.75
 30
0.0
 11
390.11025
 21
82.75
 31
0.0
  0
LINE
  5
340
330
1E
100
AcDbEntity
  8
0
100
AcDbLine
 10
380.02925
 20
85.318
 30
0.0
 11
383.43185
 21
82.75
 31
0.0
  0
LINE
  5
341
330
1E
100
AcDbEntity
  8
0
100
AcDbLine
 10
412.13325
 20
81.158
 30
0.0
 11
412.13325
 21
85.318
 31
0.0
  0
LINE
  5
342
330
1E
100
AcDbEntity
  8
0
100
AcDbLine
 10
412.13325
 20
81.158
 30
0.0
 11
412.13325
 21
75.646
 31
0.0
  0
LINE
  5
343
330
1E
100
AcDbEntity
  8
0
100
AcDbLine
 10
414.13325
 20
76.366
 30
0.0
 11
428.13325
 21
76.366
 31
0.0
  0
LINE
  5
344
330
1E
100
AcDbEntity
  8
0
100
AcDbLine
 10
428.13325
 20
76.366
 30
0.0
 11
428.13325
 21
79.034
 31
0.0
  0
LINE
  5
345
330
1E
100
AcDbEntity
  8
0
100
AcDbLine
 10
428.13325
 20
76.366
 30
0.0
 11
428.13325
 21
74.634
 31
0.0
  0
LINE
  5
346
330
1E
100
AcDbEntity
  8
0
100
AcDbLine
 10
428.13325
 20
79.034
 30
0.0
 11
428.13325
 21
82.714
 31
0.0
  0
LINE
  5
347
330
1E
100
AcDbEntity
  8
0
100
AcDbLine
 10
428.13325
 20
79.034
 30
0.0
 11
428.13325
 21
76.366
 31
0.0
  0
LINE
  5
348
330
1E
100
AcDbEntity
  8
0
100
AcDbLine
 10
414.13325
 20
75.646
 30
0.0
 11
414.13325
 21
81.158
 31
0.0
  0
LINE
  5
349
330
1E
100
AcDbEntity
  8
0
100
AcDbLine
 10
414.13325
 20
75.646
 30
0.0
 11
414.13325
 21
69.406
 31
0.0
  0
LINE
  5
34A
330
1E
100
AcDbEntity
  8
0
100
AcDbLine
 10
428.13325
 20
82.75
 30
0.0
 11
450.13325
 21
82.75
 31
0.0
  0
LINE
  5
34B
330
1E
100
AcDbEntity
  8
0
100
AcDbLine
 10
428.13325
 20
82.714
 30
0.0
 11
428.13325
 21
84.922
 31
0.0
  0
LINE
  5
34C
330
1E
100
AcDbEntity
  8
0
100
AcDbLine
 10
428.13325
 20
82.714
 30
0.0
 11
428.13325
 21
79.034
 31
0.0
  0
LINE
  5
34D
330
1E
100
AcDbEntity
  8
0
100
AcDbLine
 10
450.13325
 20
82.75
 30
0.0
 11
458.15625
 21
82.75
 31
0.0
  0
LINE
  5
34E
330
1E
100
AcDbEntity
  8
0
100
AcDbLine
 10
465.63325
 20
82.75
 30
0.0
 11
472.05325
 21
82.75
 31
0.0
  0
LINE
  5
34F
330
1E
100
AcDbEntity
  8
0
100
AcDbLine
 10
458.15625
 20
82.75
 30
0.0
 11
465.63325
 21
82.75
 31
0.0
  0
LINE
  5
350
330
1E
100
AcDbEntity
  8
0
100
AcDbLine
 10
472.05325
 20
82.75
 30
0.0
 11
518.21325
 21
82.75
 31
0.0
  0
LINE
  5
351
330
1E
100
AcDbEntity
  8
0
100
AcDbLine
 10
428.13325
 20
84.922
 30
0.0
 11
428.13325
 21
85.75
 31
0.0
  0
LINE
  5
352
330
1E
100
AcDbEntity
  8
0
100
AcDbLine
 10
428.13325
 20
84.922
 30
0.0
 11
428.13325
 21
82.714
 31
0.0
  0
LINE
  5
353
330
1E
100
AcDbEntity
  8
0
100
AcDbLine
 10
414.13325
 20
81.158
 30
0.0
 11
414.13325
 21
85.318
 31
0.0
  0
LINE
  5
354
330
1E
100
AcDbEntity
  8
0
100
AcDbLine
 10
414.13325
 20
81.158
 30
0.0
 11
414.13325
 21
75.646
 31
0.0
  0
LINE
  5
355
330
1E
100
AcDbEntity
  8
0
100
AcDbLine
 10
412.13325
 20
82.75
 30
0.0
 11
412.13325
 21
85.318
 31
0.0
  0
LINE
  5
356
330
1E
100
AcDbEntity
  8
0
100
AcDbLine
 10
412.13325
 20
85.318
 30
0.0
 11
412.13325
 21
82.75
 31
0.0
  0
LINE
  5
357
330
1E
100
AcDbEntity
  8
0
100
AcDbLine
 10
412.13325
 20
85.318
 30
0.0
 11
412.13325
 21
87.814
 31
0.0
  0
LINE
  5
358
330
1E
100
AcDbEntity
  8
0
100
AcDbLine
 10
518.21325
 20
82.75
 30
0.0
 11
521.74925
 21
82.75
 31
0.0
  0
LINE
  5
359
330
1E
100
AcDbEntity
  8
0
100
AcDbLine
 10
512.65925
 20
85.318
 30
0.0
 11
517.07125
 21
87.814
 31
0.0
  0
LINE
  5
35A
330
1E
100
AcDbEntity
  8
0
100
AcDbLine
 10
510.252984615385
 20
82.75
 30
0.0
 11
512.65925
 21
85.318
 31
0.0
  0
LINE
  5
35B
330
1E
100
AcDbEntity
  8
0
100
AcDbLine
 10
530.89725
 20
85.318
 30
0.0
 11
534.79425
 21
81.158
 31
0.0
  0
LINE
  5
35C
330
1E
100
AcDbEntity
  8
0
100
AcDbLine
 10
534.79425
 20
81.158
 30
0.0
 11
537.73625
 21
75.646
 31
0.0
  0
LINE
  5
35D
330
1E
100
AcDbEntity
  8
0
100
AcDbLine
 10
360.47725
 20
87.814
 30
0.0
 11
367.13325
 21
88.75
 31
0.0
  0
LINE
  5
35E
330
1E
100
AcDbEntity
  8
0
100
AcDbLine
 10
373.78925
 20
87.814
 30
0.0
 11
380.02925
 21
85.318
 31
0.0
  0
LINE
  5
35F
330
1E
100
AcDbEntity
  8
0
100
AcDbLine
 10
428.13325
 20
85.75
 30
0.0
 11
428.13325
 21
84.922
 31
0.0
  0
LINE
  5
360
330
1E
100
AcDbEntity
  8
0
100
AcDbLine
 10
428.13325
 20
85.75
 30
0.0
 11
428.13325
 21
88.25
 31
0.0
  0
LINE
  5
361
330
1E
100
AcDbEntity
  8
0
100
AcDbLine
 10
414.13325
 20
85.318
 30
0.0
 11
414.13325
 21
87.814
 31
0.0
  0
LINE
  5
362
330
1E
100
AcDbEntity
  8
0
100
AcDbLine
 10
414.13325
 20
85.318
 30
0.0
 11
414.13325
 21
81.158
 31
0.0
  0
LINE
  5
363
330
1E
100
AcDbEntity
  8
0
100
AcDbLine
 10
414.13325
 20
87.814
 30
0.0
 11
414.13325
 21
88.75
 31
0.0
  0
LINE
  5
364
330
1E
100
AcDbEntity
  8
0
100
AcDbLine
 10
414.13325
 20
87.814
 30
0.0
 11
414.13325
 21
85.318
 31
0.0
  0
LINE
  5
365
330
1E
100
AcDbEntity
  8
0
100
AcDbLine
 10
412.13325
 20
85.318
 30
0.0
 11
412.13325
 21
87.814
 31
0.0
  0
LINE
  5
366
330
1E
100
AcDbEntity
  8
0
100
AcDbLine
 10
412.13325
 20
85.318
 30
0.0
 11
412.13325
 21
81.158
 31
0.0
  0
LINE
  5
367
330
1E
100
AcDbEntity
  8
0
100
AcDbLine
 10
367.13325
 20
88.75
 30
0.0
 11
373.78925
 21
87.814
 31
0.0
  0
LINE
  5
368
330
1E
100
AcDbEntity
  8
0
100
AcDbLine
 10
428.13325
 20
88.25
 30
0.0
 11
428.13325
 21
85.75
 31
0.0
  0
LINE
  5
369
330
1E
100
AcDbEntity
  8
0
100
AcDbLine
 10
414.13325
 20
88.25
 30
0.0
 11
428.13325
 21
88.25
 31
0.0
  0
LINE
  5
36A
330
1E
100
AcDbEntity
  8
0
100
AcDbLine
 10
412.13325
 20
87.814
 30
0.0
 11
412.13325
 21
85.318
 31
0.0
  0
LINE
  5
36B
330
1E
100
AcDbEntity
  8
0
100
AcDbLine
 10
412.13325
 20
87.814
 30
0.0
 11
412.13325
 21
88.75
 31
0.0
  0
LINE
  5
36C
330
1E
100
AcDbEntity
  8
0
100
AcDbLine
 10
412.13325
 20
87.814
 30
0.0
 11
412.13325
 21
85.318
 31
0.0
  0
LINE
  5
36D
330
1E
100
AcDbEntity
  8
0
100
AcDbLine
 10
517.07125
 20
87.814
 30
0.0
 11
521.77825
 21
88.75
 31
0.0
  0
LINE
  5
36E
330
1E
100
AcDbEntity
  8
0
100
AcDbLine
 10
521.77825
 20
88.75
 30
0.0
 11
526.48425
 21
87.814
 31
0.0
  0
LINE
  5
36F
330
1E
100
AcDbEntity
  8
0
100
AcDbLine
 10
521.77825
 20
88.75
 30
0.0
 11
522.48525
 21
88.75
 31
0.0
  0
LINE
  5
370
330
1E
100
AcDbEntity
  8
0
100
AcDbLine
 10
526.48425
 20
87.814
 30
0.0
 11
530.89725
 21
85.318
 31
0.0
  0
LINE
  5
371
330
1E
100
AcDbEntity
  8
0
100
AcDbLine
 10
360.13325
 20
89.102
 30
0.0
 11
364.847391732283
 21
88.428551181102
 31
0.0
  0
LINE
  5
372
330
1E
100
AcDbEntity
  8
0
100
AcDbLine
 10
367.04525
 20
88.778
 30
0.0
 11
367.119932080925
 21
88.74812716763
 31
0.0
  0
LINE
  5
373
330
1E
100
AcDbEntity
  8
0
100
AcDbLine
 10
367.04525
 20
88.778
 30
0.0
 11
367.119932080925
 21
88.74812716763
 31
0.0
  0
LINE
  5
374
330
1E
100
AcDbEntity
  8
0
100
AcDbLine
 10
414.13325
 20
88.75
 30
0.0
 11
414.13325
 21
87.814
 31
0.0
  0
LINE
  5
375
330
1E
100
AcDbEntity
  8
0
100
AcDbLine
 10
412.13325
 20
88.75
 30
0.0
 11
412.13325
 21
87.814
 31
0.0
  0
LINE
  5
376
330
1E
100
AcDbEntity
  8
0
100
AcDbLine
 10
412.13325
 20
88.75
 30
0.0
 11
414.13325
 21
88.75
 31
0.0
  0
LINE
  5
377
330
1E
100
AcDbEntity
  8
0
100
AcDbLine
 10
522.48525
 20
88.75
 30
0.0
 11
527.19125
 21
87.814
 31
0.0
  0
LINE
  5
378
330
1E
100
AcDbEntity
  8
0
100
AcDbLine
 10
527.304403846154
 20
87.75
 30
0.0
 11
557.13325
 21
87.75
 31
0.0
  0
LINE
  5
379
330
1E
100
AcDbEntity
  8
0
100
AcDbLine
 10
527.19125
 20
87.814
 30
0.0
 11
531.60425
 21
85.318
 31
0.0
  0
LINE
  5
37A
330
1E
100
AcDbEntity
  8
0
100
AcDbLine
 10
531.60425
 20
85.318
 30
0.0
 11
535.50125
 21
81.158
 31
0.0
  0
LINE
  5
37B
330
1E
100
AcDbEntity
  8
0
100
AcDbLine
 10
535.50125
 20
81.158
 30
0.0
 11
538.44325
 21
75.646
 31
0.0
  0
LINE
  5
37C
330
1E
100
AcDbEntity
  8
0
100
AcDbLine
 10
538.44325
 20
75.646
 30
0.0
 11
540.20825
 21
69.406
 31
0.0
  0
LINE
  5
37D
330
1E
100
AcDbEntity
  8
0
100
AcDbLine
 10
557.13325
 20
87.75
 30
0.0
 11
561.65925
 21
86.85
 31
0.0
  0
LINE
  5
37E
330
1E
100
AcDbEntity
  8
0
100
AcDbLine
 10
561.65925
 20
86.85
 30
0.0
 11
565.90125
 21
84.45
 31
0.0
  0
LINE
  5
37F
330
1E
100
AcDbEntity
  8
0
100
AcDbLine
 10
565.90125
 20
84.45
 30
0.0
 11
569.64925
 21
80.45
 31
0.0
  0
LINE
  5
380
330
1E
100
AcDbEntity
  8
0
100
AcDbLine
 10
569.64925
 20
80.45
 30
0.0
 11
572.47725
 21
75.15
 31
0.0
  0
LINE
  5
381
330
1E
100
AcDbEntity
  8
0
100
AcDbLine
 10
572.47725
 20
75.15
 30
0.0
 11
574.17425
 21
69.15
 31
0.0
  0
LINE
  5
382
330
1E
100
AcDbEntity
  8
0
100
AcDbLine
 10
574.17425
 20
69.15
 30
0.0
 11
574.81125
 21
62.75
 31
0.0
  0
LINE
  5
383
330
1E
100
AcDbEntity
  8
0
100
AcDbLine
 10
574.17425
 20
56.35
 30
0.0
 11
574.81125
 21
62.75
 31
0.0
  0
LINE
  5
384
330
1E
100
AcDbEntity
  8
0
100
AcDbLine
 10
540.20825
 20
69.406
 30
0.0
 11
540.87025
 21
62.75
 31
0.0
  0
LINE
  5
385
330
1E
100
AcDbEntity
  8
0
100
AcDbLine
 10
540.20825
 20
56.094
 30
0.0
 11
540.87025
 21
62.75
 31
0.0
  0
LINE
  5
386
330
1E
100
AcDbEntity
  8
0
100
AcDbLine
 10
320.87325
 20
71.71
 30
0.0
 11
322.13325
 21
62.75
 31
0.0
  0
LINE
  5
387
330
1E
100
AcDbEntity
  8
0
100
AcDbLine
 10
253.39325
 20
53.79
 30
0.0
 11
256.75325
 21
45.39
 31
0.0
  0
LINE
  5
388
330
1E
100
AcDbEntity
  8
0
100
AcDbLine
 10
252.13325
 20
62.75
 30
0.0
 11
253.39325
 21
53.79
 31
0.0
  0
LINE
  5
389
330
1E
100
AcDbEntity
  8
0
100
AcDbLine
 10
252.13325
 20
62.75
 30
0.0
 11
253.39325
 21
71.71
 31
0.0
  0
LINE
  5
38A
330
1E
100
AcDbEntity
  8
0
100
AcDbLine
 10
252.13325
 20
62.75
 30
0.0
 11
253.43325
 21
53.85
 31
0.0
  0
LINE
  5
38B
330
1E
100
AcDbEntity
  8
0
100
AcDbLine
 10
252.13325
 20
62.75
 30
0.0
 11
253.43325
 21
71.65
 31
0.0
  0
LINE
  5
391
330
1E
100
AcDbEntity
  8
0
100
AcDbLine
 10
15.978034775567
 20
90.852828621035
 30
0.0
 11
18.045087910909
 21
89.441647122258
 31
0.0
  0
LINE
  5
392
330
1E
100
AcDbEntity
  8
0
100
AcDbLine
 10
18.045087910909
 20
89.441647122258
 30
0.0
 11
20.078930905241
 21
87.409153036179
 31
0.0
  0
LINE
  5
393
330
1E
100
AcDbEntity
  8
0
100
AcDbLine
 10
20.078930905241
 20
87.409153036179
 30
0.0
 11
21.017628601514
 21
84.985793932326
 31
0.0
  0
LINE
  5
394
330
1E
100
AcDbEntity
  8
0
100
AcDbLine
 10
21.017628601514
 20
84.985793932326
 30
0.0
 11
21.408752305918
 21
82.48426260034
 31
0.0
  0
LINE
  5
395
330
1E
100
AcDbEntity
  8
0
100
AcDbLine
 10
21.408752305918
 20
82.48426260034
 30
0.0
 11
21.095853073827
 21
79.826385519719
 31
0.0
  0
LINE
  5
396
330
1E
100
AcDbEntity
  8
0
100
AcDbLine
 10
21.095853073827
 20
79.826385519719
 30
0.0
 11
19.922481960615
 21
76.933989169959
 31
0.0
  0
LINE
  5
397
330
1E
100
AcDbEntity
  8
0
100
AcDbLine
 10
19.922481960615
 20
76.933989169959
 30
0.0
 11
17.497513919039
 21
74.588803586608
 31
0.0
  0
LINE
  5
398
330
1E
100
AcDbEntity
  8
0
100
AcDbLine
 10
17.497513919039
 20
74.588803586608
 30
0.0
 11
15.307220637242
 21
73.494383346159
 31
0.0
  0
LINE
  5
399
330
1E
100
AcDbEntity
  8
0
100
AcDbLine
 10
15.307220637242
 20
73.494383346159
 30
0.0
 11
13.596828975834
 21
73.18378304717
 31
0.0
  0
LINE
  5
43F
330
1E
100
AcDbEntity
  8
0
100
AcDbLine
 10
90.89505
 20
72.324099999998
 30
0.0
 11
90.89505
 21
101.6473
 31
0.0
  0
LINE
  5
440
330
1E
100
AcDbEntity
  8
0
100
AcDbLine
 10
89.13405
 20
90.1673
 30
0.0
 11
87.71705
 21
96.4073
 31
0.0
  0
LINE
  5
441
330
1E
100
AcDbEntity
  8
0
100
AcDbLine
 10
79.57705
 20
90.1673
 30
0.0
 11
80.99405
 21
96.4073
 31
0.0
  0
LINE
  5
442
330
1E
100
AcDbEntity
  8
0
100
AcDbLine
 10
67.00705
 20
91.2157
 30
0.0
 11
67.49105
 21
92.3948
 31
0.0
  0
LINE
  5
443
330
1E
100
AcDbEntity
  8
0
100
AcDbLine
 10
65.27105
 20
91.2157
 30
0.0
 11
65.75405
 21
92.3948
 31
0.0
  0
LINE
  5
444
330
1E
100
AcDbEntity
  8
0
100
AcDbLine
 10
78.55105
 20
90.9673
 30
0.0
 11
80.02405
 21
97.3673
 31
0.0
  0
LINE
  5
445
330
1E
100
AcDbEntity
  8
0
100
AcDbLine
 10
42.26305
 20
87.6473
 30
0.0
 11
42.26305
 21
99.6473
 31
0.0
  0
LINE
  5
446
330
1E
100
AcDbEntity
  8
0
100
AcDbLine
 10
90.88505
 20
52.5673
 30
0.0
 11
91.13505
 21
62.6473
 31
0.0
  0
LINE
  5
447
330
1E
100
AcDbEntity
  8
0
100
AcDbLine
 10
77.82605
 20
52.5673
 30
0.0
 11
77.57605
 21
62.6473
 31
0.0
  0
LINE
  5
448
330
1E
100
AcDbEntity
  8
0
100
AcDbLine
 10
44.17605
 20
52.4073
 30
0.0
 11
43.92605
 21
62.6473
 31
0.0
  0
LINE
  5
449
330
1E
100
AcDbEntity
  8
0
100
AcDbLine
 10
76.77305
 20
52.4073
 30
0.0
 11
76.52305
 21
62.6473
 31
0.0
  0
LINE
  5
44A
330
1E
100
AcDbEntity
  8
0
100
AcDbLine
 10
90.08305
 20
22.6473
 30
0.0
 11
68.41805
 21
22.6473
 31
0.0
  0
LINE
  5
44B
330
1E
100
AcDbEntity
  8
0
100
AcDbLine
 10
68.41805
 20
22.6473
 30
0.0
 11
90.08305
 21
22.6473
 31
0.0
  0
LINE
  5
44C
330
1E
100
AcDbEntity
  8
0
100
AcDbLine
 10
50.87205
 20
22.6473
 30
0.0
 11
81.40105
 21
22.6473
 31
0.0
  0
LINE
  5
44D
330
1E
100
AcDbEntity
  8
0
100
AcDbLine
 10
81.40105
 20
22.6473
 30
0.0
 11
50.87205
 21
22.6473
 31
0.0
  0
LINE
  5
44E
330
1E
100
AcDbEntity
  8
0
100
AcDbLine
 10
90.89505
 20
23.6473
 30
0.0
 11
90.89505
 21
52.970500000001
 31
0.0
  0
LINE
  5
44F
330
1E
100
AcDbEntity
  8
0
100
AcDbLine
 10
90.89505
 20
23.6473
 30
0.0
 11
90.89505
 21
52.970500000001
 31
0.0
  0
LINE
  5
450
330
1E
100
AcDbEntity
  8
0
100
AcDbLine
 10
89.13405
 20
35.1273
 30
0.0
 11
90.21805
 21
43.2873
 31
0.0
  0
LINE
  5
451
330
1E
100
AcDbEntity
  8
0
100
AcDbLine
 10
79.57705
 20
35.1273
 30
0.0
 11
78.49305
 21
43.2873
 31
0.0
  0
LINE
  5
452
330
1E
100
AcDbEntity
  8
0
100
AcDbLine
 10
78.55105
 20
34.3273
 30
0.0
 11
77.44005
 21
42.8073
 31
0.0
  0
LINE
  5
453
330
1E
100
AcDbEntity
  8
0
100
AcDbLine
 10
90.08305
 20
22.6473
 30
0.0
 11
90.89505
 21
23.6473
 31
0.0
  0
LINE
  5
454
330
1E
100
AcDbEntity
  8
0
100
AcDbLine
 10
90.08305
 20
22.6473
 30
0.0
 11
81.40105
 21
22.6473
 31
0.0
  0
LINE
  5
455
330
1E
100
AcDbEntity
  8
0
100
AcDbLine
 10
90.89505
 20
23.6473
 30
0.0
 11
84.703772222222
 21
23.6473
 31
0.0
  0
LINE
  5
456
330
1E
100
AcDbEntity
  8
0
100
AcDbLine
 10
86.10605
 20
25.0473
 30
0.0
 11
87.71705
 21
28.8873
 31
0.0
  0
LINE
  5
457
330
1E
100
AcDbEntity
  8
0
100
AcDbLine
 10
84.703772222222
 20
23.6473
 30
0.0
 11
90.89505
 21
23.6473
 31
0.0
  0
LINE
  5
458
330
1E
100
AcDbEntity
  8
0
100
AcDbLine
 10
85.24705
 20
24.0873
 30
0.0
 11
86.10605
 21
25.0473
 31
0.0
  0
LINE
  5
459
330
1E
100
AcDbEntity
  8
0
100
AcDbLine
 10
84.35505
 20
23.6073
 30
0.0
 11
82.60505
 21
25.0473
 31
0.0
  0
LINE
  5
45A
330
1E
100
AcDbEntity
  8
0
100
AcDbLine
 10
84.35505
 20
23.6073
 30
0.0
 11
86.10605
 21
25.0473
 31
0.0
  0
LINE
  5
45B
330
1E
100
AcDbEntity
  8
0
100
AcDbLine
 10
84.35505
 20
23.6073
 30
0.0
 11
82.60505
 21
25.0473
 31
0.0
  0
LINE
  5
45C
330
1E
100
AcDbEntity
  8
0
100
AcDbLine
 10
84.35505
 20
23.6073
 30
0.0
 11
86.10605
 21
25.0473
 31
0.0
  0
LINE
  5
45D
330
1E
100
AcDbEntity
  8
0
100
AcDbLine
 10
82.60505
 20
25.0473
 30
0.0
 11
80.99405
 21
28.8873
 31
0.0
  0
LINE
  5
45E
330
1E
100
AcDbEntity
  8
0
100
AcDbLine
 10
81.69105
 20
24.0873
 30
0.0
 11
80.02405
 21
27.9273
 31
0.0
  0
LINE
  5
45F
330
1E
100
AcDbEntity
  8
0
100
AcDbLine
 10
83.46905
 20
22.6473
 30
0.0
 11
81.69105
 21
24.0873
 31
0.0
  0
LINE
  5
460
330
1E
100
AcDbEntity
  8
0
100
AcDbLine
 10
83.46905
 20
22.6473
 30
0.0
 11
85.24705
 21
24.0873
 31
0.0
  0
LINE
  5
461
330
1E
100
AcDbEntity
  8
0
100
AcDbLine
 10
83.46905
 20
22.6473
 30
0.0
 11
81.40105
 21
22.6473
 31
0.0
  0
LINE
  5
462
330
1E
100
AcDbEntity
  8
0
100
AcDbLine
 10
81.40105
 20
22.6473
 30
0.0
 11
83.46905
 21
22.6473
 31
0.0
  0
LINE
  5
463
330
1E
100
AcDbEntity
  8
0
100
AcDbLine
 10
81.40105
 20
22.6473
 30
0.0
 11
90.08305
 21
22.6473
 31
0.0
  0
LINE
  5
464
330
1E
100
AcDbEntity
  8
0
100
AcDbLine
 10
81.69105
 20
24.0873
 30
0.0
 11
80.02405
 21
27.9273
 31
0.0
  0
LINE
  5
465
330
1E
100
AcDbEntity
  8
0
100
AcDbLine
 10
87.71705
 20
28.8873
 30
0.0
 11
89.13405
 21
35.1273
 31
0.0
  0
LINE
  5
466
330
1E
100
AcDbEntity
  8
0
100
AcDbLine
 10
80.99405
 20
28.8873
 30
0.0
 11
79.57705
 21
35.1273
 31
0.0
  0
LINE
  5
467
330
1E
100
AcDbEntity
  8
0
100
AcDbLine
 10
80.02405
 20
27.9273
 30
0.0
 11
78.55105
 21
34.3273
 31
0.0
  0
LINE
  5
468
330
1E
100
AcDbEntity
  8
0
100
AcDbLine
 10
90.21805
 20
43.2873
 30
0.0
 11
90.88505
 21
52.5673
 31
0.0
  0
LINE
  5
469
330
1E
100
AcDbEntity
  8
0
100
AcDbLine
 10
78.49305
 20
43.2873
 30
0.0
 11
77.82605
 21
52.5673
 31
0.0
  0
LINE
  5
46A
330
1E
100
AcDbEntity
  8
0
100
AcDbLine
 10
77.44005
 20
42.8073
 30
0.0
 11
76.77305
 21
52.4073
 31
0.0
  0
LINE
  5
46B
330
1E
100
AcDbEntity
  8
0
100
AcDbLine
 10
54.34505
 20
22.6473
 30
0.0
 11
50.87205
 21
22.6473
 31
0.0
  0
LINE
  5
46C
330
1E
100
AcDbEntity
  8
0
100
AcDbLine
 10
54.34505
 20
22.6473
 30
0.0
 11
68.41805
 21
22.6473
 31
0.0
  0
LINE
  5
46D
330
1E
100
AcDbEntity
  8
0
100
AcDbLine
 10
68.41805
 20
22.6473
 30
0.0
 11
54.34505
 21
22.6473
 31
0.0
  0
LINE
  5
46E
330
1E
100
AcDbEntity
  8
0
100
AcDbLine
 10
50.87205
 20
22.6473
 30
0.0
 11
49.09405
 21
24.0873
 31
0.0
  0
LINE
  5
46F
330
1E
100
AcDbEntity
  8
0
100
AcDbLine
 10
50.87205
 20
22.6473
 30
0.0
 11
54.34505
 21
22.6473
 31
0.0
  0
LINE
  5
470
330
1E
100
AcDbEntity
  8
0
100
AcDbLine
 10
49.09405
 20
24.0873
 30
0.0
 11
47.42705
 21
27.9273
 31
0.0
  0
LINE
  5
471
330
1E
100
AcDbEntity
  8
0
100
AcDbLine
 10
49.09405
 20
24.0873
 30
0.0
 11
47.42705
 21
27.9273
 31
0.0
  0
LINE
  5
472
330
1E
100
AcDbEntity
  8
0
100
AcDbLine
 10
47.42705
 20
27.9273
 30
0.0
 11
45.95405
 21
34.3273
 31
0.0
  0
LINE
  5
473
330
1E
100
AcDbEntity
  8
0
100
AcDbLine
 10
45.95405
 20
34.3273
 30
0.0
 11
44.84305
 21
42.8073
 31
0.0
  0
LINE
  5
474
330
1E
100
AcDbEntity
  8
0
100
AcDbLine
 10
44.84305
 20
42.8073
 30
0.0
 11
44.17605
 21
52.4073
 31
0.0
  0
LINE
  5
475
330
1E
100
AcDbEntity
  8
0
100
AcDbLine
 10
76.52305
 20
62.6473
 30
0.0
 11
76.77305
 21
72.8873
 31
0.0
  0
LINE
  5
476
330
1E
100
AcDbEntity
  8
0
100
AcDbLine
 10
91.13505
 20
62.6473
 30
0.0
 11
90.88505
 21
72.7273
 31
0.0
  0
LINE
  5
477
330
1E
100
AcDbEntity
  8
0
100
AcDbLine
 10
77.57605
 20
62.6473
 30
0.0
 11
77.82605
 21
72.7273
 31
0.0
  0
LINE
  5
478
330
1E
100
AcDbEntity
  8
0
100
AcDbLine
 10
90.21805
 20
82.0073
 30
0.0
 11
89.13405
 21
90.1673
 31
0.0
  0
LINE
  5
479
330
1E
100
AcDbEntity
  8
0
100
AcDbLine
 10
90.88505
 20
72.7273
 30
0.0
 11
90.21805
 21
82.0073
 31
0.0
  0
LINE
  5
47A
330
1E
100
AcDbEntity
  8
0
100
AcDbLine
 10
78.49305
 20
82.0073
 30
0.0
 11
79.57705
 21
90.1673
 31
0.0
  0
LINE
  5
47B
330
1E
100
AcDbEntity
  8
0
100
AcDbLine
 10
77.82605
 20
72.7273
 30
0.0
 11
78.49305
 21
82.0073
 31
0.0
  0
LINE
  5
47C
330
1E
100
AcDbEntity
  8
0
100
AcDbLine
 10
77.44005
 20
82.4873
 30
0.0
 11
78.55105
 21
90.9673
 31
0.0
  0
LINE
  5
47D
330
1E
100
AcDbEntity
  8
0
100
AcDbLine
 10
76.77305
 20
72.8873
 30
0.0
 11
77.44005
 21
82.4873
 31
0.0
  0
LINE
  5
47E
330
1E
100
AcDbEntity
  8
0
100
AcDbLine
 10
44.17605
 20
72.8873
 30
0.0
 11
44.84305
 21
82.4873
 31
0.0
  0
LINE
  5
47F
330
1E
100
AcDbEntity
  8
0
100
AcDbLine
 10
43.92605
 20
62.6473
 30
0.0
 11
44.17605
 21
72.8873
 31
0.0
  0
LINE
  5
480
330
1E
100
AcDbEntity
  8
0
100
AcDbLine
 10
52.86305
 20
87.6473
 30
0.0
 11
62.71105
 21
88.6473
 31
0.0
  0
LINE
  5
481
330
1E
100
AcDbEntity
  8
0
100
AcDbLine
 10
42.26305
 20
87.6473
 30
0.0
 11
60.97405
 21
88.6473
 31
0.0
  0
LINE
  5
482
330
1E
100
AcDbEntity
  8
0
100
AcDbLine
 10
65.40505
 20
89.447
 30
0.0
 11
66.30305
 21
90.2191
 31
0.0
  0
LINE
  5
483
330
1E
100
AcDbEntity
  8
0
100
AcDbLine
 10
66.30305
 20
90.2191
 30
0.0
 11
67.00705
 21
91.2157
 31
0.0
  0
LINE
  5
484
330
1E
100
AcDbEntity
  8
0
100
AcDbLine
 10
64.34105
 20
88.9276
 30
0.0
 11
65.40505
 21
89.447
 31
0.0
  0
LINE
  5
485
330
1E
100
AcDbEntity
  8
0
100
AcDbLine
 10
62.71105
 20
88.6473
 30
0.0
 11
64.34105
 21
88.9276
 31
0.0
  0
LINE
  5
486
330
1E
100
AcDbEntity
  8
0
100
AcDbLine
 10
60.97405
 20
88.6473
 30
0.0
 11
62.60505
 21
88.9276
 31
0.0
  0
LINE
  5
487
330
1E
100
AcDbEntity
  8
0
100
AcDbLine
 10
62.60505
 20
88.9276
 30
0.0
 11
63.66805
 21
89.447
 31
0.0
  0
LINE
  5
488
330
1E
100
AcDbEntity
  8
0
100
AcDbLine
 10
63.66805
 20
89.447
 30
0.0
 11
64.56605
 21
90.2191
 31
0.0
  0
LINE
  5
489
330
1E
100
AcDbEntity
  8
0
100
AcDbLine
 10
64.56605
 20
90.2191
 30
0.0
 11
65.27105
 21
91.2157
 31
0.0
  0
LINE
  5
48A
330
1E
100
AcDbEntity
  8
0
100
AcDbLine
 10
50.97805
 20
87.6473
 30
0.0
 11
52.86305
 21
87.6473
 31
0.0
  0
LINE
  5
48B
330
1E
100
AcDbEntity
  8
0
100
AcDbLine
 10
50.97805
 20
87.6473
 30
0.0
 11
49.70705
 21
87.6473
 31
0.0
  0
LINE
  5
48C
330
1E
100
AcDbEntity
  8
0
100
AcDbLine
 10
49.70705
 20
87.6473
 30
0.0
 11
50.97805
 21
87.6473
 31
0.0
  0
LINE
  5
48D
330
1E
100
AcDbEntity
  8
0
100
AcDbLine
 10
49.70705
 20
87.6473
 30
0.0
 11
48.90505
 21
87.6473
 31
0.0
  0
LINE
  5
48E
330
1E
100
AcDbEntity
  8
0
100
AcDbLine
 10
48.90505
 20
87.6473
 30
0.0
 11
49.70705
 21
87.6473
 31
0.0
  0
LINE
  5
48F
330
1E
100
AcDbEntity
  8
0
100
AcDbLine
 10
48.90505
 20
87.6473
 30
0.0
 11
48.80705
 21
87.6473
 31
0.0
  0
LINE
  5
490
330
1E
100
AcDbEntity
  8
0
100
AcDbLine
 10
48.80705
 20
87.6473
 30
0.0
 11
48.90505
 21
87.6473
 31
0.0
  0
LINE
  5
491
330
1E
100
AcDbEntity
  8
0
100
AcDbLine
 10
52.86305
 20
87.6473
 30
0.0
 11
42.26305
 21
87.6473
 31
0.0
  0
LINE
  5
492
330
1E
100
AcDbEntity
  8
0
100
AcDbLine
 10
52.86305
 20
87.6473
 30
0.0
 11
50.97805
 21
87.6473
 31
0.0
  0
LINE
  5
493
330
1E
100
AcDbEntity
  8
0
100
AcDbLine
 10
45.519083018868
 20
87.6473
 30
0.0
 11
42.26305
 21
87.6473
 31
0.0
  0
LINE
  5
494
330
1E
100
AcDbEntity
  8
0
100
AcDbLine
 10
44.84305
 20
82.4873
 30
0.0
 11
45.519083018868
 21
87.6473
 31
0.0
  0
LINE
  5
495
330
1E
100
AcDbEntity
  8
0
100
AcDbLine
 10
42.26305
 20
87.6473
 30
0.0
 11
52.86305
 21
87.6473
 31
0.0
  0
LINE
  5
496
330
1E
100
AcDbEntity
  8
0
100
AcDbLine
 10
42.26305
 20
87.6473
 30
0.0
 11
45.519083018868
 21
87.6473
 31
0.0
  0
LINE
  5
497
330
1E
100
AcDbEntity
  8
0
100
AcDbLine
 10
50.87205
 20
102.6473
 30
0.0
 11
81.40105
 21
102.6473
 31
0.0
  0
LINE
  5
498
330
1E
100
AcDbEntity
  8
0
100
AcDbLine
 10
81.40105
 20
102.6473
 30
0.0
 11
50.87205
 21
102.6473
 31
0.0
  0
LINE
  5
499
330
1E
100
AcDbEntity
  8
0
100
AcDbLine
 10
87.71705
 20
96.4073
 30
0.0
 11
86.10605
 21
100.2473
 31
0.0
  0
LINE
  5
49A
330
1E
100
AcDbEntity
  8
0
100
AcDbLine
 10
80.99405
 20
96.4073
 30
0.0
 11
82.60505
 21
100.2473
 31
0.0
  0
LINE
  5
49B
330
1E
100
AcDbEntity
  8
0
100
AcDbLine
 10
86.10605
 20
100.2473
 30
0.0
 11
85.24705
 21
101.2073
 31
0.0
  0
LINE
  5
49C
330
1E
100
AcDbEntity
  8
0
100
AcDbLine
 10
86.10605
 20
100.2473
 30
0.0
 11
84.35505
 21
101.6873
 31
0.0
  0
LINE
  5
49D
330
1E
100
AcDbEntity
  8
0
100
AcDbLine
 10
85.24705
 20
101.2073
 30
0.0
 11
83.46905
 21
102.6473
 31
0.0
  0
LINE
  5
49E
330
1E
100
AcDbEntity
  8
0
100
AcDbLine
 10
82.60505
 20
100.2473
 30
0.0
 11
84.35505
 21
101.6873
 31
0.0
  0
LINE
  5
49F
330
1E
100
AcDbEntity
  8
0
100
AcDbLine
 10
81.69105
 20
101.2073
 30
0.0
 11
83.46905
 21
102.6473
 31
0.0
  0
LINE
  5
4A0
330
1E
100
AcDbEntity
  8
0
100
AcDbLine
 10
80.02405
 20
97.3673
 30
0.0
 11
81.69105
 21
101.2073
 31
0.0
  0
LINE
  5
4A1
330
1E
100
AcDbEntity
  8
0
100
AcDbLine
 10
90.89505
 20
101.6473
 30
0.0
 11
90.08305
 21
102.6473
 31
0.0
  0
LINE
  5
4A2
330
1E
100
AcDbEntity
  8
0
100
AcDbLine
 10
90.89505
 20
101.6473
 30
0.0
 11
84.703772222222
 21
101.6473
 31
0.0
  0
LINE
  5
4A3
330
1E
100
AcDbEntity
  8
0
100
AcDbLine
 10
90.08305
 20
102.6473
 30
0.0
 11
83.46905
 21
102.6473
 31
0.0
  0
LINE
  5
4A4
330
1E
100
AcDbEntity
  8
0
100
AcDbLine
 10
84.703772222222
 20
101.6473
 30
0.0
 11
90.89505
 21
101.6473
 31
0.0
  0
LINE
  5
4A5
330
1E
100
AcDbEntity
  8
0
100
AcDbLine
 10
83.46905
 20
102.6473
 30
0.0
 11
90.08305
 21
102.6473
 31
0.0
  0
LINE
  5
4A6
330
1E
100
AcDbEntity
  8
0
100
AcDbLine
 10
83.46905
 20
102.6473
 30
0.0
 11
81.40105
 21
102.6473
 31
0.0
  0
LINE
  5
4A7
330
1E
100
AcDbEntity
  8
0
100
AcDbLine
 10
81.40105
 20
102.6473
 30
0.0
 11
83.46905
 21
102.6473
 31
0.0
  0
LINE
  5
4A8
330
1E
100
AcDbEntity
  8
0
100
AcDbLine
 10
67.49105
 20
92.3948
 30
0.0
 11
67.63505
 21
93.6473
 31
0.0
  0
LINE
  5
4A9
330
1E
100
AcDbEntity
  8
0
100
AcDbLine
 10
65.75405
 20
92.3948
 30
0.0
 11
65.89905
 21
93.6473
 31
0.0
  0
LINE
  5
4AA
330
1E
100
AcDbEntity
  8
0
100
AcDbLine
 10
67.63505
 20
93.6473
 30
0.0
 11
67.49105
 21
94.8998
 31
0.0
  0
LINE
  5
4AB
330
1E
100
AcDbEntity
  8
0
100
AcDbLine
 10
66.30305
 20
97.0755
 30
0.0
 11
65.40505
 21
97.8476
 31
0.0
  0
LINE
  5
4AC
330
1E
100
AcDbEntity
  8
0
100
AcDbLine
 10
67.00705
 20
96.0789
 30
0.0
 11
66.30305
 21
97.0755
 31
0.0
  0
LINE
  5
4AD
330
1E
100
AcDbEntity
  8
0
100
AcDbLine
 10
67.49105
 20
94.8998
 30
0.0
 11
67.00705
 21
96.0789
 31
0.0
  0
LINE
  5
4AE
330
1E
100
AcDbEntity
  8
0
100
AcDbLine
 10
65.40505
 20
97.8476
 30
0.0
 11
64.34105
 21
98.367
 31
0.0
  0
LINE
  5
4AF
330
1E
100
AcDbEntity
  8
0
100
AcDbLine
 10
62.71105
 20
98.6473
 30
0.0
 11
52.86305
 21
99.6473
 31
0.0
  0
LINE
  5
4B0
330
1E
100
AcDbEntity
  8
0
100
AcDbLine
 10
64.34105
 20
98.367
 30
0.0
 11
62.71105
 21
98.6473
 31
0.0
  0
LINE
  5
4B1
330
1E
100
AcDbEntity
  8
0
100
AcDbLine
 10
52.86305
 20
99.6473
 30
0.0
 11
42.26305
 21
99.6473
 31
0.0
  0
LINE
  5
4B2
330
1E
100
AcDbEntity
  8
0
100
AcDbLine
 10
60.97405
 20
98.6473
 30
0.0
 11
42.26305
 21
99.6473
 31
0.0
  0
LINE
  5
4B3
330
1E
100
AcDbEntity
  8
0
100
AcDbLine
 10
62.60505
 20
98.367
 30
0.0
 11
60.97405
 21
98.6473
 31
0.0
  0
LINE
  5
4B4
330
1E
100
AcDbEntity
  8
0
100
AcDbLine
 10
63.66805
 20
97.8476
 30
0.0
 11
62.60505
 21
98.367
 31
0.0
  0
LINE
  5
4B5
330
1E
100
AcDbEntity
  8
0
100
AcDbLine
 10
64.56605
 20
97.0755
 30
0.0
 11
63.66805
 21
97.8476
 31
0.0
  0
LINE
  5
4B6
330
1E
100
AcDbEntity
  8
0
100
AcDbLine
 10
65.27105
 20
96.0789
 30
0.0
 11
64.56605
 21
97.0755
 31
0.0
  0
LINE
  5
4B7
330
1E
100
AcDbEntity
  8
0
100
AcDbLine
 10
65.75405
 20
94.8998
 30
0.0
 11
65.27105
 21
96.0789
 31
0.0
  0
LINE
  5
4B8
330
1E
100
AcDbEntity
  8
0
100
AcDbLine
 10
65.89905
 20
93.6473
 30
0.0
 11
65.75405
 21
94.8998
 31
0.0
  0
LINE
  5
4B9
330
1E
100
AcDbEntity
  8
0
100
AcDbLine
 10
49.09405
 20
101.2073
 30
0.0
 11
50.87205
 21
102.6473
 31
0.0
  0
LINE
  5
4BA
330
1E
100
AcDbEntity
  8
0
100
AcDbLine
 10
48.41683125
 20
99.6473
 30
0.0
 11
49.09405
 21
101.2073
 31
0.0
  0
LINE
  5
4BB
330
1E
100
AcDbEntity
  8
0
100
AcDbLine
 10
42.26305
 20
99.6473
 30
0.0
 11
52.86305
 21
99.6473
 31
0.0
  0
LINE
  5
4BC
330
1E
100
AcDbEntity
  8
0
100
AcDbLine
 10
40.038895044074
 20
48.246823544587
 30
0.0
 11
40.038895044074
 21
56.059557937402
 31
0.0
  0
LINE
  5
4BD
330
1E
100
AcDbEntity
  8
0
100
AcDbLine
 10
40.038895044074
 20
56.059557937402
 30
0.0
 11
40.024620178764
 21
77.047659537293
 31
0.0
  0
ENDSEC
  0
SECTION
  2
OBJECTS
  0
DICTIONARY
  5
C
330
0
100
AcDbDictionary
281
     1
  3
ACAD_GROUP
350
D
  3
ACAD_LAYOUT
350
19
  3
ACAD_MLEADERSTYLE
350
4C0
  3
ACAD_MLINESTYLE
350
16
  3
ACAD_PLOTSETTINGS
350
18
  3
ACAD_PLOTSTYLENAME
350
E
  3
ACAD_SCALELIST
350
39D
  3
AcDbVariableDictionary
350
39A
  3
DWGPROPS
350
4C3
  0
DICTIONARY
  5
D
102
{ACAD_REACTORS
330
C
102
}
330
C
100
AcDbDictionary
281
     1
  0
DICTIONARY
  5
19
102
{ACAD_REACTORS
330
C
102
}
330
C
100
AcDbDictionary
281
     1
  3
Layout1
350
1D
  3
Model
350
21
  0
DICTIONARY
  5
4C0
102
{ACAD_REACTORS
330
C
102
}
330
C
100
AcDbDictionary
281
     1
  0
DICTIONARY
  5
16
102
{ACAD_REACTORS
330
C
102
}
330
C
100
AcDbDictionary
281
     1
  3
Standard
350
17
  0
DICTIONARY
  5
18
102
{ACAD_REACTORS
330
C
102
}
330
C
100
AcDbDictionary
281
     1
  0
ACDBDICTIONARYWDFLT
  5
E
102
{ACAD_REACTORS
330
C
102
}
330
C
100
AcDbDictionary
281
     1
  3
Normal
350
F
100
AcDbDictionaryWithDefault
340
F
  0
DICTIONARY
  5
39D
102
{ACAD_REACTORS
330
C
102
}
330
C
100
AcDbDictionary
281
     1
  3
A0
350
39E
  3
A1
350
39F
  3
A2
350
3A0
  3
A3
350
3A1
  3
A4
350
3A2
  3
A5
350
3A3
  3
A6
350
3A4
  3
A7
350
3A5
  3
A8
350
3A6
  3
A9
350
3A7
  3
B0
350
3A8
  3
B1
350
3A9
  3
B2
350
3AA
  3
B3
350
3AB
  3
B4
350
3AC
  3
B5
350
3AD
  3
B6
350
3AE
  3
B7
350
3AF
  3
B8
350
3B0
  3
B9
350
3B1
  3
C0
350
3B2
  3
C1
350
3B3
  3
C2
350
3B4
  3
C3
350
3B5
  3
C4
350
3B6
  3
C5
350
3B7
  3
C6
350
3B8
  3
C7
350
3B9
  3
C8
350
3BA
  3
C9
350
3BB
  3
D0
350
3BC
  3
D1
350
3BD
  3
D2
350
3BE
  0
DICTIONARY
  5
39A
102
{ACAD_REACTORS
330
C
102
}
330
C
100
AcDbDictionary
281
     1
  3
CANNOSCALE
350
4C1
  3
DIMASSOC
350
39B
  0
XRECORD
  5
4C3
102
{ACAD_REACTORS
330
C
102
}
330
C
100
AcDbXrecord
280
     1
  1
DWGPROPS COOKIE
  2

  3

  4

  6

  7

  8
MARTIN
  9

300
=
301
=
302
=
303
=
304
=
305
=
306
=
307
=
308
=
309
=
 40
0.0
 41
2454780.759195949
 42
2456213.479361435
  1

 90
        0
  0
LAYOUT
  5
1D
102
{ACAD_REACTORS
330
19
102
}
330
19
100
AcDbPlotSettings
  1

  2
hp deskjet 980c series
  4

  6

 40
0.0
 41
0.0
 42
0.0
 43
0.0
 44
0.0
 45
0.0
 46
0.0
 47
0.0
 48
0.0
 49
0.0
140
0.0
141
0.0
142
1.0
143
1.0
 70
   688
 72
     0
 73
     0
 74
     5
  7

 75
    16
147
1.0
148
0.0
149
0.0
100
AcDbLayout
  1
Layout1
 70
     1
 71
     1
 10
0.0
 20
0.0
 11
12.0
 21
9.0
 12
0.0
 22
0.0
 32
0.0
 14
1.000000000000E+20
 24
1.000000000000E+20
 34
1.000000000000E+20
 15
-1.000000000000E+20
 25
-1.000000000000E+20
 35
-1.000000000000E+20
146
0.0
 13
0.0
 23
0.0
 33
0.0
 16
1.0
 26
0.0
 36
0.0
 17
0.0
 27
1.0
 37
0.0
 76
     0
330
1A
  0
LAYOUT
  5
21
102
{ACAD_REACTORS
330
19
102
}
330
19
100
AcDbPlotSettings
  1

  2
hp deskjet 980c series
  4

  6

 40
0.0
 41
0.0
 42
0.0
 43
0.0
 44
0.0
 45
0.0
 46
0.0
 47
0.0
 48
0.0
 49
0.0
140
0.0
141
0.0
142
1.0
143
1.0
 70
  1712
 72
     0
 73
     0
 74
     0
  7

 75
     0
147
1.0
148
0.0
149
0.0
100
AcDbLayout
  1
Model
 70
     1
 71
     0
 10
0.0
 20
0.0
 11
12.0
 21
9.0
 12
0.0
 22
0.0
 32
0.0
 14
0.0
 24
0.0
 34
0.0
 15
574.81125
 25
102.75
 35
0.0
146
0.0
 13
0.0
 23
0.0
 33
0.0
 16
1.0
 26
0.0
 36
0.0
 17
0.0
 27
1.0
 37
0.0
 76
     0
330
1E
331
39C
  0
MLINESTYLE
  5
17
102
{ACAD_REACTORS
330
16
102
}
330
16
100
AcDbMlineStyle
  2
STANDARD
 70
     0
  3

 62
   256
 51
90.0
 52
90.0
 71
     2
 49
0.5
 62
   256
  6
BYLAYER
 49
-0.5
 62
   256
  6
BYLAYER
  0
ACDBPLACEHOLDER
  5
F
102
{ACAD_REACTORS
330
E
102
}
330
E
  0
SCALE
  5
39E
102
{ACAD_REACTORS
330
39D
102
}
330
39D
100
AcDbScale
 70
     0
300
1:1
140
1.0
141
1.0
290
     1
  0
SCALE
  5
39F
102
{ACAD_REACTORS
330
39D
102
}
330
39D
100
AcDbScale
 70
     0
300
1:2
140
1.0
141
2.0
290
     0
  0
SCALE
  5
3A0
102
{ACAD_REACTORS
330
39D
102
}
330
39D
100
AcDbScale
 70
     0
300
1:4
140
1.0
141
4.0
290
     0
  0
SCALE
  5
3A1
102
{ACAD_REACTORS
330
39D
102
}
330
39D
100
AcDbScale
 70
     0
300
1:5
140
1.0
141
5.0
290
     0
  0
SCALE
  5
3A2
102
{ACAD_REACTORS
330
39D
102
}
330
39D
100
AcDbScale
 70
     0
300
1:8
140
1.0
141
8.0
290
     0
  0
SCALE
  5
3A3
102
{ACAD_REACTORS
330
39D
102
}
330
39D
100
AcDbScale
 70
     0
300
1:10
140
1.0
141
10.0
290
     0
  0
SCALE
  5
3A4
102
{ACAD_REACTORS
330
39D
102
}
330
39D
100
AcDbScale
 70
     0
300
1:16
140
1.0
141
16.0
290
     0
  0
SCALE
  5
3A5
102
{ACAD_REACTORS
330
39D
102
}
330
39D
100
AcDbScale
 70
     0
300
1:20
140
1.0
141
20.0
290
     0
  0
SCALE
  5
3A6
102
{ACAD_REACTORS
330
39D
102
}
330
39D
100
AcDbScale
 70
     0
300
1:30
140
1.0
141
30.0
290
     0
  0
SCALE
  5
3A7
102
{ACAD_REACTORS
330
39D
102
}
330
39D
100
AcDbScale
 70
     0
300
1:40
140
1.0
141
40.0
290
     0
  0
SCALE
  5
3A8
102
{ACAD_REACTORS
330
39D
102
}
330
39D
100
AcDbScale
 70
     0
300
1:50
140
1.0
141
50.0
290
     0
  0
SCALE
  5
3A9
102
{ACAD_REACTORS
330
39D
102
}
330
39D
100
AcDbScale
 70
     0
300
1:100
140
1.0
141
100.0
290
     0
  0
SCALE
  5
3AA
102
{ACAD_REACTORS
330
39D
102
}
330
39D
100
AcDbScale
 70
     0
300
2:1
140
2.0
141
1.0
290
     0
  0
SCALE
  5
3AB
102
{ACAD_REACTORS
330
39D
102
}
330
39D
100
AcDbScale
 70
     0
300
4:1
140
4.0
141
1.0
290
     0
  0
SCALE
  5
3AC
102
{ACAD_REACTORS
330
39D
102
}
330
39D
100
AcDbScale
 70
     0
300
8:1
140
8.0
141
1.0
290
     0
  0
SCALE
  5
3AD
102
{ACAD_REACTORS
330
39D
102
}
330
39D
100
AcDbScale
 70
     0
300
10:1
140
10.0
141
1.0
290
     0
  0
SCALE
  5
3AE
102
{ACAD_REACTORS
330
39D
102
}
330
39D
100
AcDbScale
 70
     0
300
100:1
140
100.0
141
1.0
290
     0
  0
SCALE
  5
3AF
102
{ACAD_REACTORS
330
39D
102
}
330
39D
100
AcDbScale
 70
     0
300
1/128" = 1'-0"
140
0.0078125
141
12.0
290
     0
  0
SCALE
  5
3B0
102
{ACAD_REACTORS
330
39D
102
}
330
39D
100
AcDbScale
 70
     0
300
1/64" = 1'-0"
140
0.015625
141
12.0
290
     0
  0
SCALE
  5
3B1
102
{ACAD_REACTORS
330
39D
102
}
330
39D
100
AcDbScale
 70
     0
300
1/32" = 1'-0"
140
0.03125
141
12.0
290
     0
  0
SCALE
  5
3B2
102
{ACAD_REACTORS
330
39D
102
}
330
39D
100
AcDbScale
 70
     0
300
1/16" = 1'-0"
140
0.0625
141
12.0
290
     0
  0
SCALE
  5
3B3
102
{ACAD_REACTORS
330
39D
102
}
330
39D
100
AcDbScale
 70
     0
300
3/32" = 1'-0"
140
0.09375
141
12.0
290
     0
  0
SCALE
  5
3B4
102
{ACAD_REACTORS
330
39D
102
}
330
39D
100
AcDbScale
 70
     0
300
1/8" = 1'-0"
140
0.125
141
12.0
290
     0
  0
SCALE
  5
3B5
102
{ACAD_REACTORS
330
39D
102
}
330
39D
100
AcDbScale
 70
     0
300
3/16" = 1'-0"
140
0.1875
141
12.0
290
     0
  0
SCALE
  5
3B6
102
{ACAD_REACTORS
330
39D
102
}
330
39D
100
AcDbScale
 70
     0
300
1/4" = 1'-0"
140
0.25
141
12.0
290
     0
  0
SCALE
  5
3B7
102
{ACAD_REACTORS
330
39D
102
}
330
39D
100
AcDbScale
 70
     0
300
3/8" = 1'-0"
140
0.375
141
12.0
290
     0
  0
SCALE
  5
3B8
102
{ACAD_REACTORS
330
39D
102
}
330
39D
100
AcDbScale
 70
     0
300
1/2" = 1'-0"
140
0.5
141
12.0
290
     0
  0
SCALE
  5
3B9
102
{ACAD_REACTORS
330
39D
102
}
330
39D
100
AcDbScale
 70
     0
300
3/4" = 1'-0"
140
0.75
141
12.0
290
     0
  0
SCALE
  5
3BA
102
{ACAD_REACTORS
330
39D
102
}
330
39D
100
AcDbScale
 70
     0
300
1" = 1'-0"
140
1.0
141
12.0
290
     0
  0
SCALE
  5
3BB
102
{ACAD_REACTORS
330
39D
102
}
330
39D
100
AcDbScale
 70
     0
300
1-1/2" = 1'-0"
140
1.5
141
12.0
290
     0
  0
SCALE
  5
3BC
102
{ACAD_REACTORS
330
39D
102
}
330
39D
100
AcDbScale
 70
     0
300
3" = 1'-0"
140
3.0
141
12.0
290
     0
  0
SCALE
  5
3BD
102
{ACAD_REACTORS
330
39D
102
}
330
39D
100
AcDbScale
 70
     0
300
6" = 1'-0"
140
6.0
141
12.0
290
     0
  0
SCALE
  5
3BE
102
{ACAD_REACTORS
330
39D
102
}
330
39D
100
AcDbScale
 70
     0
300
1'-0" = 1'-0"
140
12.0
141
12.0
290
     0
  0
DICTIONARYVAR
  5
4C1
102
{ACAD_REACTORS
330
39A
102
}
330
39A
100
DictionaryVariables
280
     0
  1
1:1
  0
DICTIONARYVAR
  5
39B
102
{ACAD_REACTORS
330
39A
102
}
330
39A
100
DictionaryVariables
280
     0
  1
1
  0
ENDSEC
  0
SECTION
  2
THUMBNAILIMAGE
 90
    16364
310
28000000B40000005500000001000800000000000000000000000000000000000000000000000000FFFFFF000000FF0000FFFF0000FF0000FFFF0000FF000000FF00FF000000000080808000C0C0C0000000FF007F7FFF000000A5005252A50000007F003F3F7F0000004C0026264C000000260013132600003FFF007F9FFF
310
000029A5005267A500001F7F003F4F7F0000134C00262F4C000009260013172600007FFF007FBFFF000052A500527CA500003F7F003F5F7F0000264C0026394C0000132600131C260000BFFF007FDFFF00007CA5005291A500005F7F003F6F7F0000394C0026424C00001C26001321260000FFFF007FFFFF0000A5A50052A5
310
A500007F7F003F7F7F00004C4C00264C4C00002626001326260000FFBF007FFFDF0000A57C0052A59100007F5F003F7F6F00004C3900264C420000261C001326210000FF7F007FFFBF0000A5520052A57C00007F3F003F7F5F00004C2600264C39000026130013261C0000FF3F007FFF9F0000A5290052A56700007F1F003F
310
7F4F00004C1300264C2F00002609001326170000FF00007FFF7F0000A5000052A55200007F00003F7F3F00004C0000264C260000260000132613003FFF00009FFF7F0029A5000067A552001F7F00004F7F3F00134C00002F4C260009260000172613007FFF0000BFFF7F0052A500007CA552003F7F00005F7F3F00264C0000
310
394C2600132600001C261300BFFF0000DFFF7F007CA5000091A552005F7F00006F7F3F00394C0000424C26001C26000021261300FFFF0000FFFF7F00A5A50000A5A552007F7F00007F7F3F004C4C00004C4C26002626000026261300FFBF0000FFDF7F00A57C0000A59152007F5F00007F6F3F004C3900004C422600261C00
310
0026211300FF7F0000FFBF7F00A5520000A57C52007F3F00007F5F3F004C2600004C39260026130000261C1300FF3F0000FF9F7F00A5290000A56752007F1F00007F4F3F004C1300004C2F26002609000026171300FF000000FF7F7F00A5000000A55252007F0000007F3F3F004C0000004C2626002600000026131300FF00
310
3F00FF7F9F00A5002900A55267007F001F007F3F4F004C0013004C262F002600090026131700FF007F00FF7FBF00A5005200A5527C007F003F007F3F5F004C0026004C2639002600130026131C00FF00BF00FF7FDF00A5007C00A55291007F005F007F3F6F004C0039004C26420026001C0026132100FF00FF00FF7FFF00A5
310
00A500A552A5007F007F007F3F7F004C004C004C264C002600260026132600BF00FF00DF7FFF007C00A5009152A5005F007F006F3F7F0039004C0042264C001C002600211326007F00FF00BF7FFF005200A5007C52A5003F007F005F3F7F0026004C0039264C00130026001C1326003F00FF009F7FFF002900A5006752A500
310
1F007F004F3F7F0013004C002F264C000900260017132600000000002D2D2D005B5B5B0089898900B7B7B700B3B3B30000000000000000000000000000000000000000000000000000000000000000000000000000000000000000000000000000000000000000000000000000000000000000000000000000000000000000
310
00000000000000000000000000000000000000000000000000000000000000000000000000000000000000000000000000000000000000000000000000000000000000000000000000000000000000000000000000000000000000000000000000000000000000000000000000000000000000000000000000000000000000
310
00000000000000000000000000000000000000000000000000000000000000000000000000000000000000000000000000000000000000000000000000000000000000000000000000000000000000000000000000000000000000000000000000000000000000000000000000000000000000000000000000000000000000
310
00000000000000000000000000000000000000000000000000000000000000000000000000000000000000000000000000000000000000000000000000000000000000000000000000000000000000000000000000000000000000000000000000000000000000000000000000000000000000000000000000000000000000
310
00000000000000000000000000000000000000000000000000000000000000000000000000000000000000000000000000000000000000000000000000000000000000000000000000000000000000000000000000000000000000000000000000000000000000000000000000000000000000000000000000000000000000
310
00000000000000000000000000000000000000000000000000000000000000000000000000000000000000000000000000000000000000000000000000000000000000000000000000000000000000000000000000000000000000000000000000000000000000000000000000000000000000000000000000000000000000
310
00000000000000000000000000000000000000000000000000000000000000000000000000000000000000000000000000000000000000000000000000000000000000000000000000000000000000000000000000000000000000000000000000000000000000000000000000000000000000000000000000000000000000
310
00000000000000000000000000000000000000000000000000000000000000000000000000000000000000000000000000000000000000000000000000000000000000000000000000000000000000000000000000000000000000000000000000000000000000000000000000000000000000000000000000000000000000
310
00000000000000000000000000000000000000000000000000000000000000000000000000000000000000000000000000000000000000000000000000000000000000000000000000000000000000000000000000000000000000000000000000000000000000000000000000000000000000000000000000000000000000
310
00000000000000000000000000000000000000000000000000000000000000000000000000000000000000000000000000000000000000000000000000000000000000000000000000000000000000000000000000000000000000000000000000000000000000000000000000000000000000000000000000000000000000
310
00000000000000000000000000000000000000000000000000000000000000000000000000000000000000000000000000000000000000000000000000000000000000000000000000000000000000000000000000000000000000000000000000000000000000000000000000000000000000000000000000000000000000
310
00000000000000000000000000000000000000000000000000000000000000000000000000000000000000000000000000000000000000000000000000000000000000000000000000000000000000000000000000000000000000000000000000000000000000000000000000000000000000000000000000000000000000
310
00000000000000000000000000000000000000000000000000000000000000000000000000000000000000000000000000000000000000000000000000000000000000000000000000000000000000000000000000000000000000000000000000000000000000000000000000000000000000000000000000000000000000
310
00000000000000000000000000000000000000000000000000000000000000000000000000000000000000000000000000000000000000000000000000000000000000000000000000000000000000000000000000000000000000000000000000000000000000000000000000000000000000000000000000000000000000
310
00000000000000000000000000000000000000000000000000000000000000000000000000000000000000000000000000000000000000000000000000000000000000000000000000000000000000000000000000000000000000000000000000000000000000000000000000000000000000000000000000000000000000
310
00000000000000000000000000000000000000000000000000000000000000000000000000000000000000000000000000000000000000000000000000000000000000000000000000000000000000000000000000000000000000000000000000000000000000000000000000000000000000000000000000000000000000
310
00000000000000000000000000000000000000000000000000000000000000000000000000000000000000000000000000000000000000000000000000000000000000000000000000000000000000000000000000000000000000000000000000000000000000000000000000000000000000000000000000000000000000
310
00000000000000000000000000000000000000000000000000000000000000000000000000000000000000000000000000000000000000000000000000000000000000000000000000000000000000000000000000000000000000000000000000000000000000000000000000000000000000000000000000000000000000
310
00000000000000000000000000000000000000000000000000000000000000000000000000000000000000000000000000000000000000000000000000000000000000000000000000000000000000000000000000000000000000000000000000000000000000000000000000000000000000000000000000000000000000
310
00000000000000000000000000000000000000000000000000000000000000000000000000000000000000000000000000000000000000000000000000000000000000000000000000000000000000000000000000000000000000000000000000000000000000000000000000000000000000000000000000000000000000
310
00000000000000000000000000000000000000000000000000000000000000000000000000000000000000000000000000000000000000000000000000000000000000000000000000000000000000000000000000000000000000000000000000000000000000000000000000000000000000000000000000000000000000
310
00000000000000000000000000000000000000000000000000000000000000000000000000000000000000000000000000000000000000000000000000000000000000000000000000000000000000000000000000000000000000000000000000000000000000000000000000000000000000000000000000000000000000
310
00000000000000000000000000000000000000000000000000000000000000000000000000000000000000000000000000000000000000000000000000000000000000000000000000000000000000000000000000000000000000000000000000000000000000000000000000000000000000000000000000000000000000
310
00000000000000000000000000000000000000000000000000000000000000000000000000000000000000000000000000000000000000000000000000000000000000000000000000000000000000000000000000000000000000000000000000000000000000000000000000000000000000000000000000000000000000
310
00000000000000000000000000000000000000000000000000000000000000000000000000000000000000000000000000000000000000000000000000000000000000000000000000000000000000000000000000000000000000000000000000000000000000000000000000000000000000000000000000000000000000
310
00000000000000000000000000000000000000000000000000000000000000000000000000000000000000000000000000000000000000000000000000000000000000000000000000000000000000000000000000000000000000000000000000000000000000000000000000000000000000000000000000000000000000
310
00000000000000000000000000000000000000000000000000000000000000000000000000000000000000000000000000000000000000000000000000000000000000000000000000000000000000000000000000000000000000000000000000000000000000000000000000000000000000000000000000000000000000
310
00000000000000000000000000000000000000000000000000000000000000000000000000000000000000000000000000000000000000000000000000000000000000000000000000000000000000000000000000000000000000000000000000000000000000000000000000000000000000000000000000000000000000
310
00000000000000000000000000000000000000000000000000000000000000000000000000000000000000000000000000000000000000000000000000000000000000000000000000000000000000000000000000000000000000000000000000000000000000000000000000000000000000000000000000000000000000
310
00000000000000000000000000000000000000000000000000000000000000000000000000000000000000000000000000000000000000000000000000000000000000000000000000000000000000000000000000000000000000000000000000000000000000000000000000000000000000000000000000000000000000
310
00000000000000000000000000000000000000000000000000000000000000000000000000000000000000000000000000000000000000000000000000000000000000000000000000000000000000000000000000000000000000000000000000000000000000000000000000000000000000000000000000000000000000
310
00000000000000000000000000000000000000000000000000000000000000000000000000000000000000000000000000000000000000000000000000000000000000000000000000000000000000000000000000000000000000000000000000000000000000000000000000000000000000000000000000000000000000
310
00000000000000000000000000000000000000000000000000000000000000000000000000000000000000000000000000000000000000000000000000000000000000000000000000000000000000000000000000000000000000000000000000000000000000000000000000000000000000000000000000000000000000
310
00000000000000000000000000000000000000000000000000000000000000000000000000000000000000000000000000000000000000000000000000000000000000000000000000000000000000000000000000000000000000000000000000000000000000000000000000000000000000000000000000000000000000
310
00000000000000000000000000000000000000000000000000000000000000000000000000000000000000000000000000000000000000000000000000000000000000000000000000000000000000000000000000000000000000000000000000000000000000000000000000000000000000000000000000000000000000
310
00000000000000000000000000000000000000000000000000000000000000000000000000000000000000000000000000000000000000000000000000000000000000000000000000000000000000000000000000000000000000000000000000000000000000000000000000000000000000000000000000000000000000
310
00000000000000000000000000000000000000000000000000000000000000000000000000000000000000000000000000000000000000000000000000000000000000000000000000000000000000000000000000000000000000000000000000000000000000000000000000000000000000000000000000000000000000
310
00000000000000000000000000000000000000000000000000000000000000000000000000000000000000000000000000000000000000000000000000000000000000000000000000000000000000000000000000000000000000000000000000000000000000000000000000000000000000000000000000000000000000
310
00000000000000000000000000000000000000000000000000000000000000000000000000000000000000000000000000000000000000000000000000000000000000000000000000000000000000000000000000000000000000000000000000000000000000000000000000000000000000000000000000000000000000
310
00000000000000000000000000000000000000000000000000000000000000000000000000000000000000000000000000000000000000000000000000000000000000000000000000000000000000000000000000000000000000000000000000000000000000000000000000000000000000000000000000000000000000
310
00000000000000000000000000000000000000000707070707070707070707000000000000000000000000000000000000000000000000000000000000000000000000000000000000000000000000000000000000000000000000000000000000000000000000000000000000000000000000000000000000000000000000
310
00000000000000000000000000000000000000000000000000000000000000000000000000000000000000000000000000000000000000000000000000000000000000000000000000070000000000000000000700000000000000000000000000000000000000000000000000000000000000000000000000000000000000
310
00000000000000000000000000000000000000000000000000000000000000000000000000000000000000000000000000000000000000000000000000000000000000000000000000000000000000000000000000000000000000000000000000000000000000000000000000000000000000000000000000000000000007
310
00000000000000000007000000000000000000000000000000000000000000000000000000000000000000000000000000000000000000000000000000000000000000000000000000000000000000000000000000000000000000000000000000000000000000000000000000000000000000000000000000000000000000
310
00000000000000000000000000000000000000000000000000000000000000000000000000000000000000000000000000000000070000000000000000000700000000000000000000000000000000000000000000000000000000000000000000000000000000000000000000000000000000000000000000000000000000
310
00000000000000000000000000000000000000000000000000000000000000000000000000000000000000000000000000000000000000000000000000000000000000000000000000000000000000000000000000000000000000000000000000000000000000000007000000000000000000070000000000000000000000
310
00000000000000000000000000000000000000000000000000000000000000000000000000000000000000000000000000000000000000000000000000000000000000000000000000000000000000000000000000000000000000000000000000000000000000000000000000000000000000000000000000000000000000
310
00000000000000000000000000000000000000000000000000000000000000070000000000000000000700000000000000000000000000000000000000000000000000000000000000000000000000000000000000000000000000000000000000000000000000000000000000000000000000000000000000000000000000
310
00000000000000000000000000000000000000000000000000000000000000000000000000000000000000000000000000000000000000000000000000000000000000000000000000000000000000000000000007000000000000000007070707070707070707070707070707070000000000000000000000000000000000
310
00000000000000000000000000000000000000000000000000000000000000000000070707000000000000000000000000000000000000000000000000000000000000000000000000000000000000000000000000000000000000000000000000000000000000000000000000000000000000000000000000000000000000
310
00000000000000000000070000000000000000070007070700000000000000000700070700000000000000000000000000000000000000000000000000000000070707070707070707070707070707070707070700070707070707070000000000000000000000000000000000000000000000000000000000000000000000
310
00000000000000000000000000000000000000000000000000000000000000000000000000000000000000000000000000000000000000000000000000000007000000000000000700000707070000000000000000070007070000000000000000000000000000000007070707070707070707070707000000000700000700
310
00070000000000000007070000000000000007070000000000000000000000000000000000000000000000000000000000000000000000000000000000000000000000000000000000000000000000000000000000000000000000000000000000000000000000000000000000000000000000000700000000000000070000
310
07070700000000000000000700070700000000000000000000000000000000070000000000000000000000070000000007000007000007000000000007070000000000000000000000070707070707070707070707070707000000000000000000000000000000000000000000000000000000000000000000000000000000
310
00000000000000000000000000000000000000000000000000000000000000000000000000000000000007000000000000000700070707000000000000000007070007070000000000000000000000000000000007070707070707070707070707000000000700000700000700000000070700000000000000000000000000
310
07070000000000000000000707070707070707000000000000000007070707070000000000000000000000000000000000000000000007070707070707070707070707070000000000000000000000000000000000000000000000000000000700000000000000070007070700000000000000000707000007070707070707
310
07070707070707070707070707070707070707070707070707070707070707070707000000070700000000000000000000000000000700070000000000000007000007070707070707070707070707070700000007070707070707070707070707070707070707070707070707000000070000000000000000070000000000
310
00000000000000000000000000000000000000000007000000000000000700070707000000000000000007070000070000000000000000000000000000000000000000000000070000000000070000000700000000000700000007070000000000000000000000000000000707000000000000000700070000000000000000
310
00000000000007000000070000000000000000000000000000000000000000000000000000000007000000000000000007000000000000000000000000000000000000000000000000000700000000000000070007070700000000000000000700000007000000000000000000000000000000000000000000000007000000
310
00000707070707000000000007000007070000000000000000000000000000000007000700000000070700070000000000000000000000000000000707070707000000000000000000000000000000000000000000000000000000000007000000000000000007000000000000000000000000000000000000000000000000
310
07000000000000000700070707000000000000000007000000070000000000000000000000000000000000000000000000070000000000070000000700000000000700000707000000000000000000000000000000000007070000000007000700000000000000000000000000000000070000000700000000000000000000
310
00000000000000000000000000000000000000070000000000000000070000000000000000000000000000000000000000000000000700000000000000070007070700000000000000000700000007070000000000000000000000000000000000000000000007000000000007000000070000000000070000070700000000
310
00000000000000000000000000070700000000070700000000000000000000000000000000000700000007000000000000000000000000000000000000000000000000000000000007000000000000000007000000000000000000000000000000000000000000000000070000000000000007000707070000000000000000
310
07000000070700000000000000000000000000000000000000000000070000000000070000000700000000000700000700000000000000000000000000000000000007070000000007070000000000000000000000000000000000070000000700000000000000000000000000000000000000000000000000000000000700
310
00000000000000070000000000000000000000000000000000000000000000000700000000000000070007070700000000000000000700000007000000000000000000000000000000000000000000000007000000000007000000070000000000070707070000000000000000000000000000000000000000000000000707
310
00000000000000000000000000000000000700000007000000000000000000000000000000000000000000000000000000000000000000000000000000000000000000000000000000000000000000000000000000070000000000000007000707070000000000000000070000000707000000000000000000000000000000
310
00000000000000070000000000070000000700000000000000000700000000000000000000000000000000000007070000000007070000000000000000000000000000000000070000000700000000000000000000000000000000000000000000000000000000000700000000000000000700000000000000000000000000
310
00000000000000000000000700000707000000070007070700000000000000000700000007000000000000000000000000000000000000000000000007000000000007000000070000000000000000070700000000000000000000000000000000000707000000000700070000000000000000000000000000000007000000
310
07000000000000000000000000000000000000000000000000000000000007000000000000000007000000000000000000000000000000000000000000000000070007000007070007000707070000000000000000070000000700000000000000000000000000000000000000000000000700000000000707070707000000
310
00000000000707000000000000000000000000000000000700070000000007000007000000000000000000000000000000070707070700000000000000000000000000000000000000000000000000000000000700000000000000000700000000000000000000000000000000000000000000000007070000000007000700
310
07070700000000000000000707000007000000000000000000000000000000000000000000000007000000000007000000070000000000000000000707000000000000000000000000000000070700000000000007000007000000000000000000000000000007000000070000000000000000000000000000000000000000
310
00000000000000000700000000000000000700000000000000000000000000000000000000000000000000070700000000070007000707070000000000000000070700000707070707070707070707070707070707070707070707070707070707070700000007070707070707070707070700000000000000000000000000
310
00070007000000000000000700000707070707070707070707070707070000000707070707070707070707070707070707070707070707070700000000070000000000000007000000000000000000000000000000000000000000000000000000070700000007000700070707070707000000000007070007070000000000
310
00000000000000000000000000000000000000000000000007070707070000000000000000000007070000000000000000000000000007070000000000000000000707070000070707000000000000000007070707070000000000000000000000000000000000000000000007070000070707070707070707070000000000
310
00000000000000000000000000000000000000000000000007070707000007000007070000070707070000000700070700000000000000000000000000000000000000000000000000000000000000000007000000000000000000000007070000000000000000000000070707070707070707070707070707070700000000
310
00000000000000070000000000000000000000000000000000000000000000000000000007070000000000000000000000000000000000000000000000000000000000000000000000000000000000000700000700000707000000000007070000070007070000000000000000000000000000000000000000000000000000
310
00000000000000000000000000000000000000000707070000000000000007070700000000000000000000000000000000000000000000000000000000000000000000000000000000000000000000000000000000000000000000000000000000000000000000000000000000000000000000000000000000000000000000
310
00000000000007070707070007070000070707070000000700070700000000000000000000000000000000000000000000000000000000000000000000000000000000000000000000000007070707070707070700000000000000000000000000000000000000000000000000000000000000000000000000000000000000
310
00000000000000000000000000000000000000000000000000000000000000000000000000000000000000000000000000000000000000000000000000000007070707070707070707070707070707070000000000000000000000000000000000000000000000000000000000000000000000000000000000000000000000
310
00000000070707000000000000000000000000000000000000000000000000000000000000000000000000000000000000000000000000000000000000000000000000000000000000000000000000000000000000000000000000000000000000000000000000000000000000000000000000000000000000000000000000
310
00000000000000000000000000000000000000000000000000000000000000000000000000000000000000000000000000000000000000000000000000000000000000000000000000000000000000000000000000000000000000000000000000000000000000000000000000000000000000000000000000000000000000
310
00000000000000000000000000000000000000000000000000000000000000000000000000000000000000000000000000000000000000000000000000000000000000000000000000000000000000000000000000000000000000000000000000000000000000000000000000000000000000000000000000000000000000
310
00000000000000000000000000000000000000000000000000000000000000000000000000000000000000000000000000000000000000000000000000000000000000000000000000000000000000000000000000000000000000000000000000000000000000000000000000000000000000000000000000000000000000
310
00000000000000000000000000000000000000000000000000000000000000000000000000000000000000000000000000000000000000000000000000000000000000000000000000000000000000000000000000000000000000000000000000000000000000000000000000000000000000000000000000000000000000
310
00000000000000000000000000000000000000000000000000000000000000000000000000000000000000000000000000000000000000000000000000000000000000000000000000000000000000000000000000000000000000000000000000000000000000000000000000000000000000000000000000000000000000
310
00000000000000000000000000000000000000000000000000000000000000000000000000000000000000000000000000000000000000000000000000000000000000000000000000000000000000000000000000000000000000000000000000000000000000000000000000000000000000000000000000000000000000
310
00000000000000000000000000000000000000000000000000000000000000000000000000000000000000000000000000000000000000000000000000000000000000000000000000000000000000000000000000000000000000000000000000000000000000000000000000000000000000000000000000000000000000
310
00000000000000000000000000000000000000000000000000000000000000000000000000000000000000000000000000000000000000000000000000000000000000000000000000000000000000000000000000000000000000000000000000000000000000000000000000000000000000000000000000000000000000
310
00000000000000000000000000000000000000000000000000000000000000000000000000000000000000000000000000000000000000000000000000000000000000000000000000000000000000000000000000000000000000000000000000000000000000000000000000000000000000000000000000000000000000
310
00000000000000000000000000000000000000000000000000000000000000000000000000000000000000000000000000000000000000000000000000000000000000000000000000000000000000000000000000000000000000000000000000000000000000000000000000000000000000000000000000000000000000
310
00000000000000000000000000000000000000000000000000000000000000000000000000000000000000000000000000000000000000000000000000000000000000000000000000000000000000000000000000000000000000000000000000000000000000000000000000000000000000000000000000000000000000
310
00000000000000000000000000000000000000000000000000000000000000000000000000000000000000000000000000000000000000000000000000000000000000000000000000000000000000000000000000000000000000000000000000000000000000000000000000000000000000000000000000000000000000
310
00000000000000000000000000000000000000000000000000000000000000000000000000000000000000000000000000000000000000000000000000000000000000000000000000000000000000000000000000000000000000000000000000000000000000000000000000000000000000000000000000000000000000
310
00000000000000000000000000000000000000000000000000000000000000000000000000000000000000000000000000000000000000000000000000000000000000000000000000000000000000000000000000000000000000000000000000000000000000000000000000000000000000000000000000000000000000
310
00000000000000000000000000000000000000000000000000000000000000000000000000000000000000000000000000000000000000000000000000000000000000000000000000000000000000000000000000000000000000000000000000000000000000000000000000000000000000000000000000000000000000
310
00000000000000000000000000000000000000000000000000000000000000000000000000000000000000000000000000000000000000000000000000000000000000000000000000000000000000000000000000000000000000000000000000000000000000000000000000000000000000000000000000000000000000
310
00000000000000000000000000000000000000000000000000000000000000000000000000000000000000000000000000000000000000000000000000000000000000000000000000000000000000000000000000000000000000000000000000000000000000000000000000000000000000000000000000000000000000
310
00000000000000000000000000000000000000000000000000000000000000000000000000000000000000000000000000000000000000000000000000000000000000000000000000000000000000000000000000000000000000000000000000000000000000000000000000000000000000000000000000000000000000
310
00000000000000000000000000000000000000000000000000000000000000000000000000000000000000000000000000000000000000000000000000000000000000000000000000000000000000000000000000000000000000000000000000000000000000000000000000000000000000000000000000000000000000
310
00000000000000000000000000000000000000000000000000000000000000000000000000000000000000000000000000000000000000000000000000000000000000000000000000000000000000000000000000000000000000000000000000000000000000000000000000000000000000000000000000000000000000
310
00000000000000000000000000000000000000000000000000000000000000000000000000000000000000000000000000000000000000000000000000000000000000000000000000000000000000000000000000000000000000000000000000000000000000000000000000000000000000000000000000000000000000
310
00000000000000000000000000000000000000000000000000000000000000000000000000000000000000000000000000000000000000000000000000000000000000000000000000000000000000000000000000000000000000000000000000000000000000000000000000000000000000000000000000000000000000
310
00000000000000000000000000000000000000000000000000000000000000000000000000000000000000000000000000000000000000000000000000000000000000000000000000000000000000000000000000000000000000000000000000000000000000000000000000000000000000000000000000000000000000
310
00000000000000000000000000000000000000000000000000000000000000000000000000000000000000000000000000000000000000000000000000000000000000000000000000000000000000000000000000000000000000000000000000000000000000000000000000000000000000000000000000000000000000
310
00000000000000000000000000000000000000000000000000000000000000000000000000000000000000000000000000000000000000000000000000000000000000000000000000000000000000000000000000000000000000000000000000000000000000000000000000000000000000000000000000000000000000
310
00000000000000000000000000000000000000000000000000000000000000000000000000000000000000000000000000000000000000000000000000000000000000000000000000000000000000000000000000000000000000000000000000000000000000000000000000000000000000000000000000000000000000
310
00000000000000000000000000000000000000000000000000000000000000000000000000000000000000000000000000000000000000000000000000000000000000000000000000000000000000000000000000000000000000000000000000000000000000000000000000000000000000000000000000000000000000
310
00000000000000000000000000000000000000000000000000000000000000000000000000000000000000000000000000000000000000000000000000000000000000000000000000000000000000000000000000000000000000000000000000000000000000000000000000000000000000000000000000000000000000
310
00000000000000000000000000000000000000000000000000000000000000000000000000000000000000000000000000000000000000000000000000000000000000000000000000000000000000000000000000000000000000000000000000000000000000000000000000000000000000000000000000000000000000
310
00000000000000000000000000000000000000000000000000000000000000000000000000000000000000000000000000000000000000000000000000000000000000000000000000000000000000000000000000000000000000000000000000000000000000000000000000000000000000000000000000000000000000
310
00000000000000000000000000000000000000000000000000000000000000000000000000000000000000000000000000000000000000000000000000000000000000000000000000000000000000000000000000000000000000000000000000000000000000000000000000000000000000000000000000000000000000
310
00000000000000000000000000000000000000000000000000000000000000000000000000000000000000000000000000000000000000000000000000000000000000000000000000000000000000000000000000000000000000000000000000000000000000000000000000000000000000000000000000000000000000
310
00000000000000000000000000000000000000000000000000000000000000000000000000000000000000000000000000000000000000000000000000000000000000000000000000000000000000000000000000000000000000000000000000000000000000000000000000000000000000000000000000000000000000
310
00000000000000000000000000000000000000000000000000000000000000000000000000000000000000000000000000000000000000000000000000000000000000000000000000000000000000000000000000000000000000000000000000000000000000000000000000000000000000000000000000000000000000
310
00000000000000000000000000000000000000000000000000000000000000000000000000000000000000000000000000000000000000000000000000000000000000000000000000000000000000000000000000000000000000000000000000000000000000000000000000000000000000000000000000000000000000
310
00000000000000000000000000000000000000000000000000000000000000000000000000000000000000000000000000000000000000000000000000000000000000000000000000000000000000000000000000000000000000000000000000000000000000000000000000000000000000000000000000000000000000
310
00000000000000000000000000000000000000000000000000000000000000000000000000000000000000000000000000000000000000000000000000000000000000000000000000000000000000000000000000000000000000000000000000000000000000000000000000000000000000000000000000000000000000
310
00000000000000000000000000000000000000000000000000000000000000000000000000000000000000000000000000000000000000000000000000000000000000000000000000000000000000000000000000000000000000000000000000000000000000000000000000000000000000000000000000000000000000
310
00000000000000000000000000000000000000000000000000000000000000000000000000000000000000000000000000000000000000000000000000000000000000000000000000000000000000000000000000000000000000000000000000000000000000000000000000000000000000000000000000000000000000
310
00000000000000000000000000000000000000000000000000000000000000000000000000000000000000000000000000000000000000000000000000000000000000000000000000000000000000000000000000000000000000000000000000000000000000000000000000000000000000000000000000000000000000
310
000000000000000000000000000000000000000000000000000000000000000000000000000000000000000000000000000000000000000000000000000000000000000000000000000000000000000000000000000000000000000000000000000000000000000000000000
  0
ENDSEC
  0
EOF
