  0
SECTION
  2
HEADER
  9
$ACADVER
  1
AC1015
  9
$ACADMAINTVER
 70
     6
  9
$DWGCODEPAGE
  3
ANSI_1252
  9
$INSBASE
 10
0.0
 20
0.0
 30
0.0
  9
$EXTMIN
 10
0.18875
 20
-0.142
 30
0.0
  9
$EXTMAX
 10
574.81125
 20
595.271512922266
 30
0.0
  9
$LIMMIN
 10
0.0
 20
0.0
  9
$LIMMAX
 10
12.0
 20
9.0
  9
$ORTHOMODE
 70
     0
  9
$REGENMODE
 70
     1
  9
$FILLMODE
 70
     1
  9
$QTEXTMODE
 70
     0
  9
$MIRRTEXT
 70
     1
  9
$LTSCALE
 40
1.0
  9
$ATTMODE
 70
     1
  9
$TEXTSIZE
 40
0.2
  9
$TRACEWID
 40
0.05
  9
$TEXTSTYLE
  7
Standard
  9
$CLAYER
  8
0
  9
$CELTYPE
  6
Continuous
  9
$CECOLOR
 62
   256
  9
$CELTSCALE
 40
1.0
  9
$DISPSILH
 70
     0
  9
$DIMSCALE
 40
1.0
  9
$DIMASZ
 40
0.18
  9
$DIMEXO
 40
0.0625
  9
$DIMDLI
 40
0.38
  9
$DIMRND
 40
0.0
  9
$DIMDLE
 40
0.0
  9
$DIMEXE
 40
0.18
  9
$DIMTP
 40
0.0
  9
$DIMTM
 40
0.0
  9
$DIMTXT
 40
0.18
  9
$DIMCEN
 40
0.09
  9
$DIMTSZ
 40
0.0
  9
$DIMTOL
 70
     0
  9
$DIMLIM
 70
     0
  9
$DIMTIH
 70
     1
  9
$DIMTOH
 70
     1
  9
$DIMSE1
 70
     0
  9
$DIMSE2
 70
     0
  9
$DIMTAD
 70
     0
  9
$DIMZIN
 70
     0
  9
$DIMBLK
  1

  9
$DIMASO
 70
     1
  9
$DIMSHO
 70
     1
  9
$DIMPOST
  1

  9
$DIMAPOST
  1

  9
$DIMALT
 70
     0
  9
$DIMALTD
 70
     2
  9
$DIMALTF
 40
25.4
  9
$DIMLFAC
 40
1.0
  9
$DIMTOFL
 70
     0
  9
$DIMTVP
 40
0.0
  9
$DIMTIX
 70
     0
  9
$DIMSOXD
 70
     0
  9
$DIMSAH
 70
     0
  9
$DIMBLK1
  1

  9
$DIMBLK2
  1

  9
$DIMSTYLE
  2
Standard
  9
$DIMCLRD
 70
     0
  9
$DIMCLRE
 70
     0
  9
$DIMCLRT
 70
     0
  9
$DIMTFAC
 40
1.0
  9
$DIMGAP
 40
0.09
  9
$DIMJUST
 70
     0
  9
$DIMSD1
 70
     0
  9
$DIMSD2
 70
     0
  9
$DIMTOLJ
 70
     1
  9
$DIMTZIN
 70
     0
  9
$DIMALTZ
 70
     0
  9
$DIMALTTZ
 70
     0
  9
$DIMUPT
 70
     0
  9
$DIMDEC
 70
     4
  9
$DIMTDEC
 70
     4
  9
$DIMALTU
 70
     2
  9
$DIMALTTD
 70
     2
  9
$DIMTXSTY
  7
Standard
  9
$DIMAUNIT
 70
     0
  9
$DIMADEC
 70
     0
  9
$DIMALTRND
 40
0.0
  9
$DIMAZIN
 70
     0
  9
$DIMDSEP
 70
    46
  9
$DIMATFIT
 70
     3
  9
$DIMFRAC
 70
     0
  9
$DIMLDRBLK
  1

  9
$DIMLUNIT
 70
     2
  9
$DIMLWD
 70
    -2
  9
$DIMLWE
 70
    -2
  9
$DIMTMOVE
 70
     0
  9
$LUNITS
 70
     2
  9
$LUPREC
 70
     4
  9
$SKETCHINC
 40
0.1
  9
$FILLETRAD
 40
0.0
  9
$AUNITS
 70
     0
  9
$AUPREC
 70
     0
  9
$MENU
  1
.
  9
$ELEVATION
 40
0.0
  9
$PELEVATION
 40
0.0
  9
$THICKNESS
 40
0.0
  9
$LIMCHECK
 70
     0
  9
$CHAMFERA
 40
0.0
  9
$CHAMFERB
 40
0.0
  9
$CHAMFERC
 40
0.0
  9
$CHAMFERD
 40
0.0
  9
$SKPOLY
 70
     0
  9
$TDCREATE
 40
2454780.842533808
  9
$TDUCREATE
 40
2454780.759200475
  9
$TDUPDATE
 40
2456213.572805081
  9
$TDUUPDATE
 40
2456213.489471748
  9
$TDINDWG
 40
0.0163612153
  9
$TDUSRTIMER
 40
0.0163612153
  9
$USRTIMER
 70
     1
  9
$ANGBASE
 50
0.0
  9
$ANGDIR
 70
     0
  9
$PDMODE
 70
     0
  9
$PDSIZE
 40
0.0
  9
$PLINEWID
 40
0.0
  9
$SPLFRAME
 70
     0
  9
$SPLINETYPE
 70
     6
  9
$SPLINESEGS
 70
     8
  9
$HANDSEED
  5
5B3
  9
$SURFTAB1
 70
     6
  9
$SURFTAB2
 70
     6
  9
$SURFTYPE
 70
     6
  9
$SURFU
 70
     6
  9
$SURFV
 70
     6
  9
$UCSBASE
  2

  9
$UCSNAME
  2

  9
$UCSORG
 10
0.0
 20
0.0
 30
0.0
  9
$UCSXDIR
 10
1.0
 20
0.0
 30
0.0
  9
$UCSYDIR
 10
0.0
 20
1.0
 30
0.0
  9
$UCSORTHOREF
  2

  9
$UCSORTHOVIEW
 70
     1
  9
$UCSORGTOP
 10
0.0
 20
0.0
 30
0.0
  9
$UCSORGBOTTOM
 10
0.0
 20
0.0
 30
0.0
  9
$UCSORGLEFT
 10
0.0
 20
0.0
 30
0.0
  9
$UCSORGRIGHT
 10
0.0
 20
0.0
 30
0.0
  9
$UCSORGFRONT
 10
0.0
 20
0.0
 30
0.0
  9
$UCSORGBACK
 10
0.0
 20
0.0
 30
0.0
  9
$PUCSBASE
  2

  9
$PUCSNAME
  2

  9
$PUCSORG
 10
0.0
 20
0.0
 30
0.0
  9
$PUCSXDIR
 10
1.0
 20
0.0
 30
0.0
  9
$PUCSYDIR
 10
0.0
 20
1.0
 30
0.0
  9
$PUCSORTHOREF
  2

  9
$PUCSORTHOVIEW
 70
     0
  9
$PUCSORGTOP
 10
0.0
 20
0.0
 30
0.0
  9
$PUCSORGBOTTOM
 10
0.0
 20
0.0
 30
0.0
  9
$PUCSORGLEFT
 10
0.0
 20
0.0
 30
0.0
  9
$PUCSORGRIGHT
 10
0.0
 20
0.0
 30
0.0
  9
$PUCSORGFRONT
 10
0.0
 20
0.0
 30
0.0
  9
$PUCSORGBACK
 10
0.0
 20
0.0
 30
0.0
  9
$USERI1
 70
     0
  9
$USERI2
 70
     0
  9
$USERI3
 70
     0
  9
$USERI4
 70
     0
  9
$USERI5
 70
     0
  9
$USERR1
 40
0.0
  9
$USERR2
 40
0.0
  9
$USERR3
 40
0.0
  9
$USERR4
 40
0.0
  9
$USERR5
 40
0.0
  9
$WORLDVIEW
 70
     1
  9
$SHADEDGE
 70
     3
  9
$SHADEDIF
 70
    70
  9
$TILEMODE
 70
     1
  9
$MAXACTVP
 70
    64
  9
$PINSBASE
 10
0.0
 20
0.0
 30
0.0
  9
$PLIMCHECK
 70
     0
  9
$PEXTMIN
 10
1.000000000000E+20
 20
1.000000000000E+20
 30
1.000000000000E+20
  9
$PEXTMAX
 10
-1.000000000000E+20
 20
-1.000000000000E+20
 30
-1.000000000000E+20
  9
$PLIMMIN
 10
0.0
 20
0.0
  9
$PLIMMAX
 10
12.0
 20
9.0
  9
$UNITMODE
 70
     0
  9
$VISRETAIN
 70
     1
  9
$PLINEGEN
 70
     0
  9
$PSLTSCALE
 70
     1
  9
$TREEDEPTH
 70
  3020
  9
$CMLSTYLE
  2
Standard
  9
$CMLJUST
 70
     0
  9
$CMLSCALE
 40
1.0
  9
$PROXYGRAPHICS
 70
     1
  9
$MEASUREMENT
 70
     0
  9
$CELWEIGHT
370
    -1
  9
$ENDCAPS
280
     0
  9
$JOINSTYLE
280
     0
  9
$LWDISPLAY
290
     0
  9
$INSUNITS
 70
     0
  9
$HYPERLINKBASE
  1

  9
$STYLESHEET
  1

  9
$XEDIT
290
     1
  9
$CEPSNTYPE
380
     0
  9
$PSTYLEMODE
290
     1
  9
$FINGERPRINTGUID
  2
{4F23421F-E96E-45B5-856A-9CAED070AD3E}
  9
$VERSIONGUID
  2
{976EBEDB-D3E9-45AA-BDB7-D33F0666DA96}
  9
$EXTNAMES
290
     1
  9
$PSVPSCALE
 40
0.0
  9
$OLESTARTUP
290
     0
  0
ENDSEC
  0
SECTION
  2
CLASSES
  0
CLASS
  1
ACDBDICTIONARYWDFLT
  2
AcDbDictionaryWithDefault
  3
ObjectDBX Classes
 90
        0
280
     0
281
     0
  0
CLASS
  1
ACDBPLACEHOLDER
  2
AcDbPlaceHolder
  3
ObjectDBX Classes
 90
        0
280
     0
281
     0
  0
CLASS
  1
LAYOUT
  2
AcDbLayout
  3
ObjectDBX Classes
 90
        0
280
     0
281
     0
  0
CLASS
  1
DICTIONARYVAR
  2
AcDbDictionaryVar
  3
ObjectDBX Classes
 90
        0
280
     0
281
     0
  0
CLASS
  1
SCALE
  2
AcDbScale
  3
ObjectDBX Classes
 90
     1153
280
     0
281
     0
  0
ENDSEC
  0
SECTION
  2
TABLES
  0
TABLE
  2
VPORT
  5
8
330
0
100
AcDbSymbolTable
 70
     1
  0
VPORT
  5
586
330
8
100
AcDbSymbolTableRecord
100
AcDbViewportTableRecord
  2
*Active
 70
     0
 10
0.0
 20
0.0
 11
1.0
 21
1.0
 12
287.405625
 22
297.564756461133
 13
0.0
 23
0.0
 14
1.0
 24
1.0
 15
0.0
 25
0.0
 16
0.0
 26
0.0
 36
1.0
 17
0.0
 27
0.0
 37
0.0
 40
607.321783180712
 41
1.863448275862
 42
50.0
 43
0.0
 44
0.0
 50
0.0
 51
0.0
 71
    16
 72
   100
 73
     1
 74
     3
 75
     0
 76
     0
 77
     0
 78
     0
281
     0
 65
     1
110
0.0
120
0.0
130
0.0
111
1.0
121
0.0
131
0.0
112
0.0
122
1.0
132
0.0
 79
     1
146
0.0
  0
ENDTAB
  0
TABLE
  2
LTYPE
  5
5
330
0
100
AcDbSymbolTable
 70
     1
  0
LTYPE
  5
13
330
5
100
AcDbSymbolTableRecord
100
AcDbLinetypeTableRecord
  2
ByBlock
 70
     0
  3

 72
    65
 73
     0
 40
0.0
  0
LTYPE
  5
14
330
5
100
AcDbSymbolTableRecord
100
AcDbLinetypeTableRecord
  2
ByLayer
 70
     0
  3

 72
    65
 73
     0
 40
0.0
  0
LTYPE
  5
15
330
5
100
AcDbSymbolTableRecord
100
AcDbLinetypeTableRecord
  2
Continuous
 70
     0
  3
Solid line
 72
    65
 73
     0
 40
0.0
  0
ENDTAB
  0
TABLE
  2
LAYER
  5
2
330
0
100
AcDbSymbolTable
 70
     1
  0
LAYER
  5
10
330
2
100
AcDbSymbolTableRecord
100
AcDbLayerTableRecord
  2
0
 70
     0
 62
     7
  6
Continuous
370
    -3
390
F
  0
ENDTAB
  0
TABLE
  2
STYLE
  5
3
330
0
100
AcDbSymbolTable
 70
     1
  0
STYLE
  5
11
330
3
100
AcDbSymbolTableRecord
100
AcDbTextStyleTableRecord
  2
Standard
 70
     0
 40
0.0
 41
1.0
 50
0.0
 71
     0
 42
0.2
  3
txt
  4

  0
ENDTAB
  0
TABLE
  2
VIEW
  5
6
330
0
100
AcDbSymbolTable
 70
     0
  0
ENDTAB
  0
TABLE
  2
UCS
  5
7
330
0
100
AcDbSymbolTable
 70
     0
  0
ENDTAB
  0
TABLE
  2
APPID
  5
9
330
0
100
AcDbSymbolTable
 70
     1
  0
APPID
  5
12
330
9
100
AcDbSymbolTableRecord
100
AcDbRegAppTableRecord
  2
ACAD
 70
     0
  0
ENDTAB
  0
TABLE
  2
DIMSTYLE
  5
A
330
0
100
AcDbSymbolTable
 70
     1
100
AcDbDimStyleTable
  0
DIMSTYLE
105
57F
330
A
100
AcDbSymbolTableRecord
100
AcDbDimStyleTableRecord
  2
Standard
 70
     0
340
11
  0
ENDTAB
  0
TABLE
  2
BLOCK_RECORD
  5
1
330
0
100
AcDbSymbolTable
 70
     0
  0
BLOCK_RECORD
  5
1E
330
1
100
AcDbSymbolTableRecord
100
AcDbBlockTableRecord
  2
*Model_Space
340
21
  0
BLOCK_RECORD
  5
1A
330
1
100
AcDbSymbolTableRecord
100
AcDbBlockTableRecord
  2
*Paper_Space
340
1D
  0
ENDTAB
  0
ENDSEC
  0
SECTION
  2
BLOCKS
  0
BLOCK
  5
1F
330
1E
100
AcDbEntity
  8
0
100
AcDbBlockBegin
  2
*Model_Space
 70
     0
 10
0.0
 20
0.0
 30
0.0
  3
*Model_Space
  1
*Model_Space
  0
ENDBLK
  5
20
330
1E
100
AcDbEntity
  8
0
100
AcDbBlockEnd
  0
BLOCK
  5
1B
330
1A
100
AcDbEntity
 67
     1
  8
0
100
AcDbBlockBegin
  2
*Paper_Space
 70
     0
 10
0.0
 20
0.0
 30
0.0
  3
*Paper_Space
  1
*Paper_Space
  0
ENDBLK
  5
1C
330
1A
100
AcDbEntity
 67
     1
  8
0
100
AcDbBlockEnd
  0
ENDSEC
  0
SECTION
  2
ENTITIES
  0
LINE
  5
22
330
1E
100
AcDbEntity
  8
0
100
AcDbLine
 10
216.13325
 20
85.536
 30
0.0
 11
216.13325
 21
86.472
 31
0.0
  0
LINE
  5
23
330
1E
100
AcDbEntity
  8
0
100
AcDbLine
 10
216.13325
 20
85.536
 30
0.0
 11
218.13325
 21
85.536
 31
0.0
  0
LINE
  5
24
330
1E
100
AcDbEntity
  8
0
100
AcDbLine
 10
202.13325
 20
88.9524
 30
0.0
 11
202.13325
 21
91.536
 31
0.0
  0
LINE
  5
25
330
1E
100
AcDbEntity
  8
0
100
AcDbLine
 10
202.13325
 20
88.9524
 30
0.0
 11
202.13325
 21
89.9524
 31
0.0
  0
LINE
  5
26
330
1E
100
AcDbEntity
  8
0
100
AcDbLine
 10
202.13325
 20
88.9524
 30
0.0
 11
216.13325
 21
88.9524
 31
0.0
  0
LINE
  5
27
330
1E
100
AcDbEntity
  8
0
100
AcDbLine
 10
202.13325
 20
88.9524
 30
0.0
 11
202.13325
 21
91.5504
 31
0.0
  0
LINE
  5
28
330
1E
100
AcDbEntity
  8
0
100
AcDbLine
 10
202.13325
 20
88.536
 30
0.0
 11
202.13325
 21
89.364
 31
0.0
  0
LINE
  5
29
330
1E
100
AcDbEntity
  8
0
100
AcDbLine
 10
202.13325
 20
88.536
 30
0.0
 11
216.13325
 21
88.536
 31
0.0
  0
LINE
  5
2A
330
1E
100
AcDbEntity
  8
0
100
AcDbLine
 10
216.13325
 20
88.9524
 30
0.0
 11
216.13325
 21
88.536
 31
0.0
  0
LINE
  5
2B
330
1E
100
AcDbEntity
  8
0
100
AcDbLine
 10
216.13325
 20
88.9524
 30
0.0
 11
216.13325
 21
89.9524
 31
0.0
  0
LINE
  5
2C
330
1E
100
AcDbEntity
  8
0
100
AcDbLine
 10
216.13325
 20
88.536
 30
0.0
 11
216.13325
 21
86.472
 31
0.0
  0
LINE
  5
2D
330
1E
100
AcDbEntity
  8
0
100
AcDbLine
 10
216.13325
 20
88.536
 30
0.0
 11
216.13325
 21
88.9524
 31
0.0
  0
LINE
  5
2E
330
1E
100
AcDbEntity
  8
0
100
AcDbLine
 10
216.13325
 20
86.472
 30
0.0
 11
216.13325
 21
88.968
 31
0.0
  0
LINE
  5
2F
330
1E
100
AcDbEntity
  8
0
100
AcDbLine
 10
216.13325
 20
86.472
 30
0.0
 11
216.13325
 21
85.536
 31
0.0
  0
LINE
  5
30
330
1E
100
AcDbEntity
  8
0
100
AcDbLine
 10
216.13325
 20
86.472
 30
0.0
 11
216.13325
 21
88.536
 31
0.0
  0
LINE
  5
31
330
1E
100
AcDbEntity
  8
0
100
AcDbLine
 10
216.13325
 20
88.968
 30
0.0
 11
216.13325
 21
93.128
 31
0.0
  0
LINE
  5
32
330
1E
100
AcDbEntity
  8
0
100
AcDbLine
 10
216.13325
 20
88.968
 30
0.0
 11
216.13325
 21
86.472
 31
0.0
  0
LINE
  5
33
330
1E
100
AcDbEntity
  8
0
100
AcDbLine
 10
218.13325
 20
85.536
 30
0.0
 11
218.13325
 21
86.472
 31
0.0
  0
LINE
  5
34
330
1E
100
AcDbEntity
  8
0
100
AcDbLine
 10
218.13325
 20
86.472
 30
0.0
 11
218.13325
 21
88.968
 31
0.0
  0
LINE
  5
35
330
1E
100
AcDbEntity
  8
0
100
AcDbLine
 10
218.13325
 20
86.472
 30
0.0
 11
218.13325
 21
85.536
 31
0.0
  0
LINE
  5
36
330
1E
100
AcDbEntity
  8
0
100
AcDbLine
 10
123.13325
 20
91.536
 30
0.0
 11
202.13325
 21
91.536
 31
0.0
  0
LINE
  5
37
330
1E
100
AcDbEntity
  8
0
100
AcDbLine
 10
180.13325
 20
91.536
 30
0.0
 11
180.13325
 21
92.256
 31
0.0
  0
LINE
  5
38
330
1E
100
AcDbEntity
  8
0
100
AcDbLine
 10
180.13325
 20
91.536
 30
0.0
 11
202.13325
 21
91.536
 31
0.0
  0
LINE
  5
39
330
1E
100
AcDbEntity
  8
0
100
AcDbLine
 10
202.13325
 20
89.9524
 30
0.0
 11
202.13325
 21
88.9524
 31
0.0
  0
LINE
  5
3A
330
1E
100
AcDbEntity
  8
0
100
AcDbLine
 10
202.13325
 20
89.9524
 30
0.0
 11
202.13325
 21
91.536
 31
0.0
  0
LINE
  5
3B
330
1E
100
AcDbEntity
  8
0
100
AcDbLine
 10
202.13325
 20
89.9524
 30
0.0
 11
216.13325
 21
89.9524
 31
0.0
  0
LINE
  5
3C
330
1E
100
AcDbEntity
  8
0
100
AcDbLine
 10
202.13325
 20
89.9524
 30
0.0
 11
202.13325
 21
92.5504
 31
0.0
  0
LINE
  5
3D
330
1E
100
AcDbEntity
  8
0
100
AcDbLine
 10
202.13325
 20
91.5504
 30
0.0
 11
202.13325
 21
88.9524
 31
0.0
  0
LINE
  5
3E
330
1E
100
AcDbEntity
  8
0
100
AcDbLine
 10
202.13325
 20
91.5504
 30
0.0
 11
202.13325
 21
92.5504
 31
0.0
  0
LINE
  5
3F
330
1E
100
AcDbEntity
  8
0
100
AcDbLine
 10
202.13325
 20
91.536
 30
0.0
 11
202.13325
 21
89.364
 31
0.0
  0
LINE
  5
40
330
1E
100
AcDbEntity
  8
0
100
AcDbLine
 10
202.13325
 20
91.536
 30
0.0
 11
202.13325
 21
89.9524
 31
0.0
  0
LINE
  5
41
330
1E
100
AcDbEntity
  8
0
100
AcDbLine
 10
202.13325
 20
91.536
 30
0.0
 11
202.13325
 21
88.9524
 31
0.0
  0
LINE
  5
42
330
1E
100
AcDbEntity
  8
0
100
AcDbLine
 10
216.13325
 20
89.9524
 30
0.0
 11
216.13325
 21
88.9524
 31
0.0
  0
LINE
  5
43
330
1E
100
AcDbEntity
  8
0
100
AcDbLine
 10
216.13325
 20
89.9524
 30
0.0
 11
216.13325
 21
92.5504
 31
0.0
  0
LINE
  5
44
330
1E
100
AcDbEntity
  8
0
100
AcDbLine
 10
202.13325
 20
89.364
 30
0.0
 11
202.13325
 21
91.572
 31
0.0
  0
LINE
  5
45
330
1E
100
AcDbEntity
  8
0
100
AcDbLine
 10
202.13325
 20
89.364
 30
0.0
 11
202.13325
 21
88.536
 31
0.0
  0
LINE
  5
46
330
1E
100
AcDbEntity
  8
0
100
AcDbLine
 10
202.13325
 20
89.364
 30
0.0
 11
202.13325
 21
91.536
 31
0.0
  0
LINE
  5
47
330
1E
100
AcDbEntity
  8
0
100
AcDbLine
 10
202.13325
 20
92.256
 30
0.0
 11
202.13325
 21
91.536
 31
0.0
  0
LINE
  5
48
330
1E
100
AcDbEntity
  8
0
100
AcDbLine
 10
180.13325
 20
92.256
 30
0.0
 11
180.13325
 21
94.176
 31
0.0
  0
LINE
  5
49
330
1E
100
AcDbEntity
  8
0
100
AcDbLine
 10
202.13325
 20
92.5504
 30
0.0
 11
202.13325
 21
91.5504
 31
0.0
  0
LINE
  5
4A
330
1E
100
AcDbEntity
  8
0
100
AcDbLine
 10
202.13325
 20
92.5504
 30
0.0
 11
202.13325
 21
89.9524
 31
0.0
  0
LINE
  5
4B
330
1E
100
AcDbEntity
  8
0
100
AcDbLine
 10
202.13325
 20
91.572
 30
0.0
 11
202.13325
 21
95.252
 31
0.0
  0
LINE
  5
4C
330
1E
100
AcDbEntity
  8
0
100
AcDbLine
 10
202.13325
 20
91.572
 30
0.0
 11
202.13325
 21
89.364
 31
0.0
  0
LINE
  5
4D
330
1E
100
AcDbEntity
  8
0
100
AcDbLine
 10
216.13325
 20
92.5504
 30
0.0
 11
216.13325
 21
95.252
 31
0.0
  0
LINE
  5
4E
330
1E
100
AcDbEntity
  8
0
100
AcDbLine
 10
216.13325
 20
92.5504
 30
0.0
 11
216.13325
 21
89.9524
 31
0.0
  0
LINE
  5
4F
330
1E
100
AcDbEntity
  8
0
100
AcDbLine
 10
109.93345
 20
93.2738
 30
0.0
 11
123.13325
 21
91.536
 31
0.0
  0
LINE
  5
50
330
1E
100
AcDbEntity
  8
0
100
AcDbLine
 10
202.13325
 20
94.176
 30
0.0
 11
202.13325
 21
92.256
 31
0.0
  0
LINE
  5
51
330
1E
100
AcDbEntity
  8
0
100
AcDbLine
 10
180.13325
 20
94.176
 30
0.0
 11
180.13325
 21
97.376
 31
0.0
  0
LINE
  5
52
330
1E
100
AcDbEntity
  8
0
100
AcDbLine
 10
97.63325
 20
98.3687
 30
0.0
 11
109.93345
 21
93.2738
 31
0.0
  0
LINE
  5
53
330
1E
100
AcDbEntity
  8
0
100
AcDbLine
 10
202.13325
 20
97.376
 30
0.0
 11
202.13325
 21
94.176
 31
0.0
  0
LINE
  5
54
330
1E
100
AcDbEntity
  8
0
100
AcDbLine
 10
180.13325
 20
97.376
 30
0.0
 11
180.13325
 21
101.616
 31
0.0
  0
LINE
  5
55
330
1E
100
AcDbEntity
  8
0
100
AcDbLine
 10
202.13325
 20
95.252
 30
0.0
 11
202.13325
 21
100.128
 31
0.0
  0
LINE
  5
56
330
1E
100
AcDbEntity
  8
0
100
AcDbLine
 10
202.13325
 20
95.252
 30
0.0
 11
202.13325
 21
91.572
 31
0.0
  0
LINE
  5
57
330
1E
100
AcDbEntity
  8
0
100
AcDbLine
 10
216.13325
 20
95.252
 30
0.0
 11
216.13325
 21
100.128
 31
0.0
  0
LINE
  5
58
330
1E
100
AcDbEntity
  8
0
100
AcDbLine
 10
216.13325
 20
95.252
 30
0.0
 11
216.13325
 21
92.5504
 31
0.0
  0
LINE
  5
59
330
1E
100
AcDbEntity
  8
0
100
AcDbLine
 10
216.13325
 20
93.128
 30
0.0
 11
216.13325
 21
98.64
 31
0.0
  0
LINE
  5
5A
330
1E
100
AcDbEntity
  8
0
100
AcDbLine
 10
216.13325
 20
93.128
 30
0.0
 11
216.13325
 21
88.968
 31
0.0
  0
LINE
  5
5B
330
1E
100
AcDbEntity
  8
0
100
AcDbLine
 10
218.13325
 20
91.536
 30
0.0
 11
262.13325
 21
91.536
 31
0.0
  0
LINE
  5
5C
330
1E
100
AcDbEntity
  8
0
100
AcDbLine
 10
216.13325
 20
98.64
 30
0.0
 11
216.13325
 21
104.88
 31
0.0
  0
LINE
  5
5D
330
1E
100
AcDbEntity
  8
0
100
AcDbLine
 10
216.13325
 20
98.64
 30
0.0
 11
216.13325
 21
93.128
 31
0.0
  0
LINE
  5
5E
330
1E
100
AcDbEntity
  8
0
100
AcDbLine
 10
218.13325
 20
88.968
 30
0.0
 11
218.13325
 21
93.128
 31
0.0
  0
LINE
  5
5F
330
1E
100
AcDbEntity
  8
0
100
AcDbLine
 10
218.13325
 20
88.968
 30
0.0
 11
218.13325
 21
86.472
 31
0.0
  0
LINE
  5
60
330
1E
100
AcDbEntity
  8
0
100
AcDbLine
 10
218.13325
 20
93.128
 30
0.0
 11
218.13325
 21
98.64
 31
0.0
  0
LINE
  5
61
330
1E
100
AcDbEntity
  8
0
100
AcDbLine
 10
218.13325
 20
93.128
 30
0.0
 11
218.13325
 21
88.968
 31
0.0
  0
LINE
  5
62
330
1E
100
AcDbEntity
  8
0
100
AcDbLine
 10
202.13325
 20
100.128
 30
0.0
 11
202.13325
 21
105.648
 31
0.0
  0
LINE
  5
63
330
1E
100
AcDbEntity
  8
0
100
AcDbLine
 10
202.13325
 20
100.128
 30
0.0
 11
202.13325
 21
95.252
 31
0.0
  0
LINE
  5
64
330
1E
100
AcDbEntity
  8
0
100
AcDbLine
 10
87.07085
 20
106.4736
 30
0.0
 11
97.63325
 21
98.3687
 31
0.0
  0
LINE
  5
65
330
1E
100
AcDbEntity
  8
0
100
AcDbLine
 10
180.13325
 20
101.616
 30
0.0
 11
180.13325
 21
106.416
 31
0.0
  0
LINE
  5
66
330
1E
100
AcDbEntity
  8
0
100
AcDbLine
 10
202.13325
 20
101.616
 30
0.0
 11
202.13325
 21
97.376
 31
0.0
  0
LINE
  5
67
330
1E
100
AcDbEntity
  8
0
100
AcDbLine
 10
202.13325
 20
106.416
 30
0.0
 11
202.13325
 21
101.616
 31
0.0
  0
LINE
  5
68
330
1E
100
AcDbEntity
  8
0
100
AcDbLine
 10
180.13325
 20
106.416
 30
0.0
 11
180.13325
 21
111.536
 31
0.0
  0
LINE
  5
69
330
1E
100
AcDbEntity
  8
0
100
AcDbLine
 10
180.13325
 20
111.536
 30
0.0
 11
180.13325
 21
116.536
 31
0.0
  0
LINE
  5
6A
330
1E
100
AcDbEntity
  8
0
100
AcDbLine
 10
202.13325
 20
110.536
 30
0.0
 11
216.13325
 21
110.536
 31
0.0
  0
LINE
  5
6B
330
1E
100
AcDbEntity
  8
0
100
AcDbLine
 10
202.13325
 20
110.536
 30
0.0
 11
202.13325
 21
112.536
 31
0.0
  0
LINE
  5
6C
330
1E
100
AcDbEntity
  8
0
100
AcDbLine
 10
202.13325
 20
111.536
 30
0.0
 11
202.13325
 21
105.648
 31
0.0
  0
LINE
  5
6D
330
1E
100
AcDbEntity
  8
0
100
AcDbLine
 10
202.13325
 20
111.536
 30
0.0
 11
202.13325
 21
114.536
 31
0.0
  0
LINE
  5
6E
330
1E
100
AcDbEntity
  8
0
100
AcDbLine
 10
202.13325
 20
111.536
 30
0.0
 11
202.13325
 21
106.416
 31
0.0
  0
LINE
  5
6F
330
1E
100
AcDbEntity
  8
0
100
AcDbLine
 10
216.13325
 20
110.536
 30
0.0
 11
216.13325
 21
105.648
 31
0.0
  0
LINE
  5
70
330
1E
100
AcDbEntity
  8
0
100
AcDbLine
 10
216.13325
 20
110.536
 30
0.0
 11
216.13325
 21
112.536
 31
0.0
  0
LINE
  5
71
330
1E
100
AcDbEntity
  8
0
100
AcDbLine
 10
202.13325
 20
105.648
 30
0.0
 11
202.13325
 21
111.536
 31
0.0
  0
LINE
  5
72
330
1E
100
AcDbEntity
  8
0
100
AcDbLine
 10
202.13325
 20
105.648
 30
0.0
 11
202.13325
 21
100.128
 31
0.0
  0
LINE
  5
73
330
1E
100
AcDbEntity
  8
0
100
AcDbLine
 10
216.13325
 20
100.128
 30
0.0
 11
216.13325
 21
105.648
 31
0.0
  0
LINE
  5
74
330
1E
100
AcDbEntity
  8
0
100
AcDbLine
 10
216.13325
 20
100.128
 30
0.0
 11
216.13325
 21
95.252
 31
0.0
  0
LINE
  5
75
330
1E
100
AcDbEntity
  8
0
100
AcDbLine
 10
216.13325
 20
105.648
 30
0.0
 11
216.13325
 21
110.536
 31
0.0
  0
LINE
  5
76
330
1E
100
AcDbEntity
  8
0
100
AcDbLine
 10
216.13325
 20
105.648
 30
0.0
 11
216.13325
 21
100.128
 31
0.0
  0
LINE
  5
77
330
1E
100
AcDbEntity
  8
0
100
AcDbLine
 10
202.13325
 20
112.536
 30
0.0
 11
216.13325
 21
112.536
 31
0.0
  0
LINE
  5
78
330
1E
100
AcDbEntity
  8
0
100
AcDbLine
 10
202.13325
 20
112.536
 30
0.0
 11
202.13325
 21
110.536
 31
0.0
  0
LINE
  5
79
330
1E
100
AcDbEntity
  8
0
100
AcDbLine
 10
198.13325
 20
114.536
 30
0.0
 11
198.13325
 21
114.788
 31
0.0
  0
LINE
  5
7A
330
1E
100
AcDbEntity
  8
0
100
AcDbLine
 10
198.13325
 20
114.536
 30
0.0
 11
218.13325
 21
114.536
 31
0.0
  0
LINE
  5
7B
330
1E
100
AcDbEntity
  8
0
100
AcDbLine
 10
78.96595
 20
117.036
 30
0.0
 11
87.07085
 21
106.4736
 31
0.0
  0
LINE
  5
7C
330
1E
100
AcDbEntity
  8
0
100
AcDbLine
 10
153.39625
 20
119.056
 30
0.0
 11
153.70625
 21
120.256
 31
0.0
  0
LINE
  5
7D
330
1E
100
AcDbEntity
  8
0
100
AcDbLine
 10
153.12325
 20
117.996
 30
0.0
 11
153.39625
 21
119.056
 31
0.0
  0
LINE
  5
7E
330
1E
100
AcDbEntity
  8
0
100
AcDbLine
 10
153.70625
 20
120.256
 30
0.0
 11
154.03625
 21
121.536
 31
0.0
  0
LINE
  5
7F
330
1E
100
AcDbEntity
  8
0
100
AcDbLine
 10
152.91625
 20
117.196
 30
0.0
 11
153.12325
 21
117.996
 31
0.0
  0
LINE
  5
80
330
1E
100
AcDbEntity
  8
0
100
AcDbLine
 10
152.79225
 20
116.716
 30
0.0
 11
152.91625
 21
117.196
 31
0.0
  0
LINE
  5
81
330
1E
100
AcDbEntity
  8
0
100
AcDbLine
 10
152.74625
 20
116.536
 30
0.0
 11
152.79225
 21
116.716
 31
0.0
  0
LINE
  5
82
330
1E
100
AcDbEntity
  8
0
100
AcDbLine
 10
152.74625
 20
116.536
 30
0.0
 11
198.13325
 21
116.536
 31
0.0
  0
LINE
  5
83
330
1E
100
AcDbEntity
  8
0
100
AcDbLine
 10
154.36725
 20
122.816
 30
0.0
 11
154.67625
 21
124.016
 31
0.0
  0
LINE
  5
84
330
1E
100
AcDbEntity
  8
0
100
AcDbLine
 10
154.67625
 20
124.016
 30
0.0
 11
154.95025
 21
125.076
 31
0.0
  0
LINE
  5
85
330
1E
100
AcDbEntity
  8
0
100
AcDbLine
 10
154.95025
 20
125.076
 30
0.0
 11
155.15625
 21
125.876
 31
0.0
  0
LINE
  5
86
330
1E
100
AcDbEntity
  8
0
100
AcDbLine
 10
154.03625
 20
121.536
 30
0.0
 11
154.36725
 21
122.816
 31
0.0
  0
LINE
  5
87
330
1E
100
AcDbEntity
  8
0
100
AcDbLine
 10
155.15625
 20
125.876
 30
0.0
 11
155.28025
 21
126.356
 31
0.0
  0
LINE
  5
88
330
1E
100
AcDbEntity
  8
0
100
AcDbLine
 10
155.28025
 20
126.356
 30
0.0
 11
155.32725
 21
126.536
 31
0.0
  0
LINE
  5
89
330
1E
100
AcDbEntity
  8
0
100
AcDbLine
 10
155.32725
 20
126.536
 30
0.0
 11
198.13325
 21
126.536
 31
0.0
  0
LINE
  5
8A
330
1E
100
AcDbEntity
  8
0
100
AcDbLine
 10
198.13325
 20
116.58
 30
0.0
 11
198.13325
 21
115.46
 31
0.0
  0
LINE
  5
8B
330
1E
100
AcDbEntity
  8
0
100
AcDbLine
 10
198.13325
 20
116.58
 30
0.0
 11
198.13325
 21
118.064
 31
0.0
  0
LINE
  5
8C
330
1E
100
AcDbEntity
  8
0
100
AcDbLine
 10
198.13325
 20
115.46
 30
0.0
 11
198.13325
 21
116.536
 31
0.0
  0
LINE
  5
8D
330
1E
100
AcDbEntity
  8
0
100
AcDbLine
 10
198.13325
 20
115.46
 30
0.0
 11
198.13325
 21
114.788
 31
0.0
  0
LINE
  5
8E
330
1E
100
AcDbEntity
  8
0
100
AcDbLine
 10
198.13325
 20
115.46
 30
0.0
 11
198.13325
 21
116.58
 31
0.0
  0
LINE
  5
8F
330
1E
100
AcDbEntity
  8
0
100
AcDbLine
 10
198.13325
 20
114.788
 30
0.0
 11
198.13325
 21
115.46
 31
0.0
  0
LINE
  5
90
330
1E
100
AcDbEntity
  8
0
100
AcDbLine
 10
198.13325
 20
114.788
 30
0.0
 11
198.13325
 21
114.536
 31
0.0
  0
LINE
  5
91
330
1E
100
AcDbEntity
  8
0
100
AcDbLine
 10
198.13325
 20
116.536
 30
0.0
 11
198.13325
 21
116.716
 31
0.0
  0
LINE
  5
92
330
1E
100
AcDbEntity
  8
0
100
AcDbLine
 10
198.13325
 20
116.536
 30
0.0
 11
198.13325
 21
115.46
 31
0.0
  0
LINE
  5
93
330
1E
100
AcDbEntity
  8
0
100
AcDbLine
 10
198.13325
 20
119.744
 30
0.0
 11
198.13325
 21
118.064
 31
0.0
  0
LINE
  5
94
330
1E
100
AcDbEntity
  8
0
100
AcDbLine
 10
198.13325
 20
119.744
 30
0.0
 11
198.13325
 21
121.536
 31
0.0
  0
LINE
  5
95
330
1E
100
AcDbEntity
  8
0
100
AcDbLine
 10
198.13325
 20
118.064
 30
0.0
 11
198.13325
 21
116.58
 31
0.0
  0
LINE
  5
96
330
1E
100
AcDbEntity
  8
0
100
AcDbLine
 10
198.13325
 20
118.064
 30
0.0
 11
198.13325
 21
119.744
 31
0.0
  0
LINE
  5
97
330
1E
100
AcDbEntity
  8
0
100
AcDbLine
 10
198.13325
 20
123.328
 30
0.0
 11
198.13325
 21
121.536
 31
0.0
  0
LINE
  5
98
330
1E
100
AcDbEntity
  8
0
100
AcDbLine
 10
198.13325
 20
123.328
 30
0.0
 11
198.13325
 21
125.008
 31
0.0
  0
LINE
  5
99
330
1E
100
AcDbEntity
  8
0
100
AcDbLine
 10
198.13325
 20
122.816
 30
0.0
 11
198.13325
 21
121.536
 31
0.0
  0
LINE
  5
9A
330
1E
100
AcDbEntity
  8
0
100
AcDbLine
 10
198.13325
 20
122.816
 30
0.0
 11
198.13325
 21
124.016
 31
0.0
  0
LINE
  5
9B
330
1E
100
AcDbEntity
  8
0
100
AcDbLine
 10
198.13325
 20
125.008
 30
0.0
 11
198.13325
 21
123.328
 31
0.0
  0
LINE
  5
9C
330
1E
100
AcDbEntity
  8
0
100
AcDbLine
 10
198.13325
 20
125.008
 30
0.0
 11
198.13325
 21
126.492
 31
0.0
  0
LINE
  5
9D
330
1E
100
AcDbEntity
  8
0
100
AcDbLine
 10
198.13325
 20
124.016
 30
0.0
 11
198.13325
 21
122.816
 31
0.0
  0
LINE
  5
9E
330
1E
100
AcDbEntity
  8
0
100
AcDbLine
 10
198.13325
 20
124.016
 30
0.0
 11
198.13325
 21
125.076
 31
0.0
  0
LINE
  5
9F
330
1E
100
AcDbEntity
  8
0
100
AcDbLine
 10
198.13325
 20
125.076
 30
0.0
 11
198.13325
 21
124.016
 31
0.0
  0
LINE
  5
A0
330
1E
100
AcDbEntity
  8
0
100
AcDbLine
 10
198.13325
 20
125.076
 30
0.0
 11
198.13325
 21
125.876
 31
0.0
  0
LINE
  5
A1
330
1E
100
AcDbEntity
  8
0
100
AcDbLine
 10
198.13325
 20
126.492
 30
0.0
 11
198.13325
 21
125.008
 31
0.0
  0
LINE
  5
A2
330
1E
100
AcDbEntity
  8
0
100
AcDbLine
 10
198.13325
 20
126.492
 30
0.0
 11
198.13325
 21
127.612
 31
0.0
  0
LINE
  5
A3
330
1E
100
AcDbEntity
  8
0
100
AcDbLine
 10
198.13325
 20
125.876
 30
0.0
 11
198.13325
 21
125.076
 31
0.0
  0
LINE
  5
A4
330
1E
100
AcDbEntity
  8
0
100
AcDbLine
 10
198.13325
 20
125.876
 30
0.0
 11
198.13325
 21
126.356
 31
0.0
  0
LINE
  5
A5
330
1E
100
AcDbEntity
  8
0
100
AcDbLine
 10
198.13325
 20
126.356
 30
0.0
 11
198.13325
 21
125.876
 31
0.0
  0
LINE
  5
A6
330
1E
100
AcDbEntity
  8
0
100
AcDbLine
 10
198.13325
 20
126.356
 30
0.0
 11
198.13325
 21
126.536
 31
0.0
  0
LINE
  5
A7
330
1E
100
AcDbEntity
  8
0
100
AcDbLine
 10
198.13325
 20
127.612
 30
0.0
 11
198.13325
 21
128.284
 31
0.0
  0
LINE
  5
A8
330
1E
100
AcDbEntity
  8
0
100
AcDbLine
 10
198.13325
 20
127.612
 30
0.0
 11
198.13325
 21
126.536
 31
0.0
  0
LINE
  5
A9
330
1E
100
AcDbEntity
  8
0
100
AcDbLine
 10
198.13325
 20
127.612
 30
0.0
 11
198.13325
 21
126.492
 31
0.0
  0
LINE
  5
AA
330
1E
100
AcDbEntity
  8
0
100
AcDbLine
 10
198.13325
 20
128.284
 30
0.0
 11
198.13325
 21
128.536
 31
0.0
  0
LINE
  5
AB
330
1E
100
AcDbEntity
  8
0
100
AcDbLine
 10
198.13325
 20
128.284
 30
0.0
 11
198.13325
 21
127.612
 31
0.0
  0
LINE
  5
AC
330
1E
100
AcDbEntity
  8
0
100
AcDbLine
 10
198.13325
 20
128.536
 30
0.0
 11
218.13325
 21
128.536
 31
0.0
  0
LINE
  5
AD
330
1E
100
AcDbEntity
  8
0
100
AcDbLine
 10
198.13325
 20
128.536
 30
0.0
 11
198.13325
 21
128.284
 31
0.0
  0
LINE
  5
AE
330
1E
100
AcDbEntity
  8
0
100
AcDbLine
 10
198.13325
 20
126.536
 30
0.0
 11
198.13325
 21
126.356
 31
0.0
  0
LINE
  5
AF
330
1E
100
AcDbEntity
  8
0
100
AcDbLine
 10
198.13325
 20
126.536
 30
0.0
 11
198.13325
 21
127.612
 31
0.0
  0
LINE
  5
B0
330
1E
100
AcDbEntity
  8
0
100
AcDbLine
 10
198.13325
 20
121.536
 30
0.0
 11
198.13325
 21
120.256
 31
0.0
  0
LINE
  5
B1
330
1E
100
AcDbEntity
  8
0
100
AcDbLine
 10
198.13325
 20
121.536
 30
0.0
 11
198.13325
 21
122.816
 31
0.0
  0
LINE
  5
B2
330
1E
100
AcDbEntity
  8
0
100
AcDbLine
 10
198.13325
 20
121.536
 30
0.0
 11
198.13325
 21
119.744
 31
0.0
  0
LINE
  5
B3
330
1E
100
AcDbEntity
  8
0
100
AcDbLine
 10
198.13325
 20
121.536
 30
0.0
 11
198.13325
 21
123.328
 31
0.0
  0
LINE
  5
B4
330
1E
100
AcDbEntity
  8
0
100
AcDbLine
 10
198.13325
 20
120.256
 30
0.0
 11
198.13325
 21
119.056
 31
0.0
  0
LINE
  5
B5
330
1E
100
AcDbEntity
  8
0
100
AcDbLine
 10
198.13325
 20
120.256
 30
0.0
 11
198.13325
 21
121.536
 31
0.0
  0
LINE
  5
B6
330
1E
100
AcDbEntity
  8
0
100
AcDbLine
 10
198.13325
 20
119.056
 30
0.0
 11
198.13325
 21
117.996
 31
0.0
  0
LINE
  5
B7
330
1E
100
AcDbEntity
  8
0
100
AcDbLine
 10
198.13325
 20
119.056
 30
0.0
 11
198.13325
 21
120.256
 31
0.0
  0
LINE
  5
B8
330
1E
100
AcDbEntity
  8
0
100
AcDbLine
 10
198.13325
 20
117.996
 30
0.0
 11
198.13325
 21
117.196
 31
0.0
  0
LINE
  5
B9
330
1E
100
AcDbEntity
  8
0
100
AcDbLine
 10
198.13325
 20
117.996
 30
0.0
 11
198.13325
 21
119.056
 31
0.0
  0
LINE
  5
BA
330
1E
100
AcDbEntity
  8
0
100
AcDbLine
 10
198.13325
 20
117.196
 30
0.0
 11
198.13325
 21
116.716
 31
0.0
  0
LINE
  5
BB
330
1E
100
AcDbEntity
  8
0
100
AcDbLine
 10
198.13325
 20
117.196
 30
0.0
 11
198.13325
 21
117.996
 31
0.0
  0
LINE
  5
BC
330
1E
100
AcDbEntity
  8
0
100
AcDbLine
 10
198.13325
 20
116.716
 30
0.0
 11
198.13325
 21
116.536
 31
0.0
  0
LINE
  5
BD
330
1E
100
AcDbEntity
  8
0
100
AcDbLine
 10
198.13325
 20
116.716
 30
0.0
 11
198.13325
 21
117.196
 31
0.0
  0
LINE
  5
BE
330
1E
100
AcDbEntity
  8
0
100
AcDbLine
 10
180.13325
 20
126.536
 30
0.0
 11
180.13325
 21
128.896
 31
0.0
  0
LINE
  5
BF
330
1E
100
AcDbEntity
  8
0
100
AcDbLine
 10
202.13325
 20
114.536
 30
0.0
 11
202.13325
 21
111.536
 31
0.0
  0
LINE
  5
C0
330
1E
100
AcDbEntity
  8
0
100
AcDbLine
 10
202.13325
 20
128.536
 30
0.0
 11
202.13325
 21
131.5
 31
0.0
  0
LINE
  5
C1
330
1E
100
AcDbEntity
  8
0
100
AcDbLine
 10
216.13325
 20
112.536
 30
0.0
 11
216.13325
 21
114.536
 31
0.0
  0
LINE
  5
C2
330
1E
100
AcDbEntity
  8
0
100
AcDbLine
 10
216.13325
 20
112.536
 30
0.0
 11
216.13325
 21
110.536
 31
0.0
  0
LINE
  5
C3
330
1E
100
AcDbEntity
  8
0
100
AcDbLine
 10
216.13325
 20
114.536
 30
0.0
 11
216.13325
 21
111.536
 31
0.0
  0
LINE
  5
C4
330
1E
100
AcDbEntity
  8
0
100
AcDbLine
 10
216.13325
 20
114.536
 30
0.0
 11
216.13325
 21
112.536
 31
0.0
  0
LINE
  5
C5
330
1E
100
AcDbEntity
  8
0
100
AcDbLine
 10
180.13325
 20
128.896
 30
0.0
 11
180.13325
 21
130.816
 31
0.0
  0
LINE
  5
C6
330
1E
100
AcDbEntity
  8
0
100
AcDbLine
 10
73.87105
 20
129.3362
 30
0.0
 11
78.96595
 21
117.036
 31
0.0
  0
LINE
  5
C7
330
1E
100
AcDbEntity
  8
0
100
AcDbLine
 10
180.13325
 20
130.816
 30
0.0
 11
180.13325
 21
131.536
 31
0.0
  0
LINE
  5
C8
330
1E
100
AcDbEntity
  8
0
100
AcDbLine
 10
202.13325
 20
130.816
 30
0.0
 11
202.13325
 21
128.896
 31
0.0
  0
LINE
  5
C9
330
1E
100
AcDbEntity
  8
0
100
AcDbLine
 10
202.13325
 20
128.896
 30
0.0
 11
202.13325
 21
128.536
 31
0.0
  0
LINE
  5
CA
330
1E
100
AcDbEntity
  8
0
100
AcDbLine
 10
202.13325
 20
130.5216
 30
0.0
 11
202.13325
 21
131.5216
 31
0.0
  0
LINE
  5
CB
330
1E
100
AcDbEntity
  8
0
100
AcDbLine
 10
202.13325
 20
130.5216
 30
0.0
 11
202.13325
 21
133.1196
 31
0.0
  0
LINE
  5
CC
330
1E
100
AcDbEntity
  8
0
100
AcDbLine
 10
123.13325
 20
131.536
 30
0.0
 11
202.13325
 21
131.536
 31
0.0
  0
LINE
  5
CD
330
1E
100
AcDbEntity
  8
0
100
AcDbLine
 10
180.13325
 20
131.536
 30
0.0
 11
202.13325
 21
131.536
 31
0.0
  0
LINE
  5
CE
330
1E
100
AcDbEntity
  8
0
100
AcDbLine
 10
202.13325
 20
131.5216
 30
0.0
 11
202.13325
 21
134.1196
 31
0.0
  0
LINE
  5
CF
330
1E
100
AcDbEntity
  8
0
100
AcDbLine
 10
202.13325
 20
131.5216
 30
0.0
 11
202.13325
 21
130.5216
 31
0.0
  0
LINE
  5
D0
330
1E
100
AcDbEntity
  8
0
100
AcDbLine
 10
202.13325
 20
131.5
 30
0.0
 11
202.13325
 21
133.708
 31
0.0
  0
LINE
  5
D1
330
1E
100
AcDbEntity
  8
0
100
AcDbLine
 10
202.13325
 20
131.5
 30
0.0
 11
202.13325
 21
128.536
 31
0.0
  0
LINE
  5
D2
330
1E
100
AcDbEntity
  8
0
100
AcDbLine
 10
117.63325
 20
133.00972
 30
0.0
 11
120.28625
 21
131.91082
 31
0.0
  0
LINE
  5
D3
330
1E
100
AcDbEntity
  8
0
100
AcDbLine
 10
120.28625
 20
131.91082
 30
0.0
 11
123.13325
 21
131.536
 31
0.0
  0
LINE
  5
D4
330
1E
100
AcDbEntity
  8
0
100
AcDbLine
 10
202.13325
 20
133.1196
 30
0.0
 11
216.13325
 21
133.1196
 31
0.0
  0
LINE
  5
D5
330
1E
100
AcDbEntity
  8
0
100
AcDbLine
 10
202.13325
 20
133.1196
 30
0.0
 11
202.13325
 21
130.5216
 31
0.0
  0
LINE
  5
D6
330
1E
100
AcDbEntity
  8
0
100
AcDbLine
 10
202.13325
 20
133.1196
 30
0.0
 11
202.13325
 21
134.1196
 31
0.0
  0
LINE
  5
D7
330
1E
100
AcDbEntity
  8
0
100
AcDbLine
 10
202.13325
 20
133.1196
 30
0.0
 11
202.13325
 21
131.536
 31
0.0
  0
LINE
  5
D8
330
1E
100
AcDbEntity
  8
0
100
AcDbLine
 10
202.13325
 20
131.536
 30
0.0
 11
202.13325
 21
133.708
 31
0.0
  0
LINE
  5
D9
330
1E
100
AcDbEntity
  8
0
100
AcDbLine
 10
202.13325
 20
131.536
 30
0.0
 11
202.13325
 21
133.1196
 31
0.0
  0
LINE
  5
DA
330
1E
100
AcDbEntity
  8
0
100
AcDbLine
 10
202.13325
 20
131.536
 30
0.0
 11
202.13325
 21
134.1196
 31
0.0
  0
LINE
  5
DB
330
1E
100
AcDbEntity
  8
0
100
AcDbLine
 10
202.13325
 20
131.536
 30
0.0
 11
202.13325
 21
130.816
 31
0.0
  0
LINE
  5
DC
330
1E
100
AcDbEntity
  8
0
100
AcDbLine
 10
216.13325
 20
133.1196
 30
0.0
 11
216.13325
 21
134.1196
 31
0.0
  0
LINE
  5
DD
330
1E
100
AcDbEntity
  8
0
100
AcDbLine
 10
216.13325
 20
133.1196
 30
0.0
 11
216.13325
 21
130.5216
 31
0.0
  0
LINE
  5
DE
330
1E
100
AcDbEntity
  8
0
100
AcDbLine
 10
216.13325
 20
130.5216
 30
0.0
 11
216.13325
 21
128.536
 31
0.0
  0
LINE
  5
DF
330
1E
100
AcDbEntity
  8
0
100
AcDbLine
 10
216.13325
 20
130.5216
 30
0.0
 11
216.13325
 21
133.1196
 31
0.0
  0
LINE
  5
E0
330
1E
100
AcDbEntity
  8
0
100
AcDbLine
 10
202.13325
 20
133.708
 30
0.0
 11
202.13325
 21
131.536
 31
0.0
  0
LINE
  5
E1
330
1E
100
AcDbEntity
  8
0
100
AcDbLine
 10
202.13325
 20
133.708
 30
0.0
 11
202.13325
 21
134.536
 31
0.0
  0
LINE
  5
E2
330
1E
100
AcDbEntity
  8
0
100
AcDbLine
 10
202.13325
 20
133.708
 30
0.0
 11
202.13325
 21
131.5
 31
0.0
  0
LINE
  5
E3
330
1E
100
AcDbEntity
  8
0
100
AcDbLine
 10
113.60695
 20
137.036
 30
0.0
 11
115.35505
 21
134.75783
 31
0.0
  0
LINE
  5
E4
330
1E
100
AcDbEntity
  8
0
100
AcDbLine
 10
115.35505
 20
134.75783
 30
0.0
 11
117.63325
 21
133.00972
 31
0.0
  0
LINE
  5
E5
330
1E
100
AcDbEntity
  8
0
100
AcDbLine
 10
202.13325
 20
134.1196
 30
0.0
 11
216.13325
 21
134.1196
 31
0.0
  0
LINE
  5
E6
330
1E
100
AcDbEntity
  8
0
100
AcDbLine
 10
202.13325
 20
134.1196
 30
0.0
 11
202.13325
 21
133.1196
 31
0.0
  0
LINE
  5
E7
330
1E
100
AcDbEntity
  8
0
100
AcDbLine
 10
202.13325
 20
134.1196
 30
0.0
 11
202.13325
 21
131.5216
 31
0.0
  0
LINE
  5
E8
330
1E
100
AcDbEntity
  8
0
100
AcDbLine
 10
202.13325
 20
134.1196
 30
0.0
 11
202.13325
 21
131.536
 31
0.0
  0
LINE
  5
E9
330
1E
100
AcDbEntity
  8
0
100
AcDbLine
 10
216.13325
 20
134.1196
 30
0.0
 11
216.13325
 21
134.536
 31
0.0
  0
LINE
  5
EA
330
1E
100
AcDbEntity
  8
0
100
AcDbLine
 10
216.13325
 20
134.1196
 30
0.0
 11
216.13325
 21
133.1196
 31
0.0
  0
LINE
  5
EB
330
1E
100
AcDbEntity
  8
0
100
AcDbLine
 10
202.13325
 20
134.536
 30
0.0
 11
202.13325
 21
133.708
 31
0.0
  0
LINE
  5
EC
330
1E
100
AcDbEntity
  8
0
100
AcDbLine
 10
202.13325
 20
134.536
 30
0.0
 11
216.13325
 21
134.536
 31
0.0
  0
LINE
  5
ED
330
1E
100
AcDbEntity
  8
0
100
AcDbLine
 10
216.13325
 20
134.104
 30
0.0
 11
216.13325
 21
136.6
 31
0.0
  0
LINE
  5
EE
330
1E
100
AcDbEntity
  8
0
100
AcDbLine
 10
216.13325
 20
134.104
 30
0.0
 11
216.13325
 21
129.944
 31
0.0
  0
LINE
  5
EF
330
1E
100
AcDbEntity
  8
0
100
AcDbLine
 10
216.13325
 20
129.944
 30
0.0
 11
216.13325
 21
134.104
 31
0.0
  0
LINE
  5
F0
330
1E
100
AcDbEntity
  8
0
100
AcDbLine
 10
216.13325
 20
129.944
 30
0.0
 11
216.13325
 21
128.536
 31
0.0
  0
LINE
  5
F1
330
1E
100
AcDbEntity
  8
0
100
AcDbLine
 10
216.13325
 20
128.536
 30
0.0
 11
216.13325
 21
129.944
 31
0.0
  0
LINE
  5
F2
330
1E
100
AcDbEntity
  8
0
100
AcDbLine
 10
216.13325
 20
128.536
 30
0.0
 11
216.13325
 21
130.5216
 31
0.0
  0
LINE
  5
F3
330
1E
100
AcDbEntity
  8
0
100
AcDbLine
 10
216.13325
 20
134.536
 30
0.0
 11
216.13325
 21
136.6
 31
0.0
  0
LINE
  5
F4
330
1E
100
AcDbEntity
  8
0
100
AcDbLine
 10
216.13325
 20
134.536
 30
0.0
 11
216.13325
 21
134.1196
 31
0.0
  0
LINE
  5
F5
330
1E
100
AcDbEntity
  8
0
100
AcDbLine
 10
112.50805
 20
139.688991
 30
0.0
 11
113.60695
 21
137.036
 31
0.0
  0
LINE
  5
F6
330
1E
100
AcDbEntity
  8
0
100
AcDbLine
 10
216.13325
 20
137.536
 30
0.0
 11
216.13325
 21
136.6
 31
0.0
  0
LINE
  5
F7
330
1E
100
AcDbEntity
  8
0
100
AcDbLine
 10
216.13325
 20
137.536
 30
0.0
 11
218.13325
 21
137.536
 31
0.0
  0
LINE
  5
F8
330
1E
100
AcDbEntity
  8
0
100
AcDbLine
 10
216.13325
 20
136.6
 30
0.0
 11
216.13325
 21
134.536
 31
0.0
  0
LINE
  5
F9
330
1E
100
AcDbEntity
  8
0
100
AcDbLine
 10
216.13325
 20
136.6
 30
0.0
 11
216.13325
 21
137.536
 31
0.0
  0
LINE
  5
FA
330
1E
100
AcDbEntity
  8
0
100
AcDbLine
 10
216.13325
 20
136.6
 30
0.0
 11
216.13325
 21
134.104
 31
0.0
  0
LINE
  5
FB
330
1E
100
AcDbEntity
  8
0
100
AcDbLine
 10
216.13325
 20
111.536
 30
0.0
 11
216.13325
 21
104.88
 31
0.0
  0
LINE
  5
FC
330
1E
100
AcDbEntity
  8
0
100
AcDbLine
 10
216.13325
 20
111.536
 30
0.0
 11
216.13325
 21
114.536
 31
0.0
  0
LINE
  5
FD
330
1E
100
AcDbEntity
  8
0
100
AcDbLine
 10
218.13325
 20
113.724
 30
0.0
 11
218.13325
 21
112.86
 31
0.0
  0
LINE
  5
FE
330
1E
100
AcDbEntity
  8
0
100
AcDbLine
 10
218.13325
 20
113.724
 30
0.0
 11
218.13325
 21
115.164
 31
0.0
  0
LINE
  5
FF
330
1E
100
AcDbEntity
  8
0
100
AcDbLine
 10
218.13325
 20
112.86
 30
0.0
 11
218.13325
 21
112.536
 31
0.0
  0
LINE
  5
100
330
1E
100
AcDbEntity
  8
0
100
AcDbLine
 10
218.13325
 20
112.86
 30
0.0
 11
218.13325
 21
113.724
 31
0.0
  0
LINE
  5
101
330
1E
100
AcDbEntity
  8
0
100
AcDbLine
 10
218.13325
 20
112.536
 30
0.0
 11
218.13325
 21
112.86
 31
0.0
  0
LINE
  5
102
330
1E
100
AcDbEntity
  8
0
100
AcDbLine
 10
218.13325
 20
112.536
 30
0.0
 11
228.13325
 21
112.536
 31
0.0
  0
LINE
  5
103
330
1E
100
AcDbEntity
  8
0
100
AcDbLine
 10
218.13325
 20
115.164
 30
0.0
 11
218.13325
 21
113.724
 31
0.0
  0
LINE
  5
104
330
1E
100
AcDbEntity
  8
0
100
AcDbLine
 10
218.13325
 20
115.164
 30
0.0
 11
218.13325
 21
117.072
 31
0.0
  0
LINE
  5
105
330
1E
100
AcDbEntity
  8
0
100
AcDbLine
 10
218.13325
 20
119.232
 30
0.0
 11
218.13325
 21
117.072
 31
0.0
  0
LINE
  5
106
330
1E
100
AcDbEntity
  8
0
100
AcDbLine
 10
218.13325
 20
119.232
 30
0.0
 11
218.13325
 21
121.536
 31
0.0
  0
LINE
  5
107
330
1E
100
AcDbEntity
  8
0
100
AcDbLine
 10
218.13325
 20
117.072
 30
0.0
 11
218.13325
 21
115.164
 31
0.0
  0
LINE
  5
108
330
1E
100
AcDbEntity
  8
0
100
AcDbLine
 10
218.13325
 20
117.072
 30
0.0
 11
218.13325
 21
119.232
 31
0.0
  0
LINE
  5
109
330
1E
100
AcDbEntity
  8
0
100
AcDbLine
 10
218.13325
 20
123.84
 30
0.0
 11
218.13325
 21
121.536
 31
0.0
  0
LINE
  5
10A
330
1E
100
AcDbEntity
  8
0
100
AcDbLine
 10
218.13325
 20
123.84
 30
0.0
 11
218.13325
 21
126.0
 31
0.0
  0
LINE
  5
10B
330
1E
100
AcDbEntity
  8
0
100
AcDbLine
 10
218.13325
 20
126.0
 30
0.0
 11
218.13325
 21
123.84
 31
0.0
  0
LINE
  5
10C
330
1E
100
AcDbEntity
  8
0
100
AcDbLine
 10
218.13325
 20
126.0
 30
0.0
 11
218.13325
 21
127.908
 31
0.0
  0
LINE
  5
10D
330
1E
100
AcDbEntity
  8
0
100
AcDbLine
 10
218.13325
 20
123.328
 30
0.0
 11
218.13325
 21
121.536
 31
0.0
  0
LINE
  5
10E
330
1E
100
AcDbEntity
  8
0
100
AcDbLine
 10
218.13325
 20
123.328
 30
0.0
 11
218.13325
 21
125.008
 31
0.0
  0
LINE
  5
10F
330
1E
100
AcDbEntity
  8
0
100
AcDbLine
 10
218.13325
 20
125.008
 30
0.0
 11
218.13325
 21
123.328
 31
0.0
  0
LINE
  5
110
330
1E
100
AcDbEntity
  8
0
100
AcDbLine
 10
218.13325
 20
125.008
 30
0.0
 11
218.13325
 21
126.492
 31
0.0
  0
LINE
  5
111
330
1E
100
AcDbEntity
  8
0
100
AcDbLine
 10
218.13325
 20
127.908
 30
0.0
 11
218.13325
 21
126.0
 31
0.0
  0
LINE
  5
112
330
1E
100
AcDbEntity
  8
0
100
AcDbLine
 10
218.13325
 20
127.908
 30
0.0
 11
218.13325
 21
129.348
 31
0.0
  0
LINE
  5
113
330
1E
100
AcDbEntity
  8
0
100
AcDbLine
 10
218.13325
 20
126.492
 30
0.0
 11
218.13325
 21
125.008
 31
0.0
  0
LINE
  5
114
330
1E
100
AcDbEntity
  8
0
100
AcDbLine
 10
218.13325
 20
126.492
 30
0.0
 11
218.13325
 21
127.612
 31
0.0
  0
LINE
  5
115
330
1E
100
AcDbEntity
  8
0
100
AcDbLine
 10
218.13325
 20
127.612
 30
0.0
 11
218.13325
 21
126.492
 31
0.0
  0
LINE
  5
116
330
1E
100
AcDbEntity
  8
0
100
AcDbLine
 10
218.13325
 20
127.612
 30
0.0
 11
218.13325
 21
128.284
 31
0.0
  0
LINE
  5
117
330
1E
100
AcDbEntity
  8
0
100
AcDbLine
 10
218.13325
 20
129.348
 30
0.0
 11
218.13325
 21
130.212
 31
0.0
  0
LINE
  5
118
330
1E
100
AcDbEntity
  8
0
100
AcDbLine
 10
218.13325
 20
129.348
 30
0.0
 11
218.13325
 21
128.536
 31
0.0
  0
LINE
  5
119
330
1E
100
AcDbEntity
  8
0
100
AcDbLine
 10
218.13325
 20
129.348
 30
0.0
 11
218.13325
 21
127.908
 31
0.0
  0
LINE
  5
11A
330
1E
100
AcDbEntity
  8
0
100
AcDbLine
 10
218.13325
 20
128.284
 30
0.0
 11
218.13325
 21
127.612
 31
0.0
  0
LINE
  5
11B
330
1E
100
AcDbEntity
  8
0
100
AcDbLine
 10
218.13325
 20
128.284
 30
0.0
 11
218.13325
 21
128.536
 31
0.0
  0
LINE
  5
11C
330
1E
100
AcDbEntity
  8
0
100
AcDbLine
 10
218.13325
 20
121.536
 30
0.0
 11
218.13325
 21
119.744
 31
0.0
  0
LINE
  5
11D
330
1E
100
AcDbEntity
  8
0
100
AcDbLine
 10
218.13325
 20
121.536
 30
0.0
 11
218.13325
 21
123.328
 31
0.0
  0
LINE
  5
11E
330
1E
100
AcDbEntity
  8
0
100
AcDbLine
 10
218.13325
 20
121.536
 30
0.0
 11
218.13325
 21
119.232
 31
0.0
  0
LINE
  5
11F
330
1E
100
AcDbEntity
  8
0
100
AcDbLine
 10
218.13325
 20
121.536
 30
0.0
 11
218.13325
 21
123.84
 31
0.0
  0
LINE
  5
120
330
1E
100
AcDbEntity
  8
0
100
AcDbLine
 10
218.13325
 20
119.744
 30
0.0
 11
218.13325
 21
118.064
 31
0.0
  0
LINE
  5
121
330
1E
100
AcDbEntity
  8
0
100
AcDbLine
 10
218.13325
 20
119.744
 30
0.0
 11
218.13325
 21
121.536
 31
0.0
  0
LINE
  5
122
330
1E
100
AcDbEntity
  8
0
100
AcDbLine
 10
218.13325
 20
118.064
 30
0.0
 11
218.13325
 21
116.58
 31
0.0
  0
LINE
  5
123
330
1E
100
AcDbEntity
  8
0
100
AcDbLine
 10
218.13325
 20
118.064
 30
0.0
 11
218.13325
 21
119.744
 31
0.0
  0
LINE
  5
124
330
1E
100
AcDbEntity
  8
0
100
AcDbLine
 10
218.13325
 20
116.58
 30
0.0
 11
218.13325
 21
115.46
 31
0.0
  0
LINE
  5
125
330
1E
100
AcDbEntity
  8
0
100
AcDbLine
 10
218.13325
 20
116.58
 30
0.0
 11
218.13325
 21
118.064
 31
0.0
  0
LINE
  5
126
330
1E
100
AcDbEntity
  8
0
100
AcDbLine
 10
218.13325
 20
115.46
 30
0.0
 11
218.13325
 21
114.788
 31
0.0
  0
LINE
  5
127
330
1E
100
AcDbEntity
  8
0
100
AcDbLine
 10
218.13325
 20
115.46
 30
0.0
 11
218.13325
 21
116.58
 31
0.0
  0
LINE
  5
128
330
1E
100
AcDbEntity
  8
0
100
AcDbLine
 10
218.13325
 20
114.788
 30
0.0
 11
218.13325
 21
114.536
 31
0.0
  0
LINE
  5
129
330
1E
100
AcDbEntity
  8
0
100
AcDbLine
 10
218.13325
 20
114.788
 30
0.0
 11
218.13325
 21
115.46
 31
0.0
  0
LINE
  5
12A
330
1E
100
AcDbEntity
  8
0
100
AcDbLine
 10
218.13325
 20
114.536
 30
0.0
 11
218.13325
 21
111.536
 31
0.0
  0
LINE
  5
12B
330
1E
100
AcDbEntity
  8
0
100
AcDbLine
 10
218.13325
 20
114.536
 30
0.0
 11
218.13325
 21
114.788
 31
0.0
  0
LINE
  5
12C
330
1E
100
AcDbEntity
  8
0
100
AcDbLine
 10
218.13325
 20
130.212
 30
0.0
 11
218.13325
 21
130.536
 31
0.0
  0
LINE
  5
12D
330
1E
100
AcDbEntity
  8
0
100
AcDbLine
 10
218.13325
 20
130.212
 30
0.0
 11
218.13325
 21
129.348
 31
0.0
  0
LINE
  5
12E
330
1E
100
AcDbEntity
  8
0
100
AcDbLine
 10
218.13325
 20
130.536
 30
0.0
 11
228.13325
 21
130.536
 31
0.0
  0
LINE
  5
12F
330
1E
100
AcDbEntity
  8
0
100
AcDbLine
 10
218.13325
 20
130.536
 30
0.0
 11
218.13325
 21
130.212
 31
0.0
  0
LINE
  5
130
330
1E
100
AcDbEntity
  8
0
100
AcDbLine
 10
218.13325
 20
131.536
 30
0.0
 11
238.13325
 21
131.536
 31
0.0
  0
LINE
  5
131
330
1E
100
AcDbEntity
  8
0
100
AcDbLine
 10
218.13325
 20
137.536
 30
0.0
 11
218.13325
 21
136.6
 31
0.0
  0
LINE
  5
132
330
1E
100
AcDbEntity
  8
0
100
AcDbLine
 10
218.13325
 20
136.6
 30
0.0
 11
218.13325
 21
137.536
 31
0.0
  0
LINE
  5
133
330
1E
100
AcDbEntity
  8
0
100
AcDbLine
 10
218.13325
 20
136.6
 30
0.0
 11
218.13325
 21
134.104
 31
0.0
  0
LINE
  5
134
330
1E
100
AcDbEntity
  8
0
100
AcDbLine
 10
218.13325
 20
134.104
 30
0.0
 11
218.13325
 21
136.6
 31
0.0
  0
LINE
  5
135
330
1E
100
AcDbEntity
  8
0
100
AcDbLine
 10
218.13325
 20
134.104
 30
0.0
 11
218.13325
 21
129.944
 31
0.0
  0
LINE
  5
136
330
1E
100
AcDbEntity
  8
0
100
AcDbLine
 10
218.13325
 20
129.944
 30
0.0
 11
218.13325
 21
134.104
 31
0.0
  0
LINE
  5
137
330
1E
100
AcDbEntity
  8
0
100
AcDbLine
 10
218.13325
 20
129.944
 30
0.0
 11
218.13325
 21
128.536
 31
0.0
  0
LINE
  5
138
330
1E
100
AcDbEntity
  8
0
100
AcDbLine
 10
218.13325
 20
128.536
 30
0.0
 11
218.13325
 21
129.944
 31
0.0
  0
LINE
  5
139
330
1E
100
AcDbEntity
  8
0
100
AcDbLine
 10
218.13325
 20
128.536
 30
0.0
 11
218.13325
 21
128.284
 31
0.0
  0
LINE
  5
13A
330
1E
100
AcDbEntity
  8
0
100
AcDbLine
 10
218.13325
 20
128.536
 30
0.0
 11
218.13325
 21
129.348
 31
0.0
  0
LINE
  5
13B
330
1E
100
AcDbEntity
  8
0
100
AcDbLine
 10
218.13325
 20
111.536
 30
0.0
 11
218.13325
 21
104.88
 31
0.0
  0
LINE
  5
13C
330
1E
100
AcDbEntity
  8
0
100
AcDbLine
 10
218.13325
 20
111.536
 30
0.0
 11
218.13325
 21
114.536
 31
0.0
  0
LINE
  5
13D
330
1E
100
AcDbEntity
  8
0
100
AcDbLine
 10
216.13325
 20
104.88
 30
0.0
 11
216.13325
 21
111.536
 31
0.0
  0
LINE
  5
13E
330
1E
100
AcDbEntity
  8
0
100
AcDbLine
 10
216.13325
 20
104.88
 30
0.0
 11
216.13325
 21
98.64
 31
0.0
  0
LINE
  5
13F
330
1E
100
AcDbEntity
  8
0
100
AcDbLine
 10
218.13325
 20
98.64
 30
0.0
 11
218.13325
 21
104.88
 31
0.0
  0
LINE
  5
140
330
1E
100
AcDbEntity
  8
0
100
AcDbLine
 10
218.13325
 20
98.64
 30
0.0
 11
218.13325
 21
93.128
 31
0.0
  0
LINE
  5
141
330
1E
100
AcDbEntity
  8
0
100
AcDbLine
 10
228.13325
 20
112.536
 30
0.0
 11
228.13325
 21
112.86
 31
0.0
  0
LINE
  5
142
330
1E
100
AcDbEntity
  8
0
100
AcDbLine
 10
228.13325
 20
123.84
 30
0.0
 11
228.13325
 21
121.536
 31
0.0
  0
LINE
  5
143
330
1E
100
AcDbEntity
  8
0
100
AcDbLine
 10
228.13325
 20
123.84
 30
0.0
 11
228.13325
 21
126.0
 31
0.0
  0
LINE
  5
144
330
1E
100
AcDbEntity
  8
0
100
AcDbLine
 10
228.13325
 20
126.0
 30
0.0
 11
228.13325
 21
123.84
 31
0.0
  0
LINE
  5
145
330
1E
100
AcDbEntity
  8
0
100
AcDbLine
 10
228.13325
 20
126.0
 30
0.0
 11
228.13325
 21
127.908
 31
0.0
  0
LINE
  5
146
330
1E
100
AcDbEntity
  8
0
100
AcDbLine
 10
228.13325
 20
127.908
 30
0.0
 11
228.13325
 21
126.0
 31
0.0
  0
LINE
  5
147
330
1E
100
AcDbEntity
  8
0
100
AcDbLine
 10
228.13325
 20
127.908
 30
0.0
 11
228.13325
 21
129.348
 31
0.0
  0
LINE
  5
148
330
1E
100
AcDbEntity
  8
0
100
AcDbLine
 10
228.13325
 20
121.536
 30
0.0
 11
228.13325
 21
119.232
 31
0.0
  0
LINE
  5
149
330
1E
100
AcDbEntity
  8
0
100
AcDbLine
 10
228.13325
 20
121.536
 30
0.0
 11
228.13325
 21
123.84
 31
0.0
  0
LINE
  5
14A
330
1E
100
AcDbEntity
  8
0
100
AcDbLine
 10
228.13325
 20
119.232
 30
0.0
 11
228.13325
 21
117.072
 31
0.0
  0
LINE
  5
14B
330
1E
100
AcDbEntity
  8
0
100
AcDbLine
 10
228.13325
 20
119.232
 30
0.0
 11
228.13325
 21
121.536
 31
0.0
  0
LINE
  5
14C
330
1E
100
AcDbEntity
  8
0
100
AcDbLine
 10
228.13325
 20
117.072
 30
0.0
 11
228.13325
 21
115.164
 31
0.0
  0
LINE
  5
14D
330
1E
100
AcDbEntity
  8
0
100
AcDbLine
 10
228.13325
 20
117.072
 30
0.0
 11
228.13325
 21
119.232
 31
0.0
  0
LINE
  5
14E
330
1E
100
AcDbEntity
  8
0
100
AcDbLine
 10
228.13325
 20
115.164
 30
0.0
 11
228.13325
 21
113.724
 31
0.0
  0
LINE
  5
14F
330
1E
100
AcDbEntity
  8
0
100
AcDbLine
 10
228.13325
 20
115.164
 30
0.0
 11
228.13325
 21
117.072
 31
0.0
  0
LINE
  5
150
330
1E
100
AcDbEntity
  8
0
100
AcDbLine
 10
228.13325
 20
113.724
 30
0.0
 11
228.13325
 21
112.86
 31
0.0
  0
LINE
  5
151
330
1E
100
AcDbEntity
  8
0
100
AcDbLine
 10
228.13325
 20
113.724
 30
0.0
 11
228.13325
 21
115.164
 31
0.0
  0
LINE
  5
152
330
1E
100
AcDbEntity
  8
0
100
AcDbLine
 10
228.13325
 20
112.86
 30
0.0
 11
228.13325
 21
112.536
 31
0.0
  0
LINE
  5
153
330
1E
100
AcDbEntity
  8
0
100
AcDbLine
 10
228.13325
 20
112.86
 30
0.0
 11
228.13325
 21
113.724
 31
0.0
  0
LINE
  5
154
330
1E
100
AcDbEntity
  8
0
100
AcDbLine
 10
238.13325
 20
96.536
 30
0.0
 11
268.13325
 21
96.536
 31
0.0
  0
LINE
  5
155
330
1E
100
AcDbEntity
  8
0
100
AcDbLine
 10
238.13325
 20
96.536
 30
0.0
 11
238.13325
 21
131.536
 31
0.0
  0
LINE
  5
156
330
1E
100
AcDbEntity
  8
0
100
AcDbLine
 10
228.13325
 20
114.536
 30
0.0
 11
238.13325
 21
114.536
 31
0.0
  0
LINE
  5
157
330
1E
100
AcDbEntity
  8
0
100
AcDbLine
 10
228.13325
 20
129.348
 30
0.0
 11
228.13325
 21
127.908
 31
0.0
  0
LINE
  5
158
330
1E
100
AcDbEntity
  8
0
100
AcDbLine
 10
228.13325
 20
129.348
 30
0.0
 11
228.13325
 21
130.212
 31
0.0
  0
LINE
  5
159
330
1E
100
AcDbEntity
  8
0
100
AcDbLine
 10
228.13325
 20
130.212
 30
0.0
 11
228.13325
 21
129.348
 31
0.0
  0
LINE
  5
15A
330
1E
100
AcDbEntity
  8
0
100
AcDbLine
 10
228.13325
 20
130.212
 30
0.0
 11
228.13325
 21
130.536
 31
0.0
  0
LINE
  5
15B
330
1E
100
AcDbEntity
  8
0
100
AcDbLine
 10
249.13325
 20
140.536
 30
0.0
 11
249.13325
 21
136.536
 31
0.0
  0
LINE
  5
15C
330
1E
100
AcDbEntity
  8
0
100
AcDbLine
 10
249.13325
 20
140.536
 30
0.0
 11
250.50125
 21
140.536
 31
0.0
  0
LINE
  5
15D
330
1E
100
AcDbEntity
  8
0
100
AcDbLine
 10
250.50125
 20
136.536
 30
0.0
 11
254.14925
 21
136.536
 31
0.0
  0
LINE
  5
15E
330
1E
100
AcDbEntity
  8
0
100
AcDbLine
 10
250.50125
 20
140.536
 30
0.0
 11
254.14925
 21
140.536
 31
0.0
  0
LINE
  5
15F
330
1E
100
AcDbEntity
  8
0
100
AcDbLine
 10
250.50125
 20
136.536
 30
0.0
 11
254.14925
 21
136.536
 31
0.0
  0
LINE
  5
160
330
1E
100
AcDbEntity
  8
0
100
AcDbLine
 10
249.13325
 20
136.536
 30
0.0
 11
250.50125
 21
136.536
 31
0.0
  0
LINE
  5
161
330
1E
100
AcDbEntity
  8
0
100
AcDbLine
 10
249.13325
 20
136.536
 30
0.0
 11
250.50125
 21
136.536
 31
0.0
  0
LINE
  5
162
330
1E
100
AcDbEntity
  8
0
100
AcDbLine
 10
249.13325
 20
136.536
 30
0.0
 11
249.13325
 21
140.536
 31
0.0
  0
LINE
  5
163
330
1E
100
AcDbEntity
  8
0
100
AcDbLine
 10
238.13325
 20
131.536
 30
0.0
 11
268.13325
 21
131.536
 31
0.0
  0
LINE
  5
164
330
1E
100
AcDbEntity
  8
0
100
AcDbLine
 10
238.13325
 20
131.536
 30
0.0
 11
238.13325
 21
96.536
 31
0.0
  0
LINE
  5
165
330
1E
100
AcDbEntity
  8
0
100
AcDbLine
 10
228.13325
 20
130.536
 30
0.0
 11
228.13325
 21
130.212
 31
0.0
  0
LINE
  5
166
330
1E
100
AcDbEntity
  8
0
100
AcDbLine
 10
228.13325
 20
128.536
 30
0.0
 11
238.13325
 21
128.536
 31
0.0
  0
LINE
  5
167
330
1E
100
AcDbEntity
  8
0
100
AcDbLine
 10
218.13325
 20
104.88
 30
0.0
 11
218.13325
 21
111.536
 31
0.0
  0
LINE
  5
168
330
1E
100
AcDbEntity
  8
0
100
AcDbLine
 10
218.13325
 20
104.88
 30
0.0
 11
218.13325
 21
98.64
 31
0.0
  0
LINE
  5
169
330
1E
100
AcDbEntity
  8
0
100
AcDbLine
 10
6.31335
 20
494.168
 30
0.0
 11
20.20523
 21
415.383
 31
0.0
  0
LINE
  5
16A
330
1E
100
AcDbEntity
  8
0
100
AcDbLine
 10
6.31335
 20
494.168
 30
0.0
 11
7.05785
 21
494.299
 31
0.0
  0
LINE
  5
16B
330
1E
100
AcDbEntity
  8
0
100
AcDbLine
 10
7.05785
 20
494.299
 30
0.0
 11
40.883205400233
 21
500.263197774925
 31
0.0
  0
LINE
  5
173
330
1E
100
AcDbEntity
  8
0
100
AcDbLine
 10
7.15105
 20
501.11
 30
0.0
 11
8.01185
 21
501.186
 31
0.0
  0
LINE
  5
174
330
1E
100
AcDbEntity
  8
0
100
AcDbLine
 10
9.44635
 20
501.311
 30
0.0
 11
10.813105355871
 21
501.430367279989
 31
0.0
  0
LINE
  5
175
330
1E
100
AcDbEntity
  8
0
100
AcDbLine
 10
9.44635
 20
501.311
 30
0.0
 11
11.1206746994
 21
501.457229231389
 31
0.0
  0
LINE
  5
176
330
1E
100
AcDbEntity
  8
0
100
AcDbLine
 10
8.01185
 20
501.186
 30
0.0
 11
9.44635
 21
501.311
 31
0.0
  0
LINE
  5
177
330
1E
100
AcDbEntity
  8
0
100
AcDbLine
 10
6.82835
 20
501.082
 30
0.0
 11
7.15105
 21
501.11
 31
0.0
  0
LINE
  5
178
330
1E
100
AcDbEntity
  8
0
100
AcDbLine
 10
10.98424215687
 20
501.445313725491
 30
0.0
 11
11.052212499947
 21
501.451249999995
 31
0.0
  0
LINE
  5
179
330
1E
100
AcDbEntity
  8
0
100
AcDbLine
 10
10.99245
 20
501.446
 30
0.0
 11
11.052212499947
 21
501.451249999995
 31
0.0
  0
LINE
  5
182
330
1E
100
AcDbEntity
  8
0
100
AcDbLine
 10
4.08555
 20
523.062
 30
0.0
 11
7.36105
 21
520.034
 31
0.0
  0
LINE
  5
184
330
1E
100
AcDbEntity
  8
0
100
AcDbLine
 10
7.36105
 20
520.034
 30
0.0
 11
11.32595
 21
517.992
 31
0.0
  0
LINE
  5
185
330
1E
100
AcDbEntity
  8
0
100
AcDbLine
 10
11.32595
 20
517.992
 30
0.0
 11
15.65885
 21
517.03
 31
0.0
  0
LINE
  5
186
330
1E
100
AcDbEntity
  8
0
100
AcDbLine
 10
15.65885
 20
517.03
 30
0.0
 11
20.04696
 21
517.194
 31
0.0
  0
LINE
  5
187
330
1E
100
AcDbEntity
  8
0
100
AcDbLine
 10
20.20523
 20
415.383
 30
0.0
 11
20.94975
 21
415.515
 31
0.0
  0
LINE
  5
188
330
1E
100
AcDbEntity
  8
0
100
AcDbLine
 10
20.94975
 20
415.515
 30
0.0
 11
22.93512
 21
415.865
 31
0.0
  0
LINE
  5
18B
330
1E
100
AcDbEntity
  8
0
100
AcDbLine
 10
22.93512
 20
415.865
 30
0.0
 11
24.990638887761
 21
416.227158902604
 31
0.0
  0
LINE
  5
18C
330
1E
100
AcDbEntity
  8
0
100
AcDbLine
 10
22.93512
 20
415.865
 30
0.0
 11
26.244075
 21
416.448
 31
0.0
  0
LINE
  5
192
330
1E
100
AcDbEntity
  8
0
100
AcDbLine
 10
24.990638887761
 20
416.227158902604
 30
0.0
 11
45.27403105884
 21
296.88847883267
 31
0.0
  0
LINE
  5
193
330
1E
100
AcDbEntity
  8
0
100
AcDbLine
 10
24.990638887761
 20
416.227158902604
 30
0.0
 11
45.27403105884
 21
296.88847883267
 31
0.0
  0
LINE
  5
196
330
1E
100
AcDbEntity
  8
0
100
AcDbLine
 10
26.244075
 20
416.448
 30
0.0
 11
30.62844
 21
417.221
 31
0.0
  0
LINE
  5
197
330
1E
100
AcDbEntity
  8
0
100
AcDbLine
 10
30.62844
 20
417.221
 30
0.0
 11
35.59187
 21
418.096
 31
0.0
  0
LINE
  5
19E
330
1E
100
AcDbEntity
  8
0
100
AcDbLine
 10
27.969195
 20
520.927
 30
0.0
 11
30.99641
 21
524.202
 31
0.0
  0
LINE
  5
19F
330
1E
100
AcDbEntity
  8
0
100
AcDbLine
 10
24.22669
 20
518.54
 30
0.0
 11
27.969195
 21
520.927
 31
0.0
  0
LINE
  5
1A0
330
1E
100
AcDbEntity
  8
0
100
AcDbLine
 10
20.04696
 20
517.194
 30
0.0
 11
24.22669
 21
518.54
 31
0.0
  0
LINE
  5
1A1
330
1E
100
AcDbEntity
  8
0
100
AcDbLine
 10
0.18875
 20
535.372
 30
0.0
 11
0.35325
 21
530.984
 31
0.0
  0
LINE
  5
1A2
330
1E
100
AcDbEntity
  8
0
100
AcDbLine
 10
0.18875
 20
535.372
 30
0.0
 11
1.15095
 21
539.705
 31
0.0
  0
LINE
  5
1A7
330
1E
100
AcDbEntity
  8
0
100
AcDbLine
 10
7.89337050486
 20
519.759844669241
 30
0.0
 11
12.222240335881
 21
495.210054806937
 31
0.0
  0
LINE
  5
1AC
330
1E
100
AcDbEntity
  8
0
100
AcDbLine
 10
1.69945
 20
526.804
 30
0.0
 11
4.08555
 21
523.062
 31
0.0
  0
LINE
  5
1AD
330
1E
100
AcDbEntity
  8
0
100
AcDbLine
 10
1.69945
 20
526.804
 30
0.0
 11
4.08555
 21
523.062
 31
0.0
  0
LINE
  5
1B4
330
1E
100
AcDbEntity
  8
0
100
AcDbLine
 10
1.69945
 20
526.804
 30
0.0
 11
4.08555
 21
523.062
 31
0.0
  0
LINE
  5
1B5
330
1E
100
AcDbEntity
  8
0
100
AcDbLine
 10
0.35325
 20
530.984
 30
0.0
 11
1.69945
 21
526.804
 31
0.0
  0
LINE
  5
1B6
330
1E
100
AcDbEntity
  8
0
100
AcDbLine
 10
30.99641
 20
524.202
 30
0.0
 11
33.03894
 21
528.167
 31
0.0
  0
LINE
  5
1B7
330
1E
100
AcDbEntity
  8
0
100
AcDbLine
 10
35.59187
 20
418.096
 30
0.0
 11
40.88615
 21
419.03
 31
0.0
  0
LINE
  5
1BC
330
1E
100
AcDbEntity
  8
0
100
AcDbLine
 10
40.88615
 20
419.03
 30
0.0
 11
46.18055
 21
419.963
 31
0.0
  0
LINE
  5
1BD
330
1E
100
AcDbEntity
  8
0
100
AcDbLine
 10
40.43665
 20
502.796
 30
0.0
 11
40.883205400233
 21
500.263197774925
 31
0.0
  0
LINE
  5
1C2
330
1E
100
AcDbEntity
  8
0
100
AcDbLine
 10
36.18572
 20
526.904
 30
0.0
 11
39.32525
 21
509.099
 31
0.0
  0
LINE
  5
1C3
330
1E
100
AcDbEntity
  8
0
100
AcDbLine
 10
35.39185
 20
528.068
 30
0.0
 11
38.12685
 21
512.557
 31
0.0
  0
LINE
  5
1C6
330
1E
100
AcDbEntity
  8
0
100
AcDbLine
 10
39.32525
 20
509.099
 30
0.0
 11
40.43665
 21
502.796
 31
0.0
  0
LINE
  5
1C7
330
1E
100
AcDbEntity
  8
0
100
AcDbLine
 10
38.12685
 20
512.557
 30
0.0
 11
39.09205
 21
507.083
 31
0.0
  0
LINE
  5
1C8
330
1E
100
AcDbEntity
  8
0
100
AcDbLine
 10
39.09205
 20
507.083
 30
0.0
 11
40.239019193858
 21
500.158060803546
 31
0.0
  0
LINE
  5
1C9
330
1E
100
AcDbEntity
  8
0
100
AcDbLine
 10
33.03894
 20
528.167
 30
0.0
 11
34.00116
 21
532.5
 31
0.0
  0
LINE
  5
1CB
330
1E
100
AcDbEntity
  8
0
100
AcDbLine
 10
1.15095
 20
539.705
 30
0.0
 11
3.19345
 21
543.67
 31
0.0
  0
LINE
  5
1CD
330
1E
100
AcDbEntity
  8
0
100
AcDbLine
 10
3.19345
 20
543.67
 30
0.0
 11
6.22065
 21
546.945
 31
0.0
  0
LINE
  5
1CE
330
1E
100
AcDbEntity
  8
0
100
AcDbLine
 10
2.79335
 20
550.92
 30
0.0
 11
3.65405
 21
550.995
 31
0.0
  0
LINE
  5
1CF
330
1E
100
AcDbEntity
  8
0
100
AcDbLine
 10
5.08855
 20
551.121
 30
0.0
 11
6.98925
 21
551.287
 31
0.0
  0
LINE
  5
1D0
330
1E
100
AcDbEntity
  8
0
100
AcDbLine
 10
9.14105
 20
551.475
 30
0.0
 11
11.43625
 21
551.676
 31
0.0
  0
LINE
  5
1D1
330
1E
100
AcDbEntity
  8
0
100
AcDbLine
 10
6.98925
 20
551.287
 30
0.0
 11
9.14105
 21
551.475
 31
0.0
  0
LINE
  5
1D2
330
1E
100
AcDbEntity
  8
0
100
AcDbLine
 10
3.65405
 20
550.995
 30
0.0
 11
5.08855
 21
551.121
 31
0.0
  0
LINE
  5
1D3
330
1E
100
AcDbEntity
  8
0
100
AcDbLine
 10
4.961368219085
 20
521.874033084898
 30
0.0
 11
6.82835
 21
501.082
 31
0.0
  0
LINE
  5
1D4
330
1E
100
AcDbEntity
  8
0
100
AcDbLine
 10
2.47055
 20
550.892
 30
0.0
 11
2.79335
 21
550.92
 31
0.0
  0
LINE
  5
1D5
330
1E
100
AcDbEntity
  8
0
100
AcDbLine
 10
6.22065
 20
546.945
 30
0.0
 11
9.96315
 21
549.331
 31
0.0
  0
LINE
  5
1D7
330
1E
100
AcDbEntity
  8
0
100
AcDbLine
 10
34.40757
 20
536.989
 30
0.0
 11
36.18572
 21
526.904
 31
0.0
  0
LINE
  5
1D8
330
1E
100
AcDbEntity
  8
0
100
AcDbLine
 10
26.828856
 20
547.837
 30
0.0
 11
30.10429
 21
544.81
 31
0.0
  0
LINE
  5
1D9
330
1E
100
AcDbEntity
  8
0
100
AcDbLine
 10
41.33565
 20
548.608
 30
0.0
 11
43.11385
 21
538.524
 31
0.0
  0
LINE
  5
1DA
330
1E
100
AcDbEntity
  8
0
100
AcDbLine
 10
32.62941
 20
547.073
 30
0.0
 11
34.40757
 21
536.989
 31
0.0
  0
LINE
  5
1DB
330
1E
100
AcDbEntity
  8
0
100
AcDbLine
 10
30.10429
 20
544.81
 30
0.0
 11
32.49042
 21
541.068
 31
0.0
  0
LINE
  5
1DC
330
1E
100
AcDbEntity
  8
0
100
AcDbLine
 10
32.49042
 20
541.068
 30
0.0
 11
33.83667
 21
536.888
 31
0.0
  0
LINE
  5
1DD
330
1E
100
AcDbEntity
  8
0
100
AcDbLine
 10
22.86394
 20
549.88
 30
0.0
 11
26.828856
 21
547.837
 31
0.0
  0
LINE
  5
1DE
330
1E
100
AcDbEntity
  8
0
100
AcDbLine
 10
13.73155
 20
551.877
 30
0.0
 11
15.88325
 21
552.065
 31
0.0
  0
LINE
  5
1DF
330
1E
100
AcDbEntity
  8
0
100
AcDbLine
 10
11.43625
 20
551.676
 30
0.0
 11
13.73155
 21
551.877
 31
0.0
  0
LINE
  5
1E1
330
1E
100
AcDbEntity
  8
0
100
AcDbLine
 10
18.53102
 20
550.842
 30
0.0
 11
22.86394
 21
549.88
 31
0.0
  0
LINE
  5
1E2
330
1E
100
AcDbEntity
  8
0
100
AcDbLine
 10
14.14295
 20
550.678
 30
0.0
 11
18.53102
 21
550.842
 31
0.0
  0
LINE
  5
1E3
330
1E
100
AcDbEntity
  8
0
100
AcDbLine
 10
9.96315
 20
549.331
 30
0.0
 11
14.14295
 21
550.678
 31
0.0
  0
LINE
  5
1E4
330
1E
100
AcDbEntity
  8
0
100
AcDbLine
 10
33.83667
 20
536.888
 30
0.0
 11
34.00116
 21
532.5
 31
0.0
  0
LINE
  5
1E5
330
1E
100
AcDbEntity
  8
0
100
AcDbLine
 10
33.83667
 20
536.888
 30
0.0
 11
35.102786542891
 21
529.70738559633
 31
0.0
  0
LINE
  5
1E6
330
1E
100
AcDbEntity
  8
0
100
AcDbLine
 10
33.83667
 20
536.888
 30
0.0
 11
35.39185
 21
528.068
 31
0.0
  0
LINE
  5
1E7
330
1E
100
AcDbEntity
  8
0
100
AcDbLine
 10
33.83667
 20
536.888
 30
0.0
 11
35.102792885342
 21
529.707386714431
 31
0.0
  0
LINE
  5
1E8
330
1E
100
AcDbEntity
  8
0
100
AcDbLine
 10
43.01915
 20
296.49
 30
0.0
 11
45.00455
 21
296.841
 31
0.0
  0
LINE
  5
1EA
330
1E
100
AcDbEntity
  8
0
100
AcDbLine
 10
42.27465
 20
296.359
 30
0.0
 11
43.01915
 21
296.49
 31
0.0
  0
LINE
  5
1EB
330
1E
100
AcDbEntity
  8
0
100
AcDbLine
 10
42.27465
 20
296.359
 30
0.0
 11
43.668794622866
 21
296.604851043934
 31
0.0
  0
LINE
  5
1EC
330
1E
100
AcDbEntity
  8
0
100
AcDbLine
 10
42.27465
 20
296.359
 30
0.0
 11
45.747598452184
 21
276.663292336822
 31
0.0
  0
LINE
  5
1ED
330
1E
100
AcDbEntity
  8
0
100
AcDbLine
 10
43.77805
 20
276.316
 30
0.0
 11
44.59345
 21
276.46
 31
0.0
  0
LINE
  5
1EE
330
1E
100
AcDbEntity
  8
0
100
AcDbLine
 10
43.77805
 20
276.316
 30
0.0
 11
48.98745
 21
246.772
 31
0.0
  0
LINE
  5
1EF
330
1E
100
AcDbEntity
  8
0
100
AcDbLine
 10
43.68475
 20
538.624
 30
0.0
 11
45.43515
 21
528.698
 31
0.0
  0
LINE
  5
1F0
330
1E
100
AcDbEntity
  8
0
100
AcDbLine
 10
43.11385
 20
538.524
 30
0.0
 11
44.89205
 21
528.439
 31
0.0
  0
LINE
  5
1F1
330
1E
100
AcDbEntity
  8
0
100
AcDbLine
 10
41.99555
 20
548.205
 30
0.0
 11
43.68475
 21
538.624
 31
0.0
  0
LINE
  5
1F3
330
1E
100
AcDbEntity
  8
0
100
AcDbLine
 10
44.59345
 20
276.46
 30
0.0
 11
45.747562714316
 21
276.663495012623
 31
0.0
  0
LINE
  5
1F4
330
1E
100
AcDbEntity
  8
0
100
AcDbLine
 10
44.59345
 20
276.46
 30
0.0
 11
45.747598452184
 21
276.663292336822
 31
0.0
  0
LINE
  5
1F5
330
1E
100
AcDbEntity
  8
0
100
AcDbLine
 10
44.59345
 20
276.46
 30
0.0
 11
46.492016294625
 21
276.794758266933
 31
0.0
  0
LINE
  5
1F6
330
1E
100
AcDbEntity
  8
0
100
AcDbLine
 10
44.59345
 20
276.46
 30
0.0
 11
46.76785
 21
276.843
 31
0.0
  0
LINE
  5
1F8
330
1E
100
AcDbEntity
  8
0
100
AcDbLine
 10
44.37905
 20
548.625
 30
0.0
 11
46.06825
 21
539.045
 31
0.0
  0
LINE
  5
1F9
330
1E
100
AcDbEntity
  8
0
100
AcDbLine
 10
44.230565858167
 20
552.805471500027
 30
0.0
 11
44.28815
 21
553.501
 31
0.0
  0
LINE
  5
1FE
330
1E
100
AcDbEntity
  8
0
100
AcDbLine
 10
14.37305
 20
563.769
 30
0.0
 11
15.32045
 21
558.396
 31
0.0
  0
LINE
  5
1FF
330
1E
100
AcDbEntity
  8
0
100
AcDbLine
 10
13.78315
 20
567.115
 30
0.0
 11
14.37305
 21
563.769
 31
0.0
  0
LINE
  5
200
330
1E
100
AcDbEntity
  8
0
100
AcDbLine
 10
13.56865
 20
568.331
 30
0.0
 11
13.78315
 21
567.115
 31
0.0
  0
LINE
  5
201
330
1E
100
AcDbEntity
  8
0
100
AcDbLine
 10
13.56865
 20
568.331
 30
0.0
 11
14.46405
 21
569.012
 31
0.0
  0
LINE
  5
202
330
1E
100
AcDbEntity
  8
0
100
AcDbLine
 10
29.48985
 20
564.878
 30
0.0
 11
30.96239
 21
556.527
 31
0.0
  0
LINE
  5
203
330
1E
100
AcDbEntity
  8
0
100
AcDbLine
 10
15.32045
 20
558.396
 30
0.0
 11
15.88325
 21
552.065
 31
0.0
  0
LINE
  5
204
330
1E
100
AcDbEntity
  8
0
100
AcDbLine
 10
30.96239
 20
556.527
 30
0.0
 11
32.62941
 21
547.073
 31
0.0
  0
LINE
  5
205
330
1E
100
AcDbEntity
  8
0
100
AcDbLine
 10
29.54654
 20
561.218
 30
0.0
 11
33.83667
 21
536.888
 31
0.0
  0
LINE
  5
206
330
1E
100
AcDbEntity
  8
0
100
AcDbLine
 10
28.3785
 20
571.181
 30
0.0
 11
29.48985
 21
564.878
 31
0.0
  0
LINE
  5
207
330
1E
100
AcDbEntity
  8
0
100
AcDbLine
 10
28.642873708934
 20
566.343531393571
 30
0.0
 11
29.54654
 21
561.218
 31
0.0
  0
LINE
  5
208
330
1E
100
AcDbEntity
  8
0
100
AcDbLine
 10
14.46405
 20
569.012
 30
0.0
 11
27.758987
 21
571.356
 31
0.0
  0
LINE
  5
209
330
1E
100
AcDbEntity
  8
0
100
AcDbLine
 10
27.057448
 20
575.335
 30
0.0
 11
28.642873708934
 21
566.343531393571
 31
0.0
  0
LINE
  5
20A
330
1E
100
AcDbEntity
  8
0
100
AcDbLine
 10
27.057448
 20
575.335
 30
0.0
 11
27.461639
 21
576.381
 31
0.0
  0
LINE
  5
20B
330
1E
100
AcDbEntity
  8
0
100
AcDbLine
 10
36.90553
 20
577.071
 30
0.0
 11
38.3056464844
 21
569.130822265484
 31
0.0
  0
LINE
  5
20C
330
1E
100
AcDbEntity
  8
0
100
AcDbLine
 10
37.08479
 20
572.716
 30
0.0
 11
38.19615
 21
566.413
 31
0.0
  0
LINE
  5
20D
330
1E
100
AcDbEntity
  8
0
100
AcDbLine
 10
27.711692
 20
574.963
 30
0.0
 11
28.3785
 21
571.181
 31
0.0
  0
LINE
  5
20E
330
1E
100
AcDbEntity
  8
0
100
AcDbLine
 10
27.758987
 20
571.356
 30
0.0
 11
27.849671656382
 21
570.841928067204
 31
0.0
  0
LINE
  5
20F
330
1E
100
AcDbEntity
  8
0
100
AcDbLine
 10
38.19615
 20
566.413
 30
0.0
 11
39.66865
 21
558.062
 31
0.0
  0
LINE
  5
210
330
1E
100
AcDbEntity
  8
0
100
AcDbLine
 10
38.90595
 20
565.726
 30
0.0
 11
40.32295
 21
557.69
 31
0.0
  0
LINE
  5
211
330
1E
100
AcDbEntity
  8
0
100
AcDbLine
 10
39.66865
 20
558.062
 30
0.0
 11
41.33565
 21
548.608
 31
0.0
  0
LINE
  5
212
330
1E
100
AcDbEntity
  8
0
100
AcDbLine
 10
43.44545
 20
557.258
 30
0.0
 11
44.97635
 21
548.576
 31
0.0
  0
LINE
  5
213
330
1E
100
AcDbEntity
  8
0
100
AcDbLine
 10
42.09935
 20
564.892
 30
0.0
 11
43.44545
 21
557.258
 31
0.0
  0
LINE
  5
214
330
1E
100
AcDbEntity
  8
0
100
AcDbLine
 10
42.79535
 20
557.606
 30
0.0
 11
44.37905
 21
548.625
 31
0.0
  0
LINE
  5
215
330
1E
100
AcDbEntity
  8
0
100
AcDbLine
 10
40.41185
 20
557.186
 30
0.0
 11
41.99555
 21
548.205
 31
0.0
  0
LINE
  5
216
330
1E
100
AcDbEntity
  8
0
100
AcDbLine
 10
40.19895
 20
575.67
 30
0.0
 11
42.09935
 21
564.892
 31
0.0
  0
LINE
  5
217
330
1E
100
AcDbEntity
  8
0
100
AcDbLine
 10
41.39645
 20
565.54
 30
0.0
 11
42.79535
 21
557.606
 31
0.0
  0
LINE
  5
218
330
1E
100
AcDbEntity
  8
0
100
AcDbLine
 10
39.01295
 20
565.12
 30
0.0
 11
40.41185
 21
557.186
 31
0.0
  0
LINE
  5
219
330
1E
100
AcDbEntity
  8
0
100
AcDbLine
 10
40.34065
 20
571.528
 30
0.0
 11
41.39645
 21
565.54
 31
0.0
  0
LINE
  5
21A
330
1E
100
AcDbEntity
  8
0
100
AcDbLine
 10
38.3056464844
 20
569.130822265484
 30
0.0
 11
39.01295
 21
565.12
 31
0.0
  0
LINE
  5
21B
330
1E
100
AcDbEntity
  8
0
100
AcDbLine
 10
39.70725
 20
575.12
 30
0.0
 11
40.34065
 21
571.528
 31
0.0
  0
LINE
  5
21C
330
1E
100
AcDbEntity
  8
0
100
AcDbLine
 10
37.32365
 20
574.7
 30
0.0
 11
37.468723692868
 21
573.877190562784
 31
0.0
  0
LINE
  5
21E
330
1E
100
AcDbEntity
  8
0
100
AcDbLine
 10
36.41798
 20
576.498
 30
0.0
 11
37.08479
 21
572.716
 31
0.0
  0
LINE
  5
21F
330
1E
100
AcDbEntity
  8
0
100
AcDbLine
 10
27.461639
 20
576.381
 30
0.0
 11
27.711692
 21
574.963
 31
0.0
  0
LINE
  5
220
330
1E
100
AcDbEntity
  8
0
100
AcDbLine
 10
27.461639
 20
576.381
 30
0.0
 11
36.16793
 21
577.916
 31
0.0
  0
LINE
  5
22A
330
1E
100
AcDbEntity
  8
0
100
AcDbLine
 10
36.16793
 20
577.916
 30
0.0
 11
36.41798
 21
576.498
 31
0.0
  0
LINE
  5
22B
330
1E
100
AcDbEntity
  8
0
100
AcDbLine
 10
36.16793
 20
577.916
 30
0.0
 11
36.90553
 21
577.071
 31
0.0
  0
LINE
  5
22C
330
1E
100
AcDbEntity
  8
0
100
AcDbLine
 10
44.180879441487
 20
578.241906497142
 30
0.0
 11
44.84255
 21
574.489
 31
0.0
  0
LINE
  5
22D
330
1E
100
AcDbEntity
  8
0
100
AcDbLine
 10
39.46965
 20
576.467
 30
0.0
 11
39.70725
 21
575.12
 31
0.0
  0
LINE
  5
22E
330
1E
100
AcDbEntity
  8
0
100
AcDbLine
 10
39.46965
 20
576.467
 30
0.0
 11
40.19895
 21
575.67
 31
0.0
  0
LINE
  5
22F
330
1E
100
AcDbEntity
  8
0
100
AcDbLine
 10
37.08612
 20
576.047
 30
0.0
 11
37.32365
 21
574.7
 31
0.0
  0
LINE
  5
230
330
1E
100
AcDbEntity
  8
0
100
AcDbLine
 10
37.08612
 20
576.047
 30
0.0
 11
39.46965
 21
576.467
 31
0.0
  0
LINE
  5
232
330
1E
100
AcDbEntity
  8
0
100
AcDbLine
 10
44.24775
 20
553.73
 30
0.0
 11
44.68095
 21
554.153
 31
0.0
  0
LINE
  5
233
330
1E
100
AcDbEntity
  8
0
100
AcDbLine
 10
44.24775
 20
553.73
 30
0.0
 11
44.28815
 21
553.501
 31
0.0
  0
LINE
  5
235
330
1E
100
AcDbEntity
  8
0
100
AcDbLine
 10
45.00455
 20
296.841
 30
0.0
 11
45.274025448712
 21
296.888511840231
 31
0.0
  0
LINE
  5
236
330
1E
100
AcDbEntity
  8
0
100
AcDbLine
 10
45.00455
 20
296.841
 30
0.0
 11
47.613832697513
 21
297.301048673208
 31
0.0
  0
LINE
  5
237
330
1E
100
AcDbEntity
  8
0
100
AcDbLine
 10
45.00455
 20
296.841
 30
0.0
 11
48.31355
 21
297.424
 31
0.0
  0
LINE
  5
239
330
1E
100
AcDbEntity
  8
0
100
AcDbLine
 10
46.76785
 20
276.843
 30
0.0
 11
48.477465986489
 21
277.144476479737
 31
0.0
  0
LINE
  5
23A
330
1E
100
AcDbEntity
  8
0
100
AcDbLine
 10
46.76785
 20
276.843
 30
0.0
 11
50.39195
 21
277.482
 31
0.0
  0
LINE
  5
23C
330
1E
100
AcDbEntity
  8
0
100
AcDbLine
 10
48.03155
 20
510.634
 30
0.0
 11
49.14295
 21
504.331
 31
0.0
  0
LINE
  5
23D
330
1E
100
AcDbEntity
  8
0
100
AcDbLine
 10
46.18055
 20
419.963
 30
0.0
 11
51.14395
 21
420.839
 31
0.0
  0
LINE
  5
23E
330
1E
100
AcDbEntity
  8
0
100
AcDbLine
 10
48.31355
 20
297.424
 30
0.0
 11
50.450310560679
 21
297.800798121012
 31
0.0
  0
LINE
  5
23F
330
1E
100
AcDbEntity
  8
0
100
AcDbLine
 10
48.31355
 20
297.424
 30
0.0
 11
52.69785
 21
298.197
 31
0.0
  0
LINE
  5
241
330
1E
100
AcDbEntity
  8
0
100
AcDbLine
 10
48.145692095832
 20
498.793534155393
 30
0.0
 11
61.56715
 21
422.676
 31
0.0
  0
LINE
  5
242
330
1E
100
AcDbEntity
  8
0
100
AcDbLine
 10
48.145692095832
 20
498.793534155393
 30
0.0
 11
50.05975
 21
499.131
 31
0.0
  0
LINE
  5
243
330
1E
100
AcDbEntity
  8
0
100
AcDbLine
 10
47.04655
 20
519.559
 30
0.0
 11
48.46355
 21
511.522
 31
0.0
  0
LINE
  5
244
330
1E
100
AcDbEntity
  8
0
100
AcDbLine
 10
46.55905
 20
518.985
 30
0.0
 11
48.03155
 21
510.634
 31
0.0
  0
LINE
  5
245
330
1E
100
AcDbEntity
  8
0
100
AcDbLine
 10
47.891509484706
 20
514.766523374323
 30
0.0
 11
48.35655
 21
512.129
 31
0.0
  0
LINE
  5
246
330
1E
100
AcDbEntity
  8
0
100
AcDbLine
 10
48.98745
 20
246.772
 30
0.0
 11
49.80285
 21
246.915
 31
0.0
  0
LINE
  5
247
330
1E
100
AcDbEntity
  8
0
100
AcDbLine
 10
49.14295
 20
504.331
 30
0.0
 11
49.80975
 21
500.55
 31
0.0
  0
LINE
  5
248
330
1E
100
AcDbEntity
  8
0
100
AcDbLine
 10
48.35655
 20
512.129
 30
0.0
 11
50.21395
 21
501.596
 31
0.0
  0
LINE
  5
24A
330
1E
100
AcDbEntity
  8
0
100
AcDbLine
 10
49.29835
 20
525.087
 30
0.0
 11
49.33875
 21
524.857
 31
0.0
  0
LINE
  5
24B
330
1E
100
AcDbEntity
  8
0
100
AcDbLine
 10
49.80285
 20
246.915
 30
0.0
 11
51.868232017391
 21
247.279169816029
 31
0.0
  0
LINE
  5
24C
330
1E
100
AcDbEntity
  8
0
100
AcDbLine
 10
49.80285
 20
246.915
 30
0.0
 11
51.97735
 21
247.299
 31
0.0
  0
LINE
  5
24D
330
1E
100
AcDbEntity
  8
0
100
AcDbLine
 10
49.80285
 20
246.915
 30
0.0
 11
52.576766969202
 21
247.404099267762
 31
0.0
  0
LINE
  5
24E
330
1E
100
AcDbEntity
  8
0
100
AcDbLine
 10
50.21395
 20
501.596
 30
0.0
 11
50.46395
 21
500.178
 31
0.0
  0
LINE
  5
24F
330
1E
100
AcDbEntity
  8
0
100
AcDbLine
 10
49.80975
 20
500.55
 30
0.0
 11
50.05975
 21
499.131
 31
0.0
  0
LINE
  5
250
330
1E
100
AcDbEntity
  8
0
100
AcDbLine
 10
50.05975
 20
499.131
 30
0.0
 11
50.46395
 21
500.178
 31
0.0
  0
LINE
  5
251
330
1E
100
AcDbEntity
  8
0
100
AcDbLine
 10
51.78645
 20
277.728
 30
0.0
 11
52.188602730496
 21
277.798902303776
 31
0.0
  0
LINE
  5
252
330
1E
100
AcDbEntity
  8
0
100
AcDbLine
 10
51.498544900771
 20
277.67718656413
 30
0.0
 11
51.78645
 21
277.728
 31
0.0
  0
LINE
  5
253
330
1E
100
AcDbEntity
  8
0
100
AcDbLine
 10
50.39195
 20
277.482
 30
0.0
 11
55.19395
 21
278.329
 31
0.0
  0
LINE
  5
255
330
1E
100
AcDbEntity
  8
0
100
AcDbLine
 10
51.868130736671
 20
247.279712716892
 30
0.0
 11
73.87105
 21
129.3362
 31
0.0
  0
LINE
  5
256
330
1E
100
AcDbEntity
  8
0
100
AcDbLine
 10
51.97735
 20
247.299
 30
0.0
 11
55.60145
 21
247.938
 31
0.0
  0
LINE
  5
257
330
1E
100
AcDbEntity
  8
0
100
AcDbLine
 10
51.97735
 20
247.299
 30
0.0
 11
54.466319012044
 21
247.737782271015
 31
0.0
  0
LINE
  5
258
330
1E
100
AcDbEntity
  8
0
100
AcDbLine
 10
51.868130736671
 20
247.279712716892
 30
0.0
 11
73.87105
 21
129.3362
 31
0.0
  0
LINE
  5
259
330
1E
100
AcDbEntity
  8
0
100
AcDbLine
 10
51.14395
 20
420.839
 30
0.0
 11
55.52835
 21
421.612
 31
0.0
  0
LINE
  5
25A
330
1E
100
AcDbEntity
  8
0
100
AcDbLine
 10
50.283412104536
 20
501.202010943072
 30
0.0
 11
52.66695
 21
501.622
 31
0.0
  0
LINE
  5
25B
330
1E
100
AcDbEntity
  8
0
100
AcDbLine
 10
49.83295
 20
521.033
 30
0.0
 11
51.17905
 21
513.399
 31
0.0
  0
LINE
  5
25C
330
1E
100
AcDbEntity
  8
0
100
AcDbLine
 10
49.34125
 20
520.483
 30
0.0
 11
50.74015
 21
512.549
 31
0.0
  0
LINE
  5
25D
330
1E
100
AcDbEntity
  8
0
100
AcDbLine
 10
51.17905
 20
513.399
 30
0.0
 11
52.20845
 21
507.561
 31
0.0
  0
LINE
  5
25E
330
1E
100
AcDbEntity
  8
0
100
AcDbLine
 10
50.74015
 20
512.549
 30
0.0
 11
51.79585
 21
506.562
 31
0.0
  0
LINE
  5
25F
330
1E
100
AcDbEntity
  8
0
100
AcDbLine
 10
52.20845
 20
507.561
 30
0.0
 11
53.07945
 21
502.621
 31
0.0
  0
LINE
  5
260
330
1E
100
AcDbEntity
  8
0
100
AcDbLine
 10
51.79585
 20
506.562
 30
0.0
 11
52.42935
 21
502.969
 31
0.0
  0
LINE
  5
261
330
1E
100
AcDbEntity
  8
0
100
AcDbLine
 10
52.69785
 20
298.197
 30
0.0
 11
54.208244621865
 21
298.463363535159
 31
0.0
  0
LINE
  5
262
330
1E
100
AcDbEntity
  8
0
100
AcDbLine
 10
52.69785
 20
298.197
 30
0.0
 11
57.66135
 21
299.072
 31
0.0
  0
LINE
  5
264
330
1E
100
AcDbEntity
  8
0
100
AcDbLine
 10
58.760371541385
 20
278.957507907626
 30
0.0
 11
61.13425
 21
279.376
 31
0.0
  0
LINE
  5
265
330
1E
100
AcDbEntity
  8
0
100
AcDbLine
 10
57.66135
 20
299.072
 30
0.0
 11
62.95565
 21
300.006
 31
0.0
  0
LINE
  5
267
330
1E
100
AcDbEntity
  8
0
100
AcDbLine
 10
55.60145
 20
247.938
 30
0.0
 11
60.40335
 21
248.784
 31
0.0
  0
LINE
  5
268
330
1E
100
AcDbEntity
  8
0
100
AcDbLine
 10
55.19395
 20
278.329
 30
0.0
 11
56.170806043446
 21
278.501249285428
 31
0.0
  0
LINE
  5
269
330
1E
100
AcDbEntity
  8
0
100
AcDbLine
 10
55.19395
 20
278.329
 30
0.0
 11
60.63005
 21
279.287
 31
0.0
  0
LINE
  5
26B
330
1E
100
AcDbEntity
  8
0
100
AcDbLine
 10
55.52835
 20
421.612
 30
0.0
 11
58.83725
 21
422.195
 31
0.0
  0
LINE
  5
26C
330
1E
100
AcDbEntity
  8
0
100
AcDbLine
 10
60.40335
 20
248.784
 30
0.0
 11
65.83945
 21
249.743
 31
0.0
  0
LINE
  5
26D
330
1E
100
AcDbEntity
  8
0
100
AcDbLine
 10
60.40335
 20
248.784
 30
0.0
 11
61.788289775582
 21
249.02820462455
 31
0.0
  0
LINE
  5
26E
330
1E
100
AcDbEntity
  8
0
100
AcDbLine
 10
60.63005
 20
279.287
 30
0.0
 11
66.42855
 21
280.31
 31
0.0
  0
LINE
  5
273
330
1E
100
AcDbEntity
  8
0
100
AcDbLine
 10
58.83725
 20
422.195
 30
0.0
 11
60.82265
 21
422.545
 31
0.0
  0
LINE
  5
274
330
1E
100
AcDbEntity
  8
0
100
AcDbLine
 10
60.443731621216
 20
422.4782016558
 30
0.0
 11
60.82265
 21
422.545
 31
0.0
  0
LINE
  5
275
330
1E
100
AcDbEntity
  8
0
100
AcDbLine
 10
60.443731621216
 20
422.4782016558
 30
0.0
 11
80.727151720409
 21
303.139357268963
 31
0.0
  0
LINE
  5
276
330
1E
100
AcDbEntity
  8
0
100
AcDbLine
 10
61.13425
 20
279.376
 30
0.0
 11
66.42855
 21
280.31
 31
0.0
  0
LINE
  5
277
330
1E
100
AcDbEntity
  8
0
100
AcDbLine
 10
65.83945
 20
249.743
 30
0.0
 11
71.63805
 21
250.765
 31
0.0
  0
LINE
  5
278
330
1E
100
AcDbEntity
  8
0
100
AcDbLine
 10
62.95565
 20
300.006
 30
0.0
 11
68.24995
 21
300.939
 31
0.0
  0
LINE
  5
27A
330
1E
100
AcDbEntity
  8
0
100
AcDbLine
 10
68.24995
 20
300.939
 30
0.0
 11
73.21335
 21
301.815
 31
0.0
  0
LINE
  5
27C
330
1E
100
AcDbEntity
  8
0
100
AcDbLine
 10
67.53864647709
 20
300.813648926794
 30
0.0
 11
68.24995
 21
300.939
 31
0.0
  0
LINE
  5
27D
330
1E
100
AcDbEntity
  8
0
100
AcDbLine
 10
66.42855
 20
280.31
 30
0.0
 11
72.22715
 21
281.332
 31
0.0
  0
LINE
  5
27F
330
1E
100
AcDbEntity
  8
0
100
AcDbLine
 10
71.63805
 20
250.765
 30
0.0
 11
77.43655
 21
251.788
 31
0.0
  0
LINE
  5
280
330
1E
100
AcDbEntity
  8
0
100
AcDbLine
 10
81.313123273117
 20
252.470993053134
 30
0.0
 11
82.87275
 21
252.746
 31
0.0
  0
LINE
  5
281
330
1E
100
AcDbEntity
  8
0
100
AcDbLine
 10
77.43655
 20
251.788
 30
0.0
 11
82.87275
 21
252.746
 31
0.0
  0
LINE
  5
282
330
1E
100
AcDbEntity
  8
0
100
AcDbLine
 10
82.87275
 20
252.746
 30
0.0
 11
87.67465
 21
253.593
 31
0.0
  0
LINE
  5
283
330
1E
100
AcDbEntity
  8
0
100
AcDbLine
 10
88.63485184902
 20
253.762243842312
 30
0.0
 11
91.29875
 21
254.232
 31
0.0
  0
LINE
  5
284
330
1E
100
AcDbEntity
  8
0
100
AcDbLine
 10
87.67465
 20
253.593
 30
0.0
 11
91.29875
 21
254.232
 31
0.0
  0
LINE
  5
285
330
1E
100
AcDbEntity
  8
0
100
AcDbLine
 10
91.232806514617
 20
254.220371417914
 30
0.0
 11
91.29875
 21
254.232
 31
0.0
  0
LINE
  5
286
330
1E
100
AcDbEntity
  8
0
100
AcDbLine
 10
91.232844459058
 20
254.220167150958
 30
0.0
 11
94.28865
 21
254.759
 31
0.0
  0
LINE
  5
287
330
1E
100
AcDbEntity
  8
0
100
AcDbLine
 10
72.22715
 20
281.332
 30
0.0
 11
77.66325
 21
282.291
 31
0.0
  0
LINE
  5
289
330
1E
100
AcDbEntity
  8
0
100
AcDbLine
 10
71.722926907349
 20
281.243130962527
 30
0.0
 11
72.22715
 21
281.332
 31
0.0
  0
LINE
  5
28A
330
1E
100
AcDbEntity
  8
0
100
AcDbLine
 10
82.08536725481
 20
283.07007355218
 30
0.0
 11
84.37965
 21
283.475
 31
0.0
  0
LINE
  5
28B
330
1E
100
AcDbEntity
  8
0
100
AcDbLine
 10
77.66325
 20
282.291
 30
0.0
 11
82.46525
 21
283.137
 31
0.0
  0
LINE
  5
28D
330
1E
100
AcDbEntity
  8
0
100
AcDbLine
 10
76.68604072804
 20
282.118689963439
 30
0.0
 11
77.66325
 21
282.291
 31
0.0
  0
LINE
  5
28E
330
1E
100
AcDbEntity
  8
0
100
AcDbLine
 10
82.46525
 20
283.137
 30
0.0
 11
86.08925
 21
283.776
 31
0.0
  0
LINE
  5
290
330
1E
100
AcDbEntity
  8
0
100
AcDbLine
 10
73.21335
 20
301.815
 30
0.0
 11
77.59775
 21
302.588
 31
0.0
  0
LINE
  5
292
330
1E
100
AcDbEntity
  8
0
100
AcDbLine
 10
71.792927308674
 20
301.564500897023
 30
0.0
 11
73.21335
 21
301.815
 31
0.0
  0
LINE
  5
293
330
1E
100
AcDbEntity
  8
0
100
AcDbLine
 10
77.59775
 20
302.588
 30
0.0
 11
80.90675
 21
303.171
 31
0.0
  0
LINE
  5
295
330
1E
100
AcDbEntity
  8
0
100
AcDbLine
 10
80.727151720409
 20
303.139357268963
 30
0.0
 11
80.90675
 21
303.171
 31
0.0
  0
LINE
  5
296
330
1E
100
AcDbEntity
  8
0
100
AcDbLine
 10
80.90675
 20
303.171
 30
0.0
 11
82.89205
 21
303.521
 31
0.0
  0
LINE
  5
298
330
1E
100
AcDbEntity
  8
0
100
AcDbLine
 10
85.044506523608
 20
283.592175265492
 30
0.0
 11
86.36505
 21
283.825
 31
0.0
  0
LINE
  5
299
330
1E
100
AcDbEntity
  8
0
100
AcDbLine
 10
84.37965
 20
283.475
 30
0.0
 11
86.36505
 21
283.825
 31
0.0
  0
LINE
  5
29A
330
1E
100
AcDbEntity
  8
0
100
AcDbLine
 10
83.63655
 20
303.652
 30
0.0
 11
87.109519707397
 21
283.95617179473
 31
0.0
  0
LINE
  5
29B
330
1E
100
AcDbEntity
  8
0
100
AcDbLine
 10
82.89205
 20
303.521
 30
0.0
 11
83.63655
 21
303.652
 31
0.0
  0
LINE
  5
29D
330
1E
100
AcDbEntity
  8
0
100
AcDbLine
 10
83.154068678828
 20
283.258554616103
 30
0.0
 11
86.08925
 21
283.776
 31
0.0
  0
LINE
  5
29E
330
1E
100
AcDbEntity
  8
0
100
AcDbLine
 10
85.753550922964
 20
283.716941316432
 30
0.0
 11
86.509540871603
 21
283.850220140122
 31
0.0
  0
LINE
  5
29F
330
1E
100
AcDbEntity
  8
0
100
AcDbLine
 10
85.753506780856
 20
283.717178947394
 30
0.0
 11
86.36505
 21
283.825
 31
0.0
  0
LINE
  5
2A0
330
1E
100
AcDbEntity
  8
0
100
AcDbLine
 10
85.75357286088
 20
283.716823217678
 30
0.0
 11
86.08925
 21
283.776
 31
0.0
  0
LINE
  5
2A1
330
1E
100
AcDbEntity
  8
0
100
AcDbLine
 10
86.36505
 20
283.825
 30
0.0
 11
86.83071538655
 21
283.906937092865
 31
0.0
  0
LINE
  5
2A2
330
1E
100
AcDbEntity
  8
0
100
AcDbLine
 10
86.364990953524
 20
283.825209280019
 30
0.0
 11
88.26375
 21
284.16
 31
0.0
  0
LINE
  5
2A3
330
1E
100
AcDbEntity
  8
0
100
AcDbLine
 10
86.08925
 20
283.776
 30
0.0
 11
86.83071538655
 21
283.906937092865
 31
0.0
  0
LINE
  5
2A4
330
1E
100
AcDbEntity
  8
0
100
AcDbLine
 10
86.08925
 20
283.776
 30
0.0
 11
88.26375
 21
284.16
 31
0.0
  0
LINE
  5
2A6
330
1E
100
AcDbEntity
  8
0
100
AcDbLine
 10
87.109404897158
 20
283.956673132687
 30
0.0
 11
89.07915
 21
284.304
 31
0.0
  0
LINE
  5
2A7
330
1E
100
AcDbEntity
  8
0
100
AcDbLine
 10
91.29875
 20
254.232
 30
0.0
 11
93.47325
 21
254.616
 31
0.0
  0
LINE
  5
2A8
330
1E
100
AcDbEntity
  8
0
100
AcDbLine
 10
93.47325
 20
254.616
 30
0.0
 11
94.28865
 21
254.759
 31
0.0
  0
LINE
  5
2A9
330
1E
100
AcDbEntity
  8
0
100
AcDbLine
 10
87.109466113008
 20
283.956475738032
 30
0.0
 11
88.26375
 21
284.16
 31
0.0
  0
LINE
  5
2AA
330
1E
100
AcDbEntity
  8
0
100
AcDbLine
 10
87.109519707397
 20
283.95617179473
 30
0.0
 11
88.26375
 21
284.16
 31
0.0
  0
LINE
  5
2AB
330
1E
100
AcDbEntity
  8
0
100
AcDbLine
 10
87.109466113008
 20
283.956475738032
 30
0.0
 11
88.26375
 21
284.16
 31
0.0
  0
LINE
  5
2AC
330
1E
100
AcDbEntity
  8
0
100
AcDbLine
 10
89.07915
 20
284.304
 30
0.0
 11
94.28865
 21
254.759
 31
0.0
  0
LINE
  5
2AD
330
1E
100
AcDbEntity
  8
0
100
AcDbLine
 10
88.26375
 20
284.16
 30
0.0
 11
89.07915
 21
284.304
 31
0.0
  0
LINE
  5
2AF
330
1E
100
AcDbEntity
  8
0
100
AcDbLine
 10
91.232806253698
 20
254.220372822525
 30
0.0
 11
112.50805
 21
139.688991
 31
0.0
  0
LINE
  5
2B0
330
1E
100
AcDbEntity
  8
0
100
AcDbLine
 10
68.41725
 20
492.619
 30
0.0
 11
90.08305
 21
496.44
 31
0.0
  0
LINE
  5
2B1
330
1E
100
AcDbEntity
  8
0
100
AcDbLine
 10
90.08305
 20
496.44
 30
0.0
 11
90.89415
 21
497.598
 31
0.0
  0
LINE
  5
2B2
330
1E
100
AcDbEntity
  8
0
100
AcDbLine
 10
60.82265
 20
422.545
 30
0.0
 11
61.56715
 21
422.676
 31
0.0
  0
LINE
  5
2B3
330
1E
100
AcDbEntity
  8
0
100
AcDbLine
 10
54.34455
 20
520.601
 30
0.0
 11
68.41725
 21
492.619
 31
0.0
  0
LINE
  5
2B7
330
1E
100
AcDbEntity
  8
0
100
AcDbLine
 10
89.331330840165
 20
506.461328284812
 30
0.0
 11
90.41465
 21
506.652
 31
0.0
  0
LINE
  5
2B9
330
1E
100
AcDbEntity
  8
0
100
AcDbLine
 10
90.88425
 20
509.172
 30
0.0
 11
91.13425
 21
507.754
 31
0.0
  0
LINE
  5
2BA
330
1E
100
AcDbEntity
  8
0
100
AcDbLine
 10
90.41465
 20
506.652
 30
0.0
 11
91.13425
 21
507.754
 31
0.0
  0
LINE
  5
2BC
330
1E
100
AcDbEntity
  8
0
100
AcDbLine
 10
52.66695
 20
501.622
 30
0.0
 11
53.07945
 21
502.621
 31
0.0
  0
LINE
  5
2BD
330
1E
100
AcDbEntity
  8
0
100
AcDbLine
 10
52.42935
 20
502.969
 30
0.0
 11
52.66695
 21
501.622
 31
0.0
  0
LINE
  5
2BE
330
1E
100
AcDbEntity
  8
0
100
AcDbLine
 10
53.524848235769
 20
525.24967433006
 30
0.0
 11
54.34455
 21
520.601
 31
0.0
  0
LINE
  5
2BF
330
1E
100
AcDbEntity
  8
0
100
AcDbLine
 10
49.89035
 20
524.609
 30
0.0
 11
53.524848235769
 21
525.24967433006
 31
0.0
  0
LINE
  5
2C0
330
1E
100
AcDbEntity
  8
0
100
AcDbLine
 10
49.33875
 20
524.857
 30
0.0
 11
49.89035
 21
524.609
 31
0.0
  0
LINE
  5
2C1
330
1E
100
AcDbEntity
  8
0
100
AcDbLine
 10
45.43515
 20
528.698
 30
0.0
 11
47.04655
 21
519.559
 31
0.0
  0
LINE
  5
2C2
330
1E
100
AcDbEntity
  8
0
100
AcDbLine
 10
44.89205
 20
528.439
 30
0.0
 11
46.55905
 21
518.985
 31
0.0
  0
LINE
  5
2C3
330
1E
100
AcDbEntity
  8
0
100
AcDbLine
 10
47.75755
 20
529.464
 30
0.0
 11
49.34125
 21
520.483
 31
0.0
  0
LINE
  5
2C5
330
1E
100
AcDbEntity
  8
0
100
AcDbLine
 10
44.84255
 20
574.489
 30
0.0
 11
45.95385
 21
568.187
 31
0.0
  0
LINE
  5
2C6
330
1E
100
AcDbEntity
  8
0
100
AcDbLine
 10
44.97635
 20
548.576
 30
0.0
 11
46.63915
 21
539.145
 31
0.0
  0
LINE
  5
2C7
330
1E
100
AcDbEntity
  8
0
100
AcDbLine
 10
45.035440859289
 20
548.240850917757
 30
0.0
 11
45.33395
 21
547.57
 31
0.0
  0
LINE
  5
2CE
330
1E
100
AcDbEntity
  8
0
100
AcDbLine
 10
46.63915
 20
539.145
 30
0.0
 11
48.30205
 21
529.715
 31
0.0
  0
LINE
  5
2CF
330
1E
100
AcDbEntity
  8
0
100
AcDbLine
 10
46.06825
 20
539.045
 30
0.0
 11
47.75755
 21
529.464
 31
0.0
  0
LINE
  5
2D0
330
1E
100
AcDbEntity
  8
0
100
AcDbLine
 10
47.42635
 20
559.835
 30
0.0
 11
49.09345
 21
550.381
 31
0.0
  0
LINE
  5
2D1
330
1E
100
AcDbEntity
  8
0
100
AcDbLine
 10
47.42635
 20
559.835
 30
0.0
 11
48.315328990537
 21
554.793666320834
 31
0.0
  0
LINE
  5
2D2
330
1E
100
AcDbEntity
  8
0
100
AcDbLine
 10
45.95385
 20
568.187
 30
0.0
 11
47.42635
 21
559.835
 31
0.0
  0
LINE
  5
2D4
330
1E
100
AcDbEntity
  8
0
100
AcDbLine
 10
45.98005
 20
546.785
 30
0.0
 11
49.614430362742
 21
547.426404657844
 31
0.0
  0
LINE
  5
2D5
330
1E
100
AcDbEntity
  8
0
100
AcDbLine
 10
45.64365
 20
545.813
 30
0.0
 11
45.727121046207
 21
544.317807952381
 31
0.0
  0
LINE
  5
2D6
330
1E
100
AcDbEntity
  8
0
100
AcDbLine
 10
45.64365
 20
545.813
 30
0.0
 11
45.98005
 21
546.785
 31
0.0
  0
LINE
  5
2D7
330
1E
100
AcDbEntity
  8
0
100
AcDbLine
 10
47.50967358982
 20
534.208420859943
 30
0.0
 11
47.94285
 21
532.774
 31
0.0
  0
LINE
  5
2D9
330
1E
100
AcDbEntity
  8
0
100
AcDbLine
 10
47.94285
 20
532.774
 30
0.0
 11
48.59135
 21
531.976
 31
0.0
  0
LINE
  5
2DD
330
1E
100
AcDbEntity
  8
0
100
AcDbLine
 10
45.33395
 20
547.57
 30
0.0
 11
45.98005
 21
546.785
 31
0.0
  0
LINE
  5
2DE
330
1E
100
AcDbEntity
  8
0
100
AcDbLine
 10
48.201555574888
 20
530.284885398283
 30
0.0
 11
48.25255
 21
531.018
 31
0.0
  0
LINE
  5
2DF
330
1E
100
AcDbEntity
  8
0
100
AcDbLine
 10
48.30205
 20
529.715
 30
0.0
 11
49.83295
 21
521.033
 31
0.0
  0
LINE
  5
2E0
330
1E
100
AcDbEntity
  8
0
100
AcDbLine
 10
48.59135
 20
531.976
 30
0.0
 11
52.225822030216
 21
532.616682721817
 31
0.0
  0
LINE
  5
2E3
330
1E
100
AcDbEntity
  8
0
100
AcDbLine
 10
48.25255
 20
531.018
 30
0.0
 11
48.59135
 21
531.976
 31
0.0
  0
LINE
  5
2E4
330
1E
100
AcDbEntity
  8
0
100
AcDbLine
 10
49.006340123895
 20
525.720848288156
 30
0.0
 11
49.29835
 21
525.087
 31
0.0
  0
LINE
  5
2E5
330
1E
100
AcDbEntity
  8
0
100
AcDbLine
 10
50.87155
 20
540.297
 30
0.0
 11
54.34455
 21
520.601
 31
0.0
  0
LINE
  5
2EB
330
1E
100
AcDbEntity
  8
0
100
AcDbLine
 10
57.448527158808
 20
582.0734098315
 30
0.0
 11
74.45465
 21
585.072
 31
0.0
  0
LINE
  5
2EC
330
1E
100
AcDbEntity
  8
0
100
AcDbLine
 10
49.09345
 20
550.381
 30
0.0
 11
50.87155
 21
540.297
 31
0.0
  0
LINE
  5
2EF
330
1E
100
AcDbEntity
  8
0
100
AcDbLine
 10
89.331330840165
 20
506.461328284812
 30
0.0
 11
90.89415
 21
497.598
 31
0.0
  0
LINE
  5
2F2
330
1E
100
AcDbEntity
  8
0
100
AcDbLine
 10
85.33985
 20
546.374
 30
0.0
 11
91.13425
 21
507.754
 31
0.0
  0
LINE
  5
300
330
1E
100
AcDbEntity
  8
0
100
AcDbLine
 10
77.57585
 20
584.648
 30
0.0
 11
85.33985
 21
546.374
 31
0.0
  0
LINE
  5
302
330
1E
100
AcDbEntity
  8
0
100
AcDbLine
 10
74.45465
 20
585.072
 30
0.0
 11
76.52275
 21
585.437
 31
0.0
  0
LINE
  5
30A
330
1E
100
AcDbEntity
  8
0
100
AcDbLine
 10
76.52275
 20
585.437
 30
0.0
 11
77.57585
 21
584.648
 31
0.0
  0
LINE
  5
30C
330
1E
100
AcDbEntity
  8
0
100
AcDbLine
 10
49.074004708248
 20
525.337110668879
 30
0.0
 11
49.33875
 21
524.857
 31
0.0
  0
LINE
  5
30D
330
1E
100
AcDbEntity
  8
0
100
AcDbLine
 10
44.68095
 20
554.153
 30
0.0
 11
48.315328990537
 21
554.793666320834
 31
0.0
  0
LINE
  5
30E
330
1E
100
AcDbEntity
  8
0
100
AcDbLine
 10
252.13325
 20
154.536
 30
0.0
 11
252.13325
 21
153.536
 31
0.0
  0
LINE
  5
30F
330
1E
100
AcDbEntity
  8
0
100
AcDbLine
 10
252.13325
 20
154.536
 30
0.0
 11
253.43325
 21
154.536
 31
0.0
  0
LINE
  5
310
330
1E
100
AcDbEntity
  8
0
100
AcDbLine
 10
252.13325
 20
154.536
 30
0.0
 11
263.13325
 21
155.536
 31
0.0
  0
LINE
  5
311
330
1E
100
AcDbEntity
  8
0
100
AcDbLine
 10
252.13325
 20
153.536
 30
0.0
 11
253.43325
 21
153.536
 31
0.0
  0
LINE
  5
312
330
1E
100
AcDbEntity
  8
0
100
AcDbLine
 10
252.13325
 20
153.536
 30
0.0
 11
252.13325
 21
154.536
 31
0.0
  0
LINE
  5
313
330
1E
100
AcDbEntity
  8
0
100
AcDbLine
 10
252.13325
 20
152.536
 30
0.0
 11
252.13325
 21
150.536
 31
0.0
  0
LINE
  5
314
330
1E
100
AcDbEntity
  8
0
100
AcDbLine
 10
252.13325
 20
152.536
 30
0.0
 11
253.39325
 21
152.536
 31
0.0
  0
LINE
  5
315
330
1E
100
AcDbEntity
  8
0
100
AcDbLine
 10
254.14925
 20
136.536
 30
0.0
 11
257.13325
 21
136.536
 31
0.0
  0
LINE
  5
316
330
1E
100
AcDbEntity
  8
0
100
AcDbLine
 10
254.14925
 20
140.536
 30
0.0
 11
260.22925
 21
140.536
 31
0.0
  0
LINE
  5
317
330
1E
100
AcDbEntity
  8
0
100
AcDbLine
 10
254.14925
 20
136.536
 30
0.0
 11
260.22925
 21
136.536
 31
0.0
  0
LINE
  5
318
330
1E
100
AcDbEntity
  8
0
100
AcDbLine
 10
257.13325
 20
136.536
 30
0.0
 11
257.13325
 21
131.536
 31
0.0
  0
LINE
  5
319
330
1E
100
AcDbEntity
  8
0
100
AcDbLine
 10
260.22925
 20
140.536
 30
0.0
 11
268.28525
 21
140.536
 31
0.0
  0
LINE
  5
31A
330
1E
100
AcDbEntity
  8
0
100
AcDbLine
 10
260.22925
 20
136.536
 30
0.0
 11
268.28525
 21
136.536
 31
0.0
  0
LINE
  5
31B
330
1E
100
AcDbEntity
  8
0
100
AcDbLine
 10
257.13325
 20
131.536
 30
0.0
 11
257.13325
 21
136.536
 31
0.0
  0
LINE
  5
31C
330
1E
100
AcDbEntity
  8
0
100
AcDbLine
 10
260.13325
 20
140.536
 30
0.0
 11
260.13325
 21
150.536
 31
0.0
  0
LINE
  5
31D
330
1E
100
AcDbEntity
  8
0
100
AcDbLine
 10
261.13325
 20
82.536
 30
0.0
 11
262.06925
 21
82.536
 31
0.0
  0
LINE
  5
31E
330
1E
100
AcDbEntity
  8
0
100
AcDbLine
 10
261.13325
 20
82.536
 30
0.0
 11
261.13325
 21
84.536
 31
0.0
  0
LINE
  5
31F
330
1E
100
AcDbEntity
  8
0
100
AcDbLine
 10
262.06925
 20
82.536
 30
0.0
 11
264.56525
 21
82.536
 31
0.0
  0
LINE
  5
320
330
1E
100
AcDbEntity
  8
0
100
AcDbLine
 10
262.06925
 20
82.536
 30
0.0
 11
264.13325
 21
82.536
 31
0.0
  0
LINE
  5
321
330
1E
100
AcDbEntity
  8
0
100
AcDbLine
 10
261.13325
 20
84.536
 30
0.0
 11
262.06925
 21
84.536
 31
0.0
  0
LINE
  5
322
330
1E
100
AcDbEntity
  8
0
100
AcDbLine
 10
261.13325
 20
84.536
 30
0.0
 11
261.13325
 21
82.536
 31
0.0
  0
LINE
  5
323
330
1E
100
AcDbEntity
  8
0
100
AcDbLine
 10
264.13325
 20
68.536
 30
0.0
 11
264.96125
 21
68.536
 31
0.0
  0
LINE
  5
324
330
1E
100
AcDbEntity
  8
0
100
AcDbLine
 10
264.13325
 20
68.536
 30
0.0
 11
264.13325
 21
82.536
 31
0.0
  0
LINE
  5
325
330
1E
100
AcDbEntity
  8
0
100
AcDbLine
 10
264.54925
 20
68.536
 30
0.0
 11
265.54925
 21
68.536
 31
0.0
  0
LINE
  5
326
330
1E
100
AcDbEntity
  8
0
100
AcDbLine
 10
264.54925
 20
68.536
 30
0.0
 11
267.13325
 21
68.536
 31
0.0
  0
LINE
  5
327
330
1E
100
AcDbEntity
  8
0
100
AcDbLine
 10
264.54925
 20
68.536
 30
0.0
 11
264.54925
 21
82.536
 31
0.0
  0
LINE
  5
328
330
1E
100
AcDbEntity
  8
0
100
AcDbLine
 10
264.54925
 20
68.536
 30
0.0
 11
267.14725
 21
68.536
 31
0.0
  0
LINE
  5
329
330
1E
100
AcDbEntity
  8
0
100
AcDbLine
 10
267.13325
 20
31.498
 30
0.0
 11
267.78125
 21
30.536
 31
0.0
  0
LINE
  5
32A
330
1E
100
AcDbEntity
  8
0
100
AcDbLine
 10
267.13325
 20
31.498
 30
0.0
 11
267.13325
 21
54.5745
 31
0.0
  0
LINE
  5
32B
330
1E
100
AcDbEntity
  8
0
100
AcDbLine
 10
267.13325
 20
54.5745
 30
0.0
 11
267.13325
 21
31.498
 31
0.0
  0
LINE
  5
32C
330
1E
100
AcDbEntity
  8
0
100
AcDbLine
 10
267.13325
 20
68.536
 30
0.0
 11
267.85325
 21
68.536
 31
0.0
  0
LINE
  5
32D
330
1E
100
AcDbEntity
  8
0
100
AcDbLine
 10
267.13325
 20
68.536
 30
0.0
 11
267.13325
 21
46.536
 31
0.0
  0
LINE
  5
32E
330
1E
100
AcDbEntity
  8
0
100
AcDbLine
 10
267.13325
 20
46.536
 30
0.0
 11
267.13325
 21
68.536
 31
0.0
  0
LINE
  5
330
330
1E
100
AcDbEntity
  8
0
100
AcDbLine
 10
267.78125
 20
30.536
 30
0.0
 11
268.75325
 21
30.536
 31
0.0
  0
LINE
  5
331
330
1E
100
AcDbEntity
  8
0
100
AcDbLine
 10
267.85325
 20
68.536
 30
0.0
 11
269.77325
 21
68.536
 31
0.0
  0
LINE
  5
332
330
1E
100
AcDbEntity
  8
0
100
AcDbLine
 10
267.14725
 20
68.536
 30
0.0
 11
268.14725
 21
68.536
 31
0.0
  0
LINE
  5
333
330
1E
100
AcDbEntity
  8
0
100
AcDbLine
 10
265.54925
 20
68.536
 30
0.0
 11
267.13325
 21
68.536
 31
0.0
  0
LINE
  5
334
330
1E
100
AcDbEntity
  8
0
100
AcDbLine
 10
265.54925
 20
68.536
 30
0.0
 11
265.54925
 21
82.536
 31
0.0
  0
LINE
  5
335
330
1E
100
AcDbEntity
  8
0
100
AcDbLine
 10
265.54925
 20
68.536
 30
0.0
 11
268.14725
 21
68.536
 31
0.0
  0
LINE
  5
336
330
1E
100
AcDbEntity
  8
0
100
AcDbLine
 10
264.96125
 20
68.536
 30
0.0
 11
267.16925
 21
68.536
 31
0.0
  0
LINE
  5
337
330
1E
100
AcDbEntity
  8
0
100
AcDbLine
 10
264.96125
 20
68.536
 30
0.0
 11
267.13325
 21
68.536
 31
0.0
  0
LINE
  5
338
330
1E
100
AcDbEntity
  8
0
100
AcDbLine
 10
265.54925
 20
82.536
 30
0.0
 11
265.54925
 21
68.536
 31
0.0
  0
LINE
  5
339
330
1E
100
AcDbEntity
  8
0
100
AcDbLine
 10
265.54925
 20
82.536
 30
0.0
 11
268.14725
 21
82.536
 31
0.0
  0
LINE
  5
33A
330
1E
100
AcDbEntity
  8
0
100
AcDbLine
 10
264.54925
 20
82.536
 30
0.0
 11
264.54925
 21
68.536
 31
0.0
  0
LINE
  5
33B
330
1E
100
AcDbEntity
  8
0
100
AcDbLine
 10
264.54925
 20
82.536
 30
0.0
 11
265.54925
 21
82.536
 31
0.0
  0
LINE
  5
33C
330
1E
100
AcDbEntity
  8
0
100
AcDbLine
 10
267.16925
 20
68.536
 30
0.0
 11
270.84925
 21
68.536
 31
0.0
  0
LINE
  5
33D
330
1E
100
AcDbEntity
  8
0
100
AcDbLine
 10
264.13325
 20
82.536
 30
0.0
 11
264.54925
 21
82.536
 31
0.0
  0
LINE
  5
33E
330
1E
100
AcDbEntity
  8
0
100
AcDbLine
 10
264.13325
 20
82.536
 30
0.0
 11
264.13325
 21
68.536
 31
0.0
  0
LINE
  5
33F
330
1E
100
AcDbEntity
  8
0
100
AcDbLine
 10
262.13325
 20
84.536
 30
0.0
 11
262.13325
 21
91.536
 31
0.0
  0
LINE
  5
340
330
1E
100
AcDbEntity
  8
0
100
AcDbLine
 10
264.56525
 20
82.536
 30
0.0
 11
268.72525
 21
82.536
 31
0.0
  0
LINE
  5
341
330
1E
100
AcDbEntity
  8
0
100
AcDbLine
 10
262.06925
 20
84.536
 30
0.0
 11
264.56525
 21
84.536
 31
0.0
  0
LINE
  5
342
330
1E
100
AcDbEntity
  8
0
100
AcDbLine
 10
262.13325
 20
91.536
 30
0.0
 11
262.13325
 21
84.536
 31
0.0
  0
LINE
  5
343
330
1E
100
AcDbEntity
  8
0
100
AcDbLine
 10
264.56525
 20
84.536
 30
0.0
 11
268.72525
 21
84.536
 31
0.0
  0
LINE
  5
346
330
1E
100
AcDbEntity
  8
0
100
AcDbLine
 10
268.14725
 20
82.536
 30
0.0
 11
270.84925
 21
82.536
 31
0.0
  0
LINE
  5
347
330
1E
100
AcDbEntity
  8
0
100
AcDbLine
 10
267.13325
 20
55.536
 30
0.0
 11
271.34525
 21
55.536
 31
0.0
  0
LINE
  5
348
330
1E
100
AcDbEntity
  8
0
100
AcDbLine
 10
268.75325
 20
30.536
 30
0.0
 11
271.34525
 21
30.536
 31
0.0
  0
LINE
  5
349
330
1E
100
AcDbEntity
  8
0
100
AcDbLine
 10
269.77325
 20
68.536
 30
0.0
 11
272.97325
 21
68.536
 31
0.0
  0
LINE
  5
34A
330
1E
100
AcDbEntity
  8
0
100
AcDbLine
 10
268.72525
 20
82.536
 30
0.0
 11
274.23725
 21
82.536
 31
0.0
  0
LINE
  5
34B
330
1E
100
AcDbEntity
  8
0
100
AcDbLine
 10
268.13325
 20
96.536
 30
0.0
 11
268.13325
 21
131.536
 31
0.0
  0
LINE
  5
34C
330
1E
100
AcDbEntity
  8
0
100
AcDbLine
 10
268.13325
 20
131.536
 30
0.0
 11
268.13325
 21
96.536
 31
0.0
  0
LINE
  5
34D
330
1E
100
AcDbEntity
  8
0
100
AcDbLine
 10
268.13325
 20
112.536
 30
0.0
 11
270.13325
 21
112.536
 31
0.0
  0
LINE
  5
34E
330
1E
100
AcDbEntity
  8
0
100
AcDbLine
 10
268.28525
 20
140.536
 30
0.0
 11
277.40525
 21
140.536
 31
0.0
  0
LINE
  5
34F
330
1E
100
AcDbEntity
  8
0
100
AcDbLine
 10
268.28525
 20
136.536
 30
0.0
 11
277.40525
 21
136.536
 31
0.0
  0
LINE
  5
350
330
1E
100
AcDbEntity
  8
0
100
AcDbLine
 10
268.13325
 20
130.536
 30
0.0
 11
270.13325
 21
130.536
 31
0.0
  0
LINE
  5
351
330
1E
100
AcDbEntity
  8
0
100
AcDbLine
 10
268.72525
 20
84.536
 30
0.0
 11
274.23725
 21
84.536
 31
0.0
  0
LINE
  5
352
330
1E
100
AcDbEntity
  8
0
100
AcDbLine
 10
268.01725
 20
150.536
 30
0.0
 11
273.74125
 21
150.536
 31
0.0
  0
LINE
  5
353
330
1E
100
AcDbEntity
  8
0
100
AcDbLine
 10
263.69725
 20
150.536
 30
0.0
 11
268.01725
 21
150.536
 31
0.0
  0
LINE
  5
354
330
1E
100
AcDbEntity
  8
0
100
AcDbLine
 10
261.10525
 20
150.536
 30
0.0
 11
263.69725
 21
150.536
 31
0.0
  0
LINE
  5
355
330
1E
100
AcDbEntity
  8
0
100
AcDbLine
 10
260.13325
 20
150.536
 30
0.0
 11
260.13325
 21
140.536
 31
0.0
  0
LINE
  5
356
330
1E
100
AcDbEntity
  8
0
100
AcDbLine
 10
260.13325
 20
150.536
 30
0.0
 11
261.10525
 21
150.536
 31
0.0
  0
LINE
  5
359
330
1E
100
AcDbEntity
  8
0
100
AcDbLine
 10
271.34525
 20
55.536
 30
0.0
 11
275.55725
 21
55.536
 31
0.0
  0
LINE
  5
35A
330
1E
100
AcDbEntity
  8
0
100
AcDbLine
 10
271.34525
 20
30.536
 30
0.0
 11
275.55725
 21
30.536
 31
0.0
  0
LINE
  5
35B
330
1E
100
AcDbEntity
  8
0
100
AcDbLine
 10
272.97325
 20
68.536
 30
0.0
 11
277.21325
 21
68.536
 31
0.0
  0
LINE
  5
35C
330
1E
100
AcDbEntity
  8
0
100
AcDbLine
 10
270.84925
 20
68.536
 30
0.0
 11
275.72525
 21
68.536
 31
0.0
  0
LINE
  5
35D
330
1E
100
AcDbEntity
  8
0
100
AcDbLine
 10
270.13325
 20
112.536
 30
0.0
 11
270.13325
 21
112.86
 31
0.0
  0
LINE
  5
35E
330
1E
100
AcDbEntity
  8
0
100
AcDbLine
 10
270.13325
 20
123.84
 30
0.0
 11
270.13325
 21
121.536
 31
0.0
  0
LINE
  5
35F
330
1E
100
AcDbEntity
  8
0
100
AcDbLine
 10
270.13325
 20
123.84
 30
0.0
 11
270.13325
 21
126.0
 31
0.0
  0
LINE
  5
360
330
1E
100
AcDbEntity
  8
0
100
AcDbLine
 10
270.13325
 20
126.0
 30
0.0
 11
270.13325
 21
123.84
 31
0.0
  0
LINE
  5
361
330
1E
100
AcDbEntity
  8
0
100
AcDbLine
 10
270.13325
 20
126.0
 30
0.0
 11
270.13325
 21
127.908
 31
0.0
  0
LINE
  5
362
330
1E
100
AcDbEntity
  8
0
100
AcDbLine
 10
270.13325
 20
129.536
 30
0.0
 11
274.73325
 21
129.536
 31
0.0
  0
LINE
  5
363
330
1E
100
AcDbEntity
  8
0
100
AcDbLine
 10
270.13325
 20
129.536
 30
0.0
 11
272.25325
 21
129.536
 31
0.0
  0
LINE
  5
364
330
1E
100
AcDbEntity
  8
0
100
AcDbLine
 10
270.13325
 20
127.908
 30
0.0
 11
270.13325
 21
126.0
 31
0.0
  0
LINE
  5
365
330
1E
100
AcDbEntity
  8
0
100
AcDbLine
 10
270.13325
 20
127.908
 30
0.0
 11
270.13325
 21
129.348
 31
0.0
  0
LINE
  5
366
330
1E
100
AcDbEntity
  8
0
100
AcDbLine
 10
270.13325
 20
129.348
 30
0.0
 11
270.13325
 21
127.908
 31
0.0
  0
LINE
  5
367
330
1E
100
AcDbEntity
  8
0
100
AcDbLine
 10
270.13325
 20
129.348
 30
0.0
 11
270.13325
 21
130.212
 31
0.0
  0
LINE
  5
368
330
1E
100
AcDbEntity
  8
0
100
AcDbLine
 10
270.13325
 20
130.212
 30
0.0
 11
270.13325
 21
129.348
 31
0.0
  0
LINE
  5
369
330
1E
100
AcDbEntity
  8
0
100
AcDbLine
 10
270.13325
 20
130.212
 30
0.0
 11
270.13325
 21
130.536
 31
0.0
  0
LINE
  5
36A
330
1E
100
AcDbEntity
  8
0
100
AcDbLine
 10
270.13325
 20
130.536
 30
0.0
 11
270.13325
 21
130.212
 31
0.0
  0
LINE
  5
36B
330
1E
100
AcDbEntity
  8
0
100
AcDbLine
 10
270.13325
 20
121.536
 30
0.0
 11
270.13325
 21
119.232
 31
0.0
  0
LINE
  5
36C
330
1E
100
AcDbEntity
  8
0
100
AcDbLine
 10
270.13325
 20
121.536
 30
0.0
 11
270.13325
 21
123.84
 31
0.0
  0
LINE
  5
36D
330
1E
100
AcDbEntity
  8
0
100
AcDbLine
 10
270.13325
 20
119.232
 30
0.0
 11
270.13325
 21
117.072
 31
0.0
  0
LINE
  5
36E
330
1E
100
AcDbEntity
  8
0
100
AcDbLine
 10
270.13325
 20
119.232
 30
0.0
 11
270.13325
 21
121.536
 31
0.0
  0
LINE
  5
36F
330
1E
100
AcDbEntity
  8
0
100
AcDbLine
 10
270.13325
 20
117.072
 30
0.0
 11
270.13325
 21
115.164
 31
0.0
  0
LINE
  5
370
330
1E
100
AcDbEntity
  8
0
100
AcDbLine
 10
270.13325
 20
117.072
 30
0.0
 11
270.13325
 21
119.232
 31
0.0
  0
LINE
  5
371
330
1E
100
AcDbEntity
  8
0
100
AcDbLine
 10
270.13325
 20
115.164
 30
0.0
 11
270.13325
 21
113.724
 31
0.0
  0
LINE
  5
372
330
1E
100
AcDbEntity
  8
0
100
AcDbLine
 10
270.13325
 20
115.164
 30
0.0
 11
270.13325
 21
117.072
 31
0.0
  0
LINE
  5
373
330
1E
100
AcDbEntity
  8
0
100
AcDbLine
 10
270.13325
 20
113.724
 30
0.0
 11
270.13325
 21
112.86
 31
0.0
  0
LINE
  5
374
330
1E
100
AcDbEntity
  8
0
100
AcDbLine
 10
270.13325
 20
113.724
 30
0.0
 11
270.13325
 21
115.164
 31
0.0
  0
LINE
  5
375
330
1E
100
AcDbEntity
  8
0
100
AcDbLine
 10
272.25325
 20
129.536
 30
0.0
 11
279.45325
 21
129.536
 31
0.0
  0
LINE
  5
376
330
1E
100
AcDbEntity
  8
0
100
AcDbLine
 10
270.13325
 20
112.86
 30
0.0
 11
270.13325
 21
112.536
 31
0.0
  0
LINE
  5
377
330
1E
100
AcDbEntity
  8
0
100
AcDbLine
 10
270.13325
 20
112.86
 30
0.0
 11
270.13325
 21
113.724
 31
0.0
  0
LINE
  5
378
330
1E
100
AcDbEntity
  8
0
100
AcDbLine
 10
270.84925
 20
82.536
 30
0.0
 11
275.72525
 21
82.536
 31
0.0
  0
LINE
  5
379
330
1E
100
AcDbEntity
  8
0
100
AcDbLine
 10
274.23725
 20
82.536
 30
0.0
 11
280.47725
 21
82.536
 31
0.0
  0
LINE
  5
37B
330
1E
100
AcDbEntity
  8
0
100
AcDbLine
 10
275.55725
 20
55.536
 30
0.0
 11
281.06525
 21
55.536
 31
0.0
  0
LINE
  5
37C
330
1E
100
AcDbEntity
  8
0
100
AcDbLine
 10
275.55725
 20
30.536
 30
0.0
 11
281.06525
 21
30.536
 31
0.0
  0
LINE
  5
37E
330
1E
100
AcDbEntity
  8
0
100
AcDbLine
 10
275.72525
 20
68.536
 30
0.0
 11
281.24525
 21
68.536
 31
0.0
  0
LINE
  5
380
330
1E
100
AcDbEntity
  8
0
100
AcDbLine
 10
281.06525
 20
55.536
 30
0.0
 11
287.32925
 21
55.536
 31
0.0
  0
LINE
  5
381
330
1E
100
AcDbEntity
  8
0
100
AcDbLine
 10
281.06525
 20
30.536
 30
0.0
 11
287.32925
 21
30.536
 31
0.0
  0
LINE
  5
383
330
1E
100
AcDbEntity
  8
0
100
AcDbLine
 10
277.21325
 20
68.536
 30
0.0
 11
282.01325
 21
68.536
 31
0.0
  0
LINE
  5
384
330
1E
100
AcDbEntity
  8
0
100
AcDbLine
 10
282.01325
 20
68.536
 30
0.0
 11
287.13325
 21
68.536
 31
0.0
  0
LINE
  5
385
330
1E
100
AcDbEntity
  8
0
100
AcDbLine
 10
286.13325
 20
68.536
 30
0.0
 11
286.13325
 21
82.536
 31
0.0
  0
LINE
  5
386
330
1E
100
AcDbEntity
  8
0
100
AcDbLine
 10
286.13325
 20
68.536
 30
0.0
 11
288.13325
 21
68.536
 31
0.0
  0
LINE
  5
387
330
1E
100
AcDbEntity
  8
0
100
AcDbLine
 10
287.13325
 20
68.536
 30
0.0
 11
293.02125
 21
68.536
 31
0.0
  0
LINE
  5
388
330
1E
100
AcDbEntity
  8
0
100
AcDbLine
 10
287.13325
 20
68.536
 30
0.0
 11
292.25325
 21
68.536
 31
0.0
  0
LINE
  5
389
330
1E
100
AcDbEntity
  8
0
100
AcDbLine
 10
286.13325
 20
82.536
 30
0.0
 11
286.13325
 21
68.536
 31
0.0
  0
LINE
  5
38A
330
1E
100
AcDbEntity
  8
0
100
AcDbLine
 10
286.13325
 20
82.536
 30
0.0
 11
288.13325
 21
82.536
 31
0.0
  0
LINE
  5
38B
330
1E
100
AcDbEntity
  8
0
100
AcDbLine
 10
281.24525
 20
68.536
 30
0.0
 11
287.13325
 21
68.536
 31
0.0
  0
LINE
  5
38C
330
1E
100
AcDbEntity
  8
0
100
AcDbLine
 10
275.72525
 20
82.536
 30
0.0
 11
281.24525
 21
82.536
 31
0.0
  0
LINE
  5
38D
330
1E
100
AcDbEntity
  8
0
100
AcDbLine
 10
281.24525
 20
82.536
 30
0.0
 11
286.13325
 21
82.536
 31
0.0
  0
LINE
  5
38E
330
1E
100
AcDbEntity
  8
0
100
AcDbLine
 10
287.32925
 20
55.536
 30
0.0
 11
294.13325
 21
55.536
 31
0.0
  0
LINE
  5
38F
330
1E
100
AcDbEntity
  8
0
100
AcDbLine
 10
287.32925
 20
30.536
 30
0.0
 11
294.13325
 21
30.536
 31
0.0
  0
LINE
  5
390
330
1E
100
AcDbEntity
  8
0
100
AcDbLine
 10
288.13325
 20
68.536
 30
0.0
 11
288.13325
 21
82.536
 31
0.0
  0
LINE
  5
391
330
1E
100
AcDbEntity
  8
0
100
AcDbLine
 10
292.25325
 20
68.536
 30
0.0
 11
297.05325
 21
68.536
 31
0.0
  0
LINE
  5
392
330
1E
100
AcDbEntity
  8
0
100
AcDbLine
 10
293.02125
 20
68.536
 30
0.0
 11
298.54125
 21
68.536
 31
0.0
  0
LINE
  5
393
330
1E
100
AcDbEntity
  8
0
100
AcDbLine
 10
293.02125
 20
82.536
 30
0.0
 11
298.54125
 21
82.536
 31
0.0
  0
LINE
  5
394
330
1E
100
AcDbEntity
  8
0
100
AcDbLine
 10
288.13325
 20
82.536
 30
0.0
 11
293.02125
 21
82.536
 31
0.0
  0
LINE
  5
395
330
1E
100
AcDbEntity
  8
0
100
AcDbLine
 10
288.13325
 20
82.536
 30
0.0
 11
288.13325
 21
68.536
 31
0.0
  0
LINE
  5
396
330
1E
100
AcDbEntity
  8
0
100
AcDbLine
 10
293.78925
 20
82.536
 30
0.0
 11
300.02925
 21
82.536
 31
0.0
  0
LINE
  5
397
330
1E
100
AcDbEntity
  8
0
100
AcDbLine
 10
287.13325
 20
82.536
 30
0.0
 11
293.78925
 21
82.536
 31
0.0
  0
LINE
  5
398
330
1E
100
AcDbEntity
  8
0
100
AcDbLine
 10
293.78925
 20
84.536
 30
0.0
 11
300.02925
 21
84.536
 31
0.0
  0
LINE
  5
399
330
1E
100
AcDbEntity
  8
0
100
AcDbLine
 10
287.13325
 20
84.536
 30
0.0
 11
293.78925
 21
84.536
 31
0.0
  0
LINE
  5
39A
330
1E
100
AcDbEntity
  8
0
100
AcDbLine
 10
280.47725
 20
82.536
 30
0.0
 11
287.13325
 21
82.536
 31
0.0
  0
LINE
  5
39B
330
1E
100
AcDbEntity
  8
0
100
AcDbLine
 10
274.23725
 20
84.536
 30
0.0
 11
280.47725
 21
84.536
 31
0.0
  0
LINE
  5
39C
330
1E
100
AcDbEntity
  8
0
100
AcDbLine
 10
279.45325
 20
129.536
 30
0.0
 11
287.13325
 21
129.536
 31
0.0
  0
LINE
  5
39D
330
1E
100
AcDbEntity
  8
0
100
AcDbLine
 10
280.73325
 20
129.536
 30
0.0
 11
287.13325
 21
129.536
 31
0.0
  0
LINE
  5
39E
330
1E
100
AcDbEntity
  8
0
100
AcDbLine
 10
274.73325
 20
129.536
 30
0.0
 11
280.73325
 21
129.536
 31
0.0
  0
LINE
  5
39F
330
1E
100
AcDbEntity
  8
0
100
AcDbLine
 10
277.40525
 20
140.536
 30
0.0
 11
287.13325
 21
140.536
 31
0.0
  0
LINE
  5
3A0
330
1E
100
AcDbEntity
  8
0
100
AcDbLine
 10
287.13325
 20
140.536
 30
0.0
 11
296.86125
 21
140.536
 31
0.0
  0
LINE
  5
3A1
330
1E
100
AcDbEntity
  8
0
100
AcDbLine
 10
287.13325
 20
136.536
 30
0.0
 11
296.86125
 21
136.536
 31
0.0
  0
LINE
  5
3A2
330
1E
100
AcDbEntity
  8
0
100
AcDbLine
 10
277.40525
 20
136.536
 30
0.0
 11
287.13325
 21
136.536
 31
0.0
  0
LINE
  5
3A3
330
1E
100
AcDbEntity
  8
0
100
AcDbLine
 10
287.13325
 20
129.536
 30
0.0
 11
293.53325
 21
129.536
 31
0.0
  0
LINE
  5
3A4
330
1E
100
AcDbEntity
  8
0
100
AcDbLine
 10
287.13325
 20
129.536
 30
0.0
 11
294.81325
 21
129.536
 31
0.0
  0
LINE
  5
3A5
330
1E
100
AcDbEntity
  8
0
100
AcDbLine
 10
293.53325
 20
129.536
 30
0.0
 11
299.53325
 21
129.536
 31
0.0
  0
LINE
  5
3A6
330
1E
100
AcDbEntity
  8
0
100
AcDbLine
 10
280.47725
 20
84.536
 30
0.0
 11
287.13325
 21
84.536
 31
0.0
  0
LINE
  5
3A7
330
1E
100
AcDbEntity
  8
0
100
AcDbLine
 10
294.81325
 20
129.536
 30
0.0
 11
302.01325
 21
129.536
 31
0.0
  0
LINE
  5
3A8
330
1E
100
AcDbEntity
  8
0
100
AcDbLine
 10
294.13325
 20
55.536
 30
0.0
 11
360.13325
 21
55.536
 31
0.0
  0
LINE
  5
3A9
330
1E
100
AcDbEntity
  8
0
100
AcDbLine
 10
294.13325
 20
30.536
 30
0.0
 11
360.13325
 21
30.536
 31
0.0
  0
LINE
  5
3AA
330
1E
100
AcDbEntity
  8
0
100
AcDbLine
 10
294.04525
 20
150.536
 30
0.0
 11
300.52525
 21
150.536
 31
0.0
  0
LINE
  5
3AB
330
1E
100
AcDbEntity
  8
0
100
AcDbLine
 10
287.13325
 20
150.536
 30
0.0
 11
296.09325
 21
150.536
 31
0.0
  0
LINE
  5
3AC
330
1E
100
AcDbEntity
  8
0
100
AcDbLine
 10
287.13325
 20
150.536
 30
0.0
 11
294.04525
 21
150.536
 31
0.0
  0
LINE
  5
3AD
330
1E
100
AcDbEntity
  8
0
100
AcDbLine
 10
297.05325
 20
68.536
 30
0.0
 11
301.29325
 21
68.536
 31
0.0
  0
LINE
  5
3AE
330
1E
100
AcDbEntity
  8
0
100
AcDbLine
 10
298.54125
 20
68.536
 30
0.0
 11
303.41725
 21
68.536
 31
0.0
  0
LINE
  5
3AF
330
1E
100
AcDbEntity
  8
0
100
AcDbLine
 10
298.54125
 20
82.536
 30
0.0
 11
303.41725
 21
82.536
 31
0.0
  0
LINE
  5
3B0
330
1E
100
AcDbEntity
  8
0
100
AcDbLine
 10
296.86125
 20
140.536
 30
0.0
 11
305.98125
 21
140.536
 31
0.0
  0
LINE
  5
3B1
330
1E
100
AcDbEntity
  8
0
100
AcDbLine
 10
296.86125
 20
136.536
 30
0.0
 11
305.98125
 21
136.536
 31
0.0
  0
LINE
  5
3B2
330
1E
100
AcDbEntity
  8
0
100
AcDbLine
 10
299.53325
 20
129.536
 30
0.0
 11
304.83325
 21
129.536
 31
0.0
  0
LINE
  5
3B3
330
1E
100
AcDbEntity
  8
0
100
AcDbLine
 10
300.02925
 20
82.536
 30
0.0
 11
305.54125
 21
82.536
 31
0.0
  0
LINE
  5
3B4
330
1E
100
AcDbEntity
  8
0
100
AcDbLine
 10
301.29325
 20
68.536
 30
0.0
 11
304.49325
 21
68.536
 31
0.0
  0
LINE
  5
3B5
330
1E
100
AcDbEntity
  8
0
100
AcDbLine
 10
304.49325
 20
68.536
 30
0.0
 11
306.41325
 21
68.536
 31
0.0
  0
LINE
  5
3B6
330
1E
100
AcDbEntity
  8
0
100
AcDbLine
 10
303.41725
 20
68.536
 30
0.0
 11
307.09725
 21
68.536
 31
0.0
  0
LINE
  5
3B7
330
1E
100
AcDbEntity
  8
0
100
AcDbLine
 10
303.41725
 20
82.536
 30
0.0
 11
306.11925
 21
82.536
 31
0.0
  0
LINE
  5
3B8
330
1E
100
AcDbEntity
  8
0
100
AcDbLine
 10
306.11925
 20
82.536
 30
0.0
 11
308.71725
 21
82.536
 31
0.0
  0
LINE
  5
3B9
330
1E
100
AcDbEntity
  8
0
100
AcDbLine
 10
306.11925
 20
68.536
 30
0.0
 11
308.71725
 21
68.536
 31
0.0
  0
LINE
  5
3BA
330
1E
100
AcDbEntity
  8
0
100
AcDbLine
 10
306.11925
 20
68.536
 30
0.0
 11
307.11925
 21
68.536
 31
0.0
  0
LINE
  5
3BB
330
1E
100
AcDbEntity
  8
0
100
AcDbLine
 10
305.54125
 20
82.536
 30
0.0
 11
309.70125
 21
82.536
 31
0.0
  0
LINE
  5
3BC
330
1E
100
AcDbEntity
  8
0
100
AcDbLine
 10
302.01325
 20
129.536
 30
0.0
 11
308.37325
 21
129.536
 31
0.0
  0
LINE
  5
3BD
330
1E
100
AcDbEntity
  8
0
100
AcDbLine
 10
305.98125
 20
140.536
 30
0.0
 11
314.03725
 21
140.536
 31
0.0
  0
LINE
  5
3BE
330
1E
100
AcDbEntity
  8
0
100
AcDbLine
 10
305.98125
 20
136.536
 30
0.0
 11
314.03725
 21
136.536
 31
0.0
  0
LINE
  5
3BF
330
1E
100
AcDbEntity
  8
0
100
AcDbLine
 10
304.83325
 20
129.536
 30
0.0
 11
308.83325
 21
129.536
 31
0.0
  0
LINE
  5
3C0
330
1E
100
AcDbEntity
  8
0
100
AcDbLine
 10
305.54125
 20
84.536
 30
0.0
 11
309.70125
 21
84.536
 31
0.0
  0
LINE
  5
3C1
330
1E
100
AcDbEntity
  8
0
100
AcDbLine
 10
300.02925
 20
84.536
 30
0.0
 11
305.54125
 21
84.536
 31
0.0
  0
LINE
  5
3C2
330
1E
100
AcDbEntity
  8
0
100
AcDbLine
 10
300.52525
 20
150.536
 30
0.0
 11
306.24925
 21
150.536
 31
0.0
  0
LINE
  5
3C3
330
1E
100
AcDbEntity
  8
0
100
AcDbLine
 10
306.41325
 20
68.536
 30
0.0
 11
307.13325
 21
68.536
 31
0.0
  0
LINE
  5
3C4
330
1E
100
AcDbEntity
  8
0
100
AcDbLine
 10
307.13325
 20
55.536
 30
0.0
 11
307.13325
 21
68.536
 31
0.0
  0
LINE
  5
3C5
330
1E
100
AcDbEntity
  8
0
100
AcDbLine
 10
308.71725
 20
68.536
 30
0.0
 11
308.71725
 21
82.536
 31
0.0
  0
LINE
  5
3C6
330
1E
100
AcDbEntity
  8
0
100
AcDbLine
 10
308.71725
 20
68.536
 30
0.0
 11
309.71725
 21
68.536
 31
0.0
  0
LINE
  5
3C7
330
1E
100
AcDbEntity
  8
0
100
AcDbLine
 10
307.11925
 20
68.536
 30
0.0
 11
309.71725
 21
68.536
 31
0.0
  0
LINE
  5
3C8
330
1E
100
AcDbEntity
  8
0
100
AcDbLine
 10
307.09725
 20
68.536
 30
0.0
 11
309.30525
 21
68.536
 31
0.0
  0
LINE
  5
3C9
330
1E
100
AcDbEntity
  8
0
100
AcDbLine
 10
309.30525
 20
68.536
 30
0.0
 11
310.13325
 21
68.536
 31
0.0
  0
LINE
  5
3CA
330
1E
100
AcDbEntity
  8
0
100
AcDbLine
 10
308.71725
 20
82.536
 30
0.0
 11
309.71725
 21
82.536
 31
0.0
  0
LINE
  5
3CB
330
1E
100
AcDbEntity
  8
0
100
AcDbLine
 10
308.71725
 20
82.536
 30
0.0
 11
308.71725
 21
68.536
 31
0.0
  0
LINE
  5
3CC
330
1E
100
AcDbEntity
  8
0
100
AcDbLine
 10
307.13325
 20
68.536
 30
0.0
 11
309.30525
 21
68.536
 31
0.0
  0
LINE
  5
3CD
330
1E
100
AcDbEntity
  8
0
100
AcDbLine
 10
307.13325
 20
68.536
 30
0.0
 11
308.71725
 21
68.536
 31
0.0
  0
LINE
  5
3CE
330
1E
100
AcDbEntity
  8
0
100
AcDbLine
 10
307.13325
 20
68.536
 30
0.0
 11
309.71725
 21
68.536
 31
0.0
  0
LINE
  5
3CF
330
1E
100
AcDbEntity
  8
0
100
AcDbLine
 10
307.13325
 20
68.536
 30
0.0
 11
307.13325
 21
55.536
 31
0.0
  0
LINE
  5
3D0
330
1E
100
AcDbEntity
  8
0
100
AcDbLine
 10
309.71725
 20
68.536
 30
0.0
 11
309.71725
 21
82.536
 31
0.0
  0
LINE
  5
3D1
330
1E
100
AcDbEntity
  8
0
100
AcDbLine
 10
310.13325
 20
68.536
 30
0.0
 11
310.13325
 21
82.536
 31
0.0
  0
LINE
  5
3D2
330
1E
100
AcDbEntity
  8
0
100
AcDbLine
 10
309.71725
 20
82.536
 30
0.0
 11
310.13325
 21
82.536
 31
0.0
  0
LINE
  5
3D3
330
1E
100
AcDbEntity
  8
0
100
AcDbLine
 10
309.71725
 20
82.536
 30
0.0
 11
309.71725
 21
68.536
 31
0.0
  0
LINE
  5
3D4
330
1E
100
AcDbEntity
  8
0
100
AcDbLine
 10
309.70125
 20
82.536
 30
0.0
 11
312.19725
 21
82.536
 31
0.0
  0
LINE
  5
3D5
330
1E
100
AcDbEntity
  8
0
100
AcDbLine
 10
308.37325
 20
129.536
 30
0.0
 11
313.17325
 21
129.536
 31
0.0
  0
LINE
  5
3D6
330
1E
100
AcDbEntity
  8
0
100
AcDbLine
 10
308.83325
 20
129.536
 30
0.0
 11
311.23325
 21
129.536
 31
0.0
  0
LINE
  5
3D7
330
1E
100
AcDbEntity
  8
0
100
AcDbLine
 10
311.23325
 20
129.536
 30
0.0
 11
312.13325
 21
129.536
 31
0.0
  0
LINE
  5
3D8
330
1E
100
AcDbEntity
  8
0
100
AcDbLine
 10
309.70125
 20
84.536
 30
0.0
 11
312.19725
 21
84.536
 31
0.0
  0
LINE
  5
3D9
330
1E
100
AcDbEntity
  8
0
100
AcDbLine
 10
310.13325
 20
82.536
 30
0.0
 11
312.19725
 21
82.536
 31
0.0
  0
LINE
  5
3DA
330
1E
100
AcDbEntity
  8
0
100
AcDbLine
 10
310.13325
 20
82.536
 30
0.0
 11
310.13325
 21
68.536
 31
0.0
  0
LINE
  5
3DB
330
1E
100
AcDbEntity
  8
0
100
AcDbLine
 10
306.24925
 20
150.536
 30
0.0
 11
310.56925
 21
150.536
 31
0.0
  0
LINE
  5
3DC
330
1E
100
AcDbEntity
  8
0
100
AcDbLine
 10
310.56925
 20
150.536
 30
0.0
 11
313.16125
 21
150.536
 31
0.0
  0
LINE
  5
3DD
330
1E
100
AcDbEntity
  8
0
100
AcDbLine
 10
296.09325
 20
150.536
 30
0.0
 11
304.49325
 21
150.536
 31
0.0
  0
LINE
  5
3DE
330
1E
100
AcDbEntity
  8
0
100
AcDbLine
 10
304.49325
 20
150.536
 30
0.0
 11
311.91325
 21
150.536
 31
0.0
  0
LINE
  5
3DF
330
1E
100
AcDbEntity
  8
0
100
AcDbLine
 10
312.13325
 20
84.536
 30
0.0
 11
312.13325
 21
129.536
 31
0.0
  0
LINE
  5
3E0
330
1E
100
AcDbEntity
  8
0
100
AcDbLine
 10
312.13325
 20
129.536
 30
0.0
 11
312.13325
 21
84.536
 31
0.0
  0
LINE
  5
3E1
330
1E
100
AcDbEntity
  8
0
100
AcDbLine
 10
312.13325
 20
129.536
 30
0.0
 11
313.17325
 21
129.536
 31
0.0
  0
LINE
  5
3E2
330
1E
100
AcDbEntity
  8
0
100
AcDbLine
 10
312.19725
 20
84.536
 30
0.0
 11
313.13325
 21
84.536
 31
0.0
  0
LINE
  5
3E3
330
1E
100
AcDbEntity
  8
0
100
AcDbLine
 10
313.13325
 20
82.536
 30
0.0
 11
313.13325
 21
84.536
 31
0.0
  0
LINE
  5
3E4
330
1E
100
AcDbEntity
  8
0
100
AcDbLine
 10
314.03725
 20
140.536
 30
0.0
 11
320.11725
 21
140.536
 31
0.0
  0
LINE
  5
3E5
330
1E
100
AcDbEntity
  8
0
100
AcDbLine
 10
314.03725
 20
136.536
 30
0.0
 11
320.11725
 21
136.536
 31
0.0
  0
LINE
  5
3E6
330
1E
100
AcDbEntity
  8
0
100
AcDbLine
 10
313.17325
 20
129.536
 30
0.0
 11
316.05325
 21
129.536
 31
0.0
  0
LINE
  5
3E7
330
1E
100
AcDbEntity
  8
0
100
AcDbLine
 10
317.13325
 20
136.536
 30
0.0
 11
320.11725
 21
136.536
 31
0.0
  0
LINE
  5
3E8
330
1E
100
AcDbEntity
  8
0
100
AcDbLine
 10
320.11725
 20
136.536
 30
0.0
 11
323.76525
 21
136.536
 31
0.0
  0
LINE
  5
3E9
330
1E
100
AcDbEntity
  8
0
100
AcDbLine
 10
320.11725
 20
136.536
 30
0.0
 11
323.76525
 21
136.536
 31
0.0
  0
LINE
  5
3EA
330
1E
100
AcDbEntity
  8
0
100
AcDbLine
 10
317.13325
 20
129.536
 30
0.0
 11
317.13325
 21
136.536
 31
0.0
  0
LINE
  5
3EB
330
1E
100
AcDbEntity
  8
0
100
AcDbLine
 10
320.11725
 20
140.536
 30
0.0
 11
323.76525
 21
140.536
 31
0.0
  0
LINE
  5
3EC
330
1E
100
AcDbEntity
  8
0
100
AcDbLine
 10
317.13325
 20
136.536
 30
0.0
 11
317.13325
 21
129.536
 31
0.0
  0
LINE
  5
3ED
330
1E
100
AcDbEntity
  8
0
100
AcDbLine
 10
316.05325
 20
129.536
 30
0.0
 11
317.13325
 21
129.536
 31
0.0
  0
LINE
  5
3EE
330
1E
100
AcDbEntity
  8
0
100
AcDbLine
 10
313.13325
 20
84.536
 30
0.0
 11
313.13325
 21
82.536
 31
0.0
  0
LINE
  5
3EF
330
1E
100
AcDbEntity
  8
0
100
AcDbLine
 10
312.19725
 20
82.536
 30
0.0
 11
313.13325
 21
82.536
 31
0.0
  0
LINE
  5
3F0
330
1E
100
AcDbEntity
  8
0
100
AcDbLine
 10
314.13325
 20
150.536
 30
0.0
 11
314.13325
 21
140.536
 31
0.0
  0
LINE
  5
3F1
330
1E
100
AcDbEntity
  8
0
100
AcDbLine
 10
314.13325
 20
150.536
 30
0.0
 11
317.51325
 21
150.536
 31
0.0
  0
LINE
  5
3F2
330
1E
100
AcDbEntity
  8
0
100
AcDbLine
 10
313.16125
 20
150.536
 30
0.0
 11
314.13325
 21
150.536
 31
0.0
  0
LINE
  5
3F3
330
1E
100
AcDbEntity
  8
0
100
AcDbLine
 10
314.13325
 20
140.536
 30
0.0
 11
314.13325
 21
150.536
 31
0.0
  0
LINE
  5
3F4
330
1E
100
AcDbEntity
  8
0
100
AcDbLine
 10
311.91325
 20
150.536
 30
0.0
 11
317.51325
 21
150.536
 31
0.0
  0
LINE
  5
3F5
330
1E
100
AcDbEntity
  8
0
100
AcDbLine
 10
317.51325
 20
150.536
 30
0.0
 11
320.87325
 21
150.536
 31
0.0
  0
LINE
  5
3F6
330
1E
100
AcDbEntity
  8
0
100
AcDbLine
 10
360.13325
 20
30.536
 30
0.0
 11
366.93725
 21
30.536
 31
0.0
  0
LINE
  5
3F7
330
1E
100
AcDbEntity
  8
0
100
AcDbLine
 10
366.93725
 20
30.536
 30
0.0
 11
373.20125
 21
30.536
 31
0.0
  0
LINE
  5
3F8
330
1E
100
AcDbEntity
  8
0
100
AcDbLine
 10
373.20125
 20
30.536
 30
0.0
 11
378.70925
 21
30.536
 31
0.0
  0
LINE
  5
3F9
330
1E
100
AcDbEntity
  8
0
100
AcDbLine
 10
378.70925
 20
30.536
 30
0.0
 11
382.92125
 21
30.536
 31
0.0
  0
LINE
  5
3FA
330
1E
100
AcDbEntity
  8
0
100
AcDbLine
 10
382.92125
 20
30.536
 30
0.0
 11
385.51325
 21
30.536
 31
0.0
  0
LINE
  5
3FF
330
1E
100
AcDbEntity
  8
0
100
AcDbLine
 10
386.48525
 20
30.536
 30
0.0
 11
387.13325
 21
31.498
 31
0.0
  0
LINE
  5
400
330
1E
100
AcDbEntity
  8
0
100
AcDbLine
 10
387.13325
 20
31.498
 30
0.0
 11
387.13325
 21
54.5745
 31
0.0
  0
LINE
  5
401
330
1E
100
AcDbEntity
  8
0
100
AcDbLine
 10
385.51325
 20
30.536
 30
0.0
 11
386.48525
 21
30.536
 31
0.0
  0
LINE
  5
402
330
1E
100
AcDbEntity
  8
0
100
AcDbLine
 10
344.54925
 20
64.536
 30
0.0
 11
344.54925
 21
78.536
 31
0.0
  0
LINE
  5
403
330
1E
100
AcDbEntity
  8
0
100
AcDbLine
 10
344.54925
 20
64.536
 30
0.0
 11
347.14725
 21
64.536
 31
0.0
  0
LINE
  5
404
330
1E
100
AcDbEntity
  8
0
100
AcDbLine
 10
344.54925
 20
64.536
 30
0.0
 11
345.54925
 21
64.536
 31
0.0
  0
LINE
  5
405
330
1E
100
AcDbEntity
  8
0
100
AcDbLine
 10
344.54925
 20
64.536
 30
0.0
 11
347.13325
 21
64.536
 31
0.0
  0
LINE
  5
406
330
1E
100
AcDbEntity
  8
0
100
AcDbLine
 10
344.54925
 20
78.536
 30
0.0
 11
344.54925
 21
64.536
 31
0.0
  0
LINE
  5
407
330
1E
100
AcDbEntity
  8
0
100
AcDbLine
 10
344.54925
 20
78.536
 30
0.0
 11
345.54925
 21
78.536
 31
0.0
  0
LINE
  5
408
330
1E
100
AcDbEntity
  8
0
100
AcDbLine
 10
344.13325
 20
78.536
 30
0.0
 11
344.13325
 21
64.536
 31
0.0
  0
LINE
  5
409
330
1E
100
AcDbEntity
  8
0
100
AcDbLine
 10
344.13325
 20
78.536
 30
0.0
 11
344.54925
 21
78.536
 31
0.0
  0
LINE
  5
40A
330
1E
100
AcDbEntity
  8
0
100
AcDbLine
 10
344.13325
 20
64.536
 30
0.0
 11
344.96125
 21
64.536
 31
0.0
  0
LINE
  5
40B
330
1E
100
AcDbEntity
  8
0
100
AcDbLine
 10
344.13325
 20
64.536
 30
0.0
 11
344.13325
 21
78.536
 31
0.0
  0
LINE
  5
40C
330
1E
100
AcDbEntity
  8
0
100
AcDbLine
 10
347.13325
 20
55.536
 30
0.0
 11
347.13325
 21
64.536
 31
0.0
  0
LINE
  5
40D
330
1E
100
AcDbEntity
  8
0
100
AcDbLine
 10
347.13325
 20
64.536
 30
0.0
 11
347.13325
 21
55.536
 31
0.0
  0
LINE
  5
40E
330
1E
100
AcDbEntity
  8
0
100
AcDbLine
 10
347.14725
 20
64.536
 30
0.0
 11
348.14725
 21
64.536
 31
0.0
  0
LINE
  5
40F
330
1E
100
AcDbEntity
  8
0
100
AcDbLine
 10
345.54925
 20
64.536
 30
0.0
 11
345.54925
 21
78.536
 31
0.0
  0
LINE
  5
410
330
1E
100
AcDbEntity
  8
0
100
AcDbLine
 10
345.54925
 20
64.536
 30
0.0
 11
348.14725
 21
64.536
 31
0.0
  0
LINE
  5
411
330
1E
100
AcDbEntity
  8
0
100
AcDbLine
 10
345.54925
 20
64.536
 30
0.0
 11
347.13325
 21
64.536
 31
0.0
  0
LINE
  5
412
330
1E
100
AcDbEntity
  8
0
100
AcDbLine
 10
347.16925
 20
64.536
 30
0.0
 11
350.84925
 21
64.536
 31
0.0
  0
LINE
  5
413
330
1E
100
AcDbEntity
  8
0
100
AcDbLine
 10
350.84925
 20
64.536
 30
0.0
 11
355.72525
 21
64.536
 31
0.0
  0
LINE
  5
414
330
1E
100
AcDbEntity
  8
0
100
AcDbLine
 10
345.54925
 20
78.536
 30
0.0
 11
345.54925
 21
64.536
 31
0.0
  0
LINE
  5
415
330
1E
100
AcDbEntity
  8
0
100
AcDbLine
 10
345.54925
 20
78.536
 30
0.0
 11
348.14725
 21
78.536
 31
0.0
  0
LINE
  5
416
330
1E
100
AcDbEntity
  8
0
100
AcDbLine
 10
348.14725
 20
78.536
 30
0.0
 11
350.84925
 21
78.536
 31
0.0
  0
LINE
  5
417
330
1E
100
AcDbEntity
  8
0
100
AcDbLine
 10
350.84925
 20
78.536
 30
0.0
 11
355.72525
 21
78.536
 31
0.0
  0
LINE
  5
418
330
1E
100
AcDbEntity
  8
0
100
AcDbLine
 10
344.96125
 20
64.536
 30
0.0
 11
347.13325
 21
64.536
 31
0.0
  0
LINE
  5
419
330
1E
100
AcDbEntity
  8
0
100
AcDbLine
 10
344.96125
 20
64.536
 30
0.0
 11
347.16925
 21
64.536
 31
0.0
  0
LINE
  5
41A
330
1E
100
AcDbEntity
  8
0
100
AcDbLine
 10
344.56525
 20
78.536
 30
0.0
 11
348.72525
 21
78.536
 31
0.0
  0
LINE
  5
41B
330
1E
100
AcDbEntity
  8
0
100
AcDbLine
 10
348.72525
 20
78.536
 30
0.0
 11
354.23725
 21
78.536
 31
0.0
  0
LINE
  5
41C
330
1E
100
AcDbEntity
  8
0
100
AcDbLine
 10
360.13325
 20
55.536
 30
0.0
 11
366.93725
 21
55.536
 31
0.0
  0
LINE
  5
41D
330
1E
100
AcDbEntity
  8
0
100
AcDbLine
 10
366.93725
 20
55.536
 30
0.0
 11
373.20125
 21
55.536
 31
0.0
  0
LINE
  5
41F
330
1E
100
AcDbEntity
  8
0
100
AcDbLine
 10
366.13325
 20
64.536
 30
0.0
 11
366.13325
 21
78.536
 31
0.0
  0
LINE
  5
420
330
1E
100
AcDbEntity
  8
0
100
AcDbLine
 10
366.13325
 20
64.536
 30
0.0
 11
368.13325
 21
64.536
 31
0.0
  0
LINE
  5
421
330
1E
100
AcDbEntity
  8
0
100
AcDbLine
 10
368.13325
 20
64.536
 30
0.0
 11
368.13325
 21
78.536
 31
0.0
  0
LINE
  5
422
330
1E
100
AcDbEntity
  8
0
100
AcDbLine
 10
355.72525
 20
64.536
 30
0.0
 11
361.24525
 21
64.536
 31
0.0
  0
LINE
  5
423
330
1E
100
AcDbEntity
  8
0
100
AcDbLine
 10
361.24525
 20
64.536
 30
0.0
 11
367.13325
 21
64.536
 31
0.0
  0
LINE
  5
424
330
1E
100
AcDbEntity
  8
0
100
AcDbLine
 10
373.02125
 20
64.536
 30
0.0
 11
378.54125
 21
64.536
 31
0.0
  0
LINE
  5
425
330
1E
100
AcDbEntity
  8
0
100
AcDbLine
 10
355.72525
 20
78.536
 30
0.0
 11
361.24525
 21
78.536
 31
0.0
  0
LINE
  5
426
330
1E
100
AcDbEntity
  8
0
100
AcDbLine
 10
366.13325
 20
78.536
 30
0.0
 11
368.13325
 21
78.536
 31
0.0
  0
LINE
  5
427
330
1E
100
AcDbEntity
  8
0
100
AcDbLine
 10
366.13325
 20
78.536
 30
0.0
 11
366.13325
 21
64.536
 31
0.0
  0
LINE
  5
428
330
1E
100
AcDbEntity
  8
0
100
AcDbLine
 10
361.24525
 20
78.536
 30
0.0
 11
366.13325
 21
78.536
 31
0.0
  0
LINE
  5
429
330
1E
100
AcDbEntity
  8
0
100
AcDbLine
 10
367.13325
 20
64.536
 30
0.0
 11
373.02125
 21
64.536
 31
0.0
  0
LINE
  5
42A
330
1E
100
AcDbEntity
  8
0
100
AcDbLine
 10
373.20125
 20
55.536
 30
0.0
 11
378.70925
 21
55.536
 31
0.0
  0
LINE
  5
42C
330
1E
100
AcDbEntity
  8
0
100
AcDbLine
 10
373.02125
 20
78.536
 30
0.0
 11
378.54125
 21
78.536
 31
0.0
  0
LINE
  5
42D
330
1E
100
AcDbEntity
  8
0
100
AcDbLine
 10
368.13325
 20
78.536
 30
0.0
 11
373.02125
 21
78.536
 31
0.0
  0
LINE
  5
42E
330
1E
100
AcDbEntity
  8
0
100
AcDbLine
 10
368.13325
 20
78.536
 30
0.0
 11
368.13325
 21
64.536
 31
0.0
  0
LINE
  5
42F
330
1E
100
AcDbEntity
  8
0
100
AcDbLine
 10
354.23725
 20
78.536
 30
0.0
 11
360.47725
 21
78.536
 31
0.0
  0
LINE
  5
430
330
1E
100
AcDbEntity
  8
0
100
AcDbLine
 10
360.47725
 20
78.536
 30
0.0
 11
367.13325
 21
78.536
 31
0.0
  0
LINE
  5
431
330
1E
100
AcDbEntity
  8
0
100
AcDbLine
 10
341.13325
 20
78.536
 30
0.0
 11
342.06925
 21
78.536
 31
0.0
  0
LINE
  5
432
330
1E
100
AcDbEntity
  8
0
100
AcDbLine
 10
341.13325
 20
78.536
 30
0.0
 11
341.13325
 21
80.536
 31
0.0
  0
LINE
  5
433
330
1E
100
AcDbEntity
  8
0
100
AcDbLine
 10
342.06925
 20
78.536
 30
0.0
 11
344.13325
 21
78.536
 31
0.0
  0
LINE
  5
434
330
1E
100
AcDbEntity
  8
0
100
AcDbLine
 10
342.06925
 20
78.536
 30
0.0
 11
344.56525
 21
78.536
 31
0.0
  0
LINE
  5
435
330
1E
100
AcDbEntity
  8
0
100
AcDbLine
 10
373.78925
 20
78.536
 30
0.0
 11
380.02925
 21
78.536
 31
0.0
  0
LINE
  5
436
330
1E
100
AcDbEntity
  8
0
100
AcDbLine
 10
342.06925
 20
80.536
 30
0.0
 11
344.56525
 21
80.536
 31
0.0
  0
LINE
  5
437
330
1E
100
AcDbEntity
  8
0
100
AcDbLine
 10
347.13325
 20
80.536
 30
0.0
 11
348.87125
 21
93.7358
 31
0.0
  0
LINE
  5
438
330
1E
100
AcDbEntity
  8
0
100
AcDbLine
 10
344.56525
 20
80.536
 30
0.0
 11
348.72525
 21
80.536
 31
0.0
  0
LINE
  5
439
330
1E
100
AcDbEntity
  8
0
100
AcDbLine
 10
348.72525
 20
80.536
 30
0.0
 11
354.23725
 21
80.536
 31
0.0
  0
LINE
  5
43A
330
1E
100
AcDbEntity
  8
0
100
AcDbLine
 10
354.23725
 20
80.536
 30
0.0
 11
360.47725
 21
80.536
 31
0.0
  0
LINE
  5
43B
330
1E
100
AcDbEntity
  8
0
100
AcDbLine
 10
360.47725
 20
80.536
 30
0.0
 11
367.13325
 21
80.536
 31
0.0
  0
LINE
  5
43C
330
1E
100
AcDbEntity
  8
0
100
AcDbLine
 10
341.13325
 20
80.536
 30
0.0
 11
341.13325
 21
78.536
 31
0.0
  0
LINE
  5
43D
330
1E
100
AcDbEntity
  8
0
100
AcDbLine
 10
341.13325
 20
80.536
 30
0.0
 11
342.06925
 21
80.536
 31
0.0
  0
LINE
  5
43E
330
1E
100
AcDbEntity
  8
0
100
AcDbLine
 10
367.13325
 20
78.536
 30
0.0
 11
373.78925
 21
78.536
 31
0.0
  0
LINE
  5
43F
330
1E
100
AcDbEntity
  8
0
100
AcDbLine
 10
378.70925
 20
55.536
 30
0.0
 11
382.92125
 21
55.536
 31
0.0
  0
LINE
  5
440
330
1E
100
AcDbEntity
  8
0
100
AcDbLine
 10
382.92125
 20
55.536
 30
0.0
 11
385.51325
 21
55.536
 31
0.0
  0
LINE
  5
442
330
1E
100
AcDbEntity
  8
0
100
AcDbLine
 10
383.41725
 20
64.536
 30
0.0
 11
387.09725
 21
64.536
 31
0.0
  0
LINE
  5
443
330
1E
100
AcDbEntity
  8
0
100
AcDbLine
 10
378.54125
 20
64.536
 30
0.0
 11
383.41725
 21
64.536
 31
0.0
  0
LINE
  5
444
330
1E
100
AcDbEntity
  8
0
100
AcDbLine
 10
385.51325
 20
55.536
 30
0.0
 11
386.48525
 21
55.536
 31
0.0
  0
LINE
  5
446
330
1E
100
AcDbEntity
  8
0
100
AcDbLine
 10
384.49325
 20
55.536
 30
0.0
 11
386.41325
 21
55.536
 31
0.0
  0
LINE
  5
447
330
1E
100
AcDbEntity
  8
0
100
AcDbLine
 10
383.41725
 20
78.536
 30
0.0
 11
386.11925
 21
78.536
 31
0.0
  0
LINE
  5
448
330
1E
100
AcDbEntity
  8
0
100
AcDbLine
 10
378.54125
 20
78.536
 30
0.0
 11
383.41725
 21
78.536
 31
0.0
  0
LINE
  5
449
330
1E
100
AcDbEntity
  8
0
100
AcDbLine
 10
385.54125
 20
78.536
 30
0.0
 11
389.70125
 21
78.536
 31
0.0
  0
LINE
  5
44A
330
1E
100
AcDbEntity
  8
0
100
AcDbLine
 10
380.02925
 20
78.536
 30
0.0
 11
385.54125
 21
78.536
 31
0.0
  0
LINE
  5
44B
330
1E
100
AcDbEntity
  8
0
100
AcDbLine
 10
386.48525
 20
55.536
 30
0.0
 11
387.13325
 21
54.5745
 31
0.0
  0
LINE
  5
44C
330
1E
100
AcDbEntity
  8
0
100
AcDbLine
 10
386.48525
 20
55.536
 30
0.0
 11
387.13325
 21
55.536
 31
0.0
  0
LINE
  5
44D
330
1E
100
AcDbEntity
  8
0
100
AcDbLine
 10
387.13325
 20
54.5745
 30
0.0
 11
387.13325
 21
31.498
 31
0.0
  0
LINE
  5
44E
330
1E
100
AcDbEntity
  8
0
100
AcDbLine
 10
386.41325
 20
55.536
 30
0.0
 11
387.13325
 21
55.536
 31
0.0
  0
LINE
  5
44F
330
1E
100
AcDbEntity
  8
0
100
AcDbLine
 10
387.13325
 20
55.536
 30
0.0
 11
387.13325
 21
64.536
 31
0.0
  0
LINE
  5
450
330
1E
100
AcDbEntity
  8
0
100
AcDbLine
 10
386.11925
 20
64.536
 30
0.0
 11
388.71725
 21
64.536
 31
0.0
  0
LINE
  5
451
330
1E
100
AcDbEntity
  8
0
100
AcDbLine
 10
386.11925
 20
64.536
 30
0.0
 11
387.11925
 21
64.536
 31
0.0
  0
LINE
  5
452
330
1E
100
AcDbEntity
  8
0
100
AcDbLine
 10
387.11925
 20
64.536
 30
0.0
 11
389.71725
 21
64.536
 31
0.0
  0
LINE
  5
453
330
1E
100
AcDbEntity
  8
0
100
AcDbLine
 10
388.71725
 20
64.536
 30
0.0
 11
389.71725
 21
64.536
 31
0.0
  0
LINE
  5
454
330
1E
100
AcDbEntity
  8
0
100
AcDbLine
 10
388.71725
 20
64.536
 30
0.0
 11
388.71725
 21
78.536
 31
0.0
  0
LINE
  5
455
330
1E
100
AcDbEntity
  8
0
100
AcDbLine
 10
387.13325
 20
64.536
 30
0.0
 11
389.30525
 21
64.536
 31
0.0
  0
LINE
  5
456
330
1E
100
AcDbEntity
  8
0
100
AcDbLine
 10
387.13325
 20
64.536
 30
0.0
 11
388.71725
 21
64.536
 31
0.0
  0
LINE
  5
457
330
1E
100
AcDbEntity
  8
0
100
AcDbLine
 10
387.13325
 20
64.536
 30
0.0
 11
389.71725
 21
64.536
 31
0.0
  0
LINE
  5
458
330
1E
100
AcDbEntity
  8
0
100
AcDbLine
 10
387.13325
 20
64.536
 30
0.0
 11
387.13325
 21
55.536
 31
0.0
  0
LINE
  5
459
330
1E
100
AcDbEntity
  8
0
100
AcDbLine
 10
389.71725
 20
64.536
 30
0.0
 11
389.71725
 21
78.536
 31
0.0
  0
LINE
  5
45A
330
1E
100
AcDbEntity
  8
0
100
AcDbLine
 10
389.30525
 20
64.536
 30
0.0
 11
390.13325
 21
64.536
 31
0.0
  0
LINE
  5
45B
330
1E
100
AcDbEntity
  8
0
100
AcDbLine
 10
386.11925
 20
78.536
 30
0.0
 11
388.71725
 21
78.536
 31
0.0
  0
LINE
  5
45C
330
1E
100
AcDbEntity
  8
0
100
AcDbLine
 10
388.71725
 20
78.536
 30
0.0
 11
389.71725
 21
78.536
 31
0.0
  0
LINE
  5
45D
330
1E
100
AcDbEntity
  8
0
100
AcDbLine
 10
388.71725
 20
78.536
 30
0.0
 11
388.71725
 21
64.536
 31
0.0
  0
LINE
  5
45E
330
1E
100
AcDbEntity
  8
0
100
AcDbLine
 10
387.09725
 20
64.536
 30
0.0
 11
389.30525
 21
64.536
 31
0.0
  0
LINE
  5
45F
330
1E
100
AcDbEntity
  8
0
100
AcDbLine
 10
390.13325
 20
64.536
 30
0.0
 11
390.13325
 21
78.536
 31
0.0
  0
LINE
  5
460
330
1E
100
AcDbEntity
  8
0
100
AcDbLine
 10
389.71725
 20
78.536
 30
0.0
 11
390.13325
 21
78.536
 31
0.0
  0
LINE
  5
461
330
1E
100
AcDbEntity
  8
0
100
AcDbLine
 10
389.71725
 20
78.536
 30
0.0
 11
389.71725
 21
64.536
 31
0.0
  0
LINE
  5
462
330
1E
100
AcDbEntity
  8
0
100
AcDbLine
 10
390.13325
 20
78.536
 30
0.0
 11
392.19725
 21
78.536
 31
0.0
  0
LINE
  5
463
330
1E
100
AcDbEntity
  8
0
100
AcDbLine
 10
390.13325
 20
78.536
 30
0.0
 11
390.13325
 21
64.536
 31
0.0
  0
LINE
  5
464
330
1E
100
AcDbEntity
  8
0
100
AcDbLine
 10
392.19725
 20
78.536
 30
0.0
 11
393.13325
 21
78.536
 31
0.0
  0
LINE
  5
465
330
1E
100
AcDbEntity
  8
0
100
AcDbLine
 10
387.13325
 20
80.536
 30
0.0
 11
387.50825
 21
83.383
 31
0.0
  0
LINE
  5
466
330
1E
100
AcDbEntity
  8
0
100
AcDbLine
 10
389.70125
 20
78.536
 30
0.0
 11
392.19725
 21
78.536
 31
0.0
  0
LINE
  5
467
330
1E
100
AcDbEntity
  8
0
100
AcDbLine
 10
393.13325
 20
78.536
 30
0.0
 11
393.13325
 21
80.536
 31
0.0
  0
LINE
  5
468
330
1E
100
AcDbEntity
  8
0
100
AcDbLine
 10
393.13325
 20
80.536
 30
0.0
 11
393.13325
 21
78.536
 31
0.0
  0
LINE
  5
469
330
1E
100
AcDbEntity
  8
0
100
AcDbLine
 10
392.19725
 20
80.536
 30
0.0
 11
393.13325
 21
80.536
 31
0.0
  0
LINE
  5
46A
330
1E
100
AcDbEntity
  8
0
100
AcDbLine
 10
389.70125
 20
80.536
 30
0.0
 11
392.19725
 21
80.536
 31
0.0
  0
LINE
  5
46B
330
1E
100
AcDbEntity
  8
0
100
AcDbLine
 10
385.54125
 20
80.536
 30
0.0
 11
389.70125
 21
80.536
 31
0.0
  0
LINE
  5
46C
330
1E
100
AcDbEntity
  8
0
100
AcDbLine
 10
380.02925
 20
80.536
 30
0.0
 11
385.54125
 21
80.536
 31
0.0
  0
LINE
  5
46D
330
1E
100
AcDbEntity
  8
0
100
AcDbLine
 10
373.78925
 20
80.536
 30
0.0
 11
380.02925
 21
80.536
 31
0.0
  0
LINE
  5
46E
330
1E
100
AcDbEntity
  8
0
100
AcDbLine
 10
388.60725
 20
86.036
 30
0.0
 11
390.35525
 21
88.3142
 31
0.0
  0
LINE
  5
46F
330
1E
100
AcDbEntity
  8
0
100
AcDbLine
 10
387.50825
 20
83.383
 30
0.0
 11
388.60725
 21
86.036
 31
0.0
  0
LINE
  5
470
330
1E
100
AcDbEntity
  8
0
100
AcDbLine
 10
367.13325
 20
80.536
 30
0.0
 11
373.78925
 21
80.536
 31
0.0
  0
LINE
  5
471
330
1E
100
AcDbEntity
  8
0
100
AcDbLine
 10
412.13325
 20
85.536
 30
0.0
 11
412.13325
 21
86.472
 31
0.0
  0
LINE
  5
472
330
1E
100
AcDbEntity
  8
0
100
AcDbLine
 10
412.13325
 20
85.536
 30
0.0
 11
414.13325
 21
85.536
 31
0.0
  0
LINE
  5
473
330
1E
100
AcDbEntity
  8
0
100
AcDbLine
 10
390.35525
 20
88.3142
 30
0.0
 11
392.63325
 21
90.0623
 31
0.0
  0
LINE
  5
474
330
1E
100
AcDbEntity
  8
0
100
AcDbLine
 10
395.28625
 20
91.1612
 30
0.0
 11
398.13325
 21
91.536
 31
0.0
  0
LINE
  5
475
330
1E
100
AcDbEntity
  8
0
100
AcDbLine
 10
392.63325
 20
90.0623
 30
0.0
 11
395.28625
 21
91.1612
 31
0.0
  0
LINE
  5
476
330
1E
100
AcDbEntity
  8
0
100
AcDbLine
 10
398.13325
 20
91.536
 30
0.0
 11
412.13325
 21
91.536
 31
0.0
  0
LINE
  5
477
330
1E
100
AcDbEntity
  8
0
100
AcDbLine
 10
412.13325
 20
91.536
 30
0.0
 11
412.13325
 21
88.968
 31
0.0
  0
LINE
  5
478
330
1E
100
AcDbEntity
  8
0
100
AcDbLine
 10
412.13325
 20
86.472
 30
0.0
 11
412.13325
 21
88.968
 31
0.0
  0
LINE
  5
479
330
1E
100
AcDbEntity
  8
0
100
AcDbLine
 10
412.13325
 20
86.472
 30
0.0
 11
412.13325
 21
85.536
 31
0.0
  0
LINE
  5
47A
330
1E
100
AcDbEntity
  8
0
100
AcDbLine
 10
412.13325
 20
88.968
 30
0.0
 11
412.13325
 21
93.128
 31
0.0
  0
LINE
  5
47B
330
1E
100
AcDbEntity
  8
0
100
AcDbLine
 10
412.13325
 20
88.968
 30
0.0
 11
412.13325
 21
86.472
 31
0.0
  0
LINE
  5
47C
330
1E
100
AcDbEntity
  8
0
100
AcDbLine
 10
412.13325
 20
88.968
 30
0.0
 11
412.13325
 21
91.536
 31
0.0
  0
LINE
  5
47D
330
1E
100
AcDbEntity
  8
0
100
AcDbLine
 10
348.87125
 20
93.7358
 30
0.0
 11
353.96625
 21
106.036
 31
0.0
  0
LINE
  5
47E
330
1E
100
AcDbEntity
  8
0
100
AcDbLine
 10
412.13325
 20
93.128
 30
0.0
 11
412.13325
 21
98.64
 31
0.0
  0
LINE
  5
47F
330
1E
100
AcDbEntity
  8
0
100
AcDbLine
 10
412.13325
 20
93.128
 30
0.0
 11
412.13325
 21
88.968
 31
0.0
  0
LINE
  5
480
330
1E
100
AcDbEntity
  8
0
100
AcDbLine
 10
414.13325
 20
85.536
 30
0.0
 11
414.13325
 21
86.472
 31
0.0
  0
LINE
  5
481
330
1E
100
AcDbEntity
  8
0
100
AcDbLine
 10
414.13325
 20
89.9524
 30
0.0
 11
428.13325
 21
89.9524
 31
0.0
  0
LINE
  5
482
330
1E
100
AcDbEntity
  8
0
100
AcDbLine
 10
414.13325
 20
88.9524
 30
0.0
 11
428.13325
 21
88.9524
 31
0.0
  0
LINE
  5
483
330
1E
100
AcDbEntity
  8
0
100
AcDbLine
 10
414.13325
 20
88.536
 30
0.0
 11
428.13325
 21
88.536
 31
0.0
  0
LINE
  5
484
330
1E
100
AcDbEntity
  8
0
100
AcDbLine
 10
414.13325
 20
86.472
 30
0.0
 11
414.13325
 21
88.968
 31
0.0
  0
LINE
  5
485
330
1E
100
AcDbEntity
  8
0
100
AcDbLine
 10
414.13325
 20
86.472
 30
0.0
 11
414.13325
 21
85.536
 31
0.0
  0
LINE
  5
486
330
1E
100
AcDbEntity
  8
0
100
AcDbLine
 10
414.13325
 20
88.968
 30
0.0
 11
414.13325
 21
93.128
 31
0.0
  0
LINE
  5
487
330
1E
100
AcDbEntity
  8
0
100
AcDbLine
 10
414.13325
 20
88.968
 30
0.0
 11
414.13325
 21
86.472
 31
0.0
  0
LINE
  5
488
330
1E
100
AcDbEntity
  8
0
100
AcDbLine
 10
414.13325
 20
93.128
 30
0.0
 11
414.13325
 21
98.64
 31
0.0
  0
LINE
  5
489
330
1E
100
AcDbEntity
  8
0
100
AcDbLine
 10
414.13325
 20
93.128
 30
0.0
 11
414.13325
 21
88.968
 31
0.0
  0
LINE
  5
48A
330
1E
100
AcDbEntity
  8
0
100
AcDbLine
 10
428.13325
 20
91.536
 30
0.0
 11
450.13325
 21
91.536
 31
0.0
  0
LINE
  5
48B
330
1E
100
AcDbEntity
  8
0
100
AcDbLine
 10
428.13325
 20
89.9524
 30
0.0
 11
428.13325
 21
92.5504
 31
0.0
  0
LINE
  5
48C
330
1E
100
AcDbEntity
  8
0
100
AcDbLine
 10
428.13325
 20
89.9524
 30
0.0
 11
428.13325
 21
88.9524
 31
0.0
  0
LINE
  5
48D
330
1E
100
AcDbEntity
  8
0
100
AcDbLine
 10
428.13325
 20
88.9524
 30
0.0
 11
428.13325
 21
88.536
 31
0.0
  0
LINE
  5
48E
330
1E
100
AcDbEntity
  8
0
100
AcDbLine
 10
428.13325
 20
88.9524
 30
0.0
 11
428.13325
 21
89.9524
 31
0.0
  0
LINE
  5
48F
330
1E
100
AcDbEntity
  8
0
100
AcDbLine
 10
428.13325
 20
88.536
 30
0.0
 11
428.13325
 21
88.9524
 31
0.0
  0
LINE
  5
490
330
1E
100
AcDbEntity
  8
0
100
AcDbLine
 10
428.13325
 20
92.5504
 30
0.0
 11
428.13325
 21
95.252
 31
0.0
  0
LINE
  5
491
330
1E
100
AcDbEntity
  8
0
100
AcDbLine
 10
428.13325
 20
92.5504
 30
0.0
 11
428.13325
 21
89.9524
 31
0.0
  0
LINE
  5
492
330
1E
100
AcDbEntity
  8
0
100
AcDbLine
 10
457.91125
 20
88.3142
 30
0.0
 11
504.07125
 21
41.5845
 31
0.0
  0
LINE
  5
493
330
1E
100
AcDbEntity
  8
0
100
AcDbLine
 10
455.63325
 20
90.0623
 30
0.0
 11
457.91125
 21
88.3142
 31
0.0
  0
LINE
  5
494
330
1E
100
AcDbEntity
  8
0
100
AcDbLine
 10
450.13325
 20
91.536
 30
0.0
 11
452.98025
 21
91.1612
 31
0.0
  0
LINE
  5
495
330
1E
100
AcDbEntity
  8
0
100
AcDbLine
 10
452.98025
 20
91.1612
 30
0.0
 11
455.63325
 21
90.0623
 31
0.0
  0
LINE
  5
496
330
1E
100
AcDbEntity
  8
0
100
AcDbLine
 10
428.13325
 20
95.252
 30
0.0
 11
428.13325
 21
100.128
 31
0.0
  0
LINE
  5
497
330
1E
100
AcDbEntity
  8
0
100
AcDbLine
 10
428.13325
 20
95.252
 30
0.0
 11
428.13325
 21
92.5504
 31
0.0
  0
LINE
  5
498
330
1E
100
AcDbEntity
  8
0
100
AcDbLine
 10
428.13325
 20
100.128
 30
0.0
 11
428.13325
 21
105.648
 31
0.0
  0
LINE
  5
499
330
1E
100
AcDbEntity
  8
0
100
AcDbLine
 10
428.13325
 20
100.128
 30
0.0
 11
428.13325
 21
95.252
 31
0.0
  0
LINE
  5
49A
330
1E
100
AcDbEntity
  8
0
100
AcDbLine
 10
414.13325
 20
98.64
 30
0.0
 11
414.13325
 21
104.88
 31
0.0
  0
LINE
  5
49B
330
1E
100
AcDbEntity
  8
0
100
AcDbLine
 10
414.13325
 20
98.64
 30
0.0
 11
414.13325
 21
93.128
 31
0.0
  0
LINE
  5
49C
330
1E
100
AcDbEntity
  8
0
100
AcDbLine
 10
414.13325
 20
104.88
 30
0.0
 11
414.13325
 21
111.536
 31
0.0
  0
LINE
  5
49D
330
1E
100
AcDbEntity
  8
0
100
AcDbLine
 10
414.13325
 20
104.88
 30
0.0
 11
414.13325
 21
98.64
 31
0.0
  0
LINE
  5
49E
330
1E
100
AcDbEntity
  8
0
100
AcDbLine
 10
412.13325
 20
98.64
 30
0.0
 11
412.13325
 21
104.88
 31
0.0
  0
LINE
  5
49F
330
1E
100
AcDbEntity
  8
0
100
AcDbLine
 10
412.13325
 20
98.64
 30
0.0
 11
412.13325
 21
93.128
 31
0.0
  0
LINE
  5
4A0
330
1E
100
AcDbEntity
  8
0
100
AcDbLine
 10
353.96625
 20
106.036
 30
0.0
 11
362.07125
 21
116.5984
 31
0.0
  0
LINE
  5
4A1
330
1E
100
AcDbEntity
  8
0
100
AcDbLine
 10
362.07125
 20
116.5984
 30
0.0
 11
372.63325
 21
124.7033
 31
0.0
  0
LINE
  5
4A2
330
1E
100
AcDbEntity
  8
0
100
AcDbLine
 10
384.93325
 20
129.7982
 30
0.0
 11
398.13325
 21
131.536
 31
0.0
  0
LINE
  5
4A3
330
1E
100
AcDbEntity
  8
0
100
AcDbLine
 10
372.63325
 20
124.7033
 30
0.0
 11
384.93325
 21
129.7982
 31
0.0
  0
LINE
  5
4A4
330
1E
100
AcDbEntity
  8
0
100
AcDbLine
 10
398.13325
 20
131.536
 30
0.0
 11
412.13325
 21
131.536
 31
0.0
  0
LINE
  5
4A5
330
1E
100
AcDbEntity
  8
0
100
AcDbLine
 10
412.13325
 20
129.944
 30
0.0
 11
412.13325
 21
134.104
 31
0.0
  0
LINE
  5
4A6
330
1E
100
AcDbEntity
  8
0
100
AcDbLine
 10
412.13325
 20
129.944
 30
0.0
 11
412.13325
 21
124.432
 31
0.0
  0
LINE
  5
4A7
330
1E
100
AcDbEntity
  8
0
100
AcDbLine
 10
412.13325
 20
124.432
 30
0.0
 11
412.13325
 21
129.944
 31
0.0
  0
LINE
  5
4A8
330
1E
100
AcDbEntity
  8
0
100
AcDbLine
 10
412.13325
 20
124.432
 30
0.0
 11
412.13325
 21
118.192
 31
0.0
  0
LINE
  5
4A9
330
1E
100
AcDbEntity
  8
0
100
AcDbLine
 10
412.13325
 20
118.192
 30
0.0
 11
412.13325
 21
124.432
 31
0.0
  0
LINE
  5
4AA
330
1E
100
AcDbEntity
  8
0
100
AcDbLine
 10
412.13325
 20
118.192
 30
0.0
 11
412.13325
 21
111.536
 31
0.0
  0
LINE
  5
4AB
330
1E
100
AcDbEntity
  8
0
100
AcDbLine
 10
412.13325
 20
131.536
 30
0.0
 11
412.13325
 21
134.104
 31
0.0
  0
LINE
  5
4AC
330
1E
100
AcDbEntity
  8
0
100
AcDbLine
 10
323.76525
 20
136.536
 30
0.0
 11
325.13325
 21
136.536
 31
0.0
  0
LINE
  5
4AD
330
1E
100
AcDbEntity
  8
0
100
AcDbLine
 10
325.13325
 20
136.536
 30
0.0
 11
325.13325
 21
140.536
 31
0.0
  0
LINE
  5
4AE
330
1E
100
AcDbEntity
  8
0
100
AcDbLine
 10
323.76525
 20
136.536
 30
0.0
 11
325.13325
 21
136.536
 31
0.0
  0
LINE
  5
4AF
330
1E
100
AcDbEntity
  8
0
100
AcDbLine
 10
325.13325
 20
140.536
 30
0.0
 11
325.13325
 21
136.536
 31
0.0
  0
LINE
  5
4B0
330
1E
100
AcDbEntity
  8
0
100
AcDbLine
 10
323.76525
 20
140.536
 30
0.0
 11
325.13325
 21
140.536
 31
0.0
  0
LINE
  5
4B1
330
1E
100
AcDbEntity
  8
0
100
AcDbLine
 10
412.13325
 20
137.536
 30
0.0
 11
412.13325
 21
136.6
 31
0.0
  0
LINE
  5
4B2
330
1E
100
AcDbEntity
  8
0
100
AcDbLine
 10
412.13325
 20
137.536
 30
0.0
 11
414.13325
 21
137.536
 31
0.0
  0
LINE
  5
4B3
330
1E
100
AcDbEntity
  8
0
100
AcDbLine
 10
412.13325
 20
136.6
 30
0.0
 11
412.13325
 21
134.104
 31
0.0
  0
LINE
  5
4B4
330
1E
100
AcDbEntity
  8
0
100
AcDbLine
 10
412.13325
 20
136.6
 30
0.0
 11
412.13325
 21
137.536
 31
0.0
  0
LINE
  5
4B5
330
1E
100
AcDbEntity
  8
0
100
AcDbLine
 10
412.13325
 20
134.104
 30
0.0
 11
412.13325
 21
131.536
 31
0.0
  0
LINE
  5
4B6
330
1E
100
AcDbEntity
  8
0
100
AcDbLine
 10
412.13325
 20
134.104
 30
0.0
 11
412.13325
 21
136.6
 31
0.0
  0
LINE
  5
4B7
330
1E
100
AcDbEntity
  8
0
100
AcDbLine
 10
412.13325
 20
134.104
 30
0.0
 11
412.13325
 21
129.944
 31
0.0
  0
LINE
  5
4B8
330
1E
100
AcDbEntity
  8
0
100
AcDbLine
 10
414.13325
 20
110.536
 30
0.0
 11
428.13325
 21
110.536
 31
0.0
  0
LINE
  5
4B9
330
1E
100
AcDbEntity
  8
0
100
AcDbLine
 10
428.13325
 20
110.536
 30
0.0
 11
428.13325
 21
105.648
 31
0.0
  0
LINE
  5
4BA
330
1E
100
AcDbEntity
  8
0
100
AcDbLine
 10
428.13325
 20
110.536
 30
0.0
 11
428.13325
 21
112.536
 31
0.0
  0
LINE
  5
4BB
330
1E
100
AcDbEntity
  8
0
100
AcDbLine
 10
428.13325
 20
105.648
 30
0.0
 11
428.13325
 21
110.536
 31
0.0
  0
LINE
  5
4BC
330
1E
100
AcDbEntity
  8
0
100
AcDbLine
 10
428.13325
 20
105.648
 30
0.0
 11
428.13325
 21
100.128
 31
0.0
  0
LINE
  5
4BD
330
1E
100
AcDbEntity
  8
0
100
AcDbLine
 10
414.13325
 20
112.536
 30
0.0
 11
428.13325
 21
112.536
 31
0.0
  0
LINE
  5
4BE
330
1E
100
AcDbEntity
  8
0
100
AcDbLine
 10
414.13325
 20
133.1196
 30
0.0
 11
428.13325
 21
133.1196
 31
0.0
  0
LINE
  5
4BF
330
1E
100
AcDbEntity
  8
0
100
AcDbLine
 10
414.13325
 20
134.1196
 30
0.0
 11
428.13325
 21
134.1196
 31
0.0
  0
LINE
  5
4C0
330
1E
100
AcDbEntity
  8
0
100
AcDbLine
 10
414.13325
 20
134.536
 30
0.0
 11
428.13325
 21
134.536
 31
0.0
  0
LINE
  5
4C1
330
1E
100
AcDbEntity
  8
0
100
AcDbLine
 10
414.13325
 20
137.536
 30
0.0
 11
414.13325
 21
136.6
 31
0.0
  0
LINE
  5
4C2
330
1E
100
AcDbEntity
  8
0
100
AcDbLine
 10
414.13325
 20
136.6
 30
0.0
 11
414.13325
 21
137.536
 31
0.0
  0
LINE
  5
4C3
330
1E
100
AcDbEntity
  8
0
100
AcDbLine
 10
414.13325
 20
136.6
 30
0.0
 11
414.13325
 21
134.104
 31
0.0
  0
LINE
  5
4C4
330
1E
100
AcDbEntity
  8
0
100
AcDbLine
 10
414.13325
 20
134.104
 30
0.0
 11
414.13325
 21
136.6
 31
0.0
  0
LINE
  5
4C5
330
1E
100
AcDbEntity
  8
0
100
AcDbLine
 10
414.13325
 20
134.104
 30
0.0
 11
414.13325
 21
129.944
 31
0.0
  0
LINE
  5
4C6
330
1E
100
AcDbEntity
  8
0
100
AcDbLine
 10
414.13325
 20
129.944
 30
0.0
 11
414.13325
 21
134.104
 31
0.0
  0
LINE
  5
4C7
330
1E
100
AcDbEntity
  8
0
100
AcDbLine
 10
414.13325
 20
129.944
 30
0.0
 11
414.13325
 21
124.432
 31
0.0
  0
LINE
  5
4C8
330
1E
100
AcDbEntity
  8
0
100
AcDbLine
 10
414.13325
 20
124.432
 30
0.0
 11
414.13325
 21
129.944
 31
0.0
  0
LINE
  5
4C9
330
1E
100
AcDbEntity
  8
0
100
AcDbLine
 10
414.13325
 20
124.432
 30
0.0
 11
414.13325
 21
118.192
 31
0.0
  0
LINE
  5
4CA
330
1E
100
AcDbEntity
  8
0
100
AcDbLine
 10
428.13325
 20
131.536
 30
0.0
 11
450.13325
 21
131.536
 31
0.0
  0
LINE
  5
4CB
330
1E
100
AcDbEntity
  8
0
100
AcDbLine
 10
428.13325
 20
133.1196
 30
0.0
 11
428.13325
 21
130.5216
 31
0.0
  0
LINE
  5
4CC
330
1E
100
AcDbEntity
  8
0
100
AcDbLine
 10
428.13325
 20
133.1196
 30
0.0
 11
428.13325
 21
134.1196
 31
0.0
  0
LINE
  5
4CD
330
1E
100
AcDbEntity
  8
0
100
AcDbLine
 10
428.13325
 20
130.5216
 30
0.0
 11
428.13325
 21
127.82
 31
0.0
  0
LINE
  5
4CE
330
1E
100
AcDbEntity
  8
0
100
AcDbLine
 10
428.13325
 20
130.5216
 30
0.0
 11
428.13325
 21
133.1196
 31
0.0
  0
LINE
  5
4CF
330
1E
100
AcDbEntity
  8
0
100
AcDbLine
 10
428.13325
 20
134.536
 30
0.0
 11
428.13325
 21
134.1196
 31
0.0
  0
LINE
  5
4D0
330
1E
100
AcDbEntity
  8
0
100
AcDbLine
 10
428.13325
 20
134.1196
 30
0.0
 11
428.13325
 21
134.536
 31
0.0
  0
LINE
  5
4D1
330
1E
100
AcDbEntity
  8
0
100
AcDbLine
 10
428.13325
 20
134.1196
 30
0.0
 11
428.13325
 21
133.1196
 31
0.0
  0
LINE
  5
4D2
330
1E
100
AcDbEntity
  8
0
100
AcDbLine
 10
428.13325
 20
127.82
 30
0.0
 11
428.13325
 21
130.5216
 31
0.0
  0
LINE
  5
4D3
330
1E
100
AcDbEntity
  8
0
100
AcDbLine
 10
428.13325
 20
127.82
 30
0.0
 11
428.13325
 21
122.944
 31
0.0
  0
LINE
  5
4D4
330
1E
100
AcDbEntity
  8
0
100
AcDbLine
 10
428.13325
 20
122.944
 30
0.0
 11
428.13325
 21
127.82
 31
0.0
  0
LINE
  5
4D5
330
1E
100
AcDbEntity
  8
0
100
AcDbLine
 10
428.13325
 20
122.944
 30
0.0
 11
428.13325
 21
117.424
 31
0.0
  0
LINE
  5
4D6
330
1E
100
AcDbEntity
  8
0
100
AcDbLine
 10
486.19525
 20
116.5984
 30
0.0
 11
532.35525
 21
69.8687
 31
0.0
  0
LINE
  5
4D7
330
1E
100
AcDbEntity
  8
0
100
AcDbLine
 10
475.63325
 20
124.7033
 30
0.0
 11
486.19525
 21
116.5984
 31
0.0
  0
LINE
  5
4D8
330
1E
100
AcDbEntity
  8
0
100
AcDbLine
 10
450.13325
 20
131.536
 30
0.0
 11
463.33325
 21
129.7982
 31
0.0
  0
LINE
  5
4D9
330
1E
100
AcDbEntity
  8
0
100
AcDbLine
 10
463.33325
 20
129.7982
 30
0.0
 11
475.63325
 21
124.7033
 31
0.0
  0
LINE
  5
4DA
330
1E
100
AcDbEntity
  8
0
100
AcDbLine
 10
428.13325
 20
117.424
 30
0.0
 11
428.13325
 21
122.944
 31
0.0
  0
LINE
  5
4DB
330
1E
100
AcDbEntity
  8
0
100
AcDbLine
 10
428.13325
 20
117.424
 30
0.0
 11
428.13325
 21
112.536
 31
0.0
  0
LINE
  5
4DC
330
1E
100
AcDbEntity
  8
0
100
AcDbLine
 10
428.13325
 20
112.536
 30
0.0
 11
428.13325
 21
117.424
 31
0.0
  0
LINE
  5
4DD
330
1E
100
AcDbEntity
  8
0
100
AcDbLine
 10
428.13325
 20
112.536
 30
0.0
 11
428.13325
 21
110.536
 31
0.0
  0
LINE
  5
4DE
330
1E
100
AcDbEntity
  8
0
100
AcDbLine
 10
414.13325
 20
118.192
 30
0.0
 11
414.13325
 21
124.432
 31
0.0
  0
LINE
  5
4DF
330
1E
100
AcDbEntity
  8
0
100
AcDbLine
 10
414.13325
 20
118.192
 30
0.0
 11
414.13325
 21
111.536
 31
0.0
  0
LINE
  5
4E0
330
1E
100
AcDbEntity
  8
0
100
AcDbLine
 10
414.13325
 20
111.536
 30
0.0
 11
414.13325
 21
104.88
 31
0.0
  0
LINE
  5
4E1
330
1E
100
AcDbEntity
  8
0
100
AcDbLine
 10
414.13325
 20
111.536
 30
0.0
 11
414.13325
 21
118.192
 31
0.0
  0
LINE
  5
4E2
330
1E
100
AcDbEntity
  8
0
100
AcDbLine
 10
412.13325
 20
111.536
 30
0.0
 11
412.13325
 21
104.88
 31
0.0
  0
LINE
  5
4E3
330
1E
100
AcDbEntity
  8
0
100
AcDbLine
 10
412.13325
 20
111.536
 30
0.0
 11
412.13325
 21
118.192
 31
0.0
  0
LINE
  5
4E4
330
1E
100
AcDbEntity
  8
0
100
AcDbLine
 10
412.13325
 20
104.88
 30
0.0
 11
412.13325
 21
111.536
 31
0.0
  0
LINE
  5
4E5
330
1E
100
AcDbEntity
  8
0
100
AcDbLine
 10
412.13325
 20
104.88
 30
0.0
 11
412.13325
 21
98.64
 31
0.0
  0
LINE
  5
4E6
330
1E
100
AcDbEntity
  8
0
100
AcDbLine
 10
504.07125
 20
41.5845
 30
0.0
 11
507.271027060522
 21
38.38427035432
 31
0.0
  0
LINE
  5
4E7
330
1E
100
AcDbEntity
  8
0
100
AcDbLine
 10
504.05525
 20
35.168
 30
0.0
 11
505.82025
 21
36.933
 31
0.0
  0
LINE
  5
4E8
330
1E
100
AcDbEntity
  8
0
100
AcDbLine
 10
503.39325
 20
34.507
 30
0.0
 11
504.05525
 21
35.168
 31
0.0
  0
LINE
  5
4E9
330
1E
100
AcDbEntity
  8
0
100
AcDbLine
 10
503.39325
 20
34.507
 30
0.0
 11
504.10025
 21
33.799
 31
0.0
  0
LINE
  5
4EA
330
1E
100
AcDbEntity
  8
0
100
AcDbLine
 10
539.45525
 20
-0.142
 30
0.0
 11
574.17425
 21
34.577
 31
0.0
  0
LINE
  5
4EB
330
1E
100
AcDbEntity
  8
0
100
AcDbLine
 10
539.45525
 20
-0.142
 30
0.0
 11
574.17425
 21
34.577
 31
0.0
  0
LINE
  5
50E
330
1E
100
AcDbEntity
  8
0
100
AcDbLine
 10
539.45525
 20
-0.142
 30
0.0
 11
574.17425
 21
34.577
 31
0.0
  0
LINE
  5
50F
330
1E
100
AcDbEntity
  8
0
100
AcDbLine
 10
539.45525
 20
-0.142
 30
0.0
 11
574.17425
 21
34.577
 31
0.0
  0
LINE
  5
510
330
1E
100
AcDbEntity
  8
0
100
AcDbLine
 10
504.807749992785
 20
34.506499992785
 30
0.0
 11
539.45525
 21
-0.142
 31
0.0
  0
LINE
  5
511
330
1E
100
AcDbEntity
  8
0
100
AcDbLine
 10
504.807749992785
 20
34.506499992785
 30
0.0
 11
539.45525
 21
-0.142
 31
0.0
  0
LINE
  5
512
330
1E
100
AcDbEntity
  8
0
100
AcDbLine
 10
505.82025
 20
36.933
 30
0.0
 11
508.76125
 21
39.875
 31
0.0
  0
LINE
  5
514
330
1E
100
AcDbEntity
  8
0
100
AcDbLine
 10
574.17425
 20
34.577
 30
0.0
 11
574.81125
 21
35.214
 31
0.0
  0
LINE
  5
51C
330
1E
100
AcDbEntity
  8
0
100
AcDbLine
 10
512.65925
 20
43.7725
 30
0.0
 11
517.07125
 21
48.1848
 31
0.0
  0
LINE
  5
51D
330
1E
100
AcDbEntity
  8
0
100
AcDbLine
 10
508.76125
 20
39.875
 30
0.0
 11
512.65925
 21
43.7725
 31
0.0
  0
LINE
  5
522
330
1E
100
AcDbEntity
  8
0
100
AcDbLine
 10
521.77825
 20
52.8913
 30
0.0
 11
526.48425
 21
57.5978
 31
0.0
  0
LINE
  5
526
330
1E
100
AcDbEntity
  8
0
100
AcDbLine
 10
526.48425
 20
57.5978
 30
0.0
 11
530.89725
 21
62.0102
 31
0.0
  0
LINE
  5
527
330
1E
100
AcDbEntity
  8
0
100
AcDbLine
 10
530.89725
 20
62.0102
 30
0.0
 11
534.79425
 21
65.9078
 31
0.0
  0
LINE
  5
52A
330
1E
100
AcDbEntity
  8
0
100
AcDbLine
 10
533.915471646251
 20
63.614337524411
 30
0.0
 11
535.63725
 21
65.3364
 31
0.0
  0
LINE
  5
52E
330
1E
100
AcDbEntity
  8
0
100
AcDbLine
 10
535.63725
 20
65.3364
 30
0.0
 11
538.44325
 21
68.1422
 31
0.0
  0
LINE
  5
52F
330
1E
100
AcDbEntity
  8
0
100
AcDbLine
 10
532.35525
 20
69.8687
 30
0.0
 11
535.555490948748
 21
66.668911574011
 31
0.0
  0
LINE
  5
530
330
1E
100
AcDbEntity
  8
0
100
AcDbLine
 10
534.79425
 20
65.9078
 30
0.0
 11
537.73625
 21
68.8493
 31
0.0
  0
LINE
  5
531
330
1E
100
AcDbEntity
  8
0
100
AcDbLine
 10
537.73625
 20
68.8493
 30
0.0
 11
539.50125
 21
70.6143
 31
0.0
  0
LINE
  5
533
330
1E
100
AcDbEntity
  8
0
100
AcDbLine
 10
540.162600005556
 20
69.861550005556
 30
0.0
 11
574.81125
 21
35.214
 31
0.0
  0
LINE
  5
534
330
1E
100
AcDbEntity
  8
0
100
AcDbLine
 10
538.44325
 20
68.1422
 30
0.0
 11
540.20825
 21
69.9072
 31
0.0
  0
LINE
  5
535
330
1E
100
AcDbEntity
  8
0
100
AcDbLine
 10
540.16225
 20
71.2761
 30
0.0
 11
540.87025
 21
70.569
 31
0.0
  0
LINE
  5
536
330
1E
100
AcDbEntity
  8
0
100
AcDbLine
 10
539.50125
 20
70.6143
 30
0.0
 11
540.16225
 21
71.2761
 31
0.0
  0
LINE
  5
537
330
1E
100
AcDbEntity
  8
0
100
AcDbLine
 10
540.20825
 20
69.9072
 30
0.0
 11
540.87025
 21
70.569
 31
0.0
  0
LINE
  5
538
330
1E
100
AcDbEntity
  8
0
100
AcDbLine
 10
517.07125
 20
48.1848
 30
0.0
 11
521.77825
 21
52.8913
 31
0.0
  0
LINE
  5
53E
330
1E
100
AcDbEntity
  8
0
100
AcDbLine
 10
504.76225
 20
34.461
 30
0.0
 11
533.915471646251
 21
63.614337524411
 31
0.0
  0
LINE
  5
53F
330
1E
100
AcDbEntity
  8
0
100
AcDbLine
 10
504.10025
 20
33.799
 30
0.0
 11
504.76225
 21
34.461
 31
0.0
  0
LINE
  5
540
330
1E
100
AcDbEntity
  8
0
100
AcDbLine
 10
322.13325
 20
150.536
 30
0.0
 11
322.13325
 21
152.536
 31
0.0
  0
LINE
  5
541
330
1E
100
AcDbEntity
  8
0
100
AcDbLine
 10
320.87325
 20
150.536
 30
0.0
 11
322.13325
 21
150.536
 31
0.0
  0
LINE
  5
542
330
1E
100
AcDbEntity
  8
0
100
AcDbLine
 10
280.22125
 20
150.536
 30
0.0
 11
287.13325
 21
150.536
 31
0.0
  0
LINE
  5
543
330
1E
100
AcDbEntity
  8
0
100
AcDbLine
 10
273.74125
 20
150.536
 30
0.0
 11
280.22125
 21
150.536
 31
0.0
  0
LINE
  5
544
330
1E
100
AcDbEntity
  8
0
100
AcDbLine
 10
278.17325
 20
150.536
 30
0.0
 11
287.13325
 21
150.536
 31
0.0
  0
LINE
  5
545
330
1E
100
AcDbEntity
  8
0
100
AcDbLine
 10
269.77325
 20
150.536
 30
0.0
 11
278.17325
 21
150.536
 31
0.0
  0
LINE
  5
546
330
1E
100
AcDbEntity
  8
0
100
AcDbLine
 10
262.35325
 20
150.536
 30
0.0
 11
269.77325
 21
150.536
 31
0.0
  0
LINE
  5
547
330
1E
100
AcDbEntity
  8
0
100
AcDbLine
 10
256.75325
 20
150.536
 30
0.0
 11
262.35325
 21
150.536
 31
0.0
  0
LINE
  5
548
330
1E
100
AcDbEntity
  8
0
100
AcDbLine
 10
256.75325
 20
150.536
 30
0.0
 11
260.13325
 21
150.536
 31
0.0
  0
LINE
  5
549
330
1E
100
AcDbEntity
  8
0
100
AcDbLine
 10
287.13325
 20
152.536
 30
0.0
 11
296.09325
 21
152.536
 31
0.0
  0
LINE
  5
54A
330
1E
100
AcDbEntity
  8
0
100
AcDbLine
 10
296.09325
 20
152.536
 30
0.0
 11
304.49325
 21
152.536
 31
0.0
  0
LINE
  5
54B
330
1E
100
AcDbEntity
  8
0
100
AcDbLine
 10
304.49325
 20
152.536
 30
0.0
 11
311.91325
 21
152.536
 31
0.0
  0
LINE
  5
54C
330
1E
100
AcDbEntity
  8
0
100
AcDbLine
 10
311.91325
 20
152.536
 30
0.0
 11
317.51325
 21
152.536
 31
0.0
  0
LINE
  5
54D
330
1E
100
AcDbEntity
  8
0
100
AcDbLine
 10
322.13325
 20
152.536
 30
0.0
 11
322.13325
 21
150.536
 31
0.0
  0
LINE
  5
54E
330
1E
100
AcDbEntity
  8
0
100
AcDbLine
 10
317.51325
 20
152.536
 30
0.0
 11
320.87325
 21
152.536
 31
0.0
  0
LINE
  5
54F
330
1E
100
AcDbEntity
  8
0
100
AcDbLine
 10
320.87325
 20
152.536
 30
0.0
 11
322.13325
 21
152.536
 31
0.0
  0
LINE
  5
550
330
1E
100
AcDbEntity
  8
0
100
AcDbLine
 10
278.17325
 20
152.536
 30
0.0
 11
287.13325
 21
152.536
 31
0.0
  0
LINE
  5
551
330
1E
100
AcDbEntity
  8
0
100
AcDbLine
 10
269.77325
 20
152.536
 30
0.0
 11
278.17325
 21
152.536
 31
0.0
  0
LINE
  5
552
330
1E
100
AcDbEntity
  8
0
100
AcDbLine
 10
262.35325
 20
152.536
 30
0.0
 11
269.77325
 21
152.536
 31
0.0
  0
LINE
  5
553
330
1E
100
AcDbEntity
  8
0
100
AcDbLine
 10
253.43325
 20
154.536
 30
0.0
 11
256.83325
 21
154.536
 31
0.0
  0
LINE
  5
554
330
1E
100
AcDbEntity
  8
0
100
AcDbLine
 10
287.13325
 20
153.536
 30
0.0
 11
296.03325
 21
153.536
 31
0.0
  0
LINE
  5
555
330
1E
100
AcDbEntity
  8
0
100
AcDbLine
 10
296.03325
 20
153.536
 30
0.0
 11
304.53325
 21
153.536
 31
0.0
  0
LINE
  5
556
330
1E
100
AcDbEntity
  8
0
100
AcDbLine
 10
304.53325
 20
153.536
 30
0.0
 11
311.83325
 21
153.536
 31
0.0
  0
LINE
  5
557
330
1E
100
AcDbEntity
  8
0
100
AcDbLine
 10
311.83325
 20
153.536
 30
0.0
 11
317.43325
 21
153.536
 31
0.0
  0
LINE
  5
558
330
1E
100
AcDbEntity
  8
0
100
AcDbLine
 10
317.43325
 20
153.536
 30
0.0
 11
320.83325
 21
153.536
 31
0.0
  0
LINE
  5
559
330
1E
100
AcDbEntity
  8
0
100
AcDbLine
 10
320.83325
 20
153.536
 30
0.0
 11
322.13325
 21
153.536
 31
0.0
  0
LINE
  5
55A
330
1E
100
AcDbEntity
  8
0
100
AcDbLine
 10
322.13325
 20
153.536
 30
0.0
 11
322.13325
 21
154.536
 31
0.0
  0
LINE
  5
55B
330
1E
100
AcDbEntity
  8
0
100
AcDbLine
 10
278.23325
 20
153.536
 30
0.0
 11
287.13325
 21
153.536
 31
0.0
  0
LINE
  5
55C
330
1E
100
AcDbEntity
  8
0
100
AcDbLine
 10
269.73325
 20
153.536
 30
0.0
 11
278.23325
 21
153.536
 31
0.0
  0
LINE
  5
55D
330
1E
100
AcDbEntity
  8
0
100
AcDbLine
 10
262.43325
 20
153.536
 30
0.0
 11
269.73325
 21
153.536
 31
0.0
  0
LINE
  5
55E
330
1E
100
AcDbEntity
  8
0
100
AcDbLine
 10
287.13325
 20
154.536
 30
0.0
 11
296.03325
 21
154.536
 31
0.0
  0
LINE
  5
55F
330
1E
100
AcDbEntity
  8
0
100
AcDbLine
 10
296.03325
 20
154.536
 30
0.0
 11
304.53325
 21
154.536
 31
0.0
  0
LINE
  5
560
330
1E
100
AcDbEntity
  8
0
100
AcDbLine
 10
304.53325
 20
154.536
 30
0.0
 11
311.83325
 21
154.536
 31
0.0
  0
LINE
  5
561
330
1E
100
AcDbEntity
  8
0
100
AcDbLine
 10
311.83325
 20
154.536
 30
0.0
 11
317.43325
 21
154.536
 31
0.0
  0
LINE
  5
562
330
1E
100
AcDbEntity
  8
0
100
AcDbLine
 10
317.43325
 20
154.536
 30
0.0
 11
320.83325
 21
154.536
 31
0.0
  0
LINE
  5
563
330
1E
100
AcDbEntity
  8
0
100
AcDbLine
 10
322.13325
 20
154.536
 30
0.0
 11
322.13325
 21
153.536
 31
0.0
  0
LINE
  5
564
330
1E
100
AcDbEntity
  8
0
100
AcDbLine
 10
320.83325
 20
154.536
 30
0.0
 11
322.13325
 21
154.536
 31
0.0
  0
LINE
  5
565
330
1E
100
AcDbEntity
  8
0
100
AcDbLine
 10
278.23325
 20
154.536
 30
0.0
 11
287.13325
 21
154.536
 31
0.0
  0
LINE
  5
566
330
1E
100
AcDbEntity
  8
0
100
AcDbLine
 10
269.73325
 20
154.536
 30
0.0
 11
278.23325
 21
154.536
 31
0.0
  0
LINE
  5
567
330
1E
100
AcDbEntity
  8
0
100
AcDbLine
 10
287.13325
 20
156.036
 30
0.0
 11
289.93325
 21
156.036
 31
0.0
  0
LINE
  5
568
330
1E
100
AcDbEntity
  8
0
100
AcDbLine
 10
289.93325
 20
156.036
 30
0.0
 11
292.63325
 21
156.036
 31
0.0
  0
LINE
  5
569
330
1E
100
AcDbEntity
  8
0
100
AcDbLine
 10
292.63325
 20
156.036
 30
0.0
 11
294.93325
 21
156.036
 31
0.0
  0
LINE
  5
56A
330
1E
100
AcDbEntity
  8
0
100
AcDbLine
 10
294.93325
 20
156.036
 30
0.0
 11
296.63325
 21
156.036
 31
0.0
  0
LINE
  5
56B
330
1E
100
AcDbEntity
  8
0
100
AcDbLine
 10
296.63325
 20
156.036
 30
0.0
 11
297.73325
 21
156.036
 31
0.0
  0
LINE
  5
56C
330
1E
100
AcDbEntity
  8
0
100
AcDbLine
 10
298.13325
 20
156.036
 30
0.0
 11
311.13325
 21
155.536
 31
0.0
  0
LINE
  5
56D
330
1E
100
AcDbEntity
  8
0
100
AcDbLine
 10
297.73325
 20
156.036
 30
0.0
 11
298.13325
 21
156.036
 31
0.0
  0
LINE
  5
56E
330
1E
100
AcDbEntity
  8
0
100
AcDbLine
 10
311.13325
 20
155.536
 30
0.0
 11
322.13325
 21
154.536
 31
0.0
  0
LINE
  5
56F
330
1E
100
AcDbEntity
  8
0
100
AcDbLine
 10
284.33325
 20
156.036
 30
0.0
 11
287.13325
 21
156.036
 31
0.0
  0
LINE
  5
570
330
1E
100
AcDbEntity
  8
0
100
AcDbLine
 10
281.63325
 20
156.036
 30
0.0
 11
284.33325
 21
156.036
 31
0.0
  0
LINE
  5
571
330
1E
100
AcDbEntity
  8
0
100
AcDbLine
 10
279.33325
 20
156.036
 30
0.0
 11
281.63325
 21
156.036
 31
0.0
  0
LINE
  5
572
330
1E
100
AcDbEntity
  8
0
100
AcDbLine
 10
277.63325
 20
156.036
 30
0.0
 11
279.33325
 21
156.036
 31
0.0
  0
LINE
  5
573
330
1E
100
AcDbEntity
  8
0
100
AcDbLine
 10
276.53325
 20
156.036
 30
0.0
 11
277.63325
 21
156.036
 31
0.0
  0
LINE
  5
574
330
1E
100
AcDbEntity
  8
0
100
AcDbLine
 10
276.13325
 20
156.036
 30
0.0
 11
276.53325
 21
156.036
 31
0.0
  0
LINE
  5
575
330
1E
100
AcDbEntity
  8
0
100
AcDbLine
 10
263.13325
 20
155.536
 30
0.0
 11
276.13325
 21
156.036
 31
0.0
  0
LINE
  5
576
330
1E
100
AcDbEntity
  8
0
100
AcDbLine
 10
262.43325
 20
154.536
 30
0.0
 11
269.73325
 21
154.536
 31
0.0
  0
LINE
  5
577
330
1E
100
AcDbEntity
  8
0
100
AcDbLine
 10
256.83325
 20
154.536
 30
0.0
 11
262.43325
 21
154.536
 31
0.0
  0
LINE
  5
578
330
1E
100
AcDbEntity
  8
0
100
AcDbLine
 10
256.83325
 20
153.536
 30
0.0
 11
262.43325
 21
153.536
 31
0.0
  0
LINE
  5
579
330
1E
100
AcDbEntity
  8
0
100
AcDbLine
 10
253.43325
 20
153.536
 30
0.0
 11
256.83325
 21
153.536
 31
0.0
  0
LINE
  5
57A
330
1E
100
AcDbEntity
  8
0
100
AcDbLine
 10
256.75325
 20
152.536
 30
0.0
 11
262.35325
 21
152.536
 31
0.0
  0
LINE
  5
57B
330
1E
100
AcDbEntity
  8
0
100
AcDbLine
 10
253.39325
 20
152.536
 30
0.0
 11
256.75325
 21
152.536
 31
0.0
  0
LINE
  5
57C
330
1E
100
AcDbEntity
  8
0
100
AcDbLine
 10
253.39325
 20
150.536
 30
0.0
 11
256.75325
 21
150.536
 31
0.0
  0
LINE
  5
57D
330
1E
100
AcDbEntity
  8
0
100
AcDbLine
 10
252.13325
 20
150.536
 30
0.0
 11
253.39325
 21
150.536
 31
0.0
  0
LINE
  5
57E
330
1E
100
AcDbEntity
  8
0
100
AcDbLine
 10
252.13325
 20
150.536
 30
0.0
 11
252.13325
 21
152.536
 31
0.0
  0
LINE
  5
583
330
1E
100
AcDbEntity
  8
0
100
AcDbLine
 10
2.47055
 20
550.892
 30
0.0
 11
3.326945789078
 21
543.690790228379
 31
0.0
  0
LINE
  5
5A9
330
1E
100
AcDbEntity
  8
0
100
AcDbLine
 10
44.180879441487
 20
578.241906497142
 30
0.0
 11
42.052167898795
 21
591.069059330276
 31
0.0
  0
LINE
  5
5AA
330
1E
100
AcDbEntity
  8
0
100
AcDbLine
 10
42.052167898795
 20
591.069059330276
 30
0.0
 11
63.764844790744
 21
595.271512922266
 31
0.0
  0
LINE
  5
5AB
330
1E
100
AcDbEntity
  8
0
100
AcDbLine
 10
63.764844790744
 20
595.271512922266
 30
0.0
 11
66.006153373139
 21
584.205051796692
 31
0.0
  0
LINE
  5
5AC
330
1E
100
AcDbEntity
  8
0
100
AcDbLine
 10
66.006153373139
 20
584.205051796692
 30
0.0
 11
57.246790278562
 21
582.641766334697
 31
0.0
  0
ENDSEC
  0
SECTION
  2
OBJECTS
  0
DICTIONARY
  5
C
330
0
100
AcDbDictionary
281
     1
  3
ACAD_GROUP
350
D
  3
ACAD_LAYOUT
350
19
  3
ACAD_MLEADERSTYLE
350
5AF
  3
ACAD_MLINESTYLE
350
16
  3
ACAD_PLOTSETTINGS
350
18
  3
ACAD_PLOTSTYLENAME
350
E
  3
ACAD_SCALELIST
350
587
  3
AcDbVariableDictionary
350
584
  3
DWGPROPS
350
5B2
  0
DICTIONARY
  5
D
102
{ACAD_REACTORS
330
C
102
}
330
C
100
AcDbDictionary
281
     1
  0
DICTIONARY
  5
19
102
{ACAD_REACTORS
330
C
102
}
330
C
100
AcDbDictionary
281
     1
  3
Layout1
350
1D
  3
Model
350
21
  0
DICTIONARY
  5
5AF
102
{ACAD_REACTORS
330
C
102
}
330
C
100
AcDbDictionary
281
     1
  0
DICTIONARY
  5
16
102
{ACAD_REACTORS
330
C
102
}
330
C
100
AcDbDictionary
281
     1
  3
Standard
350
17
  0
DICTIONARY
  5
18
102
{ACAD_REACTORS
330
C
102
}
330
C
100
AcDbDictionary
281
     1
  0
ACDBDICTIONARYWDFLT
  5
E
102
{ACAD_REACTORS
330
C
102
}
330
C
100
AcDbDictionary
281
     1
  3
Normal
350
F
100
AcDbDictionaryWithDefault
340
F
  0
DICTIONARY
  5
587
102
{ACAD_REACTORS
330
C
102
}
330
C
100
AcDbDictionary
281
     1
  3
A0
350
588
  3
A1
350
589
  3
A2
350
58A
  3
A3
350
58B
  3
A4
350
58C
  3
A5
350
58D
  3
A6
350
58E
  3
A7
350
58F
  3
A8
350
590
  3
A9
350
591
  3
B0
350
592
  3
B1
350
593
  3
B2
350
594
  3
B3
350
595
  3
B4
350
596
  3
B5
350
597
  3
B6
350
598
  3
B7
350
599
  3
B8
350
59A
  3
B9
350
59B
  3
C0
350
59C
  3
C1
350
59D
  3
C2
350
59E
  3
C3
350
59F
  3
C4
350
5A0
  3
C5
350
5A1
  3
C6
350
5A2
  3
C7
350
5A3
  3
C8
350
5A4
  3
C9
350
5A5
  3
D0
350
5A6
  3
D1
350
5A7
  3
D2
350
5A8
  0
DICTIONARY
  5
584
102
{ACAD_REACTORS
330
C
102
}
330
C
100
AcDbDictionary
281
     1
  3
CANNOSCALE
350
5B0
  3
DIMASSOC
350
585
  0
XRECORD
  5
5B2
102
{ACAD_REACTORS
330
C
102
}
330
C
100
AcDbXrecord
280
     1
  1
DWGPROPS COOKIE
  2

  3

  4

  6

  7

  8
MARTIN
  9

300
=
301
=
302
=
303
=
304
=
305
=
306
=
307
=
308
=
309
=
 40
0.0
 41
2454780.759200475
 42
2456213.489471748
  1

 90
        0
  0
LAYOUT
  5
1D
102
{ACAD_REACTORS
330
19
102
}
330
19
100
AcDbPlotSettings
  1

  2
hp deskjet 980c series
  4

  6

 40
0.0
 41
0.0
 42
0.0
 43
0.0
 44
0.0
 45
0.0
 46
0.0
 47
0.0
 48
0.0
 49
0.0
140
0.0
141
0.0
142
1.0
143
1.0
 70
   688
 72
     0
 73
     0
 74
     5
  7

 75
    16
147
1.0
148
0.0
149
0.0
100
AcDbLayout
  1
Layout1
 70
     1
 71
     1
 10
0.0
 20
0.0
 11
12.0
 21
9.0
 12
0.0
 22
0.0
 32
0.0
 14
1.000000000000E+20
 24
1.000000000000E+20
 34
1.000000000000E+20
 15
-1.000000000000E+20
 25
-1.000000000000E+20
 35
-1.000000000000E+20
146
0.0
 13
0.0
 23
0.0
 33
0.0
 16
1.0
 26
0.0
 36
0.0
 17
0.0
 27
1.0
 37
0.0
 76
     0
330
1A
  0
LAYOUT
  5
21
102
{ACAD_REACTORS
330
19
102
}
330
19
100
AcDbPlotSettings
  1

  2
hp deskjet 980c series
  4

  6

 40
0.0
 41
0.0
 42
0.0
 43
0.0
 44
0.0
 45
0.0
 46
0.0
 47
0.0
 48
0.0
 49
0.0
140
0.0
141
0.0
142
1.0
143
1.0
 70
  1712
 72
     0
 73
     0
 74
     0
  7

 75
     0
147
1.0
148
0.0
149
0.0
100
AcDbLayout
  1
Model
 70
     1
 71
     0
 10
0.0
 20
0.0
 11
12.0
 21
9.0
 12
0.0
 22
0.0
 32
0.0
 14
0.0
 24
0.0
 34
0.0
 15
574.81125
 25
595.271512922266
 35
0.0
146
0.0
 13
0.0
 23
0.0
 33
0.0
 16
1.0
 26
0.0
 36
0.0
 17
0.0
 27
1.0
 37
0.0
 76
     0
330
1E
331
586
  0
MLINESTYLE
  5
17
102
{ACAD_REACTORS
330
16
102
}
330
16
100
AcDbMlineStyle
  2
STANDARD
 70
     0
  3

 62
   256
 51
90.0
 52
90.0
 71
     2
 49
0.5
 62
   256
  6
BYLAYER
 49
-0.5
 62
   256
  6
BYLAYER
  0
ACDBPLACEHOLDER
  5
F
102
{ACAD_REACTORS
330
E
102
}
330
E
  0
SCALE
  5
588
102
{ACAD_REACTORS
330
587
102
}
330
587
100
AcDbScale
 70
     0
300
1:1
140
1.0
141
1.0
290
     1
  0
SCALE
  5
589
102
{ACAD_REACTORS
330
587
102
}
330
587
100
AcDbScale
 70
     0
300
1:2
140
1.0
141
2.0
290
     0
  0
SCALE
  5
58A
102
{ACAD_REACTORS
330
587
102
}
330
587
100
AcDbScale
 70
     0
300
1:4
140
1.0
141
4.0
290
     0
  0
SCALE
  5
58B
102
{ACAD_REACTORS
330
587
102
}
330
587
100
AcDbScale
 70
     0
300
1:5
140
1.0
141
5.0
290
     0
  0
SCALE
  5
58C
102
{ACAD_REACTORS
330
587
102
}
330
587
100
AcDbScale
 70
     0
300
1:8
140
1.0
141
8.0
290
     0
  0
SCALE
  5
58D
102
{ACAD_REACTORS
330
587
102
}
330
587
100
AcDbScale
 70
     0
300
1:10
140
1.0
141
10.0
290
     0
  0
SCALE
  5
58E
102
{ACAD_REACTORS
330
587
102
}
330
587
100
AcDbScale
 70
     0
300
1:16
140
1.0
141
16.0
290
     0
  0
SCALE
  5
58F
102
{ACAD_REACTORS
330
587
102
}
330
587
100
AcDbScale
 70
     0
300
1:20
140
1.0
141
20.0
290
     0
  0
SCALE
  5
590
102
{ACAD_REACTORS
330
587
102
}
330
587
100
AcDbScale
 70
     0
300
1:30
140
1.0
141
30.0
290
     0
  0
SCALE
  5
591
102
{ACAD_REACTORS
330
587
102
}
330
587
100
AcDbScale
 70
     0
300
1:40
140
1.0
141
40.0
290
     0
  0
SCALE
  5
592
102
{ACAD_REACTORS
330
587
102
}
330
587
100
AcDbScale
 70
     0
300
1:50
140
1.0
141
50.0
290
     0
  0
SCALE
  5
593
102
{ACAD_REACTORS
330
587
102
}
330
587
100
AcDbScale
 70
     0
300
1:100
140
1.0
141
100.0
290
     0
  0
SCALE
  5
594
102
{ACAD_REACTORS
330
587
102
}
330
587
100
AcDbScale
 70
     0
300
2:1
140
2.0
141
1.0
290
     0
  0
SCALE
  5
595
102
{ACAD_REACTORS
330
587
102
}
330
587
100
AcDbScale
 70
     0
300
4:1
140
4.0
141
1.0
290
     0
  0
SCALE
  5
596
102
{ACAD_REACTORS
330
587
102
}
330
587
100
AcDbScale
 70
     0
300
8:1
140
8.0
141
1.0
290
     0
  0
SCALE
  5
597
102
{ACAD_REACTORS
330
587
102
}
330
587
100
AcDbScale
 70
     0
300
10:1
140
10.0
141
1.0
290
     0
  0
SCALE
  5
598
102
{ACAD_REACTORS
330
587
102
}
330
587
100
AcDbScale
 70
     0
300
100:1
140
100.0
141
1.0
290
     0
  0
SCALE
  5
599
102
{ACAD_REACTORS
330
587
102
}
330
587
100
AcDbScale
 70
     0
300
1/128" = 1'-0"
140
0.0078125
141
12.0
290
     0
  0
SCALE
  5
59A
102
{ACAD_REACTORS
330
587
102
}
330
587
100
AcDbScale
 70
     0
300
1/64" = 1'-0"
140
0.015625
141
12.0
290
     0
  0
SCALE
  5
59B
102
{ACAD_REACTORS
330
587
102
}
330
587
100
AcDbScale
 70
     0
300
1/32" = 1'-0"
140
0.03125
141
12.0
290
     0
  0
SCALE
  5
59C
102
{ACAD_REACTORS
330
587
102
}
330
587
100
AcDbScale
 70
     0
300
1/16" = 1'-0"
140
0.0625
141
12.0
290
     0
  0
SCALE
  5
59D
102
{ACAD_REACTORS
330
587
102
}
330
587
100
AcDbScale
 70
     0
300
3/32" = 1'-0"
140
0.09375
141
12.0
290
     0
  0
SCALE
  5
59E
102
{ACAD_REACTORS
330
587
102
}
330
587
100
AcDbScale
 70
     0
300
1/8" = 1'-0"
140
0.125
141
12.0
290
     0
  0
SCALE
  5
59F
102
{ACAD_REACTORS
330
587
102
}
330
587
100
AcDbScale
 70
     0
300
3/16" = 1'-0"
140
0.1875
141
12.0
290
     0
  0
SCALE
  5
5A0
102
{ACAD_REACTORS
330
587
102
}
330
587
100
AcDbScale
 70
     0
300
1/4" = 1'-0"
140
0.25
141
12.0
290
     0
  0
SCALE
  5
5A1
102
{ACAD_REACTORS
330
587
102
}
330
587
100
AcDbScale
 70
     0
300
3/8" = 1'-0"
140
0.375
141
12.0
290
     0
  0
SCALE
  5
5A2
102
{ACAD_REACTORS
330
587
102
}
330
587
100
AcDbScale
 70
     0
300
1/2" = 1'-0"
140
0.5
141
12.0
290
     0
  0
SCALE
  5
5A3
102
{ACAD_REACTORS
330
587
102
}
330
587
100
AcDbScale
 70
     0
300
3/4" = 1'-0"
140
0.75
141
12.0
290
     0
  0
SCALE
  5
5A4
102
{ACAD_REACTORS
330
587
102
}
330
587
100
AcDbScale
 70
     0
300
1" = 1'-0"
140
1.0
141
12.0
290
     0
  0
SCALE
  5
5A5
102
{ACAD_REACTORS
330
587
102
}
330
587
100
AcDbScale
 70
     0
300
1-1/2" = 1'-0"
140
1.5
141
12.0
290
     0
  0
SCALE
  5
5A6
102
{ACAD_REACTORS
330
587
102
}
330
587
100
AcDbScale
 70
     0
300
3" = 1'-0"
140
3.0
141
12.0
290
     0
  0
SCALE
  5
5A7
102
{ACAD_REACTORS
330
587
102
}
330
587
100
AcDbScale
 70
     0
300
6" = 1'-0"
140
6.0
141
12.0
290
     0
  0
SCALE
  5
5A8
102
{ACAD_REACTORS
330
587
102
}
330
587
100
AcDbScale
 70
     0
300
1'-0" = 1'-0"
140
12.0
141
12.0
290
     0
  0
DICTIONARYVAR
  5
5B0
102
{ACAD_REACTORS
330
584
102
}
330
584
100
DictionaryVariables
280
     0
  1
1:1
  0
DICTIONARYVAR
  5
585
102
{ACAD_REACTORS
330
584
102
}
330
584
100
DictionaryVariables
280
     0
  1
1
  0
ENDSEC
  0
SECTION
  2
THUMBNAILIMAGE
 90
    16364
310
28000000B40000005500000001000800000000000000000000000000000000000000000000000000FFFFFF000000FF0000FFFF0000FF0000FFFF0000FF000000FF00FF000000000080808000C0C0C0000000FF007F7FFF000000A5005252A50000007F003F3F7F0000004C0026264C000000260013132600003FFF007F9FFF
310
000029A5005267A500001F7F003F4F7F0000134C00262F4C000009260013172600007FFF007FBFFF000052A500527CA500003F7F003F5F7F0000264C0026394C0000132600131C260000BFFF007FDFFF00007CA5005291A500005F7F003F6F7F0000394C0026424C00001C26001321260000FFFF007FFFFF0000A5A50052A5
310
A500007F7F003F7F7F00004C4C00264C4C00002626001326260000FFBF007FFFDF0000A57C0052A59100007F5F003F7F6F00004C3900264C420000261C001326210000FF7F007FFFBF0000A5520052A57C00007F3F003F7F5F00004C2600264C39000026130013261C0000FF3F007FFF9F0000A5290052A56700007F1F003F
310
7F4F00004C1300264C2F00002609001326170000FF00007FFF7F0000A5000052A55200007F00003F7F3F00004C0000264C260000260000132613003FFF00009FFF7F0029A5000067A552001F7F00004F7F3F00134C00002F4C260009260000172613007FFF0000BFFF7F0052A500007CA552003F7F00005F7F3F00264C0000
310
394C2600132600001C261300BFFF0000DFFF7F007CA5000091A552005F7F00006F7F3F00394C0000424C26001C26000021261300FFFF0000FFFF7F00A5A50000A5A552007F7F00007F7F3F004C4C00004C4C26002626000026261300FFBF0000FFDF7F00A57C0000A59152007F5F00007F6F3F004C3900004C422600261C00
310
0026211300FF7F0000FFBF7F00A5520000A57C52007F3F00007F5F3F004C2600004C39260026130000261C1300FF3F0000FF9F7F00A5290000A56752007F1F00007F4F3F004C1300004C2F26002609000026171300FF000000FF7F7F00A5000000A55252007F0000007F3F3F004C0000004C2626002600000026131300FF00
310
3F00FF7F9F00A5002900A55267007F001F007F3F4F004C0013004C262F002600090026131700FF007F00FF7FBF00A5005200A5527C007F003F007F3F5F004C0026004C2639002600130026131C00FF00BF00FF7FDF00A5007C00A55291007F005F007F3F6F004C0039004C26420026001C0026132100FF00FF00FF7FFF00A5
310
00A500A552A5007F007F007F3F7F004C004C004C264C002600260026132600BF00FF00DF7FFF007C00A5009152A5005F007F006F3F7F0039004C0042264C001C002600211326007F00FF00BF7FFF005200A5007C52A5003F007F005F3F7F0026004C0039264C00130026001C1326003F00FF009F7FFF002900A5006752A500
310
1F007F004F3F7F0013004C002F264C000900260017132600000000002D2D2D005B5B5B0089898900B7B7B700B3B3B30000000000000000000000000000000000000000000000000000000000000000000000000000000000000000000000000000000000000000000000000000000000000000000000000000000000000000
310
00000000000000000000000000000000000000000000000000000000000000000000000000000000000000000000070000000000000000000000000000000000000000000000000000000000000000000000000000000000000000000000000000000000000000000000000000000000000000000000000000000000000000
310
00000000000000000000000000000000000000000000000000000000000000000000000000000000000000000000000000000000000000000000000000000000000000000000000000000000000000000000000000000000000000000000000000000700070000000000000000000000000000000000000000000000000000
310
00000000000000000000000000000000000000000000000000000000000000000000000000000000000000000000000000000000000000000000000000000000000000000000000000000000000000000000000000000000000000000000000000000000000000000000000000000000000000000000000000000000000000
310
00000000000000000000000000000000000000000000000700000007000000000000000000000000000000000000000000000000000000000000000000000000000000000000000000000000000000000000000000000000000000000000000000000000000000000000000000000000000000000000000000000000000000
310
00000000000000000000000000000000000000000000000000000000000000000000000000000000000000000000000000000000000000000000000000000000000000000000000000000007000000000007000000000000000000000000000000000000000000000000000000000000000000000000000000000000000000
310
00000000000000000000000000000000000000000000000000000000000000000000000000000000000000000000000000000000000000000000000000000000000000000000000000000000000000000000000000000000000000000007070707070707070707070707070707070700000000000000000000000000000000
310
07000000000000000700000000000000000000000000000000000000000000000000000000000000000000000000000000000000000000000000000000000000000000000000000000000000000000000000000000000000000000000000000000000000000000000000000000000000000000000000000000000000000000
310
00000000000000000000000000000000000000070000000000000000000000000000000007000000000000000000000000000000070700000000000000000700000000000000000000000000000000000000000000000000000000000000000000000000000000000000000000000000000000000000000000000000000000
310
00000000000000000000000000000000000000000000000000000000000000000000000000000000000000000000000000000000000000000000000000000000000000000000000007000000000000000000000000000000000700000000000000000000000000000007070700000000000007000000000000000000000000
310
00000000000000000000000000000000000000000000000000000000000000000000000000000000000000000000000000000000000000000000000000000000000000000000000000000000000000000000000000000000000000000000000000000000000000000000000000000000000000000000000000000000000700
310
00000000000000000000000000000007000000000000000000000000000007000007070000000007000000000000000000000000000000000000000000000000000000000000000000000000000000000000000000000000000000000000000000000000000000000000000000000000000000000000000000000000000000
310
00000000000000000000000000000000000000000000000000000000000000000000000000000000000000000000000000000007070707070707070707070707070707070700000000000000000000000000070000000007070000070000000000000000000000000000000000000000000000000000000000000000000000
310
00000000000000000000000000000000000000000000000000000000000000000000000000000000000000000000000000000000000000000000000000000000000000000000000000000000000000000000000000000000000000000000000000000000000000000707070707070700000000070707070707070000000000
310
00000000000000070000000000000707070000000000000000000000000000000000000000000000000000000000000000000000000000000000000000000000000000000000000000000000000000000000000000000000000000000000000000000000000000000000000000000000000000000000000000000000000000
310
00000000000000000000000000000000000000000000000000000000000007000007000007000000000700000700000700000000000000000000000700000000000000070700000000000000000000000000000000000000000000000000000000000000000000000000000000000000000000000000000000000000000000
310
00000000000000000000000000000000000000000000000000000000000000000000000000000000000000000000000000000000000000000000000000000000000000000000000000000000000000000000070707070707070707000000070707070707070700000000000000000007000000000000000700000000000000
310
00000000000000000000000000000000000000000000000000000000000000000000000000000000000000000000000000000000000000000000000000000000000000000000000000000000000000000000000000000000000000000000000000000000000000000000000000000000000000000000000000000000000000
310
07070700000000000707070707070707070000000700000000000707000707070700000007000000000000000700000000000000000000000000000000000000000000000000000000000000000000000000000000000000000000000000000000000000000000000000000000000000000000000000000000000000000000
310
00000000000000000000000000000000000000000000000000000000000000000000000000000000070707070707070707070707070700070707070707070700000000000700000000000700000000000707070700070707070000000000000007000000000000000000000000000000000000000000000000000000000000
310
00000000000000000000000000000000000000000000000000000000000000000000000000000000000000000000000000000000000000000000000000000000000000000000000000000000000000000000000000000000000000070700000000000000000000070000070007000007000000070000000000070000000000
310
07000000000000000707000700000000000000000007000000000000000000000000000000000000000000000000000000000000000000000000000000000000000000000000000000000000000000000000000000000000000000000000000000000000000000000000000000000000000000000000000000000000000000
310
00000000000000000000000000000000070000000000000000000000000700000707070000070000000700000000000700000000000700000000000000070707070000000000000000070000000000000000000000000000000000000000000000000000000000000000000000000000000000000000000000000000000000
310
00000000000000000000000000000000000000000000000000000000000000000000000000000000000000000000000000000000000000000000000000000000000000000700000000000000000007070707070707070707070707000000070700000000070000000000000700000000000007070707000000000000000700
310
00000000000000000000000000000000000000000000000000000000000000000000000000000000000000000000000000000000000000000000000000000000000000000000000000000000000000000000000000000000000000000000000000000000000000000000000000000000000000000000000007000000000000
310
00000000070000000000000700070007070000000707000000000700000000000000070700000000070700070000000000070700000000000000000000000000000000000000000000000000000000000000000000000000000000000000000000000000000000000000000000000000000000000000000000000000000000
310
00000000000000000000000000000000000000000000000000000000000000000000000000000000000000000000070000000000070707070707070707070707070707070707070707070707070707070700000000000000000707070707070707070707070700000000000000000000000000000000000000000000000000
310
00000000000000000000000000000000000000000000000000000000000000000000000000000000000000000000000000000000000000000000000000000000000000000000000000000000000000000000000000000000000000000000000000000007000000000007000000000000000000000007070700000000070707
310
07070707070707070000000000000000000000070707070000000000000000000000000000000000000000000000000000000000000000000000000000000000000000000000000000000000000000000000000000000000000000000000000000000000000000000000000000000000000000000000000000000000000000
310
00000000000000000000000000000000000000000000000000070000000000070000000000000000000000000000000000000707070707070707070707000000000000000000000000000000000000000000000000000000000000000000000000000000000000000000000000000000000000000000000000000000000000
310
00000000000000000000000000000000000000000000000000000000000000000000000000000000000000000000000000000000000000000000000000000000000000000000000000000000000700000000000007000000000000000000000000000000000000070707070707070707070700000000000000000000000000
310
00000000000000000000000000000000000000000000000000000000000000000000000000000000000000000000000000000000000000000000000000000000000000000000000000000000000000000000000000000000000000000000000000000000000000000000000000000000000000000000000000000000000000
310
00000007000000000007000000000000000000000000000000000000000007070707070707070700000000000000000000000000000000000000000000000000000000000000000000000000000000000000000000000000000000000000000000000000000000000000000000000000000000000000000000000000000000
310
00000000000000000000000000000000000000000000000000000000000000000000000000000000000000000000000000000000000000000700000000000700000000000000000000000000000000000000000000000000000000000000000000000000000000000000000000000000000000000000000000000000000000
310
00000000000000000000000000000000000000000000000000000000000000000000000000000000000000000000000000000000000000000000000000000000000000000000000000000000000000000000000000000000000000000000000000000000000000000000000000070000000000070000000000000000000000
310
00000000000000000000000000000000000000000000000000000000000000000000000000000000000000000000000000000000000000000000000000000000000000000000000000000000000000000000000000000000000000000000000000000000000000000000000000000000000000000000000000000000000000
310
00000000000000000000000000000000000000000000000000000000000000000000000700000000000700000000000000000000000000000000000000000000000000000000000000000000000000000000000000000000000000000000000000000000000000000000000000000000000000000000000000000000000000
310
00000000000000000000000000000000000000000000000000000000000000000000000000000000000000000000000000000000000000000000000000000000000000000000000000000000000000000000000000000007000000000000070000000000000000000000000000000000000000000000000000000000000000
310
00000000000000000000000000000000000000000000000000000000000000000000000000000000000000000000000000000000000000000000000000000000000000000000000000000000000000000000000000000000000000000000000000000000000000000000000000000000000000000000000000000000000000
310
00000000000000000000000000070000000000070000000000000000000000000000000000000000000000000000000000000000000000000000000000000000000000000000000000000000000000000000000000000000000000000000000000000000000000000000000000000000000000000000000000000000000000
310
00000000000000000000000000000000000000000000000000000000000000000000000000000000000000000000000000000000000000000000000000000000000007000000000007000000000000000000000000000000000000000000000000000000000000000000000000000000000000000000000000000000000000
310
00000000000000000000000000000000000000000000000000000000000000000000000000000000000000000000000000000000000000000000000000000000000000000000000000000000000000000000000000000000000000000000000000000000000000000000000000000000000000000000000700000000000700
310
00000000000000000000000000000000000000000000000000000000000000000000000000000000000000000000000000000000000000000000000000000000000000000000000000000000000000000000000000000000000000000000000000000000000000000000000000000000000000000000000000000000000000
310
00000000000000000000000000000000000000000000000000000000000000000000000000000000000000000007000000000007000000000000000000000000000000000000000000000000000000000000000000000000000000000000000000000000000000000000000000000000000000000000000000000000000000
310
00000000000000000000000000000000000000000000000000000000000000000000000000000000000000000000000000000000000000000000000000000000000000000000000000000000000000000000000000000000000000000000000000000700000000000700000000000000000000000000000000000000000000
310
00000000000000000000000000000000000000000000000000000000000000000000000000000000000000000000000000000000000000000000000000000000000000000000000000000000000000000000000000000000000000000000000000000000000000000000000000000000000000000000000000000000000000
310
00000000000000000000000000000000000000000000000700000000000007000000000000000000000000000000000000000000000000000000000000000000000000000000000000000000000000000000000000000000000000000000000000000000000000000000000000000000000000000000000000000000000000
310
00000000000000000000000000000000000000000000000000000000000000000000000000000000000000000000000000000000000000000000000000000000000000000000000000000000070000000000070000000000000000000000000000000000000000000000000000000000000000000000000000000000000000
310
00000000000000000000000000000000000000000000000000000000000000000000000000000000000000000000000000000000000000000000000000000000000000000000000000000000000000000000000000000000000000000000000000000000000000000000000000000000000000000000000000000000000000
310
00000700000000000700000000000000000000000000000000000000000000000000000000000000000000000000000000000000000000000000000000000000000000000000000000000000000000000000000000000000000000000000000000000000000000000000000000000000000000000000000000000000000000
310
00000000000000000000000000000000000000000000000000000000000000000000000000000000000000000000000000000000000000070707070707070000000000000000000000000000000000000000000000000000000000000000000000000000000000000000000000000000000000000000000000000000000000
310
00000000000000000000000000000000000000000000000000000000000000000000000000000000000000000000000000000000000000000000000000000000000000000000000000000000000000000000000000000000000000000000000000000000000000000000000007000000000000000000000000000000000000
310
00000000000000000000000000000000000000000000000000000000000000000000000000000000000000000000000000000000000000000000000000000000000000000000000000000000000000000000000000000000000000000000000000000000000000000000000000000000000000000000000000000000000000
310
00000000000000000000000000000000000000000000000000000000000000000007000000000000070000000000000000000000000000000000000000000000000000000000000000000000000000000000000000000000000000000000000000000000000000000000000000000000000000000000000000000000000000
310
00000000000000000000000000000000000000000000000000000000000000000000000000000000000000000000000000000000000000000000000000000000000000000000000000000000000000000000000000000700000000000700000000000000000000000000000000000000000000000000000000000000000000
310
00000000000000000000000000000000000000000000000000000000000000000000000000000000000000000000000000000000000000000000000000000000000000000000000000000000000000000000000000000000000000000000000000000000000000000000000000000000000000000000000000000000000000
310
00000000000000000000000007070707070707000000000000000000000000000000000000000000000000000000000000000000000000000000000000000000000000000000000000000000000000000000000000000000000000000000000000000000000000000000000000000000000000000000000000000000000000
310
00000000000000000000000000000000000000000000000000000000000000000000000000000000000000000000000000000000000000000000000000000000000700000000000700000000000000000000000000000000000000000000000000000000000000000000000000000000000000000000000000000000000000
310
00000000000000000000000000000000000000000000000000000000000000000000000000000000000000000000000000000000000000000000000000000000000000000000000000000000000000000000000000000000000000000000000000000000000000000000000000000000000000000000070700000007000000
310
00000000000000000000000000000000000000000000000000000000000000000000000000000000000000000000000000000000000000000000000000000000000000000000000000000000000000000000000000000000000000000000000000000000000000000000000000000000000000000000000000000000000000
310
00000000000000000000000000000000000000000000000000000000000000000000000000000000000000000707070707070000000000000000000000000000000000000000000000000000000000000000000000000000000000000000000000000000000000000000000000000000000000000000000000000000000000
310
00000000000000000000000000000000000000000000000000000000000000000000000000000000000000000000000000000000000000000000000000000000000000000000000000000000000000000000000000000000000000000000000000070000000007000000000000000000000000000000000000000000000000
310
00000000000000000000000000000000000000000000000000000000000000000000000000000000000000000000000000000000000000000000000000000000000000000000000000000000000000000000000000000000000000000000000000000000000000000000000000000000000000000000000000000000000000
310
00000000000000000000000000000000000000000000070000000000070000000000000000000000000000000000000000000000000000000000000000000000000000000000000000000000000000000000000000000000000000000000000000000000000000000000000000000000000000000000000000000000000000
310
00000000000000000000000000000000000000000000000000000000000000000000000000000000000000000000000000000000000000000000000000000000000000000000000000000007000000000700000000000000000000000000000000000000000000000000000000000000000000000000000000000000000000
310
00000000000000000000000000000000000000000000000000000000000000000000000000000000000000000000000000000000000000000000000000000000000000000000000000000000000000000000000000000000000000000000000000000000000000000000000000000000000000000000000000000000000000
310
00070000000007000000000000000000000000000000000000000000000000000000000000000000000000000000000000000000000000000000000000000000000000000000000000000000000000000000000000000000000000000000000000000000000000000000000000000000000000000000000000000000000000
310
00000000000000000000000000000000000000000000000000000000000000000000000000000000000000000000000000000000000007000000000700000000000000000000000000000000000000000000000000000000000000000000000000000000000000000000000000000000000000000000000000000000000000
310
00000000000000000000000000000000000000000000000000000000000000000000000000000000000000000000000000000000000000000000000000000000000000000000000000000000000000000000000000000000000000000000000000000000000000000000000700000000070000000000000000000000000000
310
00000000000000000000000000000000000000000000000000000000000000000000000000000000000000000000000000000000000000000000000000000000000000000000000000000000000000000000000000000000000000000000000000000000000000000000000000000000000000000000000000000000000000
310
00000000000000000000000000000000000000000000000000000000000000000007000000000700000000000000000000000000000000000000000000000000000000000000000000000000000000000000000000000000000000000000000000000000000000000000000000000000000000000000000000000000000000
310
00000000000000000000000000000000000000000000000000000000000000000000000000000000000000000000000000000000000000000000000000000000000000000000000000000000000000000000000000070000000000070000000000000000000000000000000000000000000000000000000000000000000000
310
00000000000000000000000000000000000000000000000000000000000000000000000000000000000000000000000000000000000000000000000000000000000000000000000000000000000000000000000000000000000000000000000000000000000000000000000000000000000000000000000000000000000000
310
00000000000000000000000700000000070000000000000000000000000000000000000000000000000000000000000000000000000000000000000000000000000000000000000000000000000000000000000000000000000000000000000000000000000000000000000000000000000000000000000000000000000000
310
00000000000000000000000000000000000000000000000000000000000000000000000000000000000000000000000000000000000000000000000000000000070000000007000000000000000000000000000000000000000000000000000000000000000000000000000000000000000000000000000000000000000000
310
00000000000000000000000000000000000000000000000000000000000000000000000000000000000000000000000000000000000000000000000000000000000000000000000000000000000000000000000000000000000000000000000000000000000000000000000000000000000000000007000000000700000000
310
00000000000000000000000000000000000000000000000000000000000000000000000000000000000000000000000000000000000000000000000000000000000000000000000000000000000000000000000000000000000000000000000000000000000000000000000000000000000000000000000000000000000000
310
00000000000000000000000000000000000000000000000000000000000000000000000000000000000000070000000007000000000000000000000000000000000000000000000000000000000000000000000000000000000000000000000000000000000000000000000000000000000000000000000000000000000000
310
00000000000000000000000000000000000000000000000000000000000000000000000000000000000000000000000000000000000000000000000000000000000000000000000000000000000000000000000000000000000000000000000007000000000700000000000000000000000000000000000000000000000000
310
00000000000000000000000000000000000000000000000000000000000000000000000000000000000000000000000000000000000000000000000000000000000000000000000000000000000000000000000000000000000000000000000000000000000000000000000000000000000000000000000000000000000000
310
00000000000000000000000000000000000000000007000000000007000000000000000000000000000000000000000000000000000000000000000000000000000000000000000000000000000000000000000000000000000000000000000000000000000000000000000000000000000000000000000000000000000000
310
00000000000000000000000000000000000000000000000000000000000000000000000000000000000000000000000000000000000000000000000000000000000000000000000000000700000000070000000000000000000000000000000000000000000000000000000000000000000000000000000000000000000000
310
00000000000000000000000000000000000000000000000000000000000000000000000000000000000000000000000000000000000000000000000000000000000000000000000000000000000000000000000000000000000000000000000000000000000000000000000000000000000000000000000000000000000000
310
07070700000700000000000000000000000000000000000000000000000000000000000000000000000000000000000000000000000000000000000000000000000000000000000000000000000000000000000000000000000000000000000000000000000000000000000000000000000000000000000000000000000000
310
00000000000000000000000000000000000000000000000000000000000000000000000000000000000000000000000000000000000700070707070000000000000000000000000000000000000000000000000000000000000000000000000000000000000000000000000000000000000000000000000000000000000000
310
00000000000000000000000000000000000000000000000000000000000000000000000000000000000000000000000000000000000000000000000000000000000000000000000000000000000000000000000000000000000000000000000000000000000000000000070000000007000000000000000000000000000000
310
00000000000000000000000000000000000000000000000000000000000000000000000000000000000000000000000000000000000000000000000000000000000000000000000000000000000000000000000000000000000000000000000000000000000000000000000000000000000000000000000000000000000000
310
00000000000000000000000000000000000000000000000000000000000000070000000000070000000000000000000000000000000000000000000000000000000000000000000000000000000000000000000000000000000000000000000000000000000000000000000000000000000000000000000000000000000000
310
00000000000000000000000000000000000000000000000000000000000000000000000000000000000000000000000000000000000000000000000000000000000000000000000000000000000000000000000007000000000007000000000000000000000000000000000000000000000000000000000000000000000000
310
00000000000000000000000000000000000000000000000000000000000000000000000000000000000000000000000000000000000000000000000000000000000000000000000000000000000000000000000000000000000000000000000000000000000000000000000000000000000000000000000000000000000000
310
00000000000000000000070000000000070000000000000000000000000000000000000000000000000000000000000000000000000000000000000000000000000000000000000000000000000000000000000000000000000000000000000000000000000000000000000000000000000000000000000000000000000000
310
00000000000000000000000000000000000000000000000000000000000000000000000000000000000000000000000000000000000000000000000000000007000000000007000000000000000000000000000000000000000000000000000000000000000000000000000000000000000000000000000000000000000000
310
00000000000000000000000000000000000000000000000000000000000000000000000000000000000000000000000000000000000000000000000000000000000000000000000000000000000000000000000000000000000000000000000000000000000000000000000000000000000000000700000000070000000000
310
00000000000000000000000000000000000000000000000000000000000000000000000000000000000000000000000000000000000000000000000000000000000000000000000000000000000000000000000000000000000000000000000000000000000000000000000000000000000000000000000000000000000000
310
00000000000000000000000000000000000000000000000000000000000000000000000000000000000007000000000700000000000000000000000000000000000000000000000000000000000000000000000000000000000000000000000000000000000000000000000000000000000000000000000000000000000000
310
00000000000000000000000000000000000000000000000000000000000000000000000000000000000000000000000000000000000000000000000000000000000000000000000000000000000000000000000000000000000000000000070000000000070000000000000000000000000000000000000000000000000000
310
00000000000000000000000000000000000000000000000000000000000000000000000000000000000000000000000000000000000000000000000000000000000000000000000000000000000000000000000000000000000000000000000000000000000000000000000000000000000000000000000000000000000000
310
00000000000000000000000000000000000000000700000000000700000000000000000000000000000000000000000000000000000000000000000000000000000000000000000000000000000000000000000000000000000000000000000000000000000000000000000000000000000000000000000000000000000000
310
00000000000000000000000000000000000000000000000000000000000000000000000000000000000000000000000000000000000000000000000000000000000000000000000000070700000000070007070707000000000000000000000000000000000000000000000000000000000000000000000000000000000000
310
00000000000000000000000000000000000000000000000000000000000000000000000000000000000000000000000000000000000000000000000000000000000000000000000000000000000000000000000000000000000000000000000000000000000000000000000000000000000000000000000000000000000007
310
00070707000707000000070000000000000000000000000000000000000000000000000000000000000000000000000000000000000000000000000000000000000000000000000000000000000000000000000000000000000000000000000000000000000000000000000000000000000000000000000000000000000000
310
00000000000000000000000000000000000000000000000000000000000000000000000000000000000000000000000000000000070000000707070700000007000000000000000000000000000000000000000000000000000000000000000000000000000000000000000000000000000000000000000000000000000000
310
00000000000000000000000000000000000000000000000000000000000000000000000000000000000000000000000000000000000000000000000000000000000000000000000000000000000000000000000000000000000000000000000000000000000000000707070700070707000000000007000000000000000000
310
00000000000000000000000000000000000000000000000000000000000000000000000000000000000000000000000000000000000000000000000000000000000000000000000000000000000000000000000000000000000000000000000000000000000000000000000000000000000000000000000000000000000000
310
00000000000000000000000000000000000000000000000000000000000007070000070707070000000000070000000000000000000000000000000000000000000000000000000000000000000000000000000000000000000000000000000000000000000000000000000000000000000000000000000000000000000000
310
00000000000000000000000000000000000000000000000000000000000000000000000000000000000000000000000000000000000000000000000000000000000000000000000000000000000000000000000700000007070707000000000700000000000000000000000000000000000000000000000000000000000000
310
00000000000000000000000000000000000000000000000000000000000000000000000000000000000000000000000000000000000000000000000000000000000000000000000000000000000000000000000000000000000000000000000000000000000000000000000000000000000000000000000000000000000000
310
00000000000000000007000000000707070000000007000000000000000000000000000000000000000000000000000000000000000000000000000000000000000000000000000000000000000000000000000000000000000000000000000000000000000000000000000000000000000000000000000000000000000000
310
00000000000000000000000000000000000000000000000000000000000000000000000000000000000000000000000000000000000000000000000000000707000007070707000000000700000000000000000000000000000000000000000000000000000000000000000000000000000000000000000000000000000000
310
00000000000000000000000000000000000000000000000000000000000000000000000000000000000000000000000000000000000000000000000000000000000000000000000000000000000000000000000000000000000000000000000000000000000000000000000000000000000000070707070700070700000000
310
07000000000000000000000000000000000000000000000000000000000000000000000000000000000000000000000000000000000000000000000000000000000000000000000000000000000000000000000000000000000000000000000000000000000000000000000000000000000000000000000000000000000000
310
00000000000000000000000000000000000000000000000000000000000000000000000000000000000000070007070700000000000700000000000000000000000000000000000000000000000000000000000000000000000000000000000000000000000000000000000000000000000000000000000000000000000000
310
00000000000000000000000000000000000000000000000000000000000000000000000000000000000000000000000000000000000000000000000000000000000000000000000000000000000000000000000000000000000000000000000007000707070000000007000000000000000000000000000000000000000000
310
00000000000000000000000000000000000000000000000000000000000000000000000000000000000000000000000000000000000000000000000000000000000000000000000000000000000000000000000000000000000000000000000000000000000000000000000000000000000000000000000000000000000000
310
00000000000000000000000000000000000000000000000707070700000000070000000000000000000000000000000000000000000000000000000000000000000000000000000000000000000000000000000000000000000000000000000000000000000000000000000000000000000000000000000000000000000000
310
00000000000000000000000000000000000000000000000000000000000000000000000000000000000000000000000000000000000000000000000000000000000000000000000000000000000707070007000007000000000000000000000000000000000000000000000000000000000000000000000000000000000000
310
00000000000000000000000000000000000000000000000000000000000000000000000000000000000000000000000000000000000000000000000000000000000000000000000000000000000000000000000000000000000000000000000000000000000000000000000000000000000000000000000000000000000000
310
00000000000700000707070000000000000000000000000000000000000000000000000000000000000000000000000000000000000000000000000000000000000000000000000000000000000000000000000000000000000000000000000000000000000000000000000000000000000000000000000000000000000000
310
00000000000000000000000000000000000000000000000000000000000000000000000000000000000000000000000000000000000000000000070707070000000000000000000000000000000000000000000000000000000000000000000000000000000000000000000000000000000000000000000000000000000000
310
00000000000000000000000000000000000000000000000000000000000000000000000000000000000000000000000000000000000000000000000000000000000000000000000000000000000000000000000000000000000000000000000000000000000000000000000000000000000000000000000000000000000000
310
000000000000000000000000000000000000000000000000000000000000000000000000000000000000000000000000000000000000000000000000000000000000000000000000000000000000000000000000000000000000000000000000000000000000000000000000
  0
ENDSEC
  0
EOF
