  0
SECTION
  2
HEADER
  9
$ACADVER
  1
AC1015
  9
$ACADMAINTVER
 70
     6
  9
$DWGCODEPAGE
  3
ANSI_1252
  9
$INSBASE
 10
0.0
 20
0.0
 30
0.0
  9
$EXTMIN
 10
0.0
 20
0.20485
 30
0.0
  9
$EXTMAX
 10
380.0
 20
511.79515
 30
0.0
  9
$LIMMIN
 10
0.0
 20
0.0
  9
$LIMMAX
 10
12.0
 20
9.0
  9
$ORTHOMODE
 70
     0
  9
$REGENMODE
 70
     1
  9
$FILLMODE
 70
     1
  9
$QTEXTMODE
 70
     0
  9
$MIRRTEXT
 70
     1
  9
$LTSCALE
 40
1.0
  9
$ATTMODE
 70
     1
  9
$TEXTSIZE
 40
0.2
  9
$TRACEWID
 40
0.05
  9
$TEXTSTYLE
  7
Standard
  9
$CLAYER
  8
0
  9
$CELTYPE
  6
ByBlock
  9
$CECOLOR
 62
   256
  9
$CELTSCALE
 40
1.0
  9
$DISPSILH
 70
     0
  9
$DIMSCALE
 40
1.0
  9
$DIMASZ
 40
0.18
  9
$DIMEXO
 40
0.0625
  9
$DIMDLI
 40
0.38
  9
$DIMRND
 40
0.0
  9
$DIMDLE
 40
0.0
  9
$DIMEXE
 40
0.18
  9
$DIMTP
 40
0.0
  9
$DIMTM
 40
0.0
  9
$DIMTXT
 40
0.18
  9
$DIMCEN
 40
0.09
  9
$DIMTSZ
 40
0.0
  9
$DIMTOL
 70
     0
  9
$DIMLIM
 70
     0
  9
$DIMTIH
 70
     1
  9
$DIMTOH
 70
     1
  9
$DIMSE1
 70
     0
  9
$DIMSE2
 70
     0
  9
$DIMTAD
 70
     0
  9
$DIMZIN
 70
     0
  9
$DIMBLK
  1

  9
$DIMASO
 70
     1
  9
$DIMSHO
 70
     1
  9
$DIMPOST
  1

  9
$DIMAPOST
  1

  9
$DIMALT
 70
     0
  9
$DIMALTD
 70
     2
  9
$DIMALTF
 40
25.4
  9
$DIMLFAC
 40
1.0
  9
$DIMTOFL
 70
     0
  9
$DIMTVP
 40
0.0
  9
$DIMTIX
 70
     0
  9
$DIMSOXD
 70
     0
  9
$DIMSAH
 70
     0
  9
$DIMBLK1
  1

  9
$DIMBLK2
  1

  9
$DIMSTYLE
  2
Standard
  9
$DIMCLRD
 70
     0
  9
$DIMCLRE
 70
     0
  9
$DIMCLRT
 70
     0
  9
$DIMTFAC
 40
1.0
  9
$DIMGAP
 40
0.09
  9
$DIMJUST
 70
     0
  9
$DIMSD1
 70
     0
  9
$DIMSD2
 70
     0
  9
$DIMTOLJ
 70
     1
  9
$DIMTZIN
 70
     0
  9
$DIMALTZ
 70
     0
  9
$DIMALTTZ
 70
     0
  9
$DIMUPT
 70
     0
  9
$DIMDEC
 70
     4
  9
$DIMTDEC
 70
     4
  9
$DIMALTU
 70
     2
  9
$DIMALTTD
 70
     2
  9
$DIMTXSTY
  7
Standard
  9
$DIMAUNIT
 70
     0
  9
$DIMADEC
 70
     0
  9
$DIMALTRND
 40
0.0
  9
$DIMAZIN
 70
     0
  9
$DIMDSEP
 70
    46
  9
$DIMATFIT
 70
     3
  9
$DIMFRAC
 70
     0
  9
$DIMLDRBLK
  1

  9
$DIMLUNIT
 70
     2
  9
$DIMLWD
 70
    -2
  9
$DIMLWE
 70
    -2
  9
$DIMTMOVE
 70
     2
  9
$LUNITS
 70
     2
  9
$LUPREC
 70
     4
  9
$SKETCHINC
 40
0.1
  9
$FILLETRAD
 40
0.5
  9
$AUNITS
 70
     0
  9
$AUPREC
 70
     0
  9
$MENU
  1
.
  9
$ELEVATION
 40
0.0
  9
$PELEVATION
 40
0.0
  9
$THICKNESS
 40
0.0
  9
$LIMCHECK
 70
     0
  9
$CHAMFERA
 40
0.5
  9
$CHAMFERB
 40
0.5
  9
$CHAMFERC
 40
1.0
  9
$CHAMFERD
 40
0.0
  9
$SKPOLY
 70
     0
  9
$TDCREATE
 40
2455870.962177442
  9
$TDUCREATE
 40
2455870.878844109
  9
$TDUPDATE
 40
2456213.560126585
  9
$TDUUPDATE
 40
2456213.476793252
  9
$TDINDWG
 40
0.0081090972
  9
$TDUSRTIMER
 40
0.0081090972
  9
$USRTIMER
 70
     1
  9
$ANGBASE
 50
0.0
  9
$ANGDIR
 70
     0
  9
$PDMODE
 70
     0
  9
$PDSIZE
 40
0.0
  9
$PLINEWID
 40
0.0
  9
$SPLFRAME
 70
     0
  9
$SPLINETYPE
 70
     6
  9
$SPLINESEGS
 70
     8
  9
$HANDSEED
  5
12BE
  9
$SURFTAB1
 70
     6
  9
$SURFTAB2
 70
     6
  9
$SURFTYPE
 70
     6
  9
$SURFU
 70
     6
  9
$SURFV
 70
     6
  9
$UCSBASE
  2

  9
$UCSNAME
  2

  9
$UCSORG
 10
0.0
 20
0.0
 30
0.0
  9
$UCSXDIR
 10
1.0
 20
0.0
 30
0.0
  9
$UCSYDIR
 10
0.0
 20
1.0
 30
0.0
  9
$UCSORTHOREF
  2

  9
$UCSORTHOVIEW
 70
     0
  9
$UCSORGTOP
 10
0.0
 20
0.0
 30
0.0
  9
$UCSORGBOTTOM
 10
0.0
 20
0.0
 30
0.0
  9
$UCSORGLEFT
 10
0.0
 20
0.0
 30
0.0
  9
$UCSORGRIGHT
 10
0.0
 20
0.0
 30
0.0
  9
$UCSORGFRONT
 10
0.0
 20
0.0
 30
0.0
  9
$UCSORGBACK
 10
0.0
 20
0.0
 30
0.0
  9
$PUCSBASE
  2

  9
$PUCSNAME
  2

  9
$PUCSORG
 10
0.0
 20
0.0
 30
0.0
  9
$PUCSXDIR
 10
1.0
 20
0.0
 30
0.0
  9
$PUCSYDIR
 10
0.0
 20
1.0
 30
0.0
  9
$PUCSORTHOREF
  2

  9
$PUCSORTHOVIEW
 70
     0
  9
$PUCSORGTOP
 10
0.0
 20
0.0
 30
0.0
  9
$PUCSORGBOTTOM
 10
0.0
 20
0.0
 30
0.0
  9
$PUCSORGLEFT
 10
0.0
 20
0.0
 30
0.0
  9
$PUCSORGRIGHT
 10
0.0
 20
0.0
 30
0.0
  9
$PUCSORGFRONT
 10
0.0
 20
0.0
 30
0.0
  9
$PUCSORGBACK
 10
0.0
 20
0.0
 30
0.0
  9
$USERI1
 70
     0
  9
$USERI2
 70
     0
  9
$USERI3
 70
     0
  9
$USERI4
 70
     0
  9
$USERI5
 70
     0
  9
$USERR1
 40
0.0
  9
$USERR2
 40
0.0
  9
$USERR3
 40
0.0
  9
$USERR4
 40
0.0
  9
$USERR5
 40
0.0
  9
$WORLDVIEW
 70
     1
  9
$SHADEDGE
 70
     3
  9
$SHADEDIF
 70
    70
  9
$TILEMODE
 70
     1
  9
$MAXACTVP
 70
    64
  9
$PINSBASE
 10
0.0
 20
0.0
 30
0.0
  9
$PLIMCHECK
 70
     0
  9
$PEXTMIN
 10
1.000000000000E+20
 20
1.000000000000E+20
 30
1.000000000000E+20
  9
$PEXTMAX
 10
-1.000000000000E+20
 20
-1.000000000000E+20
 30
-1.000000000000E+20
  9
$PLIMMIN
 10
0.0
 20
0.0
  9
$PLIMMAX
 10
12.0
 20
9.0
  9
$UNITMODE
 70
     0
  9
$VISRETAIN
 70
     1
  9
$PLINEGEN
 70
     0
  9
$PSLTSCALE
 70
     1
  9
$TREEDEPTH
 70
  3020
  9
$CMLSTYLE
  2
Standard
  9
$CMLJUST
 70
     0
  9
$CMLSCALE
 40
1.0
  9
$PROXYGRAPHICS
 70
     1
  9
$MEASUREMENT
 70
     0
  9
$CELWEIGHT
370
    -1
  9
$ENDCAPS
280
     0
  9
$JOINSTYLE
280
     0
  9
$LWDISPLAY
290
     0
  9
$INSUNITS
 70
     0
  9
$HYPERLINKBASE
  1

  9
$STYLESHEET
  1

  9
$XEDIT
290
     1
  9
$CEPSNTYPE
380
     0
  9
$PSTYLEMODE
290
     1
  9
$FINGERPRINTGUID
  2
{7B2BBA54-2BC1-462A-8BF4-9CEBFE9C7C03}
  9
$VERSIONGUID
  2
{FAEB1C32-E019-11D5-929B-00C0DF256EC4}
  9
$EXTNAMES
290
     1
  9
$PSVPSCALE
 40
0.0
  9
$OLESTARTUP
290
     0
  0
ENDSEC
  0
SECTION
  2
CLASSES
  0
CLASS
  1
ACDBDICTIONARYWDFLT
  2
AcDbDictionaryWithDefault
  3
ObjectDBX Classes
 90
        0
280
     0
281
     0
  0
CLASS
  1
SCALE
  2
AcDbScale
  3
ObjectDBX Classes
 90
     1153
280
     0
281
     0
  0
CLASS
  1
DICTIONARYVAR
  2
AcDbDictionaryVar
  3
ObjectDBX Classes
 90
        0
280
     0
281
     0
  0
CLASS
  1
ACDBPLACEHOLDER
  2
AcDbPlaceHolder
  3
ObjectDBX Classes
 90
        0
280
     0
281
     0
  0
CLASS
  1
LAYOUT
  2
AcDbLayout
  3
ObjectDBX Classes
 90
        0
280
     0
281
     0
  0
ENDSEC
  0
SECTION
  2
TABLES
  0
TABLE
  2
VPORT
  5
8
330
0
100
AcDbSymbolTable
 70
     1
  0
VPORT
  5
7D7
330
8
100
AcDbSymbolTableRecord
100
AcDbViewportTableRecord
  2
*Active
 70
     0
 10
0.0
 20
0.0
 11
1.0
 21
1.0
 12
190.0
 22
255.897575
 13
0.0
 23
0.0
 14
0.5
 24
0.5
 15
0.5
 25
0.5
 16
0.0
 26
0.0
 36
1.0
 17
0.0
 27
0.0
 37
0.0
 40
522.031053
 41
2.271724137931
 42
50.0
 43
0.0
 44
0.0
 50
0.0
 51
0.0
 71
    16
 72
   100
 73
     1
 74
     3
 75
     0
 76
     0
 77
     0
 78
     0
281
     0
 65
     1
110
0.0
120
0.0
130
0.0
111
1.0
121
0.0
131
0.0
112
0.0
122
1.0
132
0.0
 79
     0
146
0.0
  0
ENDTAB
  0
TABLE
  2
LTYPE
  5
5
330
0
100
AcDbSymbolTable
 70
     1
  0
LTYPE
  5
14
330
5
100
AcDbSymbolTableRecord
100
AcDbLinetypeTableRecord
  2
ByBlock
 70
     0
  3

 72
    65
 73
     0
 40
0.0
  0
LTYPE
  5
15
330
5
100
AcDbSymbolTableRecord
100
AcDbLinetypeTableRecord
  2
ByLayer
 70
     0
  3

 72
    65
 73
     0
 40
0.0
  0
LTYPE
  5
16
330
5
100
AcDbSymbolTableRecord
100
AcDbLinetypeTableRecord
  2
Continuous
 70
     0
  3
Solid line
 72
    65
 73
     0
 40
0.0
  0
ENDTAB
  0
TABLE
  2
LAYER
  5
2
330
0
100
AcDbSymbolTable
 70
     1
  0
LAYER
  5
10
330
2
100
AcDbSymbolTableRecord
100
AcDbLayerTableRecord
  2
0
 70
     0
 62
     7
  6
Continuous
370
    -3
390
F
  0
ENDTAB
  0
TABLE
  2
STYLE
  5
3
330
0
100
AcDbSymbolTable
 70
     1
  0
STYLE
  5
11
330
3
100
AcDbSymbolTableRecord
100
AcDbTextStyleTableRecord
  2
Standard
 70
     0
 40
0.0
 41
1.0
 50
0.0
 71
     0
 42
0.2
  3
txt
  4

  0
ENDTAB
  0
TABLE
  2
VIEW
  5
6
330
0
100
AcDbSymbolTable
 70
     0
  0
ENDTAB
  0
TABLE
  2
UCS
  5
7
330
0
100
AcDbSymbolTable
 70
     0
  0
ENDTAB
  0
TABLE
  2
APPID
  5
9
330
0
100
AcDbSymbolTable
 70
     1
  0
APPID
  5
12
330
9
100
AcDbSymbolTableRecord
100
AcDbRegAppTableRecord
  2
ACAD
 70
     0
  0
ENDTAB
  0
TABLE
  2
DIMSTYLE
  5
A
330
0
100
AcDbSymbolTable
 70
     1
100
AcDbDimStyleTable
  0
DIMSTYLE
105
20
330
A
100
AcDbSymbolTableRecord
100
AcDbDimStyleTableRecord
  2
Standard
 70
     0
340
11
  0
ENDTAB
  0
TABLE
  2
BLOCK_RECORD
  5
1
330
0
100
AcDbSymbolTable
 70
     0
  0
BLOCK_RECORD
  5
1D
330
1
100
AcDbSymbolTableRecord
100
AcDbBlockTableRecord
  2
*Model_Space
340
1E
  0
BLOCK_RECORD
  5
1B
330
1
100
AcDbSymbolTableRecord
100
AcDbBlockTableRecord
  2
*Paper_Space
340
1C
  0
ENDTAB
  0
ENDSEC
  0
SECTION
  2
BLOCKS
  0
BLOCK
  5
7DA
330
1D
100
AcDbEntity
  8
0
100
AcDbBlockBegin
  2
*Model_Space
 70
     0
 10
0.0
 20
0.0
 30
0.0
  3
*Model_Space
  1
*Model_Space
  0
ENDBLK
  5
7DB
330
1D
100
AcDbEntity
  8
0
100
AcDbBlockEnd
  0
BLOCK
  5
7D8
330
1B
100
AcDbEntity
 67
     1
  8
0
100
AcDbBlockBegin
  2
*Paper_Space
 70
     0
 10
0.0
 20
0.0
 30
0.0
  3
*Paper_Space
  1
*Paper_Space
  0
ENDBLK
  5
7D9
330
1B
100
AcDbEntity
 67
     1
  8
0
100
AcDbBlockEnd
  0
ENDSEC
  0
SECTION
  2
ENTITIES
  0
LINE
  5
5B
330
1D
100
AcDbEntity
  8
0
100
AcDbLine
 10
44.4759
 20
416.88115
 30
0.0
 11
45.492
 21
417.27415
 31
0.0
  0
LINE
  5
5C
330
1D
100
AcDbEntity
  8
0
100
AcDbLine
 10
23.0
 20
416.88115
 30
0.0
 11
44.4759
 21
416.88115
 31
0.0
  0
LINE
  5
5D
330
1D
100
AcDbEntity
  8
0
100
AcDbLine
 10
1.52406
 20
416.88115
 30
0.0
 11
23.0
 21
416.88115
 31
0.0
  0
LINE
  5
5E
330
1D
100
AcDbEntity
  8
0
100
AcDbLine
 10
45.758265593561
 20
417.79515
 30
0.0
 11
57.228679958027
 21
417.79515
 31
0.0
  0
LINE
  5
5F
330
1D
100
AcDbEntity
  8
0
100
AcDbLine
 10
45.492
 20
417.90615
 30
0.0
 11
45.492
 21
419.88215
 31
0.0
  0
LINE
  5
60
330
1D
100
AcDbEntity
  8
0
100
AcDbLine
 10
45.492
 20
417.90615
 30
0.0
 11
45.492
 21
417.27415
 31
0.0
  0
LINE
  5
61
330
1D
100
AcDbEntity
  8
0
100
AcDbLine
 10
45.492
 20
417.27415
 30
0.0
 11
45.492
 21
417.90615
 31
0.0
  0
LINE
  5
62
330
1D
100
AcDbEntity
  8
0
100
AcDbLine
 10
45.492
 20
417.27415
 30
0.0
 11
45.780479979303
 21
417.838616731155
 31
0.0
  0
LINE
  5
63
330
1D
100
AcDbEntity
  8
0
100
AcDbLine
 10
0.50802
 20
417.27415
 30
0.0
 11
1.52406
 21
416.88115
 31
0.0
  0
LINE
  5
64
330
1D
100
AcDbEntity
  8
0
100
AcDbLine
 10
0.50802
 20
417.27415
 30
0.0
 11
0.50802
 21
417.90615
 31
0.0
  0
LINE
  5
65
330
1D
100
AcDbEntity
  8
0
100
AcDbLine
 10
0.0
 20
423.70615
 30
0.0
 11
0.0
 21
420.69815
 31
0.0
  0
LINE
  5
66
330
1D
100
AcDbEntity
  8
0
100
AcDbLine
 10
0.0
 20
423.70615
 30
0.0
 11
0.0
 21
427.56115
 31
0.0
  0
LINE
  5
67
330
1D
100
AcDbEntity
  8
0
100
AcDbLine
 10
0.0
 20
427.56115
 30
0.0
 11
0.0
 21
423.70615
 31
0.0
  0
LINE
  5
68
330
1D
100
AcDbEntity
  8
0
100
AcDbLine
 10
0.0
 20
427.56115
 30
0.0
 11
0.0
 21
431.98815
 31
0.0
  0
LINE
  5
69
330
1D
100
AcDbEntity
  8
0
100
AcDbLine
 10
0.0
 20
420.69815
 30
0.0
 11
0.0
 21
418.85715
 31
0.0
  0
LINE
  5
6A
330
1D
100
AcDbEntity
  8
0
100
AcDbLine
 10
0.0
 20
420.69815
 30
0.0
 11
0.0
 21
423.70615
 31
0.0
  0
LINE
  5
6B
330
1D
100
AcDbEntity
  8
0
100
AcDbLine
 10
0.50802
 20
423.02415
 30
0.0
 11
0.50802
 21
419.88215
 31
0.0
  0
LINE
  5
6C
330
1D
100
AcDbEntity
  8
0
100
AcDbLine
 10
0.50802
 20
423.02415
 30
0.0
 11
0.50802
 21
426.861263715995
 31
0.0
  0
LINE
  5
6D
330
1D
100
AcDbEntity
  8
0
100
AcDbLine
 10
0.1
 20
427.84315
 30
0.0
 11
0.1
 21
427.39215
 31
0.0
  0
LINE
  5
6E
330
1D
100
AcDbEntity
  8
0
100
AcDbLine
 10
0.1
 20
427.84315
 30
0.0
 11
0.1
 21
428.42215
 31
0.0
  0
LINE
  5
6F
330
1D
100
AcDbEntity
  8
0
100
AcDbLine
 10
0.1
 20
428.42215
 30
0.0
 11
0.1
 21
427.84315
 31
0.0
  0
LINE
  5
70
330
1D
100
AcDbEntity
  8
0
100
AcDbLine
 10
0.1
 20
428.42215
 30
0.0
 11
0.1
 21
429.08615
 31
0.0
  0
LINE
  5
71
330
1D
100
AcDbEntity
  8
0
100
AcDbLine
 10
0.1
 20
429.08615
 30
0.0
 11
0.1
 21
428.42215
 31
0.0
  0
LINE
  5
72
330
1D
100
AcDbEntity
  8
0
100
AcDbLine
 10
0.1
 20
429.08615
 30
0.0
 11
0.1
 21
429.80215
 31
0.0
  0
LINE
  5
73
330
1D
100
AcDbEntity
  8
0
100
AcDbLine
 10
0.1
 20
427.39215
 30
0.0
 11
0.1
 21
427.11615
 31
0.0
  0
LINE
  5
74
330
1D
100
AcDbEntity
  8
0
100
AcDbLine
 10
0.1
 20
427.39215
 30
0.0
 11
0.1
 21
427.84315
 31
0.0
  0
LINE
  5
75
330
1D
100
AcDbEntity
  8
0
100
AcDbLine
 10
0.1
 20
427.11615
 30
0.0
 11
0.1
 21
427.02815
 31
0.0
  0
LINE
  5
76
330
1D
100
AcDbEntity
  8
0
100
AcDbLine
 10
0.1
 20
427.11615
 30
0.0
 11
0.1
 21
427.39215
 31
0.0
  0
LINE
  5
77
330
1D
100
AcDbEntity
  8
0
100
AcDbLine
 10
0.1
 20
427.11615
 30
0.0
 11
0.1
 21
429.44515
 31
0.0
  0
LINE
  5
78
330
1D
100
AcDbEntity
  8
0
100
AcDbLine
 10
0.1
 20
427.02815
 30
0.0
 11
0.35401
 21
426.87915
 31
0.0
  0
LINE
  5
79
330
1D
100
AcDbEntity
  8
0
100
AcDbLine
 10
0.1
 20
427.02815
 30
0.0
 11
0.1
 21
427.11615
 31
0.0
  0
LINE
  5
7A
330
1D
100
AcDbEntity
  8
0
100
AcDbLine
 10
0.35401
 20
426.87915
 30
0.0
 11
0.86203
 21
426.82015
 31
0.0
  0
LINE
  5
7B
330
1D
100
AcDbEntity
  8
0
100
AcDbLine
 10
0.50802
 20
426.861263715995
 30
0.0
 11
0.50802
 21
423.02415
 31
0.0
  0
LINE
  5
7C
330
1D
100
AcDbEntity
  8
0
100
AcDbLine
 10
0.0
 20
418.85715
 30
0.0
 11
0.0
 21
418.26815
 31
0.0
  0
LINE
  5
7D
330
1D
100
AcDbEntity
  8
0
100
AcDbLine
 10
0.0
 20
418.85715
 30
0.0
 11
0.0
 21
420.69815
 31
0.0
  0
LINE
  5
7E
330
1D
100
AcDbEntity
  8
0
100
AcDbLine
 10
0.0
 20
418.26815
 30
0.0
 11
0.50802
 21
417.27415
 31
0.0
  0
LINE
  5
7F
330
1D
100
AcDbEntity
  8
0
100
AcDbLine
 10
0.0
 20
418.26815
 30
0.0
 11
0.0
 21
418.85715
 31
0.0
  0
LINE
  5
80
330
1D
100
AcDbEntity
  8
0
100
AcDbLine
 10
20.1
 20
427.84315
 30
0.0
 11
20.1
 21
428.42215
 31
0.0
  0
LINE
  5
81
330
1D
100
AcDbEntity
  8
0
100
AcDbLine
 10
20.1
 20
427.84315
 30
0.0
 11
20.1
 21
427.39215
 31
0.0
  0
LINE
  5
82
330
1D
100
AcDbEntity
  8
0
100
AcDbLine
 10
20.1
 20
428.42215
 30
0.0
 11
20.1
 21
429.08615
 31
0.0
  0
LINE
  5
83
330
1D
100
AcDbEntity
  8
0
100
AcDbLine
 10
20.1
 20
428.42215
 30
0.0
 11
20.1
 21
427.84315
 31
0.0
  0
LINE
  5
84
330
1D
100
AcDbEntity
  8
0
100
AcDbLine
 10
20.1
 20
427.39215
 30
0.0
 11
20.1
 21
427.11615
 31
0.0
  0
LINE
  5
85
330
1D
100
AcDbEntity
  8
0
100
AcDbLine
 10
20.1
 20
427.39215
 30
0.0
 11
20.1
 21
427.84315
 31
0.0
  0
LINE
  5
86
330
1D
100
AcDbEntity
  8
0
100
AcDbLine
 10
20.1
 20
427.11615
 30
0.0
 11
20.1
 21
427.39215
 31
0.0
  0
LINE
  5
87
330
1D
100
AcDbEntity
  8
0
100
AcDbLine
 10
20.1
 20
427.11615
 30
0.0
 11
20.1
 21
427.02815
 31
0.0
  0
LINE
  5
88
330
1D
100
AcDbEntity
  8
0
100
AcDbLine
 10
20.1
 20
427.02815
 30
0.0
 11
20.1
 21
427.11615
 31
0.0
  0
LINE
  5
89
330
1D
100
AcDbEntity
  8
0
100
AcDbLine
 10
19.846
 20
426.87915
 30
0.0
 11
20.1
 21
427.02815
 31
0.0
  0
LINE
  5
8A
330
1D
100
AcDbEntity
  8
0
100
AcDbLine
 10
19.338
 20
426.82015
 30
0.0
 11
19.846
 21
426.87915
 31
0.0
  0
LINE
  5
8B
330
1D
100
AcDbEntity
  8
0
100
AcDbLine
 10
10.1
 20
426.82015
 30
0.0
 11
19.338
 21
426.82015
 31
0.0
  0
LINE
  5
8C
330
1D
100
AcDbEntity
  8
0
100
AcDbLine
 10
20.1
 20
429.08615
 30
0.0
 11
20.1
 21
429.80215
 31
0.0
  0
LINE
  5
8D
330
1D
100
AcDbEntity
  8
0
100
AcDbLine
 10
20.1
 20
429.08615
 30
0.0
 11
20.1
 21
428.42215
 31
0.0
  0
LINE
  5
8E
330
1D
100
AcDbEntity
  8
0
100
AcDbLine
 10
0.86203
 20
426.82015
 30
0.0
 11
10.1
 21
426.82015
 31
0.0
  0
LINE
  5
8F
330
1D
100
AcDbEntity
  8
0
100
AcDbLine
 10
45.492
 20
423.02415
 30
0.0
 11
45.492
 21
427.03915
 31
0.0
  0
LINE
  5
90
330
1D
100
AcDbEntity
  8
0
100
AcDbLine
 10
45.492
 20
423.02415
 30
0.0
 11
45.492
 21
419.88215
 31
0.0
  0
LINE
  5
91
330
1D
100
AcDbEntity
  8
0
100
AcDbLine
 10
45.492
 20
427.03915
 30
0.0
 11
45.492
 21
431.74215
 31
0.0
  0
LINE
  5
92
330
1D
100
AcDbEntity
  8
0
100
AcDbLine
 10
45.492
 20
427.03915
 30
0.0
 11
45.492
 21
423.02415
 31
0.0
  0
LINE
  5
93
330
1D
100
AcDbEntity
  8
0
100
AcDbLine
 10
45.492
 20
419.88215
 30
0.0
 11
45.492
 21
417.90615
 31
0.0
  0
LINE
  5
94
330
1D
100
AcDbEntity
  8
0
100
AcDbLine
 10
45.492
 20
419.88215
 30
0.0
 11
45.492
 21
423.02415
 31
0.0
  0
LINE
  5
95
330
1D
100
AcDbEntity
  8
0
100
AcDbLine
 10
0.50802
 20
419.88215
 30
0.0
 11
0.50802
 21
417.90615
 31
0.0
  0
LINE
  5
96
330
1D
100
AcDbEntity
  8
0
100
AcDbLine
 10
0.50802
 20
419.88215
 30
0.0
 11
0.50802
 21
423.02415
 31
0.0
  0
LINE
  5
97
330
1D
100
AcDbEntity
  8
0
100
AcDbLine
 10
0.50802
 20
417.90615
 30
0.0
 11
0.50802
 21
417.27415
 31
0.0
  0
LINE
  5
98
330
1D
100
AcDbEntity
  8
0
100
AcDbLine
 10
0.50802
 20
417.90615
 30
0.0
 11
0.50802
 21
419.88215
 31
0.0
  0
LINE
  5
99
330
1D
100
AcDbEntity
  8
0
100
AcDbLine
 10
57.508
 20
427.08115
 30
0.0
 11
57.508
 21
422.98515
 31
0.0
  0
LINE
  5
9A
330
1D
100
AcDbEntity
  8
0
100
AcDbLine
 10
57.508
 20
427.08115
 30
0.0
 11
57.508
 21
431.74715
 31
0.0
  0
LINE
  5
9B
330
1D
100
AcDbEntity
  8
0
100
AcDbLine
 10
57.508
 20
422.98515
 30
0.0
 11
57.508
 21
419.84315
 31
0.0
  0
LINE
  5
9C
330
1D
100
AcDbEntity
  8
0
100
AcDbLine
 10
57.508
 20
422.98515
 30
0.0
 11
57.508
 21
427.08115
 31
0.0
  0
LINE
  5
9D
330
1D
100
AcDbEntity
  8
0
100
AcDbLine
 10
57.508
 20
419.84315
 30
0.0
 11
57.508
 21
417.93815
 31
0.0
  0
LINE
  5
9E
330
1D
100
AcDbEntity
  8
0
100
AcDbLine
 10
57.508
 20
419.84315
 30
0.0
 11
57.508
 21
422.98515
 31
0.0
  0
LINE
  5
9F
330
1D
100
AcDbEntity
  8
0
100
AcDbLine
 10
57.508
 20
417.93815
 30
0.0
 11
57.508
 21
417.27115
 31
0.0
  0
LINE
  5
A0
330
1D
100
AcDbEntity
  8
0
100
AcDbLine
 10
57.508
 20
417.93815
 30
0.0
 11
57.508
 21
419.84315
 31
0.0
  0
LINE
  5
A1
330
1D
100
AcDbEntity
  8
0
100
AcDbLine
 10
57.228679958027
 20
417.79515
 30
0.0
 11
57.508
 21
417.27115
 31
0.0
  0
LINE
  5
A2
330
1D
100
AcDbEntity
  8
0
100
AcDbLine
 10
57.508
 20
417.27115
 30
0.0
 11
58.5241
 21
416.79515
 31
0.0
  0
LINE
  5
A3
330
1D
100
AcDbEntity
  8
0
100
AcDbLine
 10
57.508
 20
417.27115
 30
0.0
 11
57.508
 21
417.93815
 31
0.0
  0
LINE
  5
CC
330
1D
100
AcDbEntity
  8
0
100
AcDbLine
 10
58.5241
 20
416.79515
 30
0.0
 11
141.0
 21
416.79515
 31
0.0
  0
LINE
  5
CD
330
1D
100
AcDbEntity
  8
0
100
AcDbLine
 10
0.1
 20
429.80215
 30
0.0
 11
0.1
 21
429.08615
 31
0.0
  0
LINE
  5
CE
330
1D
100
AcDbEntity
  8
0
100
AcDbLine
 10
0.1
 20
429.80215
 30
0.0
 11
0.1
 21
430.52115
 31
0.0
  0
LINE
  5
CF
330
1D
100
AcDbEntity
  8
0
100
AcDbLine
 10
20.1
 20
429.80215
 30
0.0
 11
20.1
 21
430.52115
 31
0.0
  0
LINE
  5
D0
330
1D
100
AcDbEntity
  8
0
100
AcDbLine
 10
20.1
 20
429.80215
 30
0.0
 11
20.1
 21
429.08615
 31
0.0
  0
LINE
  5
D1
330
1D
100
AcDbEntity
  8
0
100
AcDbLine
 10
0.1
 20
429.44515
 30
0.0
 11
0.1
 21
427.11615
 31
0.0
  0
LINE
  5
D2
330
1D
100
AcDbEntity
  8
0
100
AcDbLine
 10
0.1
 20
430.52115
 30
0.0
 11
0.1
 21
429.80215
 31
0.0
  0
LINE
  5
D3
330
1D
100
AcDbEntity
  8
0
100
AcDbLine
 10
0.1
 20
430.52115
 30
0.0
 11
0.1
 21
431.20115
 31
0.0
  0
LINE
  5
D4
330
1D
100
AcDbEntity
  8
0
100
AcDbLine
 10
20.1
 20
430.52115
 30
0.0
 11
20.1
 21
431.20115
 31
0.0
  0
LINE
  5
D5
330
1D
100
AcDbEntity
  8
0
100
AcDbLine
 10
20.1
 20
430.52115
 30
0.0
 11
20.1
 21
429.80215
 31
0.0
  0
LINE
  5
D6
330
1D
100
AcDbEntity
  8
0
100
AcDbLine
 10
20.1
 20
431.20115
 30
0.0
 11
20.1
 21
431.78015
 31
0.0
  0
LINE
  5
D7
330
1D
100
AcDbEntity
  8
0
100
AcDbLine
 10
20.1
 20
431.20115
 30
0.0
 11
20.1
 21
430.52115
 31
0.0
  0
LINE
  5
D8
330
1D
100
AcDbEntity
  8
0
100
AcDbLine
 10
20.1
 20
431.78015
 30
0.0
 11
20.1
 21
432.21615
 31
0.0
  0
LINE
  5
D9
330
1D
100
AcDbEntity
  8
0
100
AcDbLine
 10
20.1
 20
431.78015
 30
0.0
 11
20.1
 21
431.20115
 31
0.0
  0
LINE
  5
DA
330
1D
100
AcDbEntity
  8
0
100
AcDbLine
 10
0.1
 20
431.20115
 30
0.0
 11
0.1
 21
431.78015
 31
0.0
  0
LINE
  5
DB
330
1D
100
AcDbEntity
  8
0
100
AcDbLine
 10
0.1
 20
431.20115
 30
0.0
 11
0.1
 21
430.52115
 31
0.0
  0
LINE
  5
DC
330
1D
100
AcDbEntity
  8
0
100
AcDbLine
 10
0.1
 20
431.78015
 30
0.0
 11
0.1
 21
431.20115
 31
0.0
  0
LINE
  5
DD
330
1D
100
AcDbEntity
  8
0
100
AcDbLine
 10
0.1
 20
431.78015
 30
0.0
 11
0.1
 21
432.21615
 31
0.0
  0
LINE
  5
DE
330
1D
100
AcDbEntity
  8
0
100
AcDbLine
 10
45.492
 20
431.74215
 30
0.0
 11
45.492
 21
427.03915
 31
0.0
  0
LINE
  5
DF
330
1D
100
AcDbEntity
  8
0
100
AcDbLine
 10
45.492
 20
431.74215
 30
0.0
 11
45.492
 21
436.79015
 31
0.0
  0
LINE
  5
E0
330
1D
100
AcDbEntity
  8
0
100
AcDbLine
 10
0.1
 20
432.21615
 30
0.0
 11
0.1
 21
431.78015
 31
0.0
  0
LINE
  5
E1
330
1D
100
AcDbEntity
  8
0
100
AcDbLine
 10
0.1
 20
432.21615
 30
0.0
 11
0.1
 21
432.49815
 31
0.0
  0
LINE
  5
E2
330
1D
100
AcDbEntity
  8
0
100
AcDbLine
 10
20.1
 20
432.21615
 30
0.0
 11
20.1
 21
432.49815
 31
0.0
  0
LINE
  5
E3
330
1D
100
AcDbEntity
  8
0
100
AcDbLine
 10
20.1
 20
432.21615
 30
0.0
 11
20.1
 21
431.78015
 31
0.0
  0
LINE
  5
E4
330
1D
100
AcDbEntity
  8
0
100
AcDbLine
 10
20.1
 20
432.49815
 30
0.0
 11
20.1
 21
434.82715
 31
0.0
  0
LINE
  5
E5
330
1D
100
AcDbEntity
  8
0
100
AcDbLine
 10
20.1
 20
432.49815
 30
0.0
 11
20.1
 21
432.21615
 31
0.0
  0
LINE
  5
E6
330
1D
100
AcDbEntity
  8
0
100
AcDbLine
 10
0.1
 20
432.49815
 30
0.0
 11
0.1
 21
434.82715
 31
0.0
  0
LINE
  5
E7
330
1D
100
AcDbEntity
  8
0
100
AcDbLine
 10
0.1
 20
432.49815
 30
0.0
 11
0.1
 21
432.21615
 31
0.0
  0
LINE
  5
E8
330
1D
100
AcDbEntity
  8
0
100
AcDbLine
 10
0.0
 20
431.98815
 30
0.0
 11
0.0
 21
427.56115
 31
0.0
  0
LINE
  5
E9
330
1D
100
AcDbEntity
  8
0
100
AcDbLine
 10
0.0
 20
431.98815
 30
0.0
 11
0.0
 21
436.76115
 31
0.0
  0
LINE
  5
EA
330
1D
100
AcDbEntity
  8
0
100
AcDbLine
 10
57.508
 20
431.74715
 30
0.0
 11
57.508
 21
427.08115
 31
0.0
  0
LINE
  5
EB
330
1D
100
AcDbEntity
  8
0
100
AcDbLine
 10
57.508
 20
431.74715
 30
0.0
 11
57.508
 21
436.79515
 31
0.0
  0
LINE
  5
EC
330
1D
100
AcDbEntity
  8
0
100
AcDbLine
 10
102.0
 20
429.87415
 30
0.0
 11
102.0
 21
431.58115
 31
0.0
  0
LINE
  5
ED
330
1D
100
AcDbEntity
  8
0
100
AcDbLine
 10
102.0
 20
429.87415
 30
0.0
 11
102.0
 21
429.28215
 31
0.0
  0
LINE
  5
EE
330
1D
100
AcDbEntity
  8
0
100
AcDbLine
 10
102.0
 20
429.87815
 30
0.0
 11
102.0
 21
429.28215
 31
0.0
  0
LINE
  5
EF
330
1D
100
AcDbEntity
  8
0
100
AcDbLine
 10
102.0
 20
429.87815
 30
0.0
 11
102.0
 21
431.65415
 31
0.0
  0
LINE
  5
F0
330
1D
100
AcDbEntity
  8
0
100
AcDbLine
 10
102.0
 20
429.28215
 30
0.0
 11
102.7538
 21
428.80015
 31
0.0
  0
LINE
  5
F1
330
1D
100
AcDbEntity
  8
0
100
AcDbLine
 10
102.0
 20
429.28215
 30
0.0
 11
102.0
 21
429.87415
 31
0.0
  0
LINE
  5
F2
330
1D
100
AcDbEntity
  8
0
100
AcDbLine
 10
102.0
 20
429.28215
 30
0.0
 11
102.0
 21
429.87815
 31
0.0
  0
LINE
  5
F3
330
1D
100
AcDbEntity
  8
0
100
AcDbLine
 10
102.0
 20
431.65415
 30
0.0
 11
102.0
 21
429.87815
 31
0.0
  0
LINE
  5
F4
330
1D
100
AcDbEntity
  8
0
100
AcDbLine
 10
102.0
 20
431.65415
 30
0.0
 11
102.0
 21
434.40715
 31
0.0
  0
LINE
  5
F5
330
1D
100
AcDbEntity
  8
0
100
AcDbLine
 10
102.0
 20
434.40715
 30
0.0
 11
102.0
 21
431.65415
 31
0.0
  0
LINE
  5
F6
330
1D
100
AcDbEntity
  8
0
100
AcDbLine
 10
102.0
 20
434.40715
 30
0.0
 11
102.0
 21
438.01115
 31
0.0
  0
LINE
  5
F7
330
1D
100
AcDbEntity
  8
0
100
AcDbLine
 10
102.0
 20
431.58115
 30
0.0
 11
102.0
 21
434.41015
 31
0.0
  0
LINE
  5
F8
330
1D
100
AcDbEntity
  8
0
100
AcDbLine
 10
102.0
 20
431.58115
 30
0.0
 11
102.0
 21
429.87415
 31
0.0
  0
LINE
  5
F9
330
1D
100
AcDbEntity
  8
0
100
AcDbLine
 10
0.1
 20
434.82715
 30
0.0
 11
0.1
 21
432.49815
 31
0.0
  0
LINE
  5
FA
330
1D
100
AcDbEntity
  8
0
100
AcDbLine
 10
0.50802
 20
434.986067857565
 30
0.0
 11
0.50802
 21
436.79015
 31
0.0
  0
LINE
  5
FB
330
1D
100
AcDbEntity
  8
0
100
AcDbLine
 10
0.0
 20
436.76115
 30
0.0
 11
0.0
 21
431.98815
 31
0.0
  0
LINE
  5
FC
330
1D
100
AcDbEntity
  8
0
100
AcDbLine
 10
0.0
 20
436.76115
 30
0.0
 11
0.0
 21
441.55315
 31
0.0
  0
LINE
  5
FD
330
1D
100
AcDbEntity
  8
0
100
AcDbLine
 10
20.1
 20
434.82715
 30
0.0
 11
20.1
 21
432.49815
 31
0.0
  0
LINE
  5
FE
330
1D
100
AcDbEntity
  8
0
100
AcDbLine
 10
45.492
 20
436.79015
 30
0.0
 11
45.492
 21
441.79115
 31
0.0
  0
LINE
  5
FF
330
1D
100
AcDbEntity
  8
0
100
AcDbLine
 10
45.492
 20
436.79015
 30
0.0
 11
45.492
 21
431.74215
 31
0.0
  0
LINE
  5
100
330
1D
100
AcDbEntity
  8
0
100
AcDbLine
 10
0.50802
 20
436.79015
 30
0.0
 11
0.50802
 21
434.986067857565
 31
0.0
  0
LINE
  5
101
330
1D
100
AcDbEntity
  8
0
100
AcDbLine
 10
0.50802
 20
436.79015
 30
0.0
 11
0.50802
 21
441.79115
 31
0.0
  0
LINE
  5
102
330
1D
100
AcDbEntity
  8
0
100
AcDbLine
 10
45.492
 20
441.79115
 30
0.0
 11
45.492
 21
446.56015
 31
0.0
  0
LINE
  5
103
330
1D
100
AcDbEntity
  8
0
100
AcDbLine
 10
45.492
 20
441.79115
 30
0.0
 11
45.492
 21
436.79015
 31
0.0
  0
LINE
  5
104
330
1D
100
AcDbEntity
  8
0
100
AcDbLine
 10
0.0
 20
441.55315
 30
0.0
 11
0.0
 21
436.76115
 31
0.0
  0
LINE
  5
105
330
1D
100
AcDbEntity
  8
0
100
AcDbLine
 10
0.0
 20
441.55315
 30
0.0
 11
0.0
 21
446.08815
 31
0.0
  0
LINE
  5
106
330
1D
100
AcDbEntity
  8
0
100
AcDbLine
 10
0.50802
 20
441.79115
 30
0.0
 11
0.50802
 21
436.79015
 31
0.0
  0
LINE
  5
107
330
1D
100
AcDbEntity
  8
0
100
AcDbLine
 10
0.50802
 20
441.79115
 30
0.0
 11
0.50802
 21
446.56015
 31
0.0
  0
LINE
  5
108
330
1D
100
AcDbEntity
  8
0
100
AcDbLine
 10
57.508
 20
441.84315
 30
0.0
 11
57.508
 21
436.79515
 31
0.0
  0
LINE
  5
109
330
1D
100
AcDbEntity
  8
0
100
AcDbLine
 10
57.508
 20
441.84315
 30
0.0
 11
57.508
 21
446.50915
 31
0.0
  0
LINE
  5
10A
330
1D
100
AcDbEntity
  8
0
100
AcDbLine
 10
57.508
 20
436.79515
 30
0.0
 11
57.508
 21
431.74715
 31
0.0
  0
LINE
  5
10B
330
1D
100
AcDbEntity
  8
0
100
AcDbLine
 10
57.508
 20
436.79515
 30
0.0
 11
57.508
 21
441.84315
 31
0.0
  0
LINE
  5
10C
330
1D
100
AcDbEntity
  8
0
100
AcDbLine
 10
102.0
 20
438.01115
 30
0.0
 11
102.0
 21
434.40715
 31
0.0
  0
LINE
  5
10D
330
1D
100
AcDbEntity
  8
0
100
AcDbLine
 10
102.0
 20
438.01115
 30
0.0
 11
102.0
 21
442.26315
 31
0.0
  0
LINE
  5
10E
330
1D
100
AcDbEntity
  8
0
100
AcDbLine
 10
102.0
 20
434.41015
 30
0.0
 11
102.0
 21
437.99415
 31
0.0
  0
LINE
  5
10F
330
1D
100
AcDbEntity
  8
0
100
AcDbLine
 10
102.0
 20
434.41015
 30
0.0
 11
102.0
 21
431.58115
 31
0.0
  0
LINE
  5
110
330
1D
100
AcDbEntity
  8
0
100
AcDbLine
 10
102.0
 20
437.99415
 30
0.0
 11
102.0
 21
442.26215
 31
0.0
  0
LINE
  5
111
330
1D
100
AcDbEntity
  8
0
100
AcDbLine
 10
102.0
 20
437.99415
 30
0.0
 11
102.0
 21
434.41015
 31
0.0
  0
LINE
  5
112
330
1D
100
AcDbEntity
  8
0
100
AcDbLine
 10
98.1945
 20
443.97515
 30
0.0
 11
98.3885
 21
443.90315
 31
0.0
  0
LINE
  5
113
330
1D
100
AcDbEntity
  8
0
100
AcDbLine
 10
98.1945
 20
443.97515
 30
0.0
 11
98.9049
 21
443.86715
 31
0.0
  0
LINE
  5
114
330
1D
100
AcDbEntity
  8
0
100
AcDbLine
 10
97.5405
 20
444.26315
 30
0.0
 11
98.1945
 21
443.97515
 31
0.0
  0
LINE
  5
115
330
1D
100
AcDbEntity
  8
0
100
AcDbLine
 10
96.9654
 20
444.73115
 30
0.0
 11
97.5405
 21
444.26315
 31
0.0
  0
LINE
  5
116
330
1D
100
AcDbEntity
  8
0
100
AcDbLine
 10
96.5256
 20
445.34315
 30
0.0
 11
96.9654
 21
444.73115
 31
0.0
  0
LINE
  5
117
330
1D
100
AcDbEntity
  8
0
100
AcDbLine
 10
45.492
 20
446.56015
 30
0.0
 11
45.492
 21
441.79115
 31
0.0
  0
LINE
  5
118
330
1D
100
AcDbEntity
  8
0
100
AcDbLine
 10
45.492
 20
446.56015
 30
0.0
 11
45.492
 21
450.65615
 31
0.0
  0
LINE
  5
119
330
1D
100
AcDbEntity
  8
0
100
AcDbLine
 10
0.0
 20
446.08815
 30
0.0
 11
0.0
 21
441.55315
 31
0.0
  0
LINE
  5
11A
330
1D
100
AcDbEntity
  8
0
100
AcDbLine
 10
0.0
 20
446.08815
 30
0.0
 11
0.0
 21
449.95115
 31
0.0
  0
LINE
  5
11B
330
1D
100
AcDbEntity
  8
0
100
AcDbLine
 10
0.50802
 20
446.56015
 30
0.0
 11
0.50802
 21
441.79115
 31
0.0
  0
LINE
  5
11C
330
1D
100
AcDbEntity
  8
0
100
AcDbLine
 10
0.50802
 20
446.56015
 30
0.0
 11
0.50802
 21
450.65615
 31
0.0
  0
LINE
  5
11D
330
1D
100
AcDbEntity
  8
0
100
AcDbLine
 10
57.508
 20
446.50915
 30
0.0
 11
57.508
 21
441.84315
 31
0.0
  0
LINE
  5
11E
330
1D
100
AcDbEntity
  8
0
100
AcDbLine
 10
57.508
 20
446.50915
 30
0.0
 11
57.508
 21
450.60515
 31
0.0
  0
LINE
  5
11F
330
1D
100
AcDbEntity
  8
0
100
AcDbLine
 10
96.255
 20
446.03915
 30
0.0
 11
96.5256
 21
445.34315
 31
0.0
  0
LINE
  5
120
330
1D
100
AcDbEntity
  8
0
100
AcDbLine
 10
98.3885
 20
443.90315
 30
0.0
 11
99.1102
 21
443.79515
 31
0.0
  0
LINE
  5
121
330
1D
100
AcDbEntity
  8
0
100
AcDbLine
 10
97.5405
 20
449.32715
 30
0.0
 11
98.1945
 21
449.61515
 31
0.0
  0
LINE
  5
122
330
1D
100
AcDbEntity
  8
0
100
AcDbLine
 10
98.1945
 20
449.61515
 30
0.0
 11
98.3885
 21
449.68715
 31
0.0
  0
LINE
  5
123
330
1D
100
AcDbEntity
  8
0
100
AcDbLine
 10
98.1945
 20
449.61515
 30
0.0
 11
98.9049
 21
449.72315
 31
0.0
  0
LINE
  5
124
330
1D
100
AcDbEntity
  8
0
100
AcDbLine
 10
96.9654
 20
448.85915
 30
0.0
 11
97.5405
 21
449.32715
 31
0.0
  0
LINE
  5
125
330
1D
100
AcDbEntity
  8
0
100
AcDbLine
 10
96.5256
 20
448.24715
 30
0.0
 11
96.9654
 21
448.85915
 31
0.0
  0
LINE
  5
126
330
1D
100
AcDbEntity
  8
0
100
AcDbLine
 10
96.255
 20
447.55115
 30
0.0
 11
96.5256
 21
448.24715
 31
0.0
  0
LINE
  5
127
330
1D
100
AcDbEntity
  8
0
100
AcDbLine
 10
96.1535
 20
446.79515
 30
0.0
 11
96.255
 21
447.55115
 31
0.0
  0
LINE
  5
128
330
1D
100
AcDbEntity
  8
0
100
AcDbLine
 10
96.1535
 20
446.79515
 30
0.0
 11
96.255
 21
446.03915
 31
0.0
  0
LINE
  5
129
330
1D
100
AcDbEntity
  8
0
100
AcDbLine
 10
98.9049
 20
443.86715
 30
0.0
 11
99.6154
 21
443.97515
 31
0.0
  0
LINE
  5
12A
330
1D
100
AcDbEntity
  8
0
100
AcDbLine
 10
99.1102
 20
443.79515
 30
0.0
 11
102.7538
 21
443.79515
 31
0.0
  0
LINE
  5
12B
330
1D
100
AcDbEntity
  8
0
100
AcDbLine
 10
98.3885
 20
449.68715
 30
0.0
 11
99.1102
 21
449.79515
 31
0.0
  0
LINE
  5
12C
330
1D
100
AcDbEntity
  8
0
100
AcDbLine
 10
45.492
 20
450.65615
 30
0.0
 11
45.492
 21
453.70315
 31
0.0
  0
LINE
  5
12D
330
1D
100
AcDbEntity
  8
0
100
AcDbLine
 10
45.492
 20
450.65615
 30
0.0
 11
45.492
 21
446.56015
 31
0.0
  0
LINE
  5
12E
330
1D
100
AcDbEntity
  8
0
100
AcDbLine
 10
0.0
 20
449.95115
 30
0.0
 11
0.0
 21
446.08815
 31
0.0
  0
LINE
  5
12F
330
1D
100
AcDbEntity
  8
0
100
AcDbLine
 10
0.0
 20
449.95115
 30
0.0
 11
0.0
 21
452.85715
 31
0.0
  0
LINE
  5
130
330
1D
100
AcDbEntity
  8
0
100
AcDbLine
 10
0.50802
 20
450.65615
 30
0.0
 11
0.50802
 21
446.56015
 31
0.0
  0
LINE
  5
131
330
1D
100
AcDbEntity
  8
0
100
AcDbLine
 10
0.50802
 20
450.65615
 30
0.0
 11
0.50802
 21
453.70315
 31
0.0
  0
LINE
  5
132
330
1D
100
AcDbEntity
  8
0
100
AcDbLine
 10
57.508
 20
450.60515
 30
0.0
 11
57.508
 21
446.50915
 31
0.0
  0
LINE
  5
133
330
1D
100
AcDbEntity
  8
0
100
AcDbLine
 10
57.508
 20
450.60515
 30
0.0
 11
57.508
 21
453.74715
 31
0.0
  0
LINE
  5
134
330
1D
100
AcDbEntity
  8
0
100
AcDbLine
 10
98.9049
 20
449.72315
 30
0.0
 11
99.6154
 21
449.61515
 31
0.0
  0
LINE
  5
135
330
1D
100
AcDbEntity
  8
0
100
AcDbLine
 10
99.6154
 20
443.97515
 30
0.0
 11
100.2694
 21
444.26315
 31
0.0
  0
LINE
  5
136
330
1D
100
AcDbEntity
  8
0
100
AcDbLine
 10
100.2694
 20
444.26315
 30
0.0
 11
100.8445
 21
444.73115
 31
0.0
  0
LINE
  5
137
330
1D
100
AcDbEntity
  8
0
100
AcDbLine
 10
100.8445
 20
444.73115
 30
0.0
 11
101.2842
 21
445.34315
 31
0.0
  0
LINE
  5
138
330
1D
100
AcDbEntity
  8
0
100
AcDbLine
 10
101.2842
 20
445.34315
 30
0.0
 11
101.5549
 21
446.03915
 31
0.0
  0
LINE
  5
139
330
1D
100
AcDbEntity
  8
0
100
AcDbLine
 10
101.5549
 20
446.03915
 30
0.0
 11
101.6564
 21
446.79515
 31
0.0
  0
LINE
  5
13A
330
1D
100
AcDbEntity
  8
0
100
AcDbLine
 10
99.6154
 20
449.61515
 30
0.0
 11
100.2694
 21
449.32715
 31
0.0
  0
LINE
  5
13B
330
1D
100
AcDbEntity
  8
0
100
AcDbLine
 10
100.2694
 20
449.32715
 30
0.0
 11
100.8445
 21
448.85915
 31
0.0
  0
LINE
  5
13C
330
1D
100
AcDbEntity
  8
0
100
AcDbLine
 10
100.8445
 20
448.85915
 30
0.0
 11
101.2842
 21
448.24715
 31
0.0
  0
LINE
  5
13D
330
1D
100
AcDbEntity
  8
0
100
AcDbLine
 10
101.2842
 20
448.24715
 30
0.0
 11
101.5549
 21
447.55115
 31
0.0
  0
LINE
  5
13E
330
1D
100
AcDbEntity
  8
0
100
AcDbLine
 10
101.5549
 20
447.55115
 30
0.0
 11
101.6564
 21
446.79515
 31
0.0
  0
LINE
  5
13F
330
1D
100
AcDbEntity
  8
0
100
AcDbLine
 10
99.1102
 20
449.79515
 30
0.0
 11
102.7538
 21
449.79515
 31
0.0
  0
LINE
  5
140
330
1D
100
AcDbEntity
  8
0
100
AcDbLine
 10
102.0
 20
442.26315
 30
0.0
 11
102.0
 21
438.01115
 31
0.0
  0
LINE
  5
141
330
1D
100
AcDbEntity
  8
0
100
AcDbLine
 10
102.0
 20
442.26315
 30
0.0
 11
102.0
 21
443.79515
 31
0.0
  0
LINE
  5
142
330
1D
100
AcDbEntity
  8
0
100
AcDbLine
 10
102.0
 20
443.79515
 30
0.0
 11
102.0
 21
442.26215
 31
0.0
  0
LINE
  5
143
330
1D
100
AcDbEntity
  8
0
100
AcDbLine
 10
102.0
 20
443.79515
 30
0.0
 11
102.0
 21
442.26315
 31
0.0
  0
LINE
  5
144
330
1D
100
AcDbEntity
  8
0
100
AcDbLine
 10
102.0
 20
442.26215
 30
0.0
 11
102.0
 21
443.79515
 31
0.0
  0
LINE
  5
145
330
1D
100
AcDbEntity
  8
0
100
AcDbLine
 10
102.0
 20
442.26215
 30
0.0
 11
102.0
 21
437.99415
 31
0.0
  0
LINE
  5
160
330
1D
100
AcDbEntity
  8
0
100
AcDbLine
 10
133.913
 20
428.80015
 30
0.0
 11
134.667
 21
429.28215
 31
0.0
  0
LINE
  5
161
330
1D
100
AcDbEntity
  8
0
100
AcDbLine
 10
102.7538
 20
428.80015
 30
0.0
 11
133.913
 21
428.80015
 31
0.0
  0
LINE
  5
162
330
1D
100
AcDbEntity
  8
0
100
AcDbLine
 10
102.0
 20
449.79515
 30
0.0
 11
102.0
 21
451.32715
 31
0.0
  0
LINE
  5
163
330
1D
100
AcDbEntity
  8
0
100
AcDbLine
 10
102.0
 20
449.79515
 30
0.0
 11
102.0
 21
451.32815
 31
0.0
  0
LINE
  5
164
330
1D
100
AcDbEntity
  8
0
100
AcDbLine
 10
0.0
 20
452.85715
 30
0.0
 11
0.0
 21
449.95115
 31
0.0
  0
LINE
  5
165
330
1D
100
AcDbEntity
  8
0
100
AcDbLine
 10
0.0
 20
452.85715
 30
0.0
 11
0.0
 21
454.73415
 31
0.0
  0
LINE
  5
166
330
1D
100
AcDbEntity
  8
0
100
AcDbLine
 10
45.492
 20
453.70315
 30
0.0
 11
45.492
 21
455.65415
 31
0.0
  0
LINE
  5
167
330
1D
100
AcDbEntity
  8
0
100
AcDbLine
 10
45.492
 20
453.70315
 30
0.0
 11
45.492
 21
450.65615
 31
0.0
  0
LINE
  5
168
330
1D
100
AcDbEntity
  8
0
100
AcDbLine
 10
0.50802
 20
453.70315
 30
0.0
 11
0.50802
 21
450.65615
 31
0.0
  0
LINE
  5
169
330
1D
100
AcDbEntity
  8
0
100
AcDbLine
 10
0.50802
 20
453.70315
 30
0.0
 11
0.50802
 21
455.65415
 31
0.0
  0
LINE
  5
16A
330
1D
100
AcDbEntity
  8
0
100
AcDbLine
 10
0.0
 20
454.73415
 30
0.0
 11
0.0
 21
455.32215
 31
0.0
  0
LINE
  5
16B
330
1D
100
AcDbEntity
  8
0
100
AcDbLine
 10
0.0
 20
454.73415
 30
0.0
 11
0.0
 21
452.85715
 31
0.0
  0
LINE
  5
16C
330
1D
100
AcDbEntity
  8
0
100
AcDbLine
 10
0.0
 20
455.32215
 30
0.0
 11
0.0
 21
454.73415
 31
0.0
  0
LINE
  5
16D
330
1D
100
AcDbEntity
  8
0
100
AcDbLine
 10
0.0
 20
455.32215
 30
0.0
 11
0.50802
 21
456.31615
 31
0.0
  0
LINE
  5
16E
330
1D
100
AcDbEntity
  8
0
100
AcDbLine
 10
57.508
 20
453.74715
 30
0.0
 11
57.508
 21
450.60515
 31
0.0
  0
LINE
  5
16F
330
1D
100
AcDbEntity
  8
0
100
AcDbLine
 10
57.508
 20
453.74715
 30
0.0
 11
57.508
 21
455.65215
 31
0.0
  0
LINE
  5
170
330
1D
100
AcDbEntity
  8
0
100
AcDbLine
 10
45.492
 20
455.65415
 30
0.0
 11
45.492
 21
456.31615
 31
0.0
  0
LINE
  5
171
330
1D
100
AcDbEntity
  8
0
100
AcDbLine
 10
45.492
 20
455.65415
 30
0.0
 11
45.492
 21
453.70315
 31
0.0
  0
LINE
  5
172
330
1D
100
AcDbEntity
  8
0
100
AcDbLine
 10
0.50802
 20
455.65415
 30
0.0
 11
0.50802
 21
456.31615
 31
0.0
  0
LINE
  5
173
330
1D
100
AcDbEntity
  8
0
100
AcDbLine
 10
0.50802
 20
455.65415
 30
0.0
 11
0.50802
 21
453.70315
 31
0.0
  0
LINE
  5
174
330
1D
100
AcDbEntity
  8
0
100
AcDbLine
 10
57.508
 20
455.65215
 30
0.0
 11
57.508
 21
453.74715
 31
0.0
  0
LINE
  5
175
330
1D
100
AcDbEntity
  8
0
100
AcDbLine
 10
57.508
 20
455.65215
 30
0.0
 11
57.508
 21
456.31915
 31
0.0
  0
LINE
  5
176
330
1D
100
AcDbEntity
  8
0
100
AcDbLine
 10
0.50802
 20
456.31615
 30
0.0
 11
0.50802
 21
455.65415
 31
0.0
  0
LINE
  5
177
330
1D
100
AcDbEntity
  8
0
100
AcDbLine
 10
0.50802
 20
456.31615
 30
0.0
 11
1.52406
 21
456.70915
 31
0.0
  0
LINE
  5
178
330
1D
100
AcDbEntity
  8
0
100
AcDbLine
 10
45.758265593561
 20
455.79515
 30
0.0
 11
57.228679958027
 21
455.79515
 31
0.0
  0
LINE
  5
179
330
1D
100
AcDbEntity
  8
0
100
AcDbLine
 10
45.492
 20
456.31615
 30
0.0
 11
45.492
 21
455.65415
 31
0.0
  0
LINE
  5
17A
330
1D
100
AcDbEntity
  8
0
100
AcDbLine
 10
45.492
 20
456.31615
 30
0.0
 11
45.758265593561
 21
455.79515
 31
0.0
  0
LINE
  5
17B
330
1D
100
AcDbEntity
  8
0
100
AcDbLine
 10
44.4759
 20
456.70915
 30
0.0
 11
45.492
 21
456.31615
 31
0.0
  0
LINE
  5
17C
330
1D
100
AcDbEntity
  8
0
100
AcDbLine
 10
23.0
 20
456.70915
 30
0.0
 11
44.4759
 21
456.70915
 31
0.0
  0
LINE
  5
17D
330
1D
100
AcDbEntity
  8
0
100
AcDbLine
 10
1.52406
 20
456.70915
 30
0.0
 11
23.0
 21
456.70915
 31
0.0
  0
LINE
  5
17E
330
1D
100
AcDbEntity
  8
0
100
AcDbLine
 10
57.205081219791
 20
455.750879138702
 30
0.0
 11
57.508
 21
456.31915
 31
0.0
  0
LINE
  5
17F
330
1D
100
AcDbEntity
  8
0
100
AcDbLine
 10
57.508
 20
456.31915
 30
0.0
 11
58.5241
 21
456.79515
 31
0.0
  0
LINE
  5
180
330
1D
100
AcDbEntity
  8
0
100
AcDbLine
 10
57.508
 20
456.31915
 30
0.0
 11
57.508
 21
455.65215
 31
0.0
  0
LINE
  5
181
330
1D
100
AcDbEntity
  8
0
100
AcDbLine
 10
58.5241
 20
456.79515
 30
0.0
 11
60.0
 21
456.79515
 31
0.0
  0
LINE
  5
182
330
1D
100
AcDbEntity
  8
0
100
AcDbLine
 10
94.0
 20
456.79515
 30
0.0
 11
94.0
 21
469.19515
 31
0.0
  0
LINE
  5
183
330
1D
100
AcDbEntity
  8
0
100
AcDbLine
 10
60.0
 20
456.79515
 30
0.0
 11
102.0
 21
456.79515
 31
0.0
  0
LINE
  5
184
330
1D
100
AcDbEntity
  8
0
100
AcDbLine
 10
60.0
 20
456.79515
 30
0.0
 11
60.0
 21
469.19515
 31
0.0
  0
LINE
  5
185
330
1D
100
AcDbEntity
  8
0
100
AcDbLine
 10
102.0
 20
459.18015
 30
0.0
 11
102.0
 21
455.59615
 31
0.0
  0
LINE
  5
186
330
1D
100
AcDbEntity
  8
0
100
AcDbLine
 10
102.0
 20
459.18015
 30
0.0
 11
102.0
 21
462.00915
 31
0.0
  0
LINE
  5
187
330
1D
100
AcDbEntity
  8
0
100
AcDbLine
 10
102.0
 20
455.59615
 30
0.0
 11
102.0
 21
451.32815
 31
0.0
  0
LINE
  5
188
330
1D
100
AcDbEntity
  8
0
100
AcDbLine
 10
102.0
 20
455.59615
 30
0.0
 11
102.0
 21
459.18015
 31
0.0
  0
LINE
  5
189
330
1D
100
AcDbEntity
  8
0
100
AcDbLine
 10
102.0
 20
451.32815
 30
0.0
 11
102.0
 21
449.79515
 31
0.0
  0
LINE
  5
18A
330
1D
100
AcDbEntity
  8
0
100
AcDbLine
 10
102.0
 20
451.32815
 30
0.0
 11
102.0
 21
455.59615
 31
0.0
  0
LINE
  5
18B
330
1D
100
AcDbEntity
  8
0
100
AcDbLine
 10
102.0
 20
462.00915
 30
0.0
 11
102.0
 21
463.71615
 31
0.0
  0
LINE
  5
18C
330
1D
100
AcDbEntity
  8
0
100
AcDbLine
 10
102.0
 20
462.00915
 30
0.0
 11
102.0
 21
459.18015
 31
0.0
  0
LINE
  5
18D
330
1D
100
AcDbEntity
  8
0
100
AcDbLine
 10
102.0
 20
463.71615
 30
0.0
 11
102.0
 21
462.00915
 31
0.0
  0
LINE
  5
18E
330
1D
100
AcDbEntity
  8
0
100
AcDbLine
 10
102.0
 20
463.71615
 30
0.0
 11
102.0
 21
464.30815
 31
0.0
  0
LINE
  5
18F
330
1D
100
AcDbEntity
  8
0
100
AcDbLine
 10
102.0
 20
463.71215
 30
0.0
 11
102.0
 21
464.30815
 31
0.0
  0
LINE
  5
190
330
1D
100
AcDbEntity
  8
0
100
AcDbLine
 10
102.0
 20
463.71215
 30
0.0
 11
102.0
 21
461.93615
 31
0.0
  0
LINE
  5
192
330
1D
100
AcDbEntity
  8
0
100
AcDbLine
 10
60.408
 20
469.79515
 30
0.0
 11
61.02
 21
469.79515
 31
0.0
  0
LINE
  5
193
330
1D
100
AcDbEntity
  8
0
100
AcDbLine
 10
60.0
 20
469.19515
 30
0.0
 11
60.408
 21
469.79515
 31
0.0
  0
LINE
  5
194
330
1D
100
AcDbEntity
  8
0
100
AcDbLine
 10
60.0
 20
469.19515
 30
0.0
 11
60.0
 21
456.79515
 31
0.0
  0
LINE
  5
195
330
1D
100
AcDbEntity
  8
0
100
AcDbLine
 10
61.0
 20
473.79515
 30
0.0
 11
61.0
 21
483.79515
 31
0.0
  0
LINE
  5
196
330
1D
100
AcDbEntity
  8
0
100
AcDbLine
 10
61.0
 20
473.79515
 30
0.0
 11
61.0
 21
472.79515
 31
0.0
  0
LINE
  5
197
330
1D
100
AcDbEntity
  8
0
100
AcDbLine
 10
61.0
 20
483.79515
 30
0.0
 11
61.0
 21
484.79515
 31
0.0
  0
LINE
  5
198
330
1D
100
AcDbEntity
  8
0
100
AcDbLine
 10
61.0
 20
483.79515
 30
0.0
 11
61.0
 21
473.79515
 31
0.0
  0
LINE
  5
19B
330
1D
100
AcDbEntity
  8
0
100
AcDbLine
 10
61.0
 20
483.79515
 30
0.0
 11
62.3713
 21
484.79515
 31
0.0
  0
LINE
  5
19C
330
1D
100
AcDbEntity
  8
0
100
AcDbLine
 10
61.0
 20
472.79515
 30
0.0
 11
61.0
 21
473.79515
 31
0.0
  0
LINE
  5
19D
330
1D
100
AcDbEntity
  8
0
100
AcDbLine
 10
61.0
 20
472.79515
 30
0.0
 11
61.3368
 21
472.79515
 31
0.0
  0
LINE
  5
19E
330
1D
100
AcDbEntity
  8
0
100
AcDbLine
 10
61.0
 20
472.79515
 30
0.0
 11
61.0
 21
472.03515
 31
0.0
  0
LINE
  5
19F
330
1D
100
AcDbEntity
  8
0
100
AcDbLine
 10
61.0
 20
484.79515
 30
0.0
 11
61.0
 21
485.55515
 31
0.0
  0
LINE
  5
1A1
330
1D
100
AcDbEntity
  8
0
100
AcDbLine
 10
61.0
 20
484.79515
 30
0.0
 11
61.0
 21
483.79515
 31
0.0
  0
LINE
  5
1A2
330
1D
100
AcDbEntity
  8
0
100
AcDbLine
 10
61.0
 20
472.03515
 30
0.0
 11
61.0
 21
472.79515
 31
0.0
  0
LINE
  5
1A3
330
1D
100
AcDbEntity
  8
0
100
AcDbLine
 10
61.0
 20
472.03515
 30
0.0
 11
61.0
 21
471.89515
 31
0.0
  0
LINE
  5
1A4
330
1D
100
AcDbEntity
  8
0
100
AcDbLine
 10
54.0
 20
485.79515
 30
0.0
 11
60.8
 21
485.79515
 31
0.0
  0
LINE
  5
1A5
330
1D
100
AcDbEntity
  8
0
100
AcDbLine
 10
60.8
 20
485.79515
 30
0.0
 11
61.4211
 21
485.79515
 31
0.0
  0
LINE
  5
1A6
330
1D
100
AcDbEntity
  8
0
100
AcDbLine
 10
48.9
 20
485.79515
 30
0.0
 11
54.0
 21
485.79515
 31
0.0
  0
LINE
  5
1A7
330
1D
100
AcDbEntity
  8
0
100
AcDbLine
 10
45.7
 20
485.79515
 30
0.0
 11
48.9
 21
485.79515
 31
0.0
  0
LINE
  5
1A8
330
1D
100
AcDbEntity
  8
0
100
AcDbLine
 10
44.7
 20
486.29515
 30
0.0
 11
48.0
 21
486.29515
 31
0.0
  0
LINE
  5
1A9
330
1D
100
AcDbEntity
  8
0
100
AcDbLine
 10
48.0
 20
486.29515
 30
0.0
 11
53.3
 21
486.29515
 31
0.0
  0
LINE
  5
1AA
330
1D
100
AcDbEntity
  8
0
100
AcDbLine
 10
47.6
 20
511.79515
 30
0.0
 11
53.0
 21
511.79515
 31
0.0
  0
LINE
  5
1AB
330
1D
100
AcDbEntity
  8
0
100
AcDbLine
 10
44.2
 20
511.79515
 30
0.0
 11
47.6
 21
511.79515
 31
0.0
  0
LINE
  5
1AC
330
1D
100
AcDbEntity
  8
0
100
AcDbLine
 10
53.3
 20
486.29515
 30
0.0
 11
60.3
 21
486.29515
 31
0.0
  0
LINE
  5
1AD
330
1D
100
AcDbEntity
  8
0
100
AcDbLine
 10
60.3
 20
486.29515
 30
0.0
 11
68.4
 21
486.29515
 31
0.0
  0
LINE
  5
1AE
330
1D
100
AcDbEntity
  8
0
100
AcDbLine
 10
53.0
 20
511.79515
 30
0.0
 11
60.1
 21
511.79515
 31
0.0
  0
LINE
  5
1AF
330
1D
100
AcDbEntity
  8
0
100
AcDbLine
 10
60.1
 20
511.79515
 30
0.0
 11
68.3
 21
511.79515
 31
0.0
  0
LINE
  5
1B0
330
1D
100
AcDbEntity
  8
0
100
AcDbLine
 10
43.5
 20
486.29515
 30
0.0
 11
44.5
 21
485.79515
 31
0.0
  0
LINE
  5
1B1
330
1D
100
AcDbEntity
  8
0
100
AcDbLine
 10
43.5
 20
486.29515
 30
0.0
 11
44.7
 21
486.29515
 31
0.0
  0
LINE
  5
1B2
330
1D
100
AcDbEntity
  8
0
100
AcDbLine
 10
44.5
 20
485.79515
 30
0.0
 11
45.7
 21
485.79515
 31
0.0
  0
LINE
  5
1B3
330
1D
100
AcDbEntity
  8
0
100
AcDbLine
 10
43.0
 20
487.29515
 30
0.0
 11
43.5
 21
486.29515
 31
0.0
  0
LINE
  5
1B4
330
1D
100
AcDbEntity
  8
0
100
AcDbLine
 10
43.0
 20
487.29515
 30
0.0
 11
43.0
 21
511.79515
 31
0.0
  0
LINE
  5
1B5
330
1D
100
AcDbEntity
  8
0
100
AcDbLine
 10
43.0
 20
511.79515
 30
0.0
 11
43.0
 21
487.29515
 31
0.0
  0
LINE
  5
1B6
330
1D
100
AcDbEntity
  8
0
100
AcDbLine
 10
43.0
 20
511.79515
 30
0.0
 11
44.2
 21
511.79515
 31
0.0
  0
LINE
  5
1B7
330
1D
100
AcDbEntity
  8
0
100
AcDbLine
 10
61.0
 20
485.69515
 30
0.0
 11
61.0
 21
485.55515
 31
0.0
  0
LINE
  5
1B8
330
1D
100
AcDbEntity
  8
0
100
AcDbLine
 10
61.0
 20
485.69515
 30
0.0
 11
61.4211
 21
485.79515
 31
0.0
  0
LINE
  5
1B9
330
1D
100
AcDbEntity
  8
0
100
AcDbLine
 10
61.0
 20
485.55515
 30
0.0
 11
61.0
 21
485.69515
 31
0.0
  0
LINE
  5
1BD
330
1D
100
AcDbEntity
  8
0
100
AcDbLine
 10
61.0
 20
485.55515
 30
0.0
 11
61.0
 21
484.79515
 31
0.0
  0
LINE
  5
1BE
330
1D
100
AcDbEntity
  8
0
100
AcDbLine
 10
61.02
 20
469.79515
 30
0.0
 11
62.652
 21
469.79515
 31
0.0
  0
LINE
  5
1BF
330
1D
100
AcDbEntity
  8
0
100
AcDbLine
 10
61.4211
 20
471.79515
 30
0.0
 11
62.0105
 21
471.79515
 31
0.0
  0
LINE
  5
1C1
330
1D
100
AcDbEntity
  8
0
100
AcDbLine
 10
62.0105
 20
471.79515
 30
0.0
 11
63.0
 21
471.79515
 31
0.0
  0
LINE
  5
1C3
330
1D
100
AcDbEntity
  8
0
100
AcDbLine
 10
61.3368
 20
472.79515
 30
0.0
 11
62.3713
 21
472.79515
 31
0.0
  0
LINE
  5
1C4
330
1D
100
AcDbEntity
  8
0
100
AcDbLine
 10
62.652
 20
469.79515
 30
0.0
 11
65.304
 21
469.79515
 31
0.0
  0
LINE
  5
1C5
330
1D
100
AcDbEntity
  8
0
100
AcDbLine
 10
63.0
 20
471.79515
 30
0.0
 11
63.0
 21
469.79515
 31
0.0
  0
LINE
  5
1C7
330
1D
100
AcDbEntity
  8
0
100
AcDbLine
 10
65.304
 20
469.79515
 30
0.0
 11
68.772
 21
469.79515
 31
0.0
  0
LINE
  5
1C8
330
1D
100
AcDbEntity
  8
0
100
AcDbLine
 10
68.772
 20
469.79515
 30
0.0
 11
72.716
 21
469.79515
 31
0.0
  0
LINE
  5
1CA
330
1D
100
AcDbEntity
  8
0
100
AcDbLine
 10
63.0
 20
469.79515
 30
0.0
 11
63.0
 21
471.79515
 31
0.0
  0
LINE
  5
1CB
330
1D
100
AcDbEntity
  8
0
100
AcDbLine
 10
65.0421
 20
472.15915
 30
0.0
 11
68.8555
 21
471.99715
 31
0.0
  0
LINE
  5
1CC
330
1D
100
AcDbEntity
  8
0
100
AcDbLine
 10
62.3713
 20
472.79515
 30
0.0
 11
65.0421
 21
472.15915
 31
0.0
  0
LINE
  5
1D3
330
1D
100
AcDbEntity
  8
0
100
AcDbLine
 10
65.0421
 20
485.43115
 30
0.0
 11
68.8555
 21
485.59315
 31
0.0
  0
LINE
  5
1D5
330
1D
100
AcDbEntity
  8
0
100
AcDbLine
 10
62.3713
 20
484.79515
 30
0.0
 11
65.0421
 21
485.43115
 31
0.0
  0
LINE
  5
1D7
330
1D
100
AcDbEntity
  8
0
100
AcDbLine
 10
68.8555
 20
471.99715
 30
0.0
 11
72.6481
 21
472.21415
 31
0.0
  0
LINE
  5
1D9
330
1D
100
AcDbEntity
  8
0
100
AcDbLine
 10
62.0105
 20
485.79515
 30
0.0
 11
63.5263
 21
485.79515
 31
0.0
  0
LINE
  5
1DA
330
1D
100
AcDbEntity
  8
0
100
AcDbLine
 10
63.5263
 20
485.79515
 30
0.0
 11
65.9684
 21
485.79515
 31
0.0
  0
LINE
  5
1DB
330
1D
100
AcDbEntity
  8
0
100
AcDbLine
 10
65.9684
 20
485.79515
 30
0.0
 11
69.2526
 21
485.79515
 31
0.0
  0
LINE
  5
1DE
330
1D
100
AcDbEntity
  8
0
100
AcDbLine
 10
68.8555
 20
485.59315
 30
0.0
 11
72.6481
 21
485.37615
 31
0.0
  0
LINE
  5
1DF
330
1D
100
AcDbEntity
  8
0
100
AcDbLine
 10
72.716
 20
469.79515
 30
0.0
 11
77.0
 21
469.79515
 31
0.0
  0
LINE
  5
1E0
330
1D
100
AcDbEntity
  8
0
100
AcDbLine
 10
77.0
 20
469.79515
 30
0.0
 11
81.284
 21
469.79515
 31
0.0
  0
LINE
  5
1E3
330
1D
100
AcDbEntity
  8
0
100
AcDbLine
 10
88.696
 20
469.79515
 30
0.0
 11
91.348
 21
469.79515
 31
0.0
  0
LINE
  5
1E4
330
1D
100
AcDbEntity
  8
0
100
AcDbLine
 10
85.228
 20
469.79515
 30
0.0
 11
88.696
 21
469.79515
 31
0.0
  0
LINE
  5
1E5
330
1D
100
AcDbEntity
  8
0
100
AcDbLine
 10
81.284
 20
469.79515
 30
0.0
 11
85.228
 21
469.79515
 31
0.0
  0
LINE
  5
1E7
330
1D
100
AcDbEntity
  8
0
100
AcDbLine
 10
91.348
 20
469.79515
 30
0.0
 11
92.98
 21
469.79515
 31
0.0
  0
LINE
  5
1E9
330
1D
100
AcDbEntity
  8
0
100
AcDbLine
 10
91.0
 20
469.79515
 30
0.0
 11
91.0
 21
471.79515
 31
0.0
  0
LINE
  5
1EA
330
1D
100
AcDbEntity
  8
0
100
AcDbLine
 10
63.0
 20
471.79515
 30
0.0
 11
91.9895
 21
471.79515
 31
0.0
  0
LINE
  5
1EB
330
1D
100
AcDbEntity
  8
0
100
AcDbLine
 10
91.0
 20
471.79515
 30
0.0
 11
91.0
 21
469.79515
 31
0.0
  0
LINE
  5
1EC
330
1D
100
AcDbEntity
  8
0
100
AcDbLine
 10
92.98
 20
469.79515
 30
0.0
 11
93.592
 21
469.79515
 31
0.0
  0
LINE
  5
1ED
330
1D
100
AcDbEntity
  8
0
100
AcDbLine
 10
93.592
 20
469.79515
 30
0.0
 11
94.0
 21
469.19515
 31
0.0
  0
LINE
  5
1EE
330
1D
100
AcDbEntity
  8
0
100
AcDbLine
 10
94.0
 20
469.19515
 30
0.0
 11
94.0
 21
456.79515
 31
0.0
  0
LINE
  5
1EF
330
1D
100
AcDbEntity
  8
0
100
AcDbLine
 10
92.579
 20
471.79515
 30
0.0
 11
93.0
 21
471.89515
 31
0.0
  0
LINE
  5
1F0
330
1D
100
AcDbEntity
  8
0
100
AcDbLine
 10
91.9895
 20
471.79515
 30
0.0
 11
92.579
 21
471.79515
 31
0.0
  0
LINE
  5
1F1
330
1D
100
AcDbEntity
  8
0
100
AcDbLine
 10
93.0
 20
471.89515
 30
0.0
 11
93.0
 21
472.03515
 31
0.0
  0
LINE
  5
1F8
330
1D
100
AcDbEntity
  8
0
100
AcDbLine
 10
93.0
 20
472.03515
 30
0.0
 11
93.0
 21
471.89515
 31
0.0
  0
LINE
  5
1F9
330
1D
100
AcDbEntity
  8
0
100
AcDbLine
 10
93.0
 20
472.03515
 30
0.0
 11
93.0
 21
472.79515
 31
0.0
  0
LINE
  5
1FA
330
1D
100
AcDbEntity
  8
0
100
AcDbLine
 10
85.1445
 20
471.99715
 30
0.0
 11
88.9579
 21
472.15915
 31
0.0
  0
LINE
  5
1FD
330
1D
100
AcDbEntity
  8
0
100
AcDbLine
 10
75.0225
 20
484.79515
 30
0.0
 11
77.0
 21
484.79515
 31
0.0
  0
LINE
  5
1FE
330
1D
100
AcDbEntity
  8
0
100
AcDbLine
 10
77.0
 20
472.79515
 30
0.0
 11
78.9775
 21
472.79515
 31
0.0
  0
LINE
  5
200
330
1D
100
AcDbEntity
  8
0
100
AcDbLine
 10
78.9775
 20
484.79515
 30
0.0
 11
81.3519
 21
485.37615
 31
0.0
  0
LINE
  5
201
330
1D
100
AcDbEntity
  8
0
100
AcDbLine
 10
78.9775
 20
472.79515
 30
0.0
 11
81.3519
 21
472.21415
 31
0.0
  0
LINE
  5
202
330
1D
100
AcDbEntity
  8
0
100
AcDbLine
 10
91.6287
 20
472.79515
 30
0.0
 11
92.6632
 21
472.79515
 31
0.0
  0
LINE
  5
203
330
1D
100
AcDbEntity
  8
0
100
AcDbLine
 10
81.3519
 20
472.21415
 30
0.0
 11
85.1445
 21
471.99715
 31
0.0
  0
LINE
  5
204
330
1D
100
AcDbEntity
  8
0
100
AcDbLine
 10
88.9579
 20
472.15915
 30
0.0
 11
91.6287
 21
472.79515
 31
0.0
  0
LINE
  5
205
330
1D
100
AcDbEntity
  8
0
100
AcDbLine
 10
92.6632
 20
472.79515
 30
0.0
 11
93.0
 21
472.79515
 31
0.0
  0
LINE
  5
209
330
1D
100
AcDbEntity
  8
0
100
AcDbLine
 10
93.0
 20
484.79515
 30
0.0
 11
93.0
 21
483.79515
 31
0.0
  0
LINE
  5
20A
330
1D
100
AcDbEntity
  8
0
100
AcDbLine
 10
93.0
 20
484.79515
 30
0.0
 11
93.0
 21
485.55515
 31
0.0
  0
LINE
  5
20B
330
1D
100
AcDbEntity
  8
0
100
AcDbLine
 10
93.0
 20
483.79515
 30
0.0
 11
93.0
 21
473.79515
 31
0.0
  0
LINE
  5
20C
330
1D
100
AcDbEntity
  8
0
100
AcDbLine
 10
93.0
 20
483.79515
 30
0.0
 11
93.0
 21
484.79515
 31
0.0
  0
LINE
  5
20D
330
1D
100
AcDbEntity
  8
0
100
AcDbLine
 10
93.0
 20
473.79515
 30
0.0
 11
93.0
 21
472.79515
 31
0.0
  0
LINE
  5
20E
330
1D
100
AcDbEntity
  8
0
100
AcDbLine
 10
93.0
 20
473.79515
 30
0.0
 11
93.0
 21
483.79515
 31
0.0
  0
LINE
  5
20F
330
1D
100
AcDbEntity
  8
0
100
AcDbLine
 10
93.0
 20
472.79515
 30
0.0
 11
93.0
 21
472.03515
 31
0.0
  0
LINE
  5
210
330
1D
100
AcDbEntity
  8
0
100
AcDbLine
 10
93.0
 20
472.79515
 30
0.0
 11
93.0
 21
473.79515
 31
0.0
  0
LINE
  5
213
330
1D
100
AcDbEntity
  8
0
100
AcDbLine
 10
91.6287
 20
484.79515
 30
0.0
 11
93.0
 21
483.79515
 31
0.0
  0
LINE
  5
214
330
1D
100
AcDbEntity
  8
0
100
AcDbLine
 10
81.3519
 20
485.37615
 30
0.0
 11
85.1445
 21
485.59315
 31
0.0
  0
LINE
  5
218
330
1D
100
AcDbEntity
  8
0
100
AcDbLine
 10
77.0
 20
484.79515
 30
0.0
 11
78.9775
 21
484.79515
 31
0.0
  0
LINE
  5
219
330
1D
100
AcDbEntity
  8
0
100
AcDbLine
 10
75.0225
 20
472.79515
 30
0.0
 11
77.0
 21
472.79515
 31
0.0
  0
LINE
  5
21E
330
1D
100
AcDbEntity
  8
0
100
AcDbLine
 10
72.6481
 20
472.21415
 30
0.0
 11
75.0225
 21
472.79515
 31
0.0
  0
LINE
  5
221
330
1D
100
AcDbEntity
  8
0
100
AcDbLine
 10
88.9579
 20
485.43115
 30
0.0
 11
91.6287
 21
484.79515
 31
0.0
  0
LINE
  5
224
330
1D
100
AcDbEntity
  8
0
100
AcDbLine
 10
93.0
 20
485.55515
 30
0.0
 11
93.0
 21
484.79515
 31
0.0
  0
LINE
  5
225
330
1D
100
AcDbEntity
  8
0
100
AcDbLine
 10
84.7473
 20
485.79515
 30
0.0
 11
88.0315
 21
485.79515
 31
0.0
  0
LINE
  5
227
330
1D
100
AcDbEntity
  8
0
100
AcDbLine
 10
100.0
 20
485.79515
 30
0.0
 11
105.1
 21
485.79515
 31
0.0
  0
LINE
  5
228
330
1D
100
AcDbEntity
  8
0
100
AcDbLine
 10
93.2
 20
485.79515
 30
0.0
 11
100.0
 21
485.79515
 31
0.0
  0
LINE
  5
229
330
1D
100
AcDbEntity
  8
0
100
AcDbLine
 10
92.579
 20
485.79515
 30
0.0
 11
93.0
 21
485.69515
 31
0.0
  0
LINE
  5
22A
330
1D
100
AcDbEntity
  8
0
100
AcDbLine
 10
92.579
 20
485.79515
 30
0.0
 11
93.2
 21
485.79515
 31
0.0
  0
LINE
  5
22C
330
1D
100
AcDbEntity
  8
0
100
AcDbLine
 10
91.9895
 20
485.79515
 30
0.0
 11
92.579
 21
485.79515
 31
0.0
  0
LINE
  5
22D
330
1D
100
AcDbEntity
  8
0
100
AcDbLine
 10
93.0
 20
485.69515
 30
0.0
 11
93.0
 21
485.55515
 31
0.0
  0
LINE
  5
22E
330
1D
100
AcDbEntity
  8
0
100
AcDbLine
 10
88.0315
 20
485.79515
 30
0.0
 11
90.4737
 21
485.79515
 31
0.0
  0
LINE
  5
230
330
1D
100
AcDbEntity
  8
0
100
AcDbLine
 10
90.4737
 20
485.79515
 30
0.0
 11
91.9895
 21
485.79515
 31
0.0
  0
LINE
  5
234
330
1D
100
AcDbEntity
  8
0
100
AcDbLine
 10
81.0421
 20
485.79515
 30
0.0
 11
84.7473
 21
485.79515
 31
0.0
  0
LINE
  5
235
330
1D
100
AcDbEntity
  8
0
100
AcDbLine
 10
85.1445
 20
485.59315
 30
0.0
 11
88.9579
 21
485.43115
 31
0.0
  0
LINE
  5
237
330
1D
100
AcDbEntity
  8
0
100
AcDbLine
 10
77.0
 20
485.79515
 30
0.0
 11
81.0421
 21
485.79515
 31
0.0
  0
LINE
  5
23C
330
1D
100
AcDbEntity
  8
0
100
AcDbLine
 10
72.9579
 20
485.79515
 30
0.0
 11
77.0
 21
485.79515
 31
0.0
  0
LINE
  5
23E
330
1D
100
AcDbEntity
  8
0
100
AcDbLine
 10
72.6481
 20
485.37615
 30
0.0
 11
75.0225
 21
484.79515
 31
0.0
  0
LINE
  5
241
330
1D
100
AcDbEntity
  8
0
100
AcDbLine
 10
69.2526
 20
485.79515
 30
0.0
 11
72.9579
 21
485.79515
 31
0.0
  0
LINE
  5
243
330
1D
100
AcDbEntity
  8
0
100
AcDbLine
 10
68.4
 20
486.29515
 30
0.0
 11
77.0
 21
486.29515
 31
0.0
  0
LINE
  5
244
330
1D
100
AcDbEntity
  8
0
100
AcDbLine
 10
68.3
 20
511.79515
 30
0.0
 11
77.0
 21
511.79515
 31
0.0
  0
LINE
  5
245
330
1D
100
AcDbEntity
  8
0
100
AcDbLine
 10
77.0
 20
486.29515
 30
0.0
 11
85.6
 21
486.29515
 31
0.0
  0
LINE
  5
246
330
1D
100
AcDbEntity
  8
0
100
AcDbLine
 10
93.7
 20
486.29515
 30
0.0
 11
100.7
 21
486.29515
 31
0.0
  0
LINE
  5
247
330
1D
100
AcDbEntity
  8
0
100
AcDbLine
 10
85.6
 20
486.29515
 30
0.0
 11
93.7
 21
486.29515
 31
0.0
  0
LINE
  5
248
330
1D
100
AcDbEntity
  8
0
100
AcDbLine
 10
100.7
 20
486.29515
 30
0.0
 11
106.0
 21
486.29515
 31
0.0
  0
LINE
  5
249
330
1D
100
AcDbEntity
  8
0
100
AcDbLine
 10
101.0
 20
511.79515
 30
0.0
 11
106.4
 21
511.79515
 31
0.0
  0
LINE
  5
24A
330
1D
100
AcDbEntity
  8
0
100
AcDbLine
 10
93.9
 20
511.79515
 30
0.0
 11
101.0
 21
511.79515
 31
0.0
  0
LINE
  5
24B
330
1D
100
AcDbEntity
  8
0
100
AcDbLine
 10
85.7
 20
511.79515
 30
0.0
 11
93.9
 21
511.79515
 31
0.0
  0
LINE
  5
24C
330
1D
100
AcDbEntity
  8
0
100
AcDbLine
 10
77.0
 20
511.79515
 30
0.0
 11
85.7
 21
511.79515
 31
0.0
  0
LINE
  5
24D
330
1D
100
AcDbEntity
  8
0
100
AcDbLine
 10
61.4211
 20
485.79515
 30
0.0
 11
62.0105
 21
485.79515
 31
0.0
  0
LINE
  5
24E
330
1D
100
AcDbEntity
  8
0
100
AcDbLine
 10
61.0
 20
471.89515
 30
0.0
 11
61.0
 21
472.03515
 31
0.0
  0
LINE
  5
24F
330
1D
100
AcDbEntity
  8
0
100
AcDbLine
 10
61.0
 20
471.89515
 30
0.0
 11
61.4211
 21
471.79515
 31
0.0
  0
LINE
  5
250
330
1D
100
AcDbEntity
  8
0
100
AcDbLine
 10
102.0
 20
464.30815
 30
0.0
 11
102.7538
 21
464.79015
 31
0.0
  0
LINE
  5
251
330
1D
100
AcDbEntity
  8
0
100
AcDbLine
 10
102.0
 20
464.30815
 30
0.0
 11
102.0
 21
463.71615
 31
0.0
  0
LINE
  5
252
330
1D
100
AcDbEntity
  8
0
100
AcDbLine
 10
102.0
 20
464.30815
 30
0.0
 11
102.0
 21
463.71215
 31
0.0
  0
LINE
  5
253
330
1D
100
AcDbEntity
  8
0
100
AcDbLine
 10
102.0
 20
461.93615
 30
0.0
 11
102.0
 21
463.71215
 31
0.0
  0
LINE
  5
254
330
1D
100
AcDbEntity
  8
0
100
AcDbLine
 10
102.0
 20
461.93615
 30
0.0
 11
102.0
 21
459.18315
 31
0.0
  0
LINE
  5
255
330
1D
100
AcDbEntity
  8
0
100
AcDbLine
 10
102.0
 20
459.18315
 30
0.0
 11
102.0
 21
461.93615
 31
0.0
  0
LINE
  5
256
330
1D
100
AcDbEntity
  8
0
100
AcDbLine
 10
102.0
 20
459.18315
 30
0.0
 11
102.0
 21
455.57915
 31
0.0
  0
LINE
  5
257
330
1D
100
AcDbEntity
  8
0
100
AcDbLine
 10
105.1
 20
485.79515
 30
0.0
 11
108.3
 21
485.79515
 31
0.0
  0
LINE
  5
258
330
1D
100
AcDbEntity
  8
0
100
AcDbLine
 10
106.0
 20
486.29515
 30
0.0
 11
109.3
 21
486.29515
 31
0.0
  0
LINE
  5
259
330
1D
100
AcDbEntity
  8
0
100
AcDbLine
 10
109.3
 20
486.29515
 30
0.0
 11
110.5
 21
486.29515
 31
0.0
  0
LINE
  5
25A
330
1D
100
AcDbEntity
  8
0
100
AcDbLine
 10
108.3
 20
485.79515
 30
0.0
 11
109.5
 21
485.79515
 31
0.0
  0
LINE
  5
25B
330
1D
100
AcDbEntity
  8
0
100
AcDbLine
 10
109.5
 20
485.79515
 30
0.0
 11
110.5
 21
486.29515
 31
0.0
  0
LINE
  5
25C
330
1D
100
AcDbEntity
  8
0
100
AcDbLine
 10
110.5
 20
486.29515
 30
0.0
 11
111.0
 21
487.29515
 31
0.0
  0
LINE
  5
25D
330
1D
100
AcDbEntity
  8
0
100
AcDbLine
 10
111.0
 20
487.29515
 30
0.0
 11
111.0
 21
511.79515
 31
0.0
  0
LINE
  5
25E
330
1D
100
AcDbEntity
  8
0
100
AcDbLine
 10
106.4
 20
511.79515
 30
0.0
 11
109.8
 21
511.79515
 31
0.0
  0
LINE
  5
25F
330
1D
100
AcDbEntity
  8
0
100
AcDbLine
 10
111.0
 20
511.79515
 30
0.0
 11
111.0
 21
487.29515
 31
0.0
  0
LINE
  5
260
330
1D
100
AcDbEntity
  8
0
100
AcDbLine
 10
109.8
 20
511.79515
 30
0.0
 11
111.0
 21
511.79515
 31
0.0
  0
LINE
  5
261
330
1D
100
AcDbEntity
  8
0
100
AcDbLine
 10
122.0
 20
502.39515
 30
0.0
 11
122.72
 21
501.79515
 31
0.0
  0
LINE
  5
262
330
1D
100
AcDbEntity
  8
0
100
AcDbLine
 10
122.0
 20
502.39515
 30
0.0
 11
122.0
 21
511.79515
 31
0.0
  0
LINE
  5
263
330
1D
100
AcDbEntity
  8
0
100
AcDbLine
 10
122.0
 20
502.39515
 30
0.0
 11
123.08
 21
502.39515
 31
0.0
  0
LINE
  5
264
330
1D
100
AcDbEntity
  8
0
100
AcDbLine
 10
131.36
 20
501.79515
 30
0.0
 11
137.48
 21
501.79515
 31
0.0
  0
LINE
  5
265
330
1D
100
AcDbEntity
  8
0
100
AcDbLine
 10
126.68
 20
501.79515
 30
0.0
 11
131.36
 21
501.79515
 31
0.0
  0
LINE
  5
266
330
1D
100
AcDbEntity
  8
0
100
AcDbLine
 10
123.8
 20
501.79515
 30
0.0
 11
126.68
 21
501.79515
 31
0.0
  0
LINE
  5
267
330
1D
100
AcDbEntity
  8
0
100
AcDbLine
 10
123.08
 20
502.39515
 30
0.0
 11
125.96
 21
502.39515
 31
0.0
  0
LINE
  5
268
330
1D
100
AcDbEntity
  8
0
100
AcDbLine
 10
130.76
 20
502.39515
 30
0.0
 11
137.12
 21
502.39515
 31
0.0
  0
LINE
  5
269
330
1D
100
AcDbEntity
  8
0
100
AcDbLine
 10
125.96
 20
502.39515
 30
0.0
 11
130.76
 21
502.39515
 31
0.0
  0
LINE
  5
26A
330
1D
100
AcDbEntity
  8
0
100
AcDbLine
 10
130.76
 20
511.79515
 30
0.0
 11
137.12
 21
511.79515
 31
0.0
  0
LINE
  5
26B
330
1D
100
AcDbEntity
  8
0
100
AcDbLine
 10
125.96
 20
511.79515
 30
0.0
 11
130.76
 21
511.79515
 31
0.0
  0
LINE
  5
26C
330
1D
100
AcDbEntity
  8
0
100
AcDbLine
 10
123.08
 20
511.79515
 30
0.0
 11
125.96
 21
511.79515
 31
0.0
  0
LINE
  5
26D
330
1D
100
AcDbEntity
  8
0
100
AcDbLine
 10
122.72
 20
501.79515
 30
0.0
 11
123.8
 21
501.79515
 31
0.0
  0
LINE
  5
26E
330
1D
100
AcDbEntity
  8
0
100
AcDbLine
 10
122.0
 20
511.79515
 30
0.0
 11
122.0
 21
502.39515
 31
0.0
  0
LINE
  5
26F
330
1D
100
AcDbEntity
  8
0
100
AcDbLine
 10
122.0
 20
511.79515
 30
0.0
 11
123.08
 21
511.79515
 31
0.0
  0
LINE
  5
270
330
1D
100
AcDbEntity
  8
0
100
AcDbLine
 10
102.7538
 20
464.79015
 30
0.0
 11
133.913
 21
464.79015
 31
0.0
  0
LINE
  5
271
330
1D
100
AcDbEntity
  8
0
100
AcDbLine
 10
102.0
 20
455.57915
 30
0.0
 11
102.0
 21
451.32715
 31
0.0
  0
LINE
  5
272
330
1D
100
AcDbEntity
  8
0
100
AcDbLine
 10
102.0
 20
455.57915
 30
0.0
 11
102.0
 21
459.18315
 31
0.0
  0
LINE
  5
273
330
1D
100
AcDbEntity
  8
0
100
AcDbLine
 10
102.0
 20
451.32715
 30
0.0
 11
102.0
 21
455.57915
 31
0.0
  0
LINE
  5
274
330
1D
100
AcDbEntity
  8
0
100
AcDbLine
 10
102.0
 20
451.32715
 30
0.0
 11
102.0
 21
449.79515
 31
0.0
  0
LINE
  5
275
330
1D
100
AcDbEntity
  8
0
100
AcDbLine
 10
134.667
 20
429.28215
 30
0.0
 11
134.667
 21
429.87815
 31
0.0
  0
LINE
  5
276
330
1D
100
AcDbEntity
  8
0
100
AcDbLine
 10
134.667
 20
429.28215
 30
0.0
 11
135.421
 21
428.80015
 31
0.0
  0
LINE
  5
277
330
1D
100
AcDbEntity
  8
0
100
AcDbLine
 10
134.667
 20
429.87815
 30
0.0
 11
134.667
 21
431.65415
 31
0.0
  0
LINE
  5
278
330
1D
100
AcDbEntity
  8
0
100
AcDbLine
 10
134.667
 20
429.87815
 30
0.0
 11
134.667
 21
429.28215
 31
0.0
  0
LINE
  5
279
330
1D
100
AcDbEntity
  8
0
100
AcDbLine
 10
134.667
 20
431.65415
 30
0.0
 11
134.667
 21
434.40715
 31
0.0
  0
LINE
  5
27A
330
1D
100
AcDbEntity
  8
0
100
AcDbLine
 10
134.667
 20
431.65415
 30
0.0
 11
134.667
 21
429.87815
 31
0.0
  0
LINE
  5
27B
330
1D
100
AcDbEntity
  8
0
100
AcDbLine
 10
134.667
 20
459.18015
 30
0.0
 11
134.667
 21
462.00915
 31
0.0
  0
LINE
  5
27C
330
1D
100
AcDbEntity
  8
0
100
AcDbLine
 10
134.667
 20
459.18015
 30
0.0
 11
134.667
 21
455.59615
 31
0.0
  0
LINE
  5
27D
330
1D
100
AcDbEntity
  8
0
100
AcDbLine
 10
134.667
 20
455.59615
 30
0.0
 11
134.667
 21
459.18015
 31
0.0
  0
LINE
  5
27E
330
1D
100
AcDbEntity
  8
0
100
AcDbLine
 10
134.667
 20
455.59615
 30
0.0
 11
134.667
 21
451.32815
 31
0.0
  0
LINE
  5
27F
330
1D
100
AcDbEntity
  8
0
100
AcDbLine
 10
134.667
 20
451.32815
 30
0.0
 11
134.667
 21
455.59615
 31
0.0
  0
LINE
  5
280
330
1D
100
AcDbEntity
  8
0
100
AcDbLine
 10
134.667
 20
451.32815
 30
0.0
 11
134.667
 21
446.74415
 31
0.0
  0
LINE
  5
281
330
1D
100
AcDbEntity
  8
0
100
AcDbLine
 10
134.667
 20
446.74415
 30
0.0
 11
134.667
 21
451.32815
 31
0.0
  0
LINE
  5
282
330
1D
100
AcDbEntity
  8
0
100
AcDbLine
 10
134.667
 20
446.74415
 30
0.0
 11
134.667
 21
442.26315
 31
0.0
  0
LINE
  5
283
330
1D
100
AcDbEntity
  8
0
100
AcDbLine
 10
134.667
 20
442.26315
 30
0.0
 11
134.667
 21
446.74415
 31
0.0
  0
LINE
  5
284
330
1D
100
AcDbEntity
  8
0
100
AcDbLine
 10
134.667
 20
442.26315
 30
0.0
 11
134.667
 21
438.01115
 31
0.0
  0
LINE
  5
285
330
1D
100
AcDbEntity
  8
0
100
AcDbLine
 10
134.667
 20
438.01115
 30
0.0
 11
134.667
 21
442.26315
 31
0.0
  0
LINE
  5
286
330
1D
100
AcDbEntity
  8
0
100
AcDbLine
 10
134.667
 20
438.01115
 30
0.0
 11
134.667
 21
434.40715
 31
0.0
  0
LINE
  5
287
330
1D
100
AcDbEntity
  8
0
100
AcDbLine
 10
134.667
 20
434.40715
 30
0.0
 11
134.667
 21
438.01115
 31
0.0
  0
LINE
  5
288
330
1D
100
AcDbEntity
  8
0
100
AcDbLine
 10
134.667
 20
434.40715
 30
0.0
 11
134.667
 21
431.65415
 31
0.0
  0
LINE
  5
318
330
1D
100
AcDbEntity
  8
0
100
AcDbLine
 10
141.842
 20
0.64325
 30
0.0
 11
151.959
 21
0.20485
 31
0.0
  0
LINE
  5
4E9
330
1D
100
AcDbEntity
  8
0
100
AcDbLine
 10
163.0
 20
416.79515
 30
0.0
 11
172.0
 21
416.79515
 31
0.0
  0
LINE
  5
4EA
330
1D
100
AcDbEntity
  8
0
100
AcDbLine
 10
163.0
 20
416.79515
 30
0.0
 11
172.0
 21
416.79515
 31
0.0
  0
LINE
  5
4ED
330
1D
100
AcDbEntity
  8
0
100
AcDbLine
 10
172.0
 20
414.79515
 30
0.0
 11
172.504
 21
411.74015
 31
0.0
  0
LINE
  5
4EE
330
1D
100
AcDbEntity
  8
0
100
AcDbLine
 10
172.0
 20
414.79515
 30
0.0
 11
172.0
 21
436.79515
 31
0.0
  0
LINE
  5
4EF
330
1D
100
AcDbEntity
  8
0
100
AcDbLine
 10
172.0
 20
414.79515
 30
0.0
 11
172.504
 21
417.85015
 31
0.0
  0
LINE
  5
4F0
330
1D
100
AcDbEntity
  8
0
100
AcDbLine
 10
163.0
 20
428.80015
 30
0.0
 11
172.0
 21
428.80015
 31
0.0
  0
LINE
  5
4F1
330
1D
100
AcDbEntity
  8
0
100
AcDbLine
 10
135.421
 20
428.80015
 30
0.0
 11
141.0
 21
428.80015
 31
0.0
  0
LINE
  5
4F2
330
1D
100
AcDbEntity
  8
0
100
AcDbLine
 10
172.0
 20
428.80015
 30
0.0
 11
172.0
 21
429.38615
 31
0.0
  0
LINE
  5
4F3
330
1D
100
AcDbEntity
  8
0
100
AcDbLine
 10
172.0
 20
429.38615
 30
0.0
 11
172.0
 21
431.25115
 31
0.0
  0
LINE
  5
4F4
330
1D
100
AcDbEntity
  8
0
100
AcDbLine
 10
172.0
 20
429.38615
 30
0.0
 11
172.0
 21
428.80015
 31
0.0
  0
LINE
  5
4F5
330
1D
100
AcDbEntity
  8
0
100
AcDbLine
 10
163.0
 20
432.29515
 30
0.0
 11
163.0
 21
438.30115
 31
0.0
  0
LINE
  5
4F7
330
1D
100
AcDbEntity
  8
0
100
AcDbLine
 10
163.0
 20
438.30115
 30
0.0
 11
163.0
 21
442.91015
 31
0.0
  0
LINE
  5
4F8
330
1D
100
AcDbEntity
  8
0
100
AcDbLine
 10
163.0
 20
438.30115
 30
0.0
 11
163.0
 21
432.29515
 31
0.0
  0
LINE
  5
4F9
330
1D
100
AcDbEntity
  8
0
100
AcDbLine
 10
141.0
 20
432.29515
 30
0.0
 11
141.0
 21
438.30115
 31
0.0
  0
LINE
  5
4FB
330
1D
100
AcDbEntity
  8
0
100
AcDbLine
 10
141.0
 20
438.30115
 30
0.0
 11
141.0
 21
442.91015
 31
0.0
  0
LINE
  5
4FC
330
1D
100
AcDbEntity
  8
0
100
AcDbLine
 10
141.0
 20
438.30115
 30
0.0
 11
141.0
 21
432.29515
 31
0.0
  0
LINE
  5
4FD
330
1D
100
AcDbEntity
  8
0
100
AcDbLine
 10
172.0
 20
436.79515
 30
0.0
 11
172.0
 21
414.79515
 31
0.0
  0
LINE
  5
4FE
330
1D
100
AcDbEntity
  8
0
100
AcDbLine
 10
172.0
 20
436.79515
 30
0.0
 11
172.504
 21
439.85015
 31
0.0
  0
LINE
  5
4FF
330
1D
100
AcDbEntity
  8
0
100
AcDbLine
 10
172.0
 20
436.79515
 30
0.0
 11
172.0
 21
437.79515
 31
0.0
  0
LINE
  5
500
330
1D
100
AcDbEntity
  8
0
100
AcDbLine
 10
141.0
 20
446.79515
 30
0.0
 11
141.0
 21
445.80715
 31
0.0
  0
LINE
  5
501
330
1D
100
AcDbEntity
  8
0
100
AcDbLine
 10
141.0
 20
446.79515
 30
0.0
 11
141.396
 21
449.61115
 31
0.0
  0
LINE
  5
502
330
1D
100
AcDbEntity
  8
0
100
AcDbLine
 10
141.0
 20
445.80715
 30
0.0
 11
141.0
 21
446.79515
 31
0.0
  0
LINE
  5
503
330
1D
100
AcDbEntity
  8
0
100
AcDbLine
 10
141.0
 20
445.80715
 30
0.0
 11
141.0
 21
442.91015
 31
0.0
  0
LINE
  5
504
330
1D
100
AcDbEntity
  8
0
100
AcDbLine
 10
163.0
 20
442.91015
 30
0.0
 11
163.0
 21
445.80715
 31
0.0
  0
LINE
  5
505
330
1D
100
AcDbEntity
  8
0
100
AcDbLine
 10
163.0
 20
442.91015
 30
0.0
 11
163.0
 21
438.30115
 31
0.0
  0
LINE
  5
506
330
1D
100
AcDbEntity
  8
0
100
AcDbLine
 10
162.604
 20
449.61115
 30
0.0
 11
163.0
 21
446.79515
 31
0.0
  0
LINE
  5
507
330
1D
100
AcDbEntity
  8
0
100
AcDbLine
 10
163.0
 20
445.80715
 30
0.0
 11
163.0
 21
442.91015
 31
0.0
  0
LINE
  5
508
330
1D
100
AcDbEntity
  8
0
100
AcDbLine
 10
163.0
 20
445.80715
 30
0.0
 11
163.0
 21
446.79515
 31
0.0
  0
LINE
  5
509
330
1D
100
AcDbEntity
  8
0
100
AcDbLine
 10
163.0
 20
446.79515
 30
0.0
 11
163.0
 21
445.80715
 31
0.0
  0
LINE
  5
50A
330
1D
100
AcDbEntity
  8
0
100
AcDbLine
 10
141.396
 20
449.61115
 30
0.0
 11
142.452
 21
452.25115
 31
0.0
  0
LINE
  5
50B
330
1D
100
AcDbEntity
  8
0
100
AcDbLine
 10
141.0
 20
442.91015
 30
0.0
 11
141.0
 21
438.30115
 31
0.0
  0
LINE
  5
50C
330
1D
100
AcDbEntity
  8
0
100
AcDbLine
 10
141.0
 20
442.91015
 30
0.0
 11
141.0
 21
445.80715
 31
0.0
  0
LINE
  5
50D
330
1D
100
AcDbEntity
  8
0
100
AcDbLine
 10
143.0
 20
452.97725
 30
0.0
 11
143.0
 21
501.79515
 31
0.0
  0
LINE
  5
50E
330
1D
100
AcDbEntity
  8
0
100
AcDbLine
 10
161.0
 20
452.97725
 30
0.0
 11
161.0
 21
501.79515
 31
0.0
  0
LINE
  5
50F
330
1D
100
AcDbEntity
  8
0
100
AcDbLine
 10
159.788
 20
454.58315
 30
0.0
 11
161.548
 21
452.25115
 31
0.0
  0
LINE
  5
510
330
1D
100
AcDbEntity
  8
0
100
AcDbLine
 10
161.548
 20
452.25115
 30
0.0
 11
162.604
 21
449.61115
 31
0.0
  0
LINE
  5
511
330
1D
100
AcDbEntity
  8
0
100
AcDbLine
 10
154.816
 20
457.39915
 30
0.0
 11
157.456
 21
456.34315
 31
0.0
  0
LINE
  5
512
330
1D
100
AcDbEntity
  8
0
100
AcDbLine
 10
157.456
 20
456.34315
 30
0.0
 11
159.788
 21
454.58315
 31
0.0
  0
LINE
  5
513
330
1D
100
AcDbEntity
  8
0
100
AcDbLine
 10
152.0
 20
457.79515
 30
0.0
 11
154.816
 21
457.39915
 31
0.0
  0
LINE
  5
514
330
1D
100
AcDbEntity
  8
0
100
AcDbLine
 10
149.184
 20
457.39915
 30
0.0
 11
152.0
 21
457.79515
 31
0.0
  0
LINE
  5
515
330
1D
100
AcDbEntity
  8
0
100
AcDbLine
 10
146.544
 20
456.34315
 30
0.0
 11
149.184
 21
457.39915
 31
0.0
  0
LINE
  5
516
330
1D
100
AcDbEntity
  8
0
100
AcDbLine
 10
144.212
 20
454.58315
 30
0.0
 11
146.544
 21
456.34315
 31
0.0
  0
LINE
  5
517
330
1D
100
AcDbEntity
  8
0
100
AcDbLine
 10
142.452
 20
452.25115
 30
0.0
 11
144.212
 21
454.58315
 31
0.0
  0
LINE
  5
518
330
1D
100
AcDbEntity
  8
0
100
AcDbLine
 10
172.0
 20
459.51815
 30
0.0
 11
172.0
 21
462.38415
 31
0.0
  0
LINE
  5
519
330
1D
100
AcDbEntity
  8
0
100
AcDbLine
 10
172.0
 20
459.51815
 30
0.0
 11
172.0
 21
455.86215
 31
0.0
  0
LINE
  5
51A
330
1D
100
AcDbEntity
  8
0
100
AcDbLine
 10
172.0
 20
455.86215
 30
0.0
 11
172.0
 21
459.51815
 31
0.0
  0
LINE
  5
51B
330
1D
100
AcDbEntity
  8
0
100
AcDbLine
 10
172.0
 20
455.86215
 30
0.0
 11
172.0
 21
451.46015
 31
0.0
  0
LINE
  5
51C
330
1D
100
AcDbEntity
  8
0
100
AcDbLine
 10
172.0
 20
451.46015
 30
0.0
 11
172.0
 21
455.86215
 31
0.0
  0
LINE
  5
51D
330
1D
100
AcDbEntity
  8
0
100
AcDbLine
 10
172.0
 20
451.46015
 30
0.0
 11
172.0
 21
446.71515
 31
0.0
  0
LINE
  5
51E
330
1D
100
AcDbEntity
  8
0
100
AcDbLine
 10
172.0
 20
446.71515
 30
0.0
 11
172.0
 21
451.46015
 31
0.0
  0
LINE
  5
51F
330
1D
100
AcDbEntity
  8
0
100
AcDbLine
 10
172.0
 20
446.71515
 30
0.0
 11
172.0
 21
442.11015
 31
0.0
  0
LINE
  5
520
330
1D
100
AcDbEntity
  8
0
100
AcDbLine
 10
172.0
 20
442.11015
 30
0.0
 11
172.0
 21
446.71515
 31
0.0
  0
LINE
  5
521
330
1D
100
AcDbEntity
  8
0
100
AcDbLine
 10
172.0
 20
442.11015
 30
0.0
 11
172.0
 21
437.79515
 31
0.0
  0
LINE
  5
522
330
1D
100
AcDbEntity
  8
0
100
AcDbLine
 10
172.0
 20
437.79515
 30
0.0
 11
172.0
 21
442.11015
 31
0.0
  0
LINE
  5
523
330
1D
100
AcDbEntity
  8
0
100
AcDbLine
 10
172.0
 20
437.79515
 30
0.0
 11
172.0
 21
436.79515
 31
0.0
  0
LINE
  5
524
330
1D
100
AcDbEntity
  8
0
100
AcDbLine
 10
172.0
 20
437.79515
 30
0.0
 11
172.0
 21
434.12815
 31
0.0
  0
LINE
  5
525
330
1D
100
AcDbEntity
  8
0
100
AcDbLine
 10
172.0
 20
431.25115
 30
0.0
 11
172.0
 21
434.12815
 31
0.0
  0
LINE
  5
526
330
1D
100
AcDbEntity
  8
0
100
AcDbLine
 10
172.0
 20
431.25115
 30
0.0
 11
172.0
 21
429.38615
 31
0.0
  0
LINE
  5
53C
330
1D
100
AcDbEntity
  8
0
100
AcDbLine
 10
175.0
 20
352.18815
 30
0.0
 11
175.0
 21
364.09215
 31
0.0
  0
LINE
  5
53E
330
1D
100
AcDbEntity
  8
0
100
AcDbLine
 10
175.0
 20
364.09215
 30
0.0
 11
175.0
 21
375.90115
 31
0.0
  0
LINE
  5
53F
330
1D
100
AcDbEntity
  8
0
100
AcDbLine
 10
175.0
 20
364.09215
 30
0.0
 11
175.0
 21
352.18815
 31
0.0
  0
LINE
  5
540
330
1D
100
AcDbEntity
  8
0
100
AcDbLine
 10
175.0
 20
375.90115
 30
0.0
 11
175.0
 21
388.11615
 31
0.0
  0
LINE
  5
541
330
1D
100
AcDbEntity
  8
0
100
AcDbLine
 10
175.0
 20
375.90115
 30
0.0
 11
175.0
 21
364.09215
 31
0.0
  0
LINE
  5
542
330
1D
100
AcDbEntity
  8
0
100
AcDbLine
 10
175.0
 20
388.11615
 30
0.0
 11
175.0
 21
375.90115
 31
0.0
  0
LINE
  5
543
330
1D
100
AcDbEntity
  8
0
100
AcDbLine
 10
175.0
 20
382.77215
 30
0.0
 11
175.0
 21
394.00515
 31
0.0
  0
LINE
  5
547
330
1D
100
AcDbEntity
  8
0
100
AcDbLine
 10
175.0
 20
394.00515
 30
0.0
 11
175.0
 21
402.96615
 31
0.0
  0
LINE
  5
548
330
1D
100
AcDbEntity
  8
0
100
AcDbLine
 10
175.0
 20
394.00515
 30
0.0
 11
175.0
 21
382.77215
 31
0.0
  0
LINE
  5
549
330
1D
100
AcDbEntity
  8
0
100
AcDbLine
 10
175.0
 20
402.96615
 30
0.0
 11
175.0
 21
419.23115
 31
0.0
  0
LINE
  5
54A
330
1D
100
AcDbEntity
  8
0
100
AcDbLine
 10
175.0
 20
402.96615
 30
0.0
 11
175.0
 21
394.00515
 31
0.0
  0
LINE
  5
54F
330
1D
100
AcDbEntity
  8
0
100
AcDbLine
 10
199.0
 20
375.90115
 30
0.0
 11
199.0
 21
364.09215
 31
0.0
  0
LINE
  5
550
330
1D
100
AcDbEntity
  8
0
100
AcDbLine
 10
199.0
 20
364.09215
 30
0.0
 11
199.0
 21
375.90115
 31
0.0
  0
LINE
  5
551
330
1D
100
AcDbEntity
  8
0
100
AcDbLine
 10
199.0
 20
364.09215
 30
0.0
 11
199.0
 21
352.18815
 31
0.0
  0
LINE
  5
552
330
1D
100
AcDbEntity
  8
0
100
AcDbLine
 10
199.0
 20
375.90115
 30
0.0
 11
199.0
 21
400.54315
 31
0.0
  0
LINE
  5
553
330
1D
100
AcDbEntity
  8
0
100
AcDbLine
 10
199.0
 20
409.60015
 30
0.0
 11
199.0
 21
400.54315
 31
0.0
  0
LINE
  5
554
330
1D
100
AcDbEntity
  8
0
100
AcDbLine
 10
199.0
 20
409.60015
 30
0.0
 11
199.0
 21
421.43115
 31
0.0
  0
LINE
  5
555
330
1D
100
AcDbEntity
  8
0
100
AcDbLine
 10
199.0
 20
400.54315
 30
0.0
 11
199.0
 21
409.60015
 31
0.0
  0
LINE
  5
556
330
1D
100
AcDbEntity
  8
0
100
AcDbLine
 10
199.0
 20
400.54315
 30
0.0
 11
199.0
 21
375.90115
 31
0.0
  0
LINE
  5
557
330
1D
100
AcDbEntity
  8
0
100
AcDbLine
 10
199.0
 20
352.18815
 30
0.0
 11
199.0
 21
364.09215
 31
0.0
  0
LINE
  5
5D5
330
1D
100
AcDbEntity
  8
0
100
AcDbLine
 10
199.0
 20
410.683197619048
 30
0.0
 11
199.496
 21
411.74015
 31
0.0
  0
LINE
  5
5D6
330
1D
100
AcDbEntity
  8
0
100
AcDbLine
 10
199.496
 20
411.74015
 30
0.0
 11
200.0
 21
414.79515
 31
0.0
  0
LINE
  5
5D7
330
1D
100
AcDbEntity
  8
0
100
AcDbLine
 10
173.848
 20
408.87615
 30
0.0
 11
175.0
 21
407.575007142857
 31
0.0
  0
LINE
  5
5D8
330
1D
100
AcDbEntity
  8
0
100
AcDbLine
 10
172.504
 20
439.85015
 30
0.0
 11
173.848
 21
442.71415
 31
0.0
  0
LINE
  5
5D9
330
1D
100
AcDbEntity
  8
0
100
AcDbLine
 10
175.0
 20
419.23115
 30
0.0
 11
175.0
 21
402.96615
 31
0.0
  0
LINE
  5
5DA
330
1D
100
AcDbEntity
  8
0
100
AcDbLine
 10
200.0
 20
416.79515
 30
0.0
 11
245.476
 21
416.79515
 31
0.0
  0
LINE
  5
5E0
330
1D
100
AcDbEntity
  8
0
100
AcDbLine
 10
199.0
 20
421.43115
 30
0.0
 11
199.0
 21
409.60015
 31
0.0
  0
LINE
  5
5E1
330
1D
100
AcDbEntity
  8
0
100
AcDbLine
 10
175.0
 20
419.23115
 30
0.0
 11
175.0
 21
421.43115
 31
0.0
  0
LINE
  5
5E2
330
1D
100
AcDbEntity
  8
0
100
AcDbLine
 10
199.0
 20
418.907102380952
 30
0.0
 11
199.496
 21
417.85015
 31
0.0
  0
LINE
  5
5E3
330
1D
100
AcDbEntity
  8
0
100
AcDbLine
 10
199.496
 20
417.85015
 30
0.0
 11
200.0
 21
414.79515
 31
0.0
  0
LINE
  5
5E4
330
1D
100
AcDbEntity
  8
0
100
AcDbLine
 10
246.492
 20
419.84315
 30
0.0
 11
246.492
 21
422.98515
 31
0.0
  0
LINE
  5
5E5
330
1D
100
AcDbEntity
  8
0
100
AcDbLine
 10
246.492
 20
419.84315
 30
0.0
 11
246.492
 21
417.93815
 31
0.0
  0
LINE
  5
5E6
330
1D
100
AcDbEntity
  8
0
100
AcDbLine
 10
246.492
 20
417.93815
 30
0.0
 11
246.492
 21
419.84315
 31
0.0
  0
LINE
  5
5E7
330
1D
100
AcDbEntity
  8
0
100
AcDbLine
 10
246.492
 20
417.93815
 30
0.0
 11
246.492
 21
417.27115
 31
0.0
  0
LINE
  5
5E8
330
1D
100
AcDbEntity
  8
0
100
AcDbLine
 10
302.476
 20
416.88115
 30
0.0
 11
303.492
 21
417.27415
 31
0.0
  0
LINE
  5
5E9
330
1D
100
AcDbEntity
  8
0
100
AcDbLine
 10
281.0
 20
416.88115
 30
0.0
 11
302.476
 21
416.88115
 31
0.0
  0
LINE
  5
5EA
330
1D
100
AcDbEntity
  8
0
100
AcDbLine
 10
246.771320041973
 20
417.79515
 30
0.0
 11
258.241734406439
 21
417.79515
 31
0.0
  0
LINE
  5
5EB
330
1D
100
AcDbEntity
  8
0
100
AcDbLine
 10
258.219520020697
 20
417.838616731155
 30
0.0
 11
258.508
 21
417.27415
 31
0.0
  0
LINE
  5
5EC
330
1D
100
AcDbEntity
  8
0
100
AcDbLine
 10
258.508
 20
419.88215
 30
0.0
 11
258.508
 21
417.90615
 31
0.0
  0
LINE
  5
5ED
330
1D
100
AcDbEntity
  8
0
100
AcDbLine
 10
258.508
 20
419.88215
 30
0.0
 11
258.508
 21
423.02415
 31
0.0
  0
LINE
  5
5EE
330
1D
100
AcDbEntity
  8
0
100
AcDbLine
 10
258.508
 20
417.90615
 30
0.0
 11
258.508
 21
417.27415
 31
0.0
  0
LINE
  5
5EF
330
1D
100
AcDbEntity
  8
0
100
AcDbLine
 10
258.508
 20
417.90615
 30
0.0
 11
258.508
 21
419.88215
 31
0.0
  0
LINE
  5
5F0
330
1D
100
AcDbEntity
  8
0
100
AcDbLine
 10
303.492
 20
419.88215
 30
0.0
 11
303.492
 21
417.90615
 31
0.0
  0
LINE
  5
5F1
330
1D
100
AcDbEntity
  8
0
100
AcDbLine
 10
303.492
 20
419.88215
 30
0.0
 11
303.492
 21
423.02415
 31
0.0
  0
LINE
  5
5F2
330
1D
100
AcDbEntity
  8
0
100
AcDbLine
 10
304.0
 20
420.69815
 30
0.0
 11
304.0
 21
418.85715
 31
0.0
  0
LINE
  5
5F3
330
1D
100
AcDbEntity
  8
0
100
AcDbLine
 10
304.0
 20
420.69815
 30
0.0
 11
304.0
 21
423.70615
 31
0.0
  0
LINE
  5
5F4
330
1D
100
AcDbEntity
  8
0
100
AcDbLine
 10
304.0
 20
418.85715
 30
0.0
 11
304.0
 21
420.69815
 31
0.0
  0
LINE
  5
5F5
330
1D
100
AcDbEntity
  8
0
100
AcDbLine
 10
304.0
 20
418.85715
 30
0.0
 11
304.0
 21
418.26815
 31
0.0
  0
LINE
  5
5F6
330
1D
100
AcDbEntity
  8
0
100
AcDbLine
 10
304.0
 20
418.26815
 30
0.0
 11
304.0
 21
418.85715
 31
0.0
  0
LINE
  5
5F7
330
1D
100
AcDbEntity
  8
0
100
AcDbLine
 10
303.492
 20
417.90615
 30
0.0
 11
303.492
 21
419.88215
 31
0.0
  0
LINE
  5
5F8
330
1D
100
AcDbEntity
  8
0
100
AcDbLine
 10
303.492
 20
417.90615
 30
0.0
 11
303.492
 21
417.27415
 31
0.0
  0
LINE
  5
5F9
330
1D
100
AcDbEntity
  8
0
100
AcDbLine
 10
303.492
 20
417.27415
 30
0.0
 11
303.492
 21
417.90615
 31
0.0
  0
LINE
  5
5FA
330
1D
100
AcDbEntity
  8
0
100
AcDbLine
 10
303.492
 20
417.27415
 30
0.0
 11
304.0
 21
418.26815
 31
0.0
  0
LINE
  5
5FB
330
1D
100
AcDbEntity
  8
0
100
AcDbLine
 10
258.508
 20
417.27415
 30
0.0
 11
259.524
 21
416.88115
 31
0.0
  0
LINE
  5
5FC
330
1D
100
AcDbEntity
  8
0
100
AcDbLine
 10
258.508
 20
417.27415
 30
0.0
 11
258.508
 21
417.90615
 31
0.0
  0
LINE
  5
5FD
330
1D
100
AcDbEntity
  8
0
100
AcDbLine
 10
259.524
 20
416.88115
 30
0.0
 11
281.0
 21
416.88115
 31
0.0
  0
LINE
  5
5FE
330
1D
100
AcDbEntity
  8
0
100
AcDbLine
 10
246.492
 20
417.27115
 30
0.0
 11
246.771320041973
 21
417.79515
 31
0.0
  0
LINE
  5
5FF
330
1D
100
AcDbEntity
  8
0
100
AcDbLine
 10
246.492
 20
417.27115
 30
0.0
 11
246.492
 21
417.93815
 31
0.0
  0
LINE
  5
600
330
1D
100
AcDbEntity
  8
0
100
AcDbLine
 10
245.476
 20
416.79515
 30
0.0
 11
246.492
 21
417.27115
 31
0.0
  0
LINE
  5
601
330
1D
100
AcDbEntity
  8
0
100
AcDbLine
 10
200.0
 20
414.79515
 30
0.0
 11
200.0
 21
445.79515
 31
0.0
  0
LINE
  5
602
330
1D
100
AcDbEntity
  8
0
100
AcDbLine
 10
198.568
 20
422.76115
 30
0.0
 11
199.0
 21
421.43115
 31
0.0
  0
LINE
  5
603
330
1D
100
AcDbEntity
  8
0
100
AcDbLine
 10
197.416
 20
424.00815
 30
0.0
 11
198.568
 21
422.76115
 31
0.0
  0
LINE
  5
604
330
1D
100
AcDbEntity
  8
0
100
AcDbLine
 10
195.256
 20
425.30515
 30
0.0
 11
197.128
 21
424.24515
 31
0.0
  0
LINE
  5
605
330
1D
100
AcDbEntity
  8
0
100
AcDbLine
 10
197.128
 20
424.24515
 30
0.0
 11
197.416
 21
424.00815
 31
0.0
  0
LINE
  5
606
330
1D
100
AcDbEntity
  8
0
100
AcDbLine
 10
197.128
 20
424.24515
 30
0.0
 11
197.271794258995
 21
424.09474020652
 31
0.0
  0
LINE
  5
607
330
1D
100
AcDbEntity
  8
0
100
AcDbLine
 10
190.024
 20
426.61515
 30
0.0
 11
192.808
 21
426.11615
 31
0.0
  0
LINE
  5
608
330
1D
100
AcDbEntity
  8
0
100
AcDbLine
 10
192.808
 20
426.11615
 30
0.0
 11
195.256
 21
425.30515
 31
0.0
  0
LINE
  5
609
330
1D
100
AcDbEntity
  8
0
100
AcDbLine
 10
187.0
 20
426.80215
 30
0.0
 11
190.024
 21
426.61515
 31
0.0
  0
LINE
  5
60A
330
1D
100
AcDbEntity
  8
0
100
AcDbLine
 10
183.976
 20
426.61515
 30
0.0
 11
187.0
 21
426.80215
 31
0.0
  0
LINE
  5
60B
330
1D
100
AcDbEntity
  8
0
100
AcDbLine
 10
181.192
 20
426.11615
 30
0.0
 11
183.976
 21
426.61515
 31
0.0
  0
LINE
  5
60C
330
1D
100
AcDbEntity
  8
0
100
AcDbLine
 10
178.744
 20
425.30515
 30
0.0
 11
181.192
 21
426.11615
 31
0.0
  0
LINE
  5
60D
330
1D
100
AcDbEntity
  8
0
100
AcDbLine
 10
176.872
 20
424.24515
 30
0.0
 11
178.744
 21
425.30515
 31
0.0
  0
LINE
  5
60E
330
1D
100
AcDbEntity
  8
0
100
AcDbLine
 10
176.728205741005
 20
424.09474020652
 30
0.0
 11
176.872
 21
424.24515
 31
0.0
  0
LINE
  5
60F
330
1D
100
AcDbEntity
  8
0
100
AcDbLine
 10
176.584
 20
424.00815
 30
0.0
 11
176.872
 21
424.24515
 31
0.0
  0
LINE
  5
610
330
1D
100
AcDbEntity
  8
0
100
AcDbLine
 10
175.432
 20
422.76115
 30
0.0
 11
176.584
 21
424.00815
 31
0.0
  0
LINE
  5
611
330
1D
100
AcDbEntity
  8
0
100
AcDbLine
 10
175.0
 20
421.43115
 30
0.0
 11
175.0
 21
419.23115
 31
0.0
  0
LINE
  5
612
330
1D
100
AcDbEntity
  8
0
100
AcDbLine
 10
175.0
 20
421.43115
 30
0.0
 11
175.432
 21
422.76115
 31
0.0
  0
LINE
  5
613
330
1D
100
AcDbEntity
  8
0
100
AcDbLine
 10
195.912
 20
445.24415
 30
0.0
 11
198.152
 21
442.71415
 31
0.0
  0
LINE
  5
614
330
1D
100
AcDbEntity
  8
0
100
AcDbLine
 10
198.152
 20
442.71415
 30
0.0
 11
199.496
 21
439.85015
 31
0.0
  0
LINE
  5
615
330
1D
100
AcDbEntity
  8
0
100
AcDbLine
 10
246.492
 20
427.08115
 30
0.0
 11
246.492
 21
431.74715
 31
0.0
  0
LINE
  5
616
330
1D
100
AcDbEntity
  8
0
100
AcDbLine
 10
246.492
 20
427.08115
 30
0.0
 11
246.492
 21
422.98515
 31
0.0
  0
LINE
  5
617
330
1D
100
AcDbEntity
  8
0
100
AcDbLine
 10
303.138
 20
426.82015
 30
0.0
 11
303.646
 21
426.87915
 31
0.0
  0
LINE
  5
618
330
1D
100
AcDbEntity
  8
0
100
AcDbLine
 10
293.9
 20
426.82015
 30
0.0
 11
303.138
 21
426.82015
 31
0.0
  0
LINE
  5
619
330
1D
100
AcDbEntity
  8
0
100
AcDbLine
 10
283.9
 20
427.02815
 30
0.0
 11
284.154
 21
426.87915
 31
0.0
  0
LINE
  5
61A
330
1D
100
AcDbEntity
  8
0
100
AcDbLine
 10
283.9
 20
427.02815
 30
0.0
 11
283.9
 21
427.11615
 31
0.0
  0
LINE
  5
61B
330
1D
100
AcDbEntity
  8
0
100
AcDbLine
 10
284.154
 20
426.87915
 30
0.0
 11
284.662
 21
426.82015
 31
0.0
  0
LINE
  5
61C
330
1D
100
AcDbEntity
  8
0
100
AcDbLine
 10
284.662
 20
426.82015
 30
0.0
 11
293.9
 21
426.82015
 31
0.0
  0
LINE
  5
61D
330
1D
100
AcDbEntity
  8
0
100
AcDbLine
 10
303.9
 20
427.02815
 30
0.0
 11
303.9
 21
427.11615
 31
0.0
  0
LINE
  5
61E
330
1D
100
AcDbEntity
  8
0
100
AcDbLine
 10
303.646
 20
426.87915
 30
0.0
 11
303.9
 21
427.02815
 31
0.0
  0
LINE
  5
61F
330
1D
100
AcDbEntity
  8
0
100
AcDbLine
 10
304.0
 20
423.70615
 30
0.0
 11
304.0
 21
436.439834610817
 31
0.0
  0
LINE
  5
620
330
1D
100
AcDbEntity
  8
0
100
AcDbLine
 10
304.0
 20
423.70615
 30
0.0
 11
304.0
 21
420.69815
 31
0.0
  0
LINE
  5
621
330
1D
100
AcDbEntity
  8
0
100
AcDbLine
 10
303.492
 20
426.861264173228
 30
0.0
 11
303.492
 21
423.02415
 31
0.0
  0
LINE
  5
622
330
1D
100
AcDbEntity
  8
0
100
AcDbLine
 10
303.492
 20
423.02415
 30
0.0
 11
303.492
 21
426.861264173228
 31
0.0
  0
LINE
  5
623
330
1D
100
AcDbEntity
  8
0
100
AcDbLine
 10
303.492
 20
423.02415
 30
0.0
 11
303.492
 21
419.88215
 31
0.0
  0
LINE
  5
624
330
1D
100
AcDbEntity
  8
0
100
AcDbLine
 10
258.508
 20
423.02415
 30
0.0
 11
258.508
 21
419.88215
 31
0.0
  0
LINE
  5
625
330
1D
100
AcDbEntity
  8
0
100
AcDbLine
 10
258.508
 20
423.02415
 30
0.0
 11
258.508
 21
427.03915
 31
0.0
  0
LINE
  5
626
330
1D
100
AcDbEntity
  8
0
100
AcDbLine
 10
303.9
 20
427.11615
 30
0.0
 11
303.9
 21
427.02815
 31
0.0
  0
LINE
  5
627
330
1D
100
AcDbEntity
  8
0
100
AcDbLine
 10
303.9
 20
427.11615
 30
0.0
 11
303.9
 21
427.39215
 31
0.0
  0
LINE
  5
628
330
1D
100
AcDbEntity
  8
0
100
AcDbLine
 10
283.9
 20
427.84315
 30
0.0
 11
283.9
 21
428.42215
 31
0.0
  0
LINE
  5
629
330
1D
100
AcDbEntity
  8
0
100
AcDbLine
 10
283.9
 20
427.84315
 30
0.0
 11
283.9
 21
427.39215
 31
0.0
  0
LINE
  5
62A
330
1D
100
AcDbEntity
  8
0
100
AcDbLine
 10
303.9
 20
427.84315
 30
0.0
 11
303.9
 21
427.39215
 31
0.0
  0
LINE
  5
62C
330
1D
100
AcDbEntity
  8
0
100
AcDbLine
 10
303.9
 20
427.39215
 30
0.0
 11
303.9
 21
427.11615
 31
0.0
  0
LINE
  5
62D
330
1D
100
AcDbEntity
  8
0
100
AcDbLine
 10
303.9
 20
427.39215
 30
0.0
 11
303.9
 21
427.84315
 31
0.0
  0
LINE
  5
62E
330
1D
100
AcDbEntity
  8
0
100
AcDbLine
 10
283.9
 20
427.39215
 30
0.0
 11
283.9
 21
427.11615
 31
0.0
  0
LINE
  5
62F
330
1D
100
AcDbEntity
  8
0
100
AcDbLine
 10
283.9
 20
427.39215
 30
0.0
 11
283.9
 21
427.84315
 31
0.0
  0
LINE
  5
630
330
1D
100
AcDbEntity
  8
0
100
AcDbLine
 10
283.9
 20
427.11615
 30
0.0
 11
283.9
 21
429.44515
 31
0.0
  0
LINE
  5
631
330
1D
100
AcDbEntity
  8
0
100
AcDbLine
 10
283.9
 20
427.11615
 30
0.0
 11
283.9
 21
427.02815
 31
0.0
  0
LINE
  5
632
330
1D
100
AcDbEntity
  8
0
100
AcDbLine
 10
283.9
 20
427.11615
 30
0.0
 11
283.9
 21
427.39215
 31
0.0
  0
LINE
  5
633
330
1D
100
AcDbEntity
  8
0
100
AcDbLine
 10
304.0
 20
436.439834610817
 30
0.0
 11
304.0
 21
423.70615
 31
0.0
  0
LINE
  5
634
330
1D
100
AcDbEntity
  8
0
100
AcDbLine
 10
258.508
 20
427.03915
 30
0.0
 11
258.508
 21
423.02415
 31
0.0
  0
LINE
  5
635
330
1D
100
AcDbEntity
  8
0
100
AcDbLine
 10
258.508
 20
427.03915
 30
0.0
 11
258.508
 21
431.74215
 31
0.0
  0
LINE
  5
636
330
1D
100
AcDbEntity
  8
0
100
AcDbLine
 10
246.492
 20
422.98515
 30
0.0
 11
246.492
 21
419.84315
 31
0.0
  0
LINE
  5
637
330
1D
100
AcDbEntity
  8
0
100
AcDbLine
 10
246.492
 20
422.98515
 30
0.0
 11
246.492
 21
427.08115
 31
0.0
  0
LINE
  5
638
330
1D
100
AcDbEntity
  8
0
100
AcDbLine
 10
304.0
 20
427.986417889908
 30
0.0
 11
304.095
 21
427.98715
 31
0.0
  0
LINE
  5
639
330
1D
100
AcDbEntity
  8
0
100
AcDbLine
 10
304.095
 20
427.98715
 30
0.0
 11
317.0
 21
428.13115
 31
0.0
  0
LINE
  5
63C
330
1D
100
AcDbEntity
  8
0
100
AcDbLine
 10
283.9
 20
428.42215
 30
0.0
 11
283.9
 21
429.08615
 31
0.0
  0
LINE
  5
63D
330
1D
100
AcDbEntity
  8
0
100
AcDbLine
 10
283.9
 20
428.42215
 30
0.0
 11
283.9
 21
427.84315
 31
0.0
  0
LINE
  5
63E
330
1D
100
AcDbEntity
  8
0
100
AcDbLine
 10
317.0
 20
428.13115
 30
0.0
 11
328.964
 21
428.31215
 31
0.0
  0
LINE
  5
63F
330
1D
100
AcDbEntity
  8
0
100
AcDbLine
 10
328.964
 20
428.31215
 30
0.0
 11
339.782
 21
428.52815
 31
0.0
  0
LINE
  5
640
330
1D
100
AcDbEntity
  8
0
100
AcDbLine
 10
283.9
 20
430.52115
 30
0.0
 11
283.9
 21
431.20115
 31
0.0
  0
LINE
  5
641
330
1D
100
AcDbEntity
  8
0
100
AcDbLine
 10
283.9
 20
430.52115
 30
0.0
 11
283.9
 21
429.80215
 31
0.0
  0
LINE
  5
642
330
1D
100
AcDbEntity
  8
0
100
AcDbLine
 10
283.9
 20
429.80215
 30
0.0
 11
283.9
 21
430.52115
 31
0.0
  0
LINE
  5
643
330
1D
100
AcDbEntity
  8
0
100
AcDbLine
 10
283.9
 20
429.80215
 30
0.0
 11
283.9
 21
429.08615
 31
0.0
  0
LINE
  5
644
330
1D
100
AcDbEntity
  8
0
100
AcDbLine
 10
283.9
 20
429.08615
 30
0.0
 11
283.9
 21
429.80215
 31
0.0
  0
LINE
  5
645
330
1D
100
AcDbEntity
  8
0
100
AcDbLine
 10
283.9
 20
429.08615
 30
0.0
 11
283.9
 21
428.42215
 31
0.0
  0
LINE
  5
646
330
1D
100
AcDbEntity
  8
0
100
AcDbLine
 10
283.9
 20
431.20115
 30
0.0
 11
283.9
 21
431.78015
 31
0.0
  0
LINE
  5
647
330
1D
100
AcDbEntity
  8
0
100
AcDbLine
 10
283.9
 20
431.20115
 30
0.0
 11
283.9
 21
430.52115
 31
0.0
  0
LINE
  5
650
330
1D
100
AcDbEntity
  8
0
100
AcDbLine
 10
283.9
 20
429.44515
 30
0.0
 11
283.9
 21
427.11615
 31
0.0
  0
LINE
  5
651
330
1D
100
AcDbEntity
  8
0
100
AcDbLine
 10
283.9
 20
431.78015
 30
0.0
 11
283.9
 21
432.21615
 31
0.0
  0
LINE
  5
652
330
1D
100
AcDbEntity
  8
0
100
AcDbLine
 10
283.9
 20
431.78015
 30
0.0
 11
283.9
 21
431.20115
 31
0.0
  0
LINE
  5
659
330
1D
100
AcDbEntity
  8
0
100
AcDbLine
 10
283.9
 20
432.21615
 30
0.0
 11
283.9
 21
432.49815
 31
0.0
  0
LINE
  5
65A
330
1D
100
AcDbEntity
  8
0
100
AcDbLine
 10
283.9
 20
432.21615
 30
0.0
 11
283.9
 21
431.78015
 31
0.0
  0
LINE
  5
65B
330
1D
100
AcDbEntity
  8
0
100
AcDbLine
 10
283.9
 20
432.49815
 30
0.0
 11
283.9
 21
434.82715
 31
0.0
  0
LINE
  5
65C
330
1D
100
AcDbEntity
  8
0
100
AcDbLine
 10
283.9
 20
432.49815
 30
0.0
 11
283.9
 21
432.21615
 31
0.0
  0
LINE
  5
65E
330
1D
100
AcDbEntity
  8
0
100
AcDbLine
 10
258.508
 20
431.74215
 30
0.0
 11
258.508
 21
427.03915
 31
0.0
  0
LINE
  5
65F
330
1D
100
AcDbEntity
  8
0
100
AcDbLine
 10
258.508
 20
431.74215
 30
0.0
 11
258.508
 21
436.79015
 31
0.0
  0
LINE
  5
660
330
1D
100
AcDbEntity
  8
0
100
AcDbLine
 10
246.492
 20
431.74715
 30
0.0
 11
246.492
 21
436.79515
 31
0.0
  0
LINE
  5
661
330
1D
100
AcDbEntity
  8
0
100
AcDbLine
 10
246.492
 20
431.74715
 30
0.0
 11
246.492
 21
427.08115
 31
0.0
  0
LINE
  5
662
330
1D
100
AcDbEntity
  8
0
100
AcDbLine
 10
283.9
 20
434.82715
 30
0.0
 11
283.9
 21
432.49815
 31
0.0
  0
LINE
  5
667
330
1D
100
AcDbEntity
  8
0
100
AcDbLine
 10
258.508
 20
436.79015
 30
0.0
 11
258.508
 21
431.74215
 31
0.0
  0
LINE
  5
668
330
1D
100
AcDbEntity
  8
0
100
AcDbLine
 10
258.508
 20
436.79015
 30
0.0
 11
258.508
 21
439.015885540713
 31
0.0
  0
LINE
  5
669
330
1D
100
AcDbEntity
  8
0
100
AcDbLine
 10
246.492
 20
436.79515
 30
0.0
 11
246.492
 21
431.74715
 31
0.0
  0
LINE
  5
66A
330
1D
100
AcDbEntity
  8
0
100
AcDbLine
 10
246.492
 20
436.79515
 30
0.0
 11
246.492
 21
439.773609002416
 31
0.0
  0
LINE
  5
66B
330
1D
100
AcDbEntity
  8
0
100
AcDbLine
 10
205.711
 20
443.91815
 30
0.0
 11
241.504
 21
440.08815
 31
0.0
  0
LINE
  5
66C
330
1D
100
AcDbEntity
  8
0
100
AcDbLine
 10
258.508
 20
439.015885540713
 30
0.0
 11
258.508
 21
436.79015
 31
0.0
  0
LINE
  5
66D
330
1D
100
AcDbEntity
  8
0
100
AcDbLine
 10
246.492
 20
439.773609002416
 30
0.0
 11
246.492
 21
436.79515
 31
0.0
  0
LINE
  5
66E
330
1D
100
AcDbEntity
  8
0
100
AcDbLine
 10
241.504
 20
440.08815
 30
0.0
 11
269.652
 21
438.31315
 31
0.0
  0
LINE
  5
66F
330
1D
100
AcDbEntity
  8
0
100
AcDbLine
 10
269.652
 20
438.31315
 30
0.0
 11
305.021
 21
436.38415
 31
0.0
  0
LINE
  5
670
330
1D
100
AcDbEntity
  8
0
100
AcDbLine
 10
305.021
 20
436.38415
 30
0.0
 11
336.071
 21
434.55815
 31
0.0
  0
LINE
  5
671
330
1D
100
AcDbEntity
  8
0
100
AcDbLine
 10
336.071
 20
434.55815
 30
0.0
 11
353.005
 21
433.19315
 31
0.0
  0
LINE
  5
672
330
1D
100
AcDbEntity
  8
0
100
AcDbLine
 10
357.263
 20
429.04415
 30
0.0
 11
363.627
 21
429.33715
 31
0.0
  0
LINE
  5
673
330
1D
100
AcDbEntity
  8
0
100
AcDbLine
 10
363.627
 20
429.33715
 30
0.0
 11
368.252
 21
429.64615
 31
0.0
  0
LINE
  5
674
330
1D
100
AcDbEntity
  8
0
100
AcDbLine
 10
368.252
 20
429.64615
 30
0.0
 11
371.059
 21
429.96515
 31
0.0
  0
LINE
  5
675
330
1D
100
AcDbEntity
  8
0
100
AcDbLine
 10
371.059
 20
429.96515
 30
0.0
 11
373.089
 21
430.24715
 31
0.0
  0
LINE
  5
676
330
1D
100
AcDbEntity
  8
0
100
AcDbLine
 10
364.862128203703
 20
431.998272930721
 30
0.0
 11
369.952
 21
430.57915
 31
0.0
  0
LINE
  5
677
330
1D
100
AcDbEntity
  8
0
100
AcDbLine
 10
374.048
 20
430.57915
 30
0.0
 11
375.968
 21
431.34715
 31
0.0
  0
LINE
  5
678
330
1D
100
AcDbEntity
  8
0
100
AcDbLine
 10
373.089
 20
430.24715
 30
0.0
 11
374.048
 21
430.57915
 31
0.0
  0
LINE
  5
679
330
1D
100
AcDbEntity
  8
0
100
AcDbLine
 10
375.968
 20
431.34715
 30
0.0
 11
377.664
 21
432.62615
 31
0.0
  0
LINE
  5
67A
330
1D
100
AcDbEntity
  8
0
100
AcDbLine
 10
353.005
 20
433.19315
 30
0.0
 11
366.461
 21
431.83715
 31
0.0
  0
LINE
  5
67B
330
1D
100
AcDbEntity
  8
0
100
AcDbLine
 10
377.664
 20
432.62615
 30
0.0
 11
378.944
 21
434.32215
 31
0.0
  0
LINE
  5
67C
330
1D
100
AcDbEntity
  8
0
100
AcDbLine
 10
378.944
 20
434.32215
 30
0.0
 11
379.712
 21
436.24115
 31
0.0
  0
LINE
  5
67D
330
1D
100
AcDbEntity
  8
0
100
AcDbLine
 10
375.968
 20
445.23115
 30
0.0
 11
377.664
 21
443.95115
 31
0.0
  0
LINE
  5
67E
330
1D
100
AcDbEntity
  8
0
100
AcDbLine
 10
377.664
 20
443.95115
 30
0.0
 11
378.944
 21
442.25615
 31
0.0
  0
LINE
  5
67F
330
1D
100
AcDbEntity
  8
0
100
AcDbLine
 10
378.944
 20
442.25615
 30
0.0
 11
379.712
 21
440.33615
 31
0.0
  0
LINE
  5
680
330
1D
100
AcDbEntity
  8
0
100
AcDbLine
 10
379.712
 20
440.33615
 30
0.0
 11
380.0
 21
438.28915
 31
0.0
  0
LINE
  5
681
330
1D
100
AcDbEntity
  8
0
100
AcDbLine
 10
379.712
 20
436.24115
 30
0.0
 11
380.0
 21
438.28915
 31
0.0
  0
LINE
  5
682
330
1D
100
AcDbEntity
  8
0
100
AcDbLine
 10
349.269
 20
428.77315
 30
0.0
 11
357.263
 21
429.04415
 31
0.0
  0
LINE
  5
683
330
1D
100
AcDbEntity
  8
0
100
AcDbLine
 10
339.782
 20
428.52815
 30
0.0
 11
349.269
 21
428.77315
 31
0.0
  0
LINE
  5
685
330
1D
100
AcDbEntity
  8
0
100
AcDbLine
 10
175.0
 20
446.71515
 30
0.0
 11
175.0
 21
451.46015
 31
0.0
  0
LINE
  5
686
330
1D
100
AcDbEntity
  8
0
100
AcDbLine
 10
175.0
 20
451.46015
 30
0.0
 11
175.0
 21
455.86215
 31
0.0
  0
LINE
  5
687
330
1D
100
AcDbEntity
  8
0
100
AcDbLine
 10
175.0
 20
451.46015
 30
0.0
 11
175.0
 21
446.71515
 31
0.0
  0
LINE
  5
688
330
1D
100
AcDbEntity
  8
0
100
AcDbLine
 10
175.0
 20
455.86215
 30
0.0
 11
175.0
 21
459.51815
 31
0.0
  0
LINE
  5
689
330
1D
100
AcDbEntity
  8
0
100
AcDbLine
 10
175.0
 20
455.86215
 30
0.0
 11
175.0
 21
451.46015
 31
0.0
  0
LINE
  5
68A
330
1D
100
AcDbEntity
  8
0
100
AcDbLine
 10
175.0
 20
462.38415
 30
0.0
 11
175.0
 21
459.51815
 31
0.0
  0
LINE
  5
68B
330
1D
100
AcDbEntity
  8
0
100
AcDbLine
 10
175.0
 20
462.38415
 30
0.0
 11
175.0
 21
464.12615
 31
0.0
  0
LINE
  5
68C
330
1D
100
AcDbEntity
  8
0
100
AcDbLine
 10
175.0
 20
459.51815
 30
0.0
 11
175.0
 21
462.38415
 31
0.0
  0
LINE
  5
68D
330
1D
100
AcDbEntity
  8
0
100
AcDbLine
 10
175.0
 20
459.51815
 30
0.0
 11
175.0
 21
455.86215
 31
0.0
  0
LINE
  5
68E
330
1D
100
AcDbEntity
  8
0
100
AcDbLine
 10
179.008
 20
461.63215
 30
0.0
 11
182.333
 21
462.21615
 31
0.0
  0
LINE
  5
68F
330
1D
100
AcDbEntity
  8
0
100
AcDbLine
 10
176.054
 20
460.09115
 30
0.0
 11
179.008
 21
461.63215
 31
0.0
  0
LINE
  5
690
330
1D
100
AcDbEntity
  8
0
100
AcDbLine
 10
175.0
 20
458.955448277425
 30
0.0
 11
176.054
 21
460.09115
 31
0.0
  0
LINE
  5
691
330
1D
100
AcDbEntity
  8
0
100
AcDbLine
 10
199.981815897085
 20
445.955366690546
 30
0.0
 11
205.711
 21
443.91815
 31
0.0
  0
LINE
  5
692
330
1D
100
AcDbEntity
  8
0
100
AcDbLine
 10
189.584
 20
448.29915
 30
0.0
 11
192.944
 21
447.15315
 31
0.0
  0
LINE
  5
693
330
1D
100
AcDbEntity
  8
0
100
AcDbLine
 10
192.944
 20
447.15315
 30
0.0
 11
195.912
 21
445.24415
 31
0.0
  0
LINE
  5
694
330
1D
100
AcDbEntity
  8
0
100
AcDbLine
 10
368.496
 20
447.55015
 30
0.0
 11
374.048
 21
445.99915
 31
0.0
  0
LINE
  5
695
330
1D
100
AcDbEntity
  8
0
100
AcDbLine
 10
366.461
 20
447.83315
 30
0.0
 11
368.496
 21
447.55015
 31
0.0
  0
LINE
  5
696
330
1D
100
AcDbEntity
  8
0
100
AcDbLine
 10
374.048
 20
445.99915
 30
0.0
 11
375.968
 21
445.23115
 31
0.0
  0
LINE
  5
697
330
1D
100
AcDbEntity
  8
0
100
AcDbLine
 10
200.0
 20
445.79515
 30
0.0
 11
200.0
 21
414.79515
 31
0.0
  0
LINE
  5
698
330
1D
100
AcDbEntity
  8
0
100
AcDbLine
 10
182.333
 20
462.21615
 30
0.0
 11
186.241
 21
461.86015
 31
0.0
  0
LINE
  5
699
330
1D
100
AcDbEntity
  8
0
100
AcDbLine
 10
186.62986364154
 20
461.715324928022
 30
0.0
 11
188.95
 21
463.28715
 31
0.0
  0
LINE
  5
69A
330
1D
100
AcDbEntity
  8
0
100
AcDbLine
 10
186.241
 20
461.86015
 30
0.0
 11
189.745
 21
460.55515
 31
0.0
  0
LINE
  5
69B
330
1D
100
AcDbEntity
  8
0
100
AcDbLine
 10
189.745
 20
460.55515
 30
0.0
 11
193.07
 21
458.55615
 31
0.0
  0
LINE
  5
69C
330
1D
100
AcDbEntity
  8
0
100
AcDbLine
 10
193.07
 20
458.55615
 30
0.0
 11
195.945
 21
455.74915
 31
0.0
  0
LINE
  5
69D
330
1D
100
AcDbEntity
  8
0
100
AcDbLine
 10
195.945
 20
455.74915
 30
0.0
 11
198.461
 21
452.34315
 31
0.0
  0
LINE
  5
69E
330
1D
100
AcDbEntity
  8
0
100
AcDbLine
 10
353.005
 20
449.18915
 30
0.0
 11
366.461
 21
447.83315
 31
0.0
  0
LINE
  5
69F
330
1D
100
AcDbEntity
  8
0
100
AcDbLine
 10
336.071
 20
450.55415
 30
0.0
 11
353.005
 21
449.18915
 31
0.0
  0
LINE
  5
6A0
330
1D
100
AcDbEntity
  8
0
100
AcDbLine
 10
258.508
 20
455.011885540713
 30
0.0
 11
258.508
 21
455.65415
 31
0.0
  0
LINE
  5
6A1
330
1D
100
AcDbEntity
  8
0
100
AcDbLine
 10
258.508
 20
455.65415
 30
0.0
 11
258.508
 21
456.31615
 31
0.0
  0
LINE
  5
6A2
330
1D
100
AcDbEntity
  8
0
100
AcDbLine
 10
258.508
 20
455.65415
 30
0.0
 11
258.508
 21
455.011885540713
 31
0.0
  0
LINE
  5
6A3
330
1D
100
AcDbEntity
  8
0
100
AcDbLine
 10
246.771320041973
 20
455.79515
 30
0.0
 11
258.241734406439
 21
455.79515
 31
0.0
  0
LINE
  5
6A4
330
1D
100
AcDbEntity
  8
0
100
AcDbLine
 10
258.241734406439
 20
455.79515
 30
0.0
 11
258.508
 21
456.31615
 31
0.0
  0
LINE
  5
6A5
330
1D
100
AcDbEntity
  8
0
100
AcDbLine
 10
246.492
 20
455.769609002416
 30
0.0
 11
246.492
 21
456.31915
 31
0.0
  0
LINE
  5
6A9
330
1D
100
AcDbEntity
  8
0
100
AcDbLine
 10
304.0
 20
452.85715
 30
0.0
 11
304.0
 21
454.73415
 31
0.0
  0
LINE
  5
6AA
330
1D
100
AcDbEntity
  8
0
100
AcDbLine
 10
304.0
 20
455.32215
 30
0.0
 11
304.0
 21
454.73415
 31
0.0
  0
LINE
  5
6AB
330
1D
100
AcDbEntity
  8
0
100
AcDbLine
 10
304.0
 20
454.73415
 30
0.0
 11
304.0
 21
455.32215
 31
0.0
  0
LINE
  5
6AC
330
1D
100
AcDbEntity
  8
0
100
AcDbLine
 10
304.0
 20
454.73415
 30
0.0
 11
304.0
 21
452.435834610817
 31
0.0
  0
LINE
  5
6AF
330
1D
100
AcDbEntity
  8
0
100
AcDbLine
 10
305.021
 20
452.38015
 30
0.0
 11
336.071
 21
450.55415
 31
0.0
  0
LINE
  5
6B0
330
1D
100
AcDbEntity
  8
0
100
AcDbLine
 10
269.652
 20
454.30915
 30
0.0
 11
305.021
 21
452.38015
 31
0.0
  0
LINE
  5
6B2
330
1D
100
AcDbEntity
  8
0
100
AcDbLine
 10
303.492
 20
456.31615
 30
0.0
 11
304.0
 21
455.32215
 31
0.0
  0
LINE
  5
6B3
330
1D
100
AcDbEntity
  8
0
100
AcDbLine
 10
302.476
 20
456.70915
 30
0.0
 11
303.492
 21
456.31615
 31
0.0
  0
LINE
  5
6B4
330
1D
100
AcDbEntity
  8
0
100
AcDbLine
 10
281.0
 20
456.70915
 30
0.0
 11
302.476
 21
456.70915
 31
0.0
  0
LINE
  5
6B5
330
1D
100
AcDbEntity
  8
0
100
AcDbLine
 10
258.508
 20
456.31615
 30
0.0
 11
258.508
 21
455.65415
 31
0.0
  0
LINE
  5
6B6
330
1D
100
AcDbEntity
  8
0
100
AcDbLine
 10
258.508
 20
456.31615
 30
0.0
 11
259.524
 21
456.70915
 31
0.0
  0
LINE
  5
6B7
330
1D
100
AcDbEntity
  8
0
100
AcDbLine
 10
259.524
 20
456.70915
 30
0.0
 11
281.0
 21
456.70915
 31
0.0
  0
LINE
  5
6B8
330
1D
100
AcDbEntity
  8
0
100
AcDbLine
 10
246.492
 20
456.31915
 30
0.0
 11
246.794918780209
 21
455.750879138702
 31
0.0
  0
LINE
  5
6B9
330
1D
100
AcDbEntity
  8
0
100
AcDbLine
 10
246.492
 20
456.31915
 30
0.0
 11
246.492
 21
455.769609002416
 31
0.0
  0
LINE
  5
6BA
330
1D
100
AcDbEntity
  8
0
100
AcDbLine
 10
245.476
 20
456.79515
 30
0.0
 11
246.492
 21
456.31915
 31
0.0
  0
LINE
  5
6BB
330
1D
100
AcDbEntity
  8
0
100
AcDbLine
 10
244.0
 20
456.79515
 30
0.0
 11
245.476
 21
456.79515
 31
0.0
  0
LINE
  5
6BE
330
1D
100
AcDbEntity
  8
0
100
AcDbLine
 10
208.029
 20
459.42715
 30
0.0
 11
241.504
 21
456.08415
 31
0.0
  0
LINE
  5
6BF
330
1D
100
AcDbEntity
  8
0
100
AcDbLine
 10
208.029
 20
459.42715
 30
0.0
 11
208.029
 21
459.42715
 31
0.0
  0
LINE
  5
6C0
330
1D
100
AcDbEntity
  8
0
100
AcDbLine
 10
241.504
 20
456.08415
 30
0.0
 11
269.652
 21
454.30915
 31
0.0
  0
LINE
  5
6C2
330
1D
100
AcDbEntity
  8
0
100
AcDbLine
 10
198.461
 20
452.34315
 30
0.0
 11
199.63
 21
449.05515
 31
0.0
  0
LINE
  5
6C3
330
1D
100
AcDbEntity
  8
0
100
AcDbLine
 10
199.63
 20
449.05515
 30
0.0
 11
200.0
 21
445.79515
 31
0.0
  0
LINE
  5
6C4
330
1D
100
AcDbEntity
  8
0
100
AcDbLine
 10
186.0
 20
448.72815
 30
0.0
 11
189.584
 21
448.29915
 31
0.0
  0
LINE
  5
6C5
330
1D
100
AcDbEntity
  8
0
100
AcDbLine
 10
182.416
 20
448.29915
 30
0.0
 11
186.0
 21
448.72815
 31
0.0
  0
LINE
  5
6C6
330
1D
100
AcDbEntity
  8
0
100
AcDbLine
 10
179.056
 20
447.15315
 30
0.0
 11
182.416
 21
448.29915
 31
0.0
  0
LINE
  5
6C7
330
1D
100
AcDbEntity
  8
0
100
AcDbLine
 10
176.088
 20
445.24415
 30
0.0
 11
179.056
 21
447.15315
 31
0.0
  0
LINE
  5
6C8
330
1D
100
AcDbEntity
  8
0
100
AcDbLine
 10
173.848
 20
442.71415
 30
0.0
 11
176.088
 21
445.24415
 31
0.0
  0
LINE
  5
6C9
330
1D
100
AcDbEntity
  8
0
100
AcDbLine
 10
173.848
 20
420.71415
 30
0.0
 11
175.299677326321
 21
422.353767694461
 31
0.0
  0
LINE
  5
6CA
330
1D
100
AcDbEntity
  8
0
100
AcDbLine
 10
172.504
 20
417.85015
 30
0.0
 11
173.848
 21
420.71415
 31
0.0
  0
LINE
  5
6CB
330
1D
100
AcDbEntity
  8
0
100
AcDbLine
 10
172.504
 20
411.74015
 30
0.0
 11
173.848
 21
408.87615
 31
0.0
  0
LINE
  5
6CC
330
1D
100
AcDbEntity
  8
0
100
AcDbLine
 10
172.0
 20
434.12815
 30
0.0
 11
172.0
 21
437.79515
 31
0.0
  0
LINE
  5
6CD
330
1D
100
AcDbEntity
  8
0
100
AcDbLine
 10
172.0
 20
434.12815
 30
0.0
 11
172.0
 21
431.25115
 31
0.0
  0
LINE
  5
6CE
330
1D
100
AcDbEntity
  8
0
100
AcDbLine
 10
188.95
 20
463.28715
 30
0.0
 11
190.423
 21
464.18815
 31
0.0
  0
LINE
  5
6CF
330
1D
100
AcDbEntity
  8
0
100
AcDbLine
 10
172.0
 20
462.38415
 30
0.0
 11
172.0
 21
464.12615
 31
0.0
  0
LINE
  5
6D0
330
1D
100
AcDbEntity
  8
0
100
AcDbLine
 10
172.0
 20
462.38415
 30
0.0
 11
172.0
 21
459.51815
 31
0.0
  0
LINE
  5
6D1
330
1D
100
AcDbEntity
  8
0
100
AcDbLine
 10
134.667
 20
462.00915
 30
0.0
 11
134.667
 21
463.71615
 31
0.0
  0
LINE
  5
6D2
330
1D
100
AcDbEntity
  8
0
100
AcDbLine
 10
134.667
 20
462.00915
 30
0.0
 11
134.667
 21
459.18015
 31
0.0
  0
LINE
  5
6D3
330
1D
100
AcDbEntity
  8
0
100
AcDbLine
 10
175.0
 20
464.12615
 30
0.0
 11
175.0
 21
464.79015
 31
0.0
  0
LINE
  5
6D4
330
1D
100
AcDbEntity
  8
0
100
AcDbLine
 10
175.0
 20
464.12615
 30
0.0
 11
175.0
 21
462.38415
 31
0.0
  0
LINE
  5
6D5
330
1D
100
AcDbEntity
  8
0
100
AcDbLine
 10
196.617
 20
464.14615
 30
0.0
 11
208.029
 21
459.42715
 31
0.0
  0
LINE
  5
6D6
330
1D
100
AcDbEntity
  8
0
100
AcDbLine
 10
193.525
 20
464.76815
 30
0.0
 11
196.617
 21
464.14615
 31
0.0
  0
LINE
  5
6D7
330
1D
100
AcDbEntity
  8
0
100
AcDbLine
 10
190.423
 20
464.18815
 30
0.0
 11
193.525
 21
464.76815
 31
0.0
  0
LINE
  5
6D8
330
1D
100
AcDbEntity
  8
0
100
AcDbLine
 10
175.0
 20
464.79015
 30
0.0
 11
175.0
 21
464.12615
 31
0.0
  0
LINE
  5
6D9
330
1D
100
AcDbEntity
  8
0
100
AcDbLine
 10
172.0
 20
464.79015
 30
0.0
 11
172.0
 21
464.12615
 31
0.0
  0
LINE
  5
6DA
330
1D
100
AcDbEntity
  8
0
100
AcDbLine
 10
172.0
 20
464.79015
 30
0.0
 11
175.0
 21
464.79015
 31
0.0
  0
LINE
  5
6DB
330
1D
100
AcDbEntity
  8
0
100
AcDbLine
 10
172.0
 20
464.12615
 30
0.0
 11
172.0
 21
464.79015
 31
0.0
  0
LINE
  5
6DC
330
1D
100
AcDbEntity
  8
0
100
AcDbLine
 10
172.0
 20
464.12615
 30
0.0
 11
172.0
 21
462.38415
 31
0.0
  0
LINE
  5
6DD
330
1D
100
AcDbEntity
  8
0
100
AcDbLine
 10
161.0
 20
464.79015
 30
0.0
 11
172.0
 21
464.79015
 31
0.0
  0
LINE
  5
6DE
330
1D
100
AcDbEntity
  8
0
100
AcDbLine
 10
144.188
 20
501.79515
 30
0.0
 11
145.628
 21
501.79515
 31
0.0
  0
LINE
  5
6DF
330
1D
100
AcDbEntity
  8
0
100
AcDbLine
 10
143.324
 20
501.79515
 30
0.0
 11
144.188
 21
501.79515
 31
0.0
  0
LINE
  5
6E0
330
1D
100
AcDbEntity
  8
0
100
AcDbLine
 10
143.0
 20
501.79515
 30
0.0
 11
143.0
 21
452.97725
 31
0.0
  0
LINE
  5
6E1
330
1D
100
AcDbEntity
  8
0
100
AcDbLine
 10
143.0
 20
501.79515
 30
0.0
 11
143.324
 21
501.79515
 31
0.0
  0
LINE
  5
6E2
330
1D
100
AcDbEntity
  8
0
100
AcDbLine
 10
149.696
 20
501.79515
 30
0.0
 11
152.0
 21
501.79515
 31
0.0
  0
LINE
  5
6E3
330
1D
100
AcDbEntity
  8
0
100
AcDbLine
 10
147.536
 20
501.79515
 30
0.0
 11
149.696
 21
501.79515
 31
0.0
  0
LINE
  5
6E4
330
1D
100
AcDbEntity
  8
0
100
AcDbLine
 10
145.628
 20
501.79515
 30
0.0
 11
147.536
 21
501.79515
 31
0.0
  0
LINE
  5
6E5
330
1D
100
AcDbEntity
  8
0
100
AcDbLine
 10
154.304
 20
501.79515
 30
0.0
 11
156.464
 21
501.79515
 31
0.0
  0
LINE
  5
6E6
330
1D
100
AcDbEntity
  8
0
100
AcDbLine
 10
156.464
 20
501.79515
 30
0.0
 11
158.372
 21
501.79515
 31
0.0
  0
LINE
  5
6E7
330
1D
100
AcDbEntity
  8
0
100
AcDbLine
 10
158.372
 20
501.79515
 30
0.0
 11
159.812
 21
501.79515
 31
0.0
  0
LINE
  5
6E8
330
1D
100
AcDbEntity
  8
0
100
AcDbLine
 10
159.812
 20
501.79515
 30
0.0
 11
160.676
 21
501.79515
 31
0.0
  0
LINE
  5
6E9
330
1D
100
AcDbEntity
  8
0
100
AcDbLine
 10
160.676
 20
501.79515
 30
0.0
 11
161.0
 21
501.79515
 31
0.0
  0
LINE
  5
6EA
330
1D
100
AcDbEntity
  8
0
100
AcDbLine
 10
152.0
 20
501.79515
 30
0.0
 11
159.56
 21
501.79515
 31
0.0
  0
LINE
  5
6EB
330
1D
100
AcDbEntity
  8
0
100
AcDbLine
 10
152.0
 20
501.79515
 30
0.0
 11
154.304
 21
501.79515
 31
0.0
  0
LINE
  5
6EC
330
1D
100
AcDbEntity
  8
0
100
AcDbLine
 10
159.56
 20
501.79515
 30
0.0
 11
166.52
 21
501.79515
 31
0.0
  0
LINE
  5
6ED
330
1D
100
AcDbEntity
  8
0
100
AcDbLine
 10
144.44
 20
501.79515
 30
0.0
 11
152.0
 21
501.79515
 31
0.0
  0
LINE
  5
6EE
330
1D
100
AcDbEntity
  8
0
100
AcDbLine
 10
137.48
 20
501.79515
 30
0.0
 11
143.0
 21
501.79515
 31
0.0
  0
LINE
  5
6EF
330
1D
100
AcDbEntity
  8
0
100
AcDbLine
 10
137.48
 20
501.79515
 30
0.0
 11
144.44
 21
501.79515
 31
0.0
  0
LINE
  5
6F0
330
1D
100
AcDbEntity
  8
0
100
AcDbLine
 10
161.0
 20
501.79515
 30
0.0
 11
166.52
 21
501.79515
 31
0.0
  0
LINE
  5
6F1
330
1D
100
AcDbEntity
  8
0
100
AcDbLine
 10
161.0
 20
501.79515
 30
0.0
 11
161.0
 21
452.97725
 31
0.0
  0
LINE
  5
6F2
330
1D
100
AcDbEntity
  8
0
100
AcDbLine
 10
166.52
 20
501.79515
 30
0.0
 11
172.64
 21
501.79515
 31
0.0
  0
LINE
  5
6F3
330
1D
100
AcDbEntity
  8
0
100
AcDbLine
 10
172.64
 20
501.79515
 30
0.0
 11
177.32
 21
501.79515
 31
0.0
  0
LINE
  5
6F4
330
1D
100
AcDbEntity
  8
0
100
AcDbLine
 10
177.32
 20
501.79515
 30
0.0
 11
180.2
 21
501.79515
 31
0.0
  0
LINE
  5
6F5
330
1D
100
AcDbEntity
  8
0
100
AcDbLine
 10
180.2
 20
501.79515
 30
0.0
 11
181.28
 21
501.79515
 31
0.0
  0
LINE
  5
6F6
330
1D
100
AcDbEntity
  8
0
100
AcDbLine
 10
137.12
 20
502.39515
 30
0.0
 11
144.32
 21
502.39515
 31
0.0
  0
LINE
  5
6F7
330
1D
100
AcDbEntity
  8
0
100
AcDbLine
 10
152.0
 20
502.39515
 30
0.0
 11
159.68
 21
502.39515
 31
0.0
  0
LINE
  5
6F8
330
1D
100
AcDbEntity
  8
0
100
AcDbLine
 10
159.68
 20
502.39515
 30
0.0
 11
166.88
 21
502.39515
 31
0.0
  0
LINE
  5
6F9
330
1D
100
AcDbEntity
  8
0
100
AcDbLine
 10
166.88
 20
502.39515
 30
0.0
 11
173.24
 21
502.39515
 31
0.0
  0
LINE
  5
6FA
330
1D
100
AcDbEntity
  8
0
100
AcDbLine
 10
152.0
 20
511.79515
 30
0.0
 11
159.68
 21
511.79515
 31
0.0
  0
LINE
  5
6FB
330
1D
100
AcDbEntity
  8
0
100
AcDbLine
 10
159.68
 20
511.79515
 30
0.0
 11
166.88
 21
511.79515
 31
0.0
  0
LINE
  5
6FC
330
1D
100
AcDbEntity
  8
0
100
AcDbLine
 10
173.24
 20
502.39515
 30
0.0
 11
178.04
 21
502.39515
 31
0.0
  0
LINE
  5
6FD
330
1D
100
AcDbEntity
  8
0
100
AcDbLine
 10
178.04
 20
502.39515
 30
0.0
 11
180.92
 21
502.39515
 31
0.0
  0
LINE
  5
6FE
330
1D
100
AcDbEntity
  8
0
100
AcDbLine
 10
166.88
 20
511.79515
 30
0.0
 11
173.24
 21
511.79515
 31
0.0
  0
LINE
  5
6FF
330
1D
100
AcDbEntity
  8
0
100
AcDbLine
 10
173.24
 20
511.79515
 30
0.0
 11
178.04
 21
511.79515
 31
0.0
  0
LINE
  5
700
330
1D
100
AcDbEntity
  8
0
100
AcDbLine
 10
182.0
 20
511.79515
 30
0.0
 11
182.0
 21
502.39515
 31
0.0
  0
LINE
  5
701
330
1D
100
AcDbEntity
  8
0
100
AcDbLine
 10
180.92
 20
502.39515
 30
0.0
 11
182.0
 21
502.39515
 31
0.0
  0
LINE
  5
702
330
1D
100
AcDbEntity
  8
0
100
AcDbLine
 10
178.04
 20
511.79515
 30
0.0
 11
180.92
 21
511.79515
 31
0.0
  0
LINE
  5
703
330
1D
100
AcDbEntity
  8
0
100
AcDbLine
 10
180.92
 20
511.79515
 30
0.0
 11
182.0
 21
511.79515
 31
0.0
  0
LINE
  5
704
330
1D
100
AcDbEntity
  8
0
100
AcDbLine
 10
144.32
 20
502.39515
 30
0.0
 11
152.0
 21
502.39515
 31
0.0
  0
LINE
  5
705
330
1D
100
AcDbEntity
  8
0
100
AcDbLine
 10
144.32
 20
511.79515
 30
0.0
 11
152.0
 21
511.79515
 31
0.0
  0
LINE
  5
706
330
1D
100
AcDbEntity
  8
0
100
AcDbLine
 10
137.12
 20
511.79515
 30
0.0
 11
144.32
 21
511.79515
 31
0.0
  0
LINE
  5
707
330
1D
100
AcDbEntity
  8
0
100
AcDbLine
 10
181.28
 20
501.79515
 30
0.0
 11
182.0
 21
502.39515
 31
0.0
  0
LINE
  5
7D0
330
1D
100
AcDbEntity
  8
0
100
AcDbLine
 10
182.0
 20
502.39515
 30
0.0
 11
182.0
 21
511.79515
 31
0.0
  0
LINE
  5
7D1
330
1D
100
AcDbEntity
  8
0
100
AcDbLine
 10
135.421
 20
464.79015
 30
0.0
 11
143.0
 21
464.79015
 31
0.0
  0
LINE
  5
7D2
330
1D
100
AcDbEntity
  8
0
100
AcDbLine
 10
134.667
 20
464.30815
 30
0.0
 11
134.667
 21
463.71615
 31
0.0
  0
LINE
  5
7D3
330
1D
100
AcDbEntity
  8
0
100
AcDbLine
 10
134.667
 20
464.30815
 30
0.0
 11
135.421
 21
464.79015
 31
0.0
  0
LINE
  5
7D4
330
1D
100
AcDbEntity
  8
0
100
AcDbLine
 10
134.667
 20
463.71615
 30
0.0
 11
134.667
 21
464.30815
 31
0.0
  0
LINE
  5
7D5
330
1D
100
AcDbEntity
  8
0
100
AcDbLine
 10
134.667
 20
463.71615
 30
0.0
 11
134.667
 21
462.00915
 31
0.0
  0
LINE
  5
7D6
330
1D
100
AcDbEntity
  8
0
100
AcDbLine
 10
133.913
 20
464.79015
 30
0.0
 11
134.667
 21
464.30815
 31
0.0
  0
LINE
  5
E51
330
1D
100
AcDbEntity
  8
0
100
AcDbLine
 10
141.842
 20
0.64325
 30
0.0
 11
151.959
 21
0.20485
 31
0.0
  0
LINE
  5
F74
330
1D
100
AcDbEntity
  8
0
100
AcDbLine
 10
141.801
 20
0.645026653158
 30
0.0
 11
151.918
 21
0.206626653158
 31
0.0
  0
LINE
  5
F75
330
1D
100
AcDbEntity
  8
0
100
AcDbLine
 10
174.959
 20
333.799926653158
 30
0.0
 11
174.959
 21
352.189926653158
 31
0.0
  0
LINE
  5
F76
330
1D
100
AcDbEntity
  8
0
100
AcDbLine
 10
174.959
 20
352.189926653158
 30
0.0
 11
174.959
 21
333.799926653158
 31
0.0
  0
LINE
  5
F77
330
1D
100
AcDbEntity
  8
0
100
AcDbLine
 10
198.959
 20
352.189926653158
 30
0.0
 11
198.959
 21
333.799926653158
 31
0.0
  0
LINE
  5
F78
330
1D
100
AcDbEntity
  8
0
100
AcDbLine
 10
198.959
 20
333.799926653158
 30
0.0
 11
198.959
 21
352.189926653158
 31
0.0
  0
LINE
  5
F79
330
1D
100
AcDbEntity
  8
0
100
AcDbLine
 10
42.423
 20
94.476926653158
 30
0.0
 11
43.823
 21
85.020926653158
 31
0.0
  0
LINE
  5
F7A
330
1D
100
AcDbEntity
  8
0
100
AcDbLine
 10
64.4451
 20
41.130626653158
 30
0.0
 11
70.9125
 21
33.810126653158
 31
0.0
  0
LINE
  5
F7B
330
1D
100
AcDbEntity
  8
0
100
AcDbLine
 10
53.474
 20
57.941926653158
 30
0.0
 11
53.8
 21
57.291926653158
 31
0.0
  0
LINE
  5
F7C
330
1D
100
AcDbEntity
  8
0
100
AcDbLine
 10
53.8
 20
57.291926653158
 30
0.0
 11
58.723
 21
48.979926653158
 31
0.0
  0
LINE
  5
F7D
330
1D
100
AcDbEntity
  8
0
100
AcDbLine
 10
49.371
 20
66.675926653158
 30
0.0
 11
53.474
 21
57.941926653158
 31
0.0
  0
LINE
  5
F7E
330
1D
100
AcDbEntity
  8
0
100
AcDbLine
 10
58.723
 20
48.979926653158
 30
0.0
 11
64.4451
 21
41.130626653158
 31
0.0
  0
LINE
  5
F7F
330
1D
100
AcDbEntity
  8
0
100
AcDbLine
 10
94.2092
 20
15.628426653158
 30
0.0
 11
103.0564
 21
10.998526653158
 31
0.0
  0
LINE
  5
F80
330
1D
100
AcDbEntity
  8
0
100
AcDbLine
 10
78.0689
 20
27.083126653158
 30
0.0
 11
85.8579
 21
21.004726653158
 31
0.0
  0
LINE
  5
F81
330
1D
100
AcDbEntity
  8
0
100
AcDbLine
 10
70.9125
 20
33.810126653158
 30
0.0
 11
78.0689
 21
27.083126653158
 31
0.0
  0
LINE
  5
F82
330
1D
100
AcDbEntity
  8
0
100
AcDbLine
 10
85.8579
 20
21.004726653158
 30
0.0
 11
94.2092
 21
15.628426653158
 31
0.0
  0
LINE
  5
F83
330
1D
100
AcDbEntity
  8
0
100
AcDbLine
 10
43.823
 20
85.020926653158
 30
0.0
 11
46.145
 21
75.727926653158
 31
0.0
  0
LINE
  5
F84
330
1D
100
AcDbEntity
  8
0
100
AcDbLine
 10
46.145
 20
75.727926653158
 30
0.0
 11
49.371
 21
66.675926653158
 31
0.0
  0
LINE
  5
F85
330
1D
100
AcDbEntity
  8
0
100
AcDbLine
 10
94.0333
 20
195.682926653158
 30
0.0
 11
102.908
 21
200.335926653158
 31
0.0
  0
LINE
  5
F86
330
1D
100
AcDbEntity
  8
0
100
AcDbLine
 10
85.6515
 20
190.281926653158
 30
0.0
 11
94.0333
 21
195.682926653158
 31
0.0
  0
LINE
  5
F87
330
1D
100
AcDbEntity
  8
0
100
AcDbLine
 10
77.838
 20
184.178926653158
 30
0.0
 11
85.6515
 21
190.281926653158
 31
0.0
  0
LINE
  5
F88
330
1D
100
AcDbEntity
  8
0
100
AcDbLine
 10
70.6561
 20
177.422926653158
 30
0.0
 11
77.838
 21
184.178926653158
 31
0.0
  0
LINE
  5
F89
330
1D
100
AcDbEntity
  8
0
100
AcDbLine
 10
64.1681
 20
170.073926653158
 30
0.0
 11
70.6561
 21
177.422926653158
 31
0.0
  0
LINE
  5
F8A
330
1D
100
AcDbEntity
  8
0
100
AcDbLine
 10
58.427
 20
162.191926653158
 30
0.0
 11
64.1681
 21
170.073926653158
 31
0.0
  0
LINE
  5
F8B
330
1D
100
AcDbEntity
  8
0
100
AcDbLine
 10
53.487
 20
153.847926653158
 30
0.0
 11
58.427
 21
162.191926653158
 31
0.0
  0
LINE
  5
F8C
330
1D
100
AcDbEntity
  8
0
100
AcDbLine
 10
49.386
 20
145.110926653158
 30
0.0
 11
53.487
 21
153.847926653158
 31
0.0
  0
LINE
  5
F8D
330
1D
100
AcDbEntity
  8
0
100
AcDbLine
 10
46.16
 20
136.055926653158
 30
0.0
 11
49.386
 21
145.110926653158
 31
0.0
  0
LINE
  5
F8E
330
1D
100
AcDbEntity
  8
0
100
AcDbLine
 10
43.837
 20
126.759926653158
 30
0.0
 11
46.16
 21
136.055926653158
 31
0.0
  0
LINE
  5
F8F
330
1D
100
AcDbEntity
  8
0
100
AcDbLine
 10
42.436
 20
117.302926653158
 30
0.0
 11
43.837
 21
126.759926653158
 31
0.0
  0
LINE
  5
F90
330
1D
100
AcDbEntity
  8
0
100
AcDbLine
 10
41.971
 20
107.795926653158
 30
0.0
 11
42.436
 21
117.302926653158
 31
0.0
  0
LINE
  5
F91
330
1D
100
AcDbEntity
  8
0
100
AcDbLine
 10
41.959
 20
103.983926653158
 30
0.0
 11
41.971
 21
107.795926653158
 31
0.0
  0
LINE
  5
F92
330
1D
100
AcDbEntity
  8
0
100
AcDbLine
 10
41.959
 20
103.983926653158
 30
0.0
 11
42.423
 21
94.476926653158
 31
0.0
  0
LINE
  5
F93
330
1D
100
AcDbEntity
  8
0
100
AcDbLine
 10
103.0564
 20
10.998526653158
 30
0.0
 11
112.317
 21
7.157026653158
 31
0.0
  0
LINE
  5
F94
330
1D
100
AcDbEntity
  8
0
100
AcDbLine
 10
112.317
 20
7.157026653158
 30
0.0
 11
121.917
 21
4.133226653158
 31
0.0
  0
LINE
  5
F95
330
1D
100
AcDbEntity
  8
0
100
AcDbLine
 10
121.917
 20
4.133226653158
 30
0.0
 11
131.773
 21
1.956226653158
 31
0.0
  0
LINE
  5
F96
330
1D
100
AcDbEntity
  8
0
100
AcDbLine
 10
131.773
 20
1.956226653158
 30
0.0
 11
141.801
 21
0.645026653158
 31
0.0
  0
LINE
  5
F97
330
1D
100
AcDbEntity
  8
0
100
AcDbLine
 10
131.722
 20
209.431926653158
 30
0.0
 11
140.959
 21
210.650920591347
 31
0.0
  0
LINE
  5
F98
330
1D
100
AcDbEntity
  8
0
100
AcDbLine
 10
121.832
 20
207.238926653158
 30
0.0
 11
131.722
 21
209.431926653158
 31
0.0
  0
LINE
  5
F99
330
1D
100
AcDbEntity
  8
0
100
AcDbLine
 10
112.2
 20
204.198926653158
 30
0.0
 11
121.832
 21
207.238926653158
 31
0.0
  0
LINE
  5
F9A
330
1D
100
AcDbEntity
  8
0
100
AcDbLine
 10
102.908
 20
200.335926653158
 30
0.0
 11
112.2
 21
204.198926653158
 31
0.0
  0
LINE
  5
F9B
330
1D
100
AcDbEntity
  8
0
100
AcDbLine
 10
136.967
 20
114.264926653158
 30
0.0
 11
136.967
 21
111.591926653158
 31
0.0
  0
LINE
  5
F9C
330
1D
100
AcDbEntity
  8
0
100
AcDbLine
 10
136.967
 20
114.264926653158
 30
0.0
 11
136.981
 21
113.377926653158
 31
0.0
  0
LINE
  5
F9D
330
1D
100
AcDbEntity
  8
0
100
AcDbLine
 10
136.967
 20
114.264926653158
 30
0.0
 11
136.981
 21
115.151926653158
 31
0.0
  0
LINE
  5
F9E
330
1D
100
AcDbEntity
  8
0
100
AcDbLine
 10
136.981
 20
115.151926653158
 30
0.0
 11
137.145
 21
116.528926653158
 31
0.0
  0
LINE
  5
F9F
330
1D
100
AcDbEntity
  8
0
100
AcDbLine
 10
136.981
 20
113.377926653158
 30
0.0
 11
137.145
 21
112.001926653158
 31
0.0
  0
LINE
  5
FA0
330
1D
100
AcDbEntity
  8
0
100
AcDbLine
 10
136.981
 20
110.703926653158
 30
0.0
 11
137.145
 21
109.328926653158
 31
0.0
  0
LINE
  5
FA1
330
1D
100
AcDbEntity
  8
0
100
AcDbLine
 10
136.967
 20
111.591926653158
 30
0.0
 11
136.981
 21
110.703926653158
 31
0.0
  0
LINE
  5
FA2
330
1D
100
AcDbEntity
  8
0
100
AcDbLine
 10
136.967
 20
111.591926653158
 30
0.0
 11
136.967
 21
114.264926653158
 31
0.0
  0
LINE
  5
FA3
330
1D
100
AcDbEntity
  8
0
100
AcDbLine
 10
137.068
 20
109.974505921451
 30
0.0
 11
137.068
 21
107.890926653158
 31
0.0
  0
LINE
  5
FA4
330
1D
100
AcDbEntity
  8
0
100
AcDbLine
 10
140.112
 20
99.390926653158
 30
0.0
 11
141.055
 21
98.340926653158
 31
0.0
  0
LINE
  5
FA5
330
1D
100
AcDbEntity
  8
0
100
AcDbLine
 10
139.282
 20
100.523926653158
 30
0.0
 11
140.112
 21
99.390926653158
 31
0.0
  0
LINE
  5
FA6
330
1D
100
AcDbEntity
  8
0
100
AcDbLine
 10
140.031
 20
103.034926653158
 30
0.0
 11
140.983
 21
101.977926653158
 31
0.0
  0
LINE
  5
FA7
330
1D
100
AcDbEntity
  8
0
100
AcDbLine
 10
139.196
 20
104.174926653158
 30
0.0
 11
140.031
 21
103.034926653158
 31
0.0
  0
LINE
  5
FA8
330
1D
100
AcDbEntity
  8
0
100
AcDbLine
 10
138.574
 20
101.726926653158
 30
0.0
 11
139.282
 21
100.523926653158
 31
0.0
  0
LINE
  5
FA9
330
1D
100
AcDbEntity
  8
0
100
AcDbLine
 10
137.995
 20
102.989926653158
 30
0.0
 11
138.574
 21
101.726926653158
 31
0.0
  0
LINE
  5
FAA
330
1D
100
AcDbEntity
  8
0
100
AcDbLine
 10
138.484
 20
105.385926653158
 30
0.0
 11
139.196
 21
104.174926653158
 31
0.0
  0
LINE
  5
FAB
330
1D
100
AcDbEntity
  8
0
100
AcDbLine
 10
137.901
 20
106.657926653158
 30
0.0
 11
138.484
 21
105.385926653158
 31
0.0
  0
LINE
  5
FAC
330
1D
100
AcDbEntity
  8
0
100
AcDbLine
 10
140.032
 20
105.707926653158
 30
0.0
 11
140.982
 21
104.649926653158
 31
0.0
  0
LINE
  5
FAD
330
1D
100
AcDbEntity
  8
0
100
AcDbLine
 10
140.026
 20
106.564926653158
 30
0.0
 11
140.923
 21
105.469926653158
 31
0.0
  0
LINE
  5
FAE
330
1D
100
AcDbEntity
  8
0
100
AcDbLine
 10
139.196
 20
106.847926653158
 30
0.0
 11
140.032
 21
105.707926653158
 31
0.0
  0
LINE
  5
FAF
330
1D
100
AcDbEntity
  8
0
100
AcDbLine
 10
140.027
 20
106.826926653158
 30
0.0
 11
140.922
 21
105.732926653158
 31
0.0
  0
LINE
  5
FB0
330
1D
100
AcDbEntity
  8
0
100
AcDbLine
 10
140.923
 20
105.469926653158
 30
0.0
 11
141.931
 21
104.465926653158
 31
0.0
  0
LINE
  5
FB1
330
1D
100
AcDbEntity
  8
0
100
AcDbLine
 10
140.922
 20
105.732926653158
 30
0.0
 11
141.932
 21
104.728926653158
 31
0.0
  0
LINE
  5
FB2
330
1D
100
AcDbEntity
  8
0
100
AcDbLine
 10
137.551
 20
104.298926653158
 30
0.0
 11
137.995
 21
102.989926653158
 31
0.0
  0
LINE
  5
FB3
330
1D
100
AcDbEntity
  8
0
100
AcDbLine
 10
137.245
 20
105.644926653158
 30
0.0
 11
137.551
 21
104.298926653158
 31
0.0
  0
LINE
  5
FB4
330
1D
100
AcDbEntity
  8
0
100
AcDbLine
 10
137.453
 20
107.975926653158
 30
0.0
 11
137.901
 21
106.657926653158
 31
0.0
  0
LINE
  5
FB5
330
1D
100
AcDbEntity
  8
0
100
AcDbLine
 10
139.253
 20
107.737926653158
 30
0.0
 11
140.026
 21
106.564926653158
 31
0.0
  0
LINE
  5
FB6
330
1D
100
AcDbEntity
  8
0
100
AcDbLine
 10
138.484
 20
108.058926653158
 30
0.0
 11
139.196
 21
106.847926653158
 31
0.0
  0
LINE
  5
FB7
330
1D
100
AcDbEntity
  8
0
100
AcDbLine
 10
138.611
 20
108.980926653158
 30
0.0
 11
139.253
 21
107.737926653158
 31
0.0
  0
LINE
  5
FB8
330
1D
100
AcDbEntity
  8
0
100
AcDbLine
 10
137.901
 20
109.329926653158
 30
0.0
 11
138.484
 21
108.058926653158
 31
0.0
  0
LINE
  5
FB9
330
1D
100
AcDbEntity
  8
0
100
AcDbLine
 10
137.145
 20
109.328926653158
 30
0.0
 11
137.453
 21
107.975926653158
 31
0.0
  0
LINE
  5
FBA
330
1D
100
AcDbEntity
  8
0
100
AcDbLine
 10
138.105
 20
110.276926653158
 30
0.0
 11
138.611
 21
108.980926653158
 31
0.0
  0
LINE
  5
FBB
330
1D
100
AcDbEntity
  8
0
100
AcDbLine
 10
137.454
 20
110.648926653158
 30
0.0
 11
137.901
 21
109.329926653158
 31
0.0
  0
LINE
  5
FBC
330
1D
100
AcDbEntity
  8
0
100
AcDbLine
 10
137.741
 20
111.614926653158
 30
0.0
 11
138.105
 21
110.276926653158
 31
0.0
  0
LINE
  5
FBD
330
1D
100
AcDbEntity
  8
0
100
AcDbLine
 10
137.145
 20
112.001926653158
 30
0.0
 11
137.454
 21
110.648926653158
 31
0.0
  0
LINE
  5
FBE
330
1D
100
AcDbEntity
  8
0
100
AcDbLine
 10
137.523
 20
112.979926653158
 30
0.0
 11
137.741
 21
111.614926653158
 31
0.0
  0
LINE
  5
FBF
330
1D
100
AcDbEntity
  8
0
100
AcDbLine
 10
137.741
 20
117.268926653158
 30
0.0
 11
137.88027807008
 21
117.78127098238
 31
0.0
  0
LINE
  5
FC0
330
1D
100
AcDbEntity
  8
0
100
AcDbLine
 10
137.524
 20
115.904926653158
 30
0.0
 11
137.741
 21
117.268926653158
 31
0.0
  0
LINE
  5
FC1
330
1D
100
AcDbEntity
  8
0
100
AcDbLine
 10
137.145
 20
116.528926653158
 30
0.0
 11
137.454
 21
117.880926653158
 31
0.0
  0
LINE
  5
FC2
330
1D
100
AcDbEntity
  8
0
100
AcDbLine
 10
137.454
 20
117.880926653158
 30
0.0
 11
137.863280999083
 21
119.088626066561
 31
0.0
  0
LINE
  5
FC3
330
1D
100
AcDbEntity
  8
0
100
AcDbLine
 10
137.864
 20
117.979926653158
 30
0.0
 11
137.871
 21
118.375926653158
 31
0.0
  0
LINE
  5
FC4
330
1D
100
AcDbEntity
  8
0
100
AcDbLine
 10
137.864
 20
117.979926653158
 30
0.0
 11
137.967
 21
116.722926653158
 31
0.0
  0
LINE
  5
FC5
330
1D
100
AcDbEntity
  8
0
100
AcDbLine
 10
137.863
 20
120.313926653158
 30
0.0
 11
137.863243317972
 21
119.938973657766
 31
0.0
  0
LINE
  5
FC6
330
1D
100
AcDbEntity
  8
0
100
AcDbLine
 10
137.863
 20
120.313926653158
 30
0.0
 11
137.864
 21
122.027926653158
 31
0.0
  0
LINE
  5
FC7
330
1D
100
AcDbEntity
  8
0
100
AcDbLine
 10
137.864
 20
122.027926653158
 30
0.0
 11
137.871
 21
121.630926653158
 31
0.0
  0
LINE
  5
FC8
330
1D
100
AcDbEntity
  8
0
100
AcDbLine
 10
137.864
 20
122.027926653158
 30
0.0
 11
137.968
 21
123.282926653158
 31
0.0
  0
LINE
  5
FC9
330
1D
100
AcDbEntity
  8
0
100
AcDbLine
 10
137.864
 20
121.235926653158
 30
0.0
 11
137.968
 21
119.978926653158
 31
0.0
  0
LINE
  5
FCA
330
1D
100
AcDbEntity
  8
0
100
AcDbLine
 10
137.864
 20
121.235926653158
 30
0.0
 11
137.871
 21
121.630926653158
 31
0.0
  0
LINE
  5
FCB
330
1D
100
AcDbEntity
  8
0
100
AcDbLine
 10
137.863
 20
119.521926653158
 30
0.0
 11
137.864
 21
117.979926653158
 31
0.0
  0
LINE
  5
FCC
330
1D
100
AcDbEntity
  8
0
100
AcDbLine
 10
137.863
 20
119.521926653158
 30
0.0
 11
137.864
 21
121.235926653158
 31
0.0
  0
LINE
  5
FCD
330
1D
100
AcDbEntity
  8
0
100
AcDbLine
 10
138.025
 20
116.028926653158
 30
0.0
 11
138.057828898469
 21
116.234967073072
 31
0.0
  0
LINE
  5
FCE
330
1D
100
AcDbEntity
  8
0
100
AcDbLine
 10
137.968
 20
123.282926653158
 30
0.0
 11
138.198
 21
124.525926653158
 31
0.0
  0
LINE
  5
FCF
330
1D
100
AcDbEntity
  8
0
100
AcDbLine
 10
137.968
 20
119.978926653158
 30
0.0
 11
138.198
 21
118.736926653158
 31
0.0
  0
LINE
  5
FD0
330
1D
100
AcDbEntity
  8
0
100
AcDbLine
 10
137.967
 20
116.722926653158
 30
0.0
 11
138.198
 21
115.481926653158
 31
0.0
  0
LINE
  5
FD1
330
1D
100
AcDbEntity
  8
0
100
AcDbLine
 10
137.96
 20
114.743926653158
 30
0.0
 11
138.025
 21
113.459926653158
 31
0.0
  0
LINE
  5
FD2
330
1D
100
AcDbEntity
  8
0
100
AcDbLine
 10
137.96
 20
114.743926653158
 30
0.0
 11
138.025
 21
116.028926653158
 31
0.0
  0
LINE
  5
FD3
330
1D
100
AcDbEntity
  8
0
100
AcDbLine
 10
137.456
 20
114.572926653158
 30
0.0
 11
137.524
 21
113.241926653158
 31
0.0
  0
LINE
  5
FD4
330
1D
100
AcDbEntity
  8
0
100
AcDbLine
 10
137.456
 20
114.572926653158
 30
0.0
 11
137.524
 21
115.904926653158
 31
0.0
  0
LINE
  5
FD5
330
1D
100
AcDbEntity
  8
0
100
AcDbLine
 10
138.198
 20
124.525926653158
 30
0.0
 11
138.554
 21
125.742926653158
 31
0.0
  0
LINE
  5
FD6
330
1D
100
AcDbEntity
  8
0
100
AcDbLine
 10
138.198
 20
118.736926653158
 30
0.0
 11
138.554
 21
117.519926653158
 31
0.0
  0
LINE
  5
FD7
330
1D
100
AcDbEntity
  8
0
100
AcDbLine
 10
138.198
 20
115.481926653158
 30
0.0
 11
138.554
 21
114.264926653158
 31
0.0
  0
LINE
  5
FD8
330
1D
100
AcDbEntity
  8
0
100
AcDbLine
 10
138.025
 20
113.459926653158
 30
0.0
 11
138.235
 21
112.141926653158
 31
0.0
  0
LINE
  5
FD9
330
1D
100
AcDbEntity
  8
0
100
AcDbLine
 10
137.524
 20
113.241926653158
 30
0.0
 11
137.741
 21
111.876926653158
 31
0.0
  0
LINE
  5
FDA
330
1D
100
AcDbEntity
  8
0
100
AcDbLine
 10
138.554
 20
125.742926653158
 30
0.0
 11
139.031
 21
126.920926653158
 31
0.0
  0
LINE
  5
FDB
330
1D
100
AcDbEntity
  8
0
100
AcDbLine
 10
138.402
 20
122.790926653158
 30
0.0
 11
138.571
 21
124.034926653158
 31
0.0
  0
LINE
  5
FDC
330
1D
100
AcDbEntity
  8
0
100
AcDbLine
 10
138.371
 20
121.802926653158
 30
0.0
 11
138.402
 21
120.813926653158
 31
0.0
  0
LINE
  5
FDD
330
1D
100
AcDbEntity
  8
0
100
AcDbLine
 10
138.371
 20
121.802926653158
 30
0.0
 11
138.402
 21
122.790926653158
 31
0.0
  0
LINE
  5
FDE
330
1D
100
AcDbEntity
  8
0
100
AcDbLine
 10
138.402
 20
120.813926653158
 30
0.0
 11
138.571
 21
119.570926653158
 31
0.0
  0
LINE
  5
FDF
330
1D
100
AcDbEntity
  8
0
100
AcDbLine
 10
138.571
 20
124.034926653158
 30
0.0
 11
138.868
 21
125.256926653158
 31
0.0
  0
LINE
  5
FE0
330
1D
100
AcDbEntity
  8
0
100
AcDbLine
 10
138.571
 20
119.570926653158
 30
0.0
 11
138.868
 21
118.347926653158
 31
0.0
  0
LINE
  5
FE1
330
1D
100
AcDbEntity
  8
0
100
AcDbLine
 10
138.554
 20
117.519926653158
 30
0.0
 11
139.031
 21
116.341926653158
 31
0.0
  0
LINE
  5
FE2
330
1D
100
AcDbEntity
  8
0
100
AcDbLine
 10
138.554
 20
114.264926653158
 30
0.0
 11
139.031
 21
113.086926653158
 31
0.0
  0
LINE
  5
FE3
330
1D
100
AcDbEntity
  8
0
100
AcDbLine
 10
138.235
 20
112.141926653158
 30
0.0
 11
138.587
 21
110.849926653158
 31
0.0
  0
LINE
  5
FE4
330
1D
100
AcDbEntity
  8
0
100
AcDbLine
 10
137.741
 20
111.876926653158
 30
0.0
 11
138.105
 21
110.538926653158
 31
0.0
  0
LINE
  5
FE5
330
1D
100
AcDbEntity
  8
0
100
AcDbLine
 10
139.031
 20
126.920926653158
 30
0.0
 11
139.625
 21
128.051926653158
 31
0.0
  0
LINE
  5
FE6
330
1D
100
AcDbEntity
  8
0
100
AcDbLine
 10
138.868
 20
125.256926653158
 30
0.0
 11
139.292
 21
126.446926653158
 31
0.0
  0
LINE
  5
FE7
330
1D
100
AcDbEntity
  8
0
100
AcDbLine
 10
138.868
 20
118.347926653158
 30
0.0
 11
139.292
 21
117.158926653158
 31
0.0
  0
LINE
  5
FE8
330
1D
100
AcDbEntity
  8
0
100
AcDbLine
 10
139.031
 20
116.341926653158
 30
0.0
 11
139.625
 21
115.209926653158
 31
0.0
  0
LINE
  5
FE9
330
1D
100
AcDbEntity
  8
0
100
AcDbLine
 10
139.031
 20
113.086926653158
 30
0.0
 11
139.625
 21
111.954926653158
 31
0.0
  0
LINE
  5
FEA
330
1D
100
AcDbEntity
  8
0
100
AcDbLine
 10
138.587
 20
110.849926653158
 30
0.0
 11
139.074
 21
109.598926653158
 31
0.0
  0
LINE
  5
FEB
330
1D
100
AcDbEntity
  8
0
100
AcDbLine
 10
138.105
 20
110.538926653158
 30
0.0
 11
138.611
 21
109.242926653158
 31
0.0
  0
LINE
  5
FEC
330
1D
100
AcDbEntity
  8
0
100
AcDbLine
 10
139.292
 20
126.446926653158
 30
0.0
 11
139.838
 21
127.590926653158
 31
0.0
  0
LINE
  5
FED
330
1D
100
AcDbEntity
  8
0
100
AcDbLine
 10
139.625
 20
128.051926653158
 30
0.0
 11
140.331
 21
129.123926653158
 31
0.0
  0
LINE
  5
FEE
330
1D
100
AcDbEntity
  8
0
100
AcDbLine
 10
139.292
 20
117.158926653158
 30
0.0
 11
139.838
 21
116.013926653158
 31
0.0
  0
LINE
  5
FEF
330
1D
100
AcDbEntity
  8
0
100
AcDbLine
 10
139.625
 20
115.209926653158
 30
0.0
 11
140.331
 21
114.137926653158
 31
0.0
  0
LINE
  5
FF0
330
1D
100
AcDbEntity
  8
0
100
AcDbLine
 10
139.625
 20
111.954926653158
 30
0.0
 11
140.331
 21
110.882926653158
 31
0.0
  0
LINE
  5
FF1
330
1D
100
AcDbEntity
  8
0
100
AcDbLine
 10
139.074
 20
109.598926653158
 30
0.0
 11
139.695
 21
108.400926653158
 31
0.0
  0
LINE
  5
FF2
330
1D
100
AcDbEntity
  8
0
100
AcDbLine
 10
138.611
 20
109.242926653158
 30
0.0
 11
139.254
 21
108.000926653158
 31
0.0
  0
LINE
  5
FF3
330
1D
100
AcDbEntity
  8
0
100
AcDbLine
 10
139.838
 20
127.590926653158
 30
0.0
 11
140.5
 21
128.679926653158
 31
0.0
  0
LINE
  5
FF4
330
1D
100
AcDbEntity
  8
0
100
AcDbLine
 10
140.331
 20
129.123926653158
 30
0.0
 11
140.959
 21
129.902925420112
 31
0.0
  0
LINE
  5
FF5
330
1D
100
AcDbEntity
  8
0
100
AcDbLine
 10
139.838
 20
116.013926653158
 30
0.0
 11
140.5
 21
114.925926653158
 31
0.0
  0
LINE
  5
FF6
330
1D
100
AcDbEntity
  8
0
100
AcDbLine
 10
140.331
 20
114.137926653158
 30
0.0
 11
141.142
 21
113.132926653158
 31
0.0
  0
LINE
  5
FF7
330
1D
100
AcDbEntity
  8
0
100
AcDbLine
 10
140.331
 20
110.882926653158
 30
0.0
 11
141.142
 21
109.877926653158
 31
0.0
  0
LINE
  5
FF8
330
1D
100
AcDbEntity
  8
0
100
AcDbLine
 10
139.695
 20
108.400926653158
 30
0.0
 11
140.441
 21
107.266926653158
 31
0.0
  0
LINE
  5
FF9
330
1D
100
AcDbEntity
  8
0
100
AcDbLine
 10
139.254
 20
108.000926653158
 30
0.0
 11
140.027
 21
106.826926653158
 31
0.0
  0
LINE
  5
FFA
330
1D
100
AcDbEntity
  8
0
100
AcDbLine
 10
140.5
 20
114.925926653158
 30
0.0
 11
141.273
 21
113.903926653158
 31
0.0
  0
LINE
  5
FFB
330
1D
100
AcDbEntity
  8
0
100
AcDbLine
 10
140.5
 20
128.679926653158
 30
0.0
 11
140.959
 21
129.286780469458
 31
0.0
  0
LINE
  5
FFC
330
1D
100
AcDbEntity
  8
0
100
AcDbLine
 10
140.441
 20
107.266926653158
 30
0.0
 11
141.305
 21
106.209926653158
 31
0.0
  0
LINE
  5
FFD
330
1D
100
AcDbEntity
  8
0
100
AcDbLine
 10
137.081
 20
107.009926653158
 30
0.0
 11
137.245
 21
105.644926653158
 31
0.0
  0
LINE
  5
FFE
330
1D
100
AcDbEntity
  8
0
100
AcDbLine
 10
137.068
 20
107.890926653158
 30
0.0
 11
137.081
 21
107.009926653158
 31
0.0
  0
LINE
  5
FFF
330
1D
100
AcDbEntity
  8
0
100
AcDbLine
 10
137.068
 20
107.890926653158
 30
0.0
 11
137.068
 21
109.974505921451
 31
0.0
  0
LINE
  5
1000
330
1D
100
AcDbEntity
  8
0
100
AcDbLine
 10
140.959
 20
121.194926653158
 30
0.0
 11
140.959
 21
136.084926653158
 31
0.0
  0
LINE
  5
1001
330
1D
100
AcDbEntity
  8
0
100
AcDbLine
 10
140.959
 20
121.194926653158
 30
0.0
 11
141.273580251712
 21
119.09216421305
 31
0.0
  0
LINE
  5
1002
330
1D
100
AcDbEntity
  8
0
100
AcDbLine
 10
140.959
 20
136.084926653158
 30
0.0
 11
140.959
 21
138.981926653158
 31
0.0
  0
LINE
  5
1003
330
1D
100
AcDbEntity
  8
0
100
AcDbLine
 10
140.959
 20
136.084926653158
 30
0.0
 11
140.959
 21
121.194926653158
 31
0.0
  0
LINE
  5
1004
330
1D
100
AcDbEntity
  8
0
100
AcDbLine
 10
140.959
 20
138.981926653158
 30
0.0
 11
140.959
 21
143.590926653158
 31
0.0
  0
LINE
  5
1005
330
1D
100
AcDbEntity
  8
0
100
AcDbLine
 10
140.959
 20
138.981926653158
 30
0.0
 11
140.959
 21
136.084926653158
 31
0.0
  0
LINE
  5
1006
330
1D
100
AcDbEntity
  8
0
100
AcDbLine
 10
140.959
 20
143.590926653158
 30
0.0
 11
140.959
 21
149.596926653158
 31
0.0
  0
LINE
  5
1007
330
1D
100
AcDbEntity
  8
0
100
AcDbLine
 10
140.959
 20
143.590926653158
 30
0.0
 11
140.959
 21
138.981926653158
 31
0.0
  0
LINE
  5
1008
330
1D
100
AcDbEntity
  8
0
100
AcDbLine
 10
140.959
 20
149.596926653158
 30
0.0
 11
140.959
 21
143.590926653158
 31
0.0
  0
LINE
  5
1009
330
1D
100
AcDbEntity
  8
0
100
AcDbLine
 10
140.959
 20
149.596926653158
 30
0.0
 11
140.959
 21
156.590926653158
 31
0.0
  0
LINE
  5
100A
330
1D
100
AcDbEntity
  8
0
100
AcDbLine
 10
140.959
 20
156.590926653158
 30
0.0
 11
140.959
 21
149.596926653158
 31
0.0
  0
LINE
  5
100B
330
1D
100
AcDbEntity
  8
0
100
AcDbLine
 10
140.959
 20
156.590926653158
 30
0.0
 11
140.959
 21
164.096926653158
 31
0.0
  0
LINE
  5
100C
330
1D
100
AcDbEntity
  8
0
100
AcDbLine
 10
141.801
 20
0.645026653158
 30
0.0
 11
151.918
 21
0.206626653158
 31
0.0
  0
LINE
  5
100D
330
1D
100
AcDbEntity
  8
0
100
AcDbLine
 10
147.136
 20
94.638926653158
 30
0.0
 11
148.542
 21
94.258926653158
 31
0.0
  0
LINE
  5
100E
330
1D
100
AcDbEntity
  8
0
100
AcDbLine
 10
145.777
 20
95.146926653158
 30
0.0
 11
147.136
 21
94.638926653158
 31
0.0
  0
LINE
  5
100F
330
1D
100
AcDbEntity
  8
0
100
AcDbLine
 10
144.476
 20
95.777926653158
 30
0.0
 11
145.777
 21
95.146926653158
 31
0.0
  0
LINE
  5
1010
330
1D
100
AcDbEntity
  8
0
100
AcDbLine
 10
147.103
 20
98.250926653158
 30
0.0
 11
148.518
 21
97.867926653158
 31
0.0
  0
LINE
  5
1011
330
1D
100
AcDbEntity
  8
0
100
AcDbLine
 10
143.249
 20
96.525926653158
 30
0.0
 11
144.476
 21
95.777926653158
 31
0.0
  0
LINE
  5
1012
330
1D
100
AcDbEntity
  8
0
100
AcDbLine
 10
142.105
 20
97.382926653158
 30
0.0
 11
143.249
 21
96.525926653158
 31
0.0
  0
LINE
  5
1013
330
1D
100
AcDbEntity
  8
0
100
AcDbLine
 10
144.426
 20
99.396926653158
 30
0.0
 11
145.735
 21
98.761926653158
 31
0.0
  0
LINE
  5
1014
330
1D
100
AcDbEntity
  8
0
100
AcDbLine
 10
143.191
 20
100.149926653158
 30
0.0
 11
144.426
 21
99.396926653158
 31
0.0
  0
LINE
  5
1015
330
1D
100
AcDbEntity
  8
0
100
AcDbLine
 10
142.038
 20
101.012926653158
 30
0.0
 11
143.191
 21
100.149926653158
 31
0.0
  0
LINE
  5
1016
330
1D
100
AcDbEntity
  8
0
100
AcDbLine
 10
144.426
 20
102.069926653158
 30
0.0
 11
145.735
 21
101.434926653158
 31
0.0
  0
LINE
  5
1017
330
1D
100
AcDbEntity
  8
0
100
AcDbLine
 10
140.983
 20
101.977926653158
 30
0.0
 11
142.038
 21
101.012926653158
 31
0.0
  0
LINE
  5
1018
330
1D
100
AcDbEntity
  8
0
100
AcDbLine
 10
145.735
 20
101.434926653158
 30
0.0
 11
147.103
 21
100.923926653158
 31
0.0
  0
LINE
  5
1019
330
1D
100
AcDbEntity
  8
0
100
AcDbLine
 10
145.735
 20
98.761926653158
 30
0.0
 11
147.103
 21
98.250926653158
 31
0.0
  0
LINE
  5
101A
330
1D
100
AcDbEntity
  8
0
100
AcDbLine
 10
146.877
 20
101.547926653158
 30
0.0
 11
148.278
 21
101.129926653158
 31
0.0
  0
LINE
  5
101B
330
1D
100
AcDbEntity
  8
0
100
AcDbLine
 10
145.529
 20
102.095926653158
 30
0.0
 11
146.877
 21
101.547926653158
 31
0.0
  0
LINE
  5
101C
330
1D
100
AcDbEntity
  8
0
100
AcDbLine
 10
143.19
 20
102.822926653158
 30
0.0
 11
144.426
 21
102.069926653158
 31
0.0
  0
LINE
  5
101D
330
1D
100
AcDbEntity
  8
0
100
AcDbLine
 10
144.246
 20
102.770926653158
 30
0.0
 11
145.529
 21
102.095926653158
 31
0.0
  0
LINE
  5
101E
330
1D
100
AcDbEntity
  8
0
100
AcDbLine
 10
142.038
 20
103.685926653158
 30
0.0
 11
143.19
 21
102.822926653158
 31
0.0
  0
LINE
  5
101F
330
1D
100
AcDbEntity
  8
0
100
AcDbLine
 10
143.043
 20
103.562926653158
 30
0.0
 11
144.246
 21
102.770926653158
 31
0.0
  0
LINE
  5
1020
330
1D
100
AcDbEntity
  8
0
100
AcDbLine
 10
140.982
 20
104.649926653158
 30
0.0
 11
142.038
 21
103.685926653158
 31
0.0
  0
LINE
  5
1021
330
1D
100
AcDbEntity
  8
0
100
AcDbLine
 10
141.931
 20
104.465926653158
 30
0.0
 11
143.043
 21
103.562926653158
 31
0.0
  0
LINE
  5
1022
330
1D
100
AcDbEntity
  8
0
100
AcDbLine
 10
141.932
 20
104.728926653158
 30
0.0
 11
143.043
 21
103.825926653158
 31
0.0
  0
LINE
  5
1023
330
1D
100
AcDbEntity
  8
0
100
AcDbLine
 10
143.353
 20
104.369926653158
 30
0.0
 11
144.515
 21
103.604926653158
 31
0.0
  0
LINE
  5
1024
330
1D
100
AcDbEntity
  8
0
100
AcDbLine
 10
143.043
 20
103.825926653158
 30
0.0
 11
144.247
 21
103.032926653158
 31
0.0
  0
LINE
  5
1025
330
1D
100
AcDbEntity
  8
0
100
AcDbLine
 10
144.515
 20
103.604926653158
 30
0.0
 11
145.752
 21
102.954926653158
 31
0.0
  0
LINE
  5
1026
330
1D
100
AcDbEntity
  8
0
100
AcDbLine
 10
144.247
 20
103.032926653158
 30
0.0
 11
145.529
 21
102.358926653158
 31
0.0
  0
LINE
  5
1027
330
1D
100
AcDbEntity
  8
0
100
AcDbLine
 10
145.752
 20
102.954926653158
 30
0.0
 11
147.054
 21
102.424926653158
 31
0.0
  0
LINE
  5
1028
330
1D
100
AcDbEntity
  8
0
100
AcDbLine
 10
145.529
 20
102.358926653158
 30
0.0
 11
146.877
 21
101.810926653158
 31
0.0
  0
LINE
  5
1029
330
1D
100
AcDbEntity
  8
0
100
AcDbLine
 10
147.103
 20
100.923926653158
 30
0.0
 11
148.519
 21
100.539926653158
 31
0.0
  0
LINE
  5
102A
330
1D
100
AcDbEntity
  8
0
100
AcDbLine
 10
147.054
 20
102.424926653158
 30
0.0
 11
148.406
 21
102.021926653158
 31
0.0
  0
LINE
  5
102B
330
1D
100
AcDbEntity
  8
0
100
AcDbLine
 10
146.877
 20
101.810926653158
 30
0.0
 11
148.277
 21
101.392926653158
 31
0.0
  0
LINE
  5
102C
330
1D
100
AcDbEntity
  8
0
100
AcDbLine
 10
141.055
 20
98.340926653158
 30
0.0
 11
142.105
 21
97.382926653158
 31
0.0
  0
LINE
  5
102D
330
1D
100
AcDbEntity
  8
0
100
AcDbLine
 10
149.981
 20
94.009926653158
 30
0.0
 11
151.439
 21
93.893926653158
 31
0.0
  0
LINE
  5
102E
330
1D
100
AcDbEntity
  8
0
100
AcDbLine
 10
148.519
 20
100.539926653158
 30
0.0
 11
149.968
 21
100.288926653158
 31
0.0
  0
LINE
  5
102F
330
1D
100
AcDbEntity
  8
0
100
AcDbLine
 10
148.518
 20
97.867926653158
 30
0.0
 11
149.968
 21
97.616926653158
 31
0.0
  0
LINE
  5
1030
330
1D
100
AcDbEntity
  8
0
100
AcDbLine
 10
149.716
 20
100.848926653158
 30
0.0
 11
151.177
 21
100.703926653158
 31
0.0
  0
LINE
  5
1031
330
1D
100
AcDbEntity
  8
0
100
AcDbLine
 10
148.278
 20
101.129926653158
 30
0.0
 11
149.716
 21
100.848926653158
 31
0.0
  0
LINE
  5
1032
330
1D
100
AcDbEntity
  8
0
100
AcDbLine
 10
148.406
 20
102.021926653158
 30
0.0
 11
149.794
 21
101.748926653158
 31
0.0
  0
LINE
  5
1033
330
1D
100
AcDbEntity
  8
0
100
AcDbLine
 10
148.277
 20
101.392926653158
 30
0.0
 11
149.717
 21
101.110926653158
 31
0.0
  0
LINE
  5
1034
330
1D
100
AcDbEntity
  8
0
100
AcDbLine
 10
149.968
 20
100.288926653158
 30
0.0
 11
151.435
 21
100.172926653158
 31
0.0
  0
LINE
  5
1035
330
1D
100
AcDbEntity
  8
0
100
AcDbLine
 10
149.968
 20
97.616926653158
 30
0.0
 11
151.435
 21
97.499926653158
 31
0.0
  0
LINE
  5
1036
330
1D
100
AcDbEntity
  8
0
100
AcDbLine
 10
149.794
 20
101.748926653158
 30
0.0
 11
151.205
 21
101.609926653158
 31
0.0
  0
LINE
  5
1037
330
1D
100
AcDbEntity
  8
0
100
AcDbLine
 10
149.717
 20
101.110926653158
 30
0.0
 11
151.177
 21
100.965926653158
 31
0.0
  0
LINE
  5
1038
330
1D
100
AcDbEntity
  8
0
100
AcDbLine
 10
148.542
 20
94.258926653158
 30
0.0
 11
149.981
 21
94.009926653158
 31
0.0
  0
LINE
  5
1039
330
1D
100
AcDbEntity
  8
0
100
AcDbLine
 10
151.177
 20
100.703926653158
 30
0.0
 11
151.959
 21
100.700926653158
 31
0.0
  0
LINE
  5
103A
330
1D
100
AcDbEntity
  8
0
100
AcDbLine
 10
151.435
 20
100.172926653158
 30
0.0
 11
151.959
 21
100.179926653158
 31
0.0
  0
LINE
  5
103B
330
1D
100
AcDbEntity
  8
0
100
AcDbLine
 10
151.959
 20
93.900926653158
 30
0.0
 11
152.479
 21
93.893926653158
 31
0.0
  0
LINE
  5
103C
330
1D
100
AcDbEntity
  8
0
100
AcDbLine
 10
151.959
 20
100.700926653158
 30
0.0
 11
152.741
 21
100.703926653158
 31
0.0
  0
LINE
  5
103D
330
1D
100
AcDbEntity
  8
0
100
AcDbLine
 10
151.959
 20
100.963926653158
 30
0.0
 11
152.741
 21
100.965926653158
 31
0.0
  0
LINE
  5
103E
330
1D
100
AcDbEntity
  8
0
100
AcDbLine
 10
151.959
 20
101.607926653158
 30
0.0
 11
152.713
 21
101.609926653158
 31
0.0
  0
LINE
  5
103F
330
1D
100
AcDbEntity
  8
0
100
AcDbLine
 10
151.959
 20
100.179926653158
 30
0.0
 11
152.483
 21
100.172926653158
 31
0.0
  0
LINE
  5
1040
330
1D
100
AcDbEntity
  8
0
100
AcDbLine
 10
151.959
 20
97.506926653158
 30
0.0
 11
152.483
 21
97.499926653158
 31
0.0
  0
LINE
  5
1041
330
1D
100
AcDbEntity
  8
0
100
AcDbLine
 10
151.435
 20
97.499926653158
 30
0.0
 11
151.959
 21
97.506926653158
 31
0.0
  0
LINE
  5
1042
330
1D
100
AcDbEntity
  8
0
100
AcDbLine
 10
151.205
 20
101.609926653158
 30
0.0
 11
151.959
 21
101.607926653158
 31
0.0
  0
LINE
  5
1043
330
1D
100
AcDbEntity
  8
0
100
AcDbLine
 10
151.177
 20
100.965926653158
 30
0.0
 11
151.959
 21
100.963926653158
 31
0.0
  0
LINE
  5
1044
330
1D
100
AcDbEntity
  8
0
100
AcDbLine
 10
151.439
 20
93.893926653158
 30
0.0
 11
151.959
 21
93.900926653158
 31
0.0
  0
LINE
  5
1045
330
1D
100
AcDbEntity
  8
0
100
AcDbLine
 10
141.305
 20
106.209926653158
 30
0.0
 11
142.28
 21
105.241926653158
 31
0.0
  0
LINE
  5
1046
330
1D
100
AcDbEntity
  8
0
100
AcDbLine
 10
142.28
 20
105.241926653158
 30
0.0
 11
143.353
 21
104.369926653158
 31
0.0
  0
LINE
  5
1047
330
1D
100
AcDbEntity
  8
0
100
AcDbLine
 10
141.142
 20
113.132926653158
 30
0.0
 11
142.051
 21
112.204926653158
 31
0.0
  0
LINE
  5
1048
330
1D
100
AcDbEntity
  8
0
100
AcDbLine
 10
141.273
 20
113.903926653158
 30
0.0
 11
142.149
 21
112.956926653158
 31
0.0
  0
LINE
  5
1049
330
1D
100
AcDbEntity
  8
0
100
AcDbLine
 10
141.142
 20
109.877926653158
 30
0.0
 11
142.051
 21
108.949926653158
 31
0.0
  0
LINE
  5
104A
330
1D
100
AcDbEntity
  8
0
100
AcDbLine
 10
143.05
 20
108.106926653158
 30
0.0
 11
144.129
 21
107.358926653158
 31
0.0
  0
LINE
  5
104B
330
1D
100
AcDbEntity
  8
0
100
AcDbLine
 10
142.149
 20
112.956926653158
 30
0.0
 11
143.119
 21
112.095926653158
 31
0.0
  0
LINE
  5
104C
330
1D
100
AcDbEntity
  8
0
100
AcDbLine
 10
142.051
 20
112.204926653158
 30
0.0
 11
143.05
 21
111.362926653158
 31
0.0
  0
LINE
  5
104D
330
1D
100
AcDbEntity
  8
0
100
AcDbLine
 10
143.119
 20
112.095926653158
 30
0.0
 11
144.175
 21
111.328926653158
 31
0.0
  0
LINE
  5
104E
330
1D
100
AcDbEntity
  8
0
100
AcDbLine
 10
143.05
 20
111.362926653158
 30
0.0
 11
144.128
 21
110.613926653158
 31
0.0
  0
LINE
  5
104F
330
1D
100
AcDbEntity
  8
0
100
AcDbLine
 10
142.051
 20
108.949926653158
 30
0.0
 11
143.05
 21
108.106926653158
 31
0.0
  0
LINE
  5
1050
330
1D
100
AcDbEntity
  8
0
100
AcDbLine
 10
141.273580251712
 20
119.092164213052
 30
0.0
 11
141.546
 21
118.249926653158
 31
0.0
  0
LINE
  5
1051
330
1D
100
AcDbEntity
  8
0
100
AcDbLine
 10
141.546
 20
118.249926653158
 30
0.0
 11
142.015
 21
117.213926653158
 31
0.0
  0
LINE
  5
1052
330
1D
100
AcDbEntity
  8
0
100
AcDbLine
 10
142.015
 20
117.213926653158
 30
0.0
 11
142.602
 21
116.229926653158
 31
0.0
  0
LINE
  5
1053
330
1D
100
AcDbEntity
  8
0
100
AcDbLine
 10
142.602
 20
116.229926653158
 30
0.0
 11
143.298
 21
115.311926653158
 31
0.0
  0
LINE
  5
1054
330
1D
100
AcDbEntity
  8
0
100
AcDbLine
 10
143.298
 20
115.311926653158
 30
0.0
 11
144.097
 21
114.468926653158
 31
0.0
  0
LINE
  5
1055
330
1D
100
AcDbEntity
  8
0
100
AcDbLine
 10
144.128
 20
110.613926653158
 30
0.0
 11
145.279
 21
109.964926653158
 31
0.0
  0
LINE
  5
1056
330
1D
100
AcDbEntity
  8
0
100
AcDbLine
 10
144.175
 20
111.328926653158
 30
0.0
 11
145.305
 21
110.661926653158
 31
0.0
  0
LINE
  5
1057
330
1D
100
AcDbEntity
  8
0
100
AcDbLine
 10
144.129
 20
107.358926653158
 30
0.0
 11
145.279
 21
106.708926653158
 31
0.0
  0
LINE
  5
1058
330
1D
100
AcDbEntity
  8
0
100
AcDbLine
 10
144.097
 20
114.468926653158
 30
0.0
 11
144.987
 21
113.713926653158
 31
0.0
  0
LINE
  5
1059
330
1D
100
AcDbEntity
  8
0
100
AcDbLine
 10
145.279
 20
109.964926653158
 30
0.0
 11
146.49
 21
109.419926653158
 31
0.0
  0
LINE
  5
105A
330
1D
100
AcDbEntity
  8
0
100
AcDbLine
 10
150.374
 20
105.211926653158
 30
0.0
 11
151.712
 21
105.129926653158
 31
0.0
  0
LINE
  5
105B
330
1D
100
AcDbEntity
  8
0
100
AcDbLine
 10
149.049
 20
105.412926653158
 30
0.0
 11
150.374
 21
105.211926653158
 31
0.0
  0
LINE
  5
105C
330
1D
100
AcDbEntity
  8
0
100
AcDbLine
 10
147.751
 20
105.731926653158
 30
0.0
 11
149.049
 21
105.412926653158
 31
0.0
  0
LINE
  5
105D
330
1D
100
AcDbEntity
  8
0
100
AcDbLine
 10
145.305
 20
110.661926653158
 30
0.0
 11
146.499
 21
110.102926653158
 31
0.0
  0
LINE
  5
105E
330
1D
100
AcDbEntity
  8
0
100
AcDbLine
 10
146.499
 20
110.102926653158
 30
0.0
 11
147.746
 21
109.655926653158
 31
0.0
  0
LINE
  5
105F
330
1D
100
AcDbEntity
  8
0
100
AcDbLine
 10
147.746
 20
109.655926653158
 30
0.0
 11
149.034
 21
109.326926653158
 31
0.0
  0
LINE
  5
1060
330
1D
100
AcDbEntity
  8
0
100
AcDbLine
 10
146.49
 20
109.419926653158
 30
0.0
 11
147.751
 21
108.986926653158
 31
0.0
  0
LINE
  5
1061
330
1D
100
AcDbEntity
  8
0
100
AcDbLine
 10
150.35
 20
109.116926653158
 30
0.0
 11
151.681
 21
109.030926653158
 31
0.0
  0
LINE
  5
1062
330
1D
100
AcDbEntity
  8
0
100
AcDbLine
 10
149.034
 20
109.326926653158
 30
0.0
 11
150.35
 21
109.116926653158
 31
0.0
  0
LINE
  5
1063
330
1D
100
AcDbEntity
  8
0
100
AcDbLine
 10
147.751
 20
108.986926653158
 30
0.0
 11
149.049
 21
108.667926653158
 31
0.0
  0
LINE
  5
1064
330
1D
100
AcDbEntity
  8
0
100
AcDbLine
 10
149.049
 20
108.667926653158
 30
0.0
 11
150.374
 21
108.466926653158
 31
0.0
  0
LINE
  5
1065
330
1D
100
AcDbEntity
  8
0
100
AcDbLine
 10
150.374
 20
108.466926653158
 30
0.0
 11
151.712
 21
108.384926653158
 31
0.0
  0
LINE
  5
1066
330
1D
100
AcDbEntity
  8
0
100
AcDbLine
 10
146.49
 20
106.164926653158
 30
0.0
 11
147.751
 21
105.731926653158
 31
0.0
  0
LINE
  5
1067
330
1D
100
AcDbEntity
  8
0
100
AcDbLine
 10
145.279
 20
106.708926653158
 30
0.0
 11
146.49
 21
106.164926653158
 31
0.0
  0
LINE
  5
1068
330
1D
100
AcDbEntity
  8
0
100
AcDbLine
 10
144.987
 20
113.713926653158
 30
0.0
 11
145.959
 21
113.052926653158
 31
0.0
  0
LINE
  5
1069
330
1D
100
AcDbEntity
  8
0
100
AcDbLine
 10
145.959
 20
113.052926653158
 30
0.0
 11
147.001
 21
112.494926653158
 31
0.0
  0
LINE
  5
106A
330
1D
100
AcDbEntity
  8
0
100
AcDbLine
 10
147.001
 20
112.494926653158
 30
0.0
 11
148.102
 21
112.044926653158
 31
0.0
  0
LINE
  5
106B
330
1D
100
AcDbEntity
  8
0
100
AcDbLine
 10
148.102
 20
112.044926653158
 30
0.0
 11
149.247
 21
111.710926653158
 31
0.0
  0
LINE
  5
106C
330
1D
100
AcDbEntity
  8
0
100
AcDbLine
 10
149.247
 20
111.710926653158
 30
0.0
 11
150.425
 21
111.493926653158
 31
0.0
  0
LINE
  5
106D
330
1D
100
AcDbEntity
  8
0
100
AcDbLine
 10
150.425
 20
111.493926653158
 30
0.0
 11
151.621
 21
111.398926653158
 31
0.0
  0
LINE
  5
106E
330
1D
100
AcDbEntity
  8
0
100
AcDbLine
 10
151.959
 20
105.136926653158
 30
0.0
 11
152.206
 21
105.129926653158
 31
0.0
  0
LINE
  5
106F
330
1D
100
AcDbEntity
  8
0
100
AcDbLine
 10
151.959
 20
109.037926653158
 30
0.0
 11
152.237
 21
109.030926653158
 31
0.0
  0
LINE
  5
1070
330
1D
100
AcDbEntity
  8
0
100
AcDbLine
 10
151.959
 20
108.391926653158
 30
0.0
 11
152.206
 21
108.384926653158
 31
0.0
  0
LINE
  5
1071
330
1D
100
AcDbEntity
  8
0
100
AcDbLine
 10
151.959
 20
111.406926653158
 30
0.0
 11
152.297
 21
111.398926653158
 31
0.0
  0
LINE
  5
1072
330
1D
100
AcDbEntity
  8
0
100
AcDbLine
 10
151.712
 20
108.384926653158
 30
0.0
 11
151.959
 21
108.391926653158
 31
0.0
  0
LINE
  5
1073
330
1D
100
AcDbEntity
  8
0
100
AcDbLine
 10
151.681
 20
109.030926653158
 30
0.0
 11
151.959
 21
109.037926653158
 31
0.0
  0
LINE
  5
1074
330
1D
100
AcDbEntity
  8
0
100
AcDbLine
 10
151.712
 20
105.129926653158
 30
0.0
 11
151.959
 21
105.136926653158
 31
0.0
  0
LINE
  5
1075
330
1D
100
AcDbEntity
  8
0
100
AcDbLine
 10
151.621
 20
111.398926653158
 30
0.0
 11
151.959
 21
111.406926653158
 31
0.0
  0
LINE
  5
1076
330
1D
100
AcDbEntity
  8
0
100
AcDbLine
 10
140.959
 20
164.096926653158
 30
0.0
 11
140.959
 21
171.602926653158
 31
0.0
  0
LINE
  5
1077
330
1D
100
AcDbEntity
  8
0
100
AcDbLine
 10
140.959
 20
164.096926653158
 30
0.0
 11
140.959
 21
156.590926653158
 31
0.0
  0
LINE
  5
1078
330
1D
100
AcDbEntity
  8
0
100
AcDbLine
 10
138.759
 20
261.967926653158
 30
0.0
 11
139.259
 21
260.615926653158
 31
0.0
  0
LINE
  5
1079
330
1D
100
AcDbEntity
  8
0
100
AcDbLine
 10
136.959
 20
273.886926653158
 30
0.0
 11
137.008270386266
 21
274.173926653158
 31
0.0
  0
LINE
  5
107A
330
1D
100
AcDbEntity
  8
0
100
AcDbLine
 10
136.959
 20
273.886926653158
 30
0.0
 11
136.959
 21
272.452926653158
 31
0.0
  0
LINE
  5
107B
330
1D
100
AcDbEntity
  8
0
100
AcDbLine
 10
136.959
 20
272.452926653158
 30
0.0
 11
136.959
 21
273.886926653158
 31
0.0
  0
LINE
  5
107C
330
1D
100
AcDbEntity
  8
0
100
AcDbLine
 10
136.959
 20
272.452926653158
 30
0.0
 11
138.759
 21
261.967926653158
 31
0.0
  0
LINE
  5
107D
330
1D
100
AcDbEntity
  8
0
100
AcDbLine
 10
139.259
 20
260.615926653158
 30
0.0
 11
140.959
 21
257.163509986491
 31
0.0
  0
LINE
  5
107E
330
1D
100
AcDbEntity
  8
0
100
AcDbLine
 10
138.759
 20
263.975926653158
 30
0.0
 11
140.959
 21
259.525640938872
 31
0.0
  0
LINE
  5
107F
330
1D
100
AcDbEntity
  8
0
100
AcDbLine
 10
138.759
 20
290.968926653158
 30
0.0
 11
140.959
 21
295.544477673566
 31
0.0
  0
LINE
  5
1080
330
1D
100
AcDbEntity
  8
0
100
AcDbLine
 10
136.959
 20
280.482926653158
 30
0.0
 11
138.759
 21
290.968926653158
 31
0.0
  0
LINE
  5
1081
330
1D
100
AcDbEntity
  8
0
100
AcDbLine
 10
136.959
 20
280.482926653158
 30
0.0
 11
136.959
 21
274.460926653158
 31
0.0
  0
LINE
  5
1082
330
1D
100
AcDbEntity
  8
0
100
AcDbLine
 10
136.959
 20
274.460926653158
 30
0.0
 11
136.959
 21
280.482926653158
 31
0.0
  0
LINE
  5
1083
330
1D
100
AcDbEntity
  8
0
100
AcDbLine
 10
136.959
 20
274.460926653158
 30
0.0
 11
138.759
 21
263.975926653158
 31
0.0
  0
LINE
  5
1084
330
1D
100
AcDbEntity
  8
0
100
AcDbLine
 10
162.959
 20
235.561640938872
 30
0.0
 11
163.059
 21
235.508926653158
 31
0.0
  0
LINE
  5
1085
330
1D
100
AcDbEntity
  8
0
100
AcDbLine
 10
162.959
 20
238.693364669687
 30
0.0
 11
174.159
 21
234.977926653158
 31
0.0
  0
LINE
  5
1086
330
1D
100
AcDbEntity
  8
0
100
AcDbLine
 10
163.059
 20
235.508926653158
 30
0.0
 11
174.659
 21
231.658926653158
 31
0.0
  0
LINE
  5
1087
330
1D
100
AcDbEntity
  8
0
100
AcDbLine
 10
163.401827145517
 20
316.543674116508
 30
0.0
 11
166.129
 21
318.554926653158
 31
0.0
  0
LINE
  5
1088
330
1D
100
AcDbEntity
  8
0
100
AcDbLine
 10
166.129
 20
318.554926653158
 30
0.0
 11
170.587
 21
322.911926653158
 31
0.0
  0
LINE
  5
1089
330
1D
100
AcDbEntity
  8
0
100
AcDbLine
 10
170.587
 20
322.911926653158
 30
0.0
 11
173.216
 21
326.987926653158
 31
0.0
  0
LINE
  5
108A
330
1D
100
AcDbEntity
  8
0
100
AcDbLine
 10
140.959
 20
171.602926653158
 30
0.0
 11
140.959
 21
432.296926653158
 31
0.0
  0
LINE
  5
108B
330
1D
100
AcDbEntity
  8
0
100
AcDbLine
 10
140.959
 20
171.602926653158
 30
0.0
 11
140.959
 21
164.096926653158
 31
0.0
  0
LINE
  5
108C
330
1D
100
AcDbEntity
  8
0
100
AcDbLine
 10
140.959
 20
432.296926653158
 30
0.0
 11
140.959
 21
171.602926653158
 31
0.0
  0
LINE
  5
108D
330
1D
100
AcDbEntity
  8
0
100
AcDbLine
 10
173.216
 20
326.987926653158
 30
0.0
 11
174.959
 21
333.799926653158
 31
0.0
  0
LINE
  5
108E
330
1D
100
AcDbEntity
  8
0
100
AcDbLine
 10
174.159
 20
234.977926653158
 30
0.0
 11
186.959
 21
233.502926653158
 31
0.0
  0
LINE
  5
108F
330
1D
100
AcDbEntity
  8
0
100
AcDbLine
 10
174.659
 20
231.658926653158
 30
0.0
 11
186.959
 21
230.265926653158
 31
0.0
  0
LINE
  5
1090
330
1D
100
AcDbEntity
  8
0
100
AcDbLine
 10
186.959
 20
230.265926653158
 30
0.0
 11
199.259
 21
231.658926653158
 31
0.0
  0
LINE
  5
1091
330
1D
100
AcDbEntity
  8
0
100
AcDbLine
 10
186.959
 20
233.502926653158
 30
0.0
 11
199.759
 21
234.977926653158
 31
0.0
  0
LINE
  5
1092
330
1D
100
AcDbEntity
  8
0
100
AcDbLine
 10
198.959
 20
333.799926653158
 30
0.0
 11
200.702
 21
326.987926653158
 31
0.0
  0
LINE
  5
1093
330
1D
100
AcDbEntity
  8
0
100
AcDbLine
 10
199.259
 20
231.658926653158
 30
0.0
 11
210.859
 21
235.508926653158
 31
0.0
  0
LINE
  5
1094
330
1D
100
AcDbEntity
  8
0
100
AcDbLine
 10
207.789
 20
318.554926653158
 30
0.0
 11
211.559
 21
317.404926653158
 31
0.0
  0
LINE
  5
1095
330
1D
100
AcDbEntity
  8
0
100
AcDbLine
 10
203.331
 20
322.911926653158
 30
0.0
 11
207.789
 21
318.554926653158
 31
0.0
  0
LINE
  5
1096
330
1D
100
AcDbEntity
  8
0
100
AcDbLine
 10
200.702
 20
326.987926653158
 30
0.0
 11
203.331
 21
322.911926653158
 31
0.0
  0
LINE
  5
1097
330
1D
100
AcDbEntity
  8
0
100
AcDbLine
 10
199.759
 20
234.977926653158
 30
0.0
 11
211.859
 21
238.991926653158
 31
0.0
  0
LINE
  5
1098
330
1D
100
AcDbEntity
  8
0
100
AcDbLine
 10
211.559
 20
235.877926653158
 30
0.0
 11
221.959
 21
242.348926653158
 31
0.0
  0
LINE
  5
1099
330
1D
100
AcDbEntity
  8
0
100
AcDbLine
 10
210.859
 20
235.508926653158
 30
0.0
 11
211.559
 21
235.877926653158
 31
0.0
  0
LINE
  5
109A
330
1D
100
AcDbEntity
  8
0
100
AcDbLine
 10
211.559
 20
317.404926653158
 30
0.0
 11
221.959
 21
310.528926653158
 31
0.0
  0
LINE
  5
109B
330
1D
100
AcDbEntity
  8
0
100
AcDbLine
 10
211.859
 20
238.991926653158
 30
0.0
 11
222.259
 21
245.544926653158
 31
0.0
  0
LINE
  5
109C
330
1D
100
AcDbEntity
  8
0
100
AcDbLine
 10
221.959
 20
242.348926653158
 30
0.0
 11
229.859
 21
250.867926653158
 31
0.0
  0
LINE
  5
109D
330
1D
100
AcDbEntity
  8
0
100
AcDbLine
 10
222.259
 20
245.544926653158
 30
0.0
 11
230.259
 21
254.063926653158
 31
0.0
  0
LINE
  5
109E
330
1D
100
AcDbEntity
  8
0
100
AcDbLine
 10
222.259
 20
310.235926653158
 30
0.0
 11
230.259
 21
301.159926653158
 31
0.0
  0
LINE
  5
109F
330
1D
100
AcDbEntity
  8
0
100
AcDbLine
 10
221.959
 20
310.528926653158
 30
0.0
 11
222.259
 21
310.235926653158
 31
0.0
  0
LINE
  5
10A0
330
1D
100
AcDbEntity
  8
0
100
AcDbLine
 10
229.859
 20
250.867926653158
 30
0.0
 11
234.659
 21
260.615926653158
 31
0.0
  0
LINE
  5
10A1
330
1D
100
AcDbEntity
  8
0
100
AcDbLine
 10
235.159
 20
261.967926653158
 30
0.0
 11
236.959
 21
272.452926653158
 31
0.0
  0
LINE
  5
10A2
330
1D
100
AcDbEntity
  8
0
100
AcDbLine
 10
234.659
 20
260.615926653158
 30
0.0
 11
235.159
 21
261.967926653158
 31
0.0
  0
LINE
  5
10A3
330
1D
100
AcDbEntity
  8
0
100
AcDbLine
 10
230.259
 20
254.063926653158
 30
0.0
 11
235.159
 21
263.975926653158
 31
0.0
  0
LINE
  5
10A4
330
1D
100
AcDbEntity
  8
0
100
AcDbLine
 10
236.959
 20
272.452926653158
 30
0.0
 11
236.959
 21
273.886926653158
 31
0.0
  0
LINE
  5
10A5
330
1D
100
AcDbEntity
  8
0
100
AcDbLine
 10
236.909729613734
 20
274.173926653158
 30
0.0
 11
236.959
 21
273.886926653158
 31
0.0
  0
LINE
  5
10A6
330
1D
100
AcDbEntity
  8
0
100
AcDbLine
 10
236.959
 20
273.886926653158
 30
0.0
 11
236.959
 21
272.452926653158
 31
0.0
  0
LINE
  5
10A7
330
1D
100
AcDbEntity
  8
0
100
AcDbLine
 10
236.959
 20
280.482926653158
 30
0.0
 11
236.959
 21
274.460926653158
 31
0.0
  0
LINE
  5
10A8
330
1D
100
AcDbEntity
  8
0
100
AcDbLine
 10
236.959
 20
274.460926653158
 30
0.0
 11
236.959
 21
280.482926653158
 31
0.0
  0
LINE
  5
10A9
330
1D
100
AcDbEntity
  8
0
100
AcDbLine
 10
235.159
 20
263.975926653158
 30
0.0
 11
236.959
 21
274.460926653158
 31
0.0
  0
LINE
  5
10AA
330
1D
100
AcDbEntity
  8
0
100
AcDbLine
 10
230.259
 20
301.159926653158
 30
0.0
 11
235.159
 21
290.968926653158
 31
0.0
  0
LINE
  5
10AB
330
1D
100
AcDbEntity
  8
0
100
AcDbLine
 10
235.159
 20
290.968926653158
 30
0.0
 11
236.959
 21
280.482926653158
 31
0.0
  0
LINE
  5
10AC
330
1D
100
AcDbEntity
  8
0
100
AcDbLine
 10
162.959
 20
171.602926653158
 30
0.0
 11
162.959
 21
432.296926653158
 31
0.0
  0
LINE
  5
10AD
330
1D
100
AcDbEntity
  8
0
100
AcDbLine
 10
162.959
 20
432.296926653158
 30
0.0
 11
162.959
 21
171.602926653158
 31
0.0
  0
LINE
  5
10AE
330
1D
100
AcDbEntity
  8
0
100
AcDbLine
 10
182.001
 20
4.133226653158
 30
0.0
 11
172.145
 21
1.956226653158
 31
0.0
  0
LINE
  5
10AF
330
1D
100
AcDbEntity
  8
0
100
AcDbLine
 10
182.086
 20
207.238926653158
 30
0.0
 11
172.196
 21
209.431926653158
 31
0.0
  0
LINE
  5
10B0
330
1D
100
AcDbEntity
  8
0
100
AcDbLine
 10
260.081
 20
126.759926653158
 30
0.0
 11
257.758
 21
136.055926653158
 31
0.0
  0
LINE
  5
10B1
330
1D
100
AcDbEntity
  8
0
100
AcDbLine
 10
245.195
 20
48.979926653158
 30
0.0
 11
239.4729
 21
41.130626653158
 31
0.0
  0
LINE
  5
10B2
330
1D
100
AcDbEntity
  8
0
100
AcDbLine
 10
254.547
 20
66.675926653158
 30
0.0
 11
250.444
 21
57.941926653158
 31
0.0
  0
LINE
  5
10B3
330
1D
100
AcDbEntity
  8
0
100
AcDbLine
 10
250.444
 20
57.941926653158
 30
0.0
 11
250.118
 21
57.291926653158
 31
0.0
  0
LINE
  5
10B4
330
1D
100
AcDbEntity
  8
0
100
AcDbLine
 10
250.118
 20
57.291926653158
 30
0.0
 11
245.195
 21
48.979926653158
 31
0.0
  0
LINE
  5
10B5
330
1D
100
AcDbEntity
  8
0
100
AcDbLine
 10
261.959
 20
103.983926653158
 30
0.0
 11
261.495
 21
94.476926653158
 31
0.0
  0
LINE
  5
10B6
330
1D
100
AcDbEntity
  8
0
100
AcDbLine
 10
261.495
 20
94.476926653158
 30
0.0
 11
260.095
 21
85.020926653158
 31
0.0
  0
LINE
  5
10B7
330
1D
100
AcDbEntity
  8
0
100
AcDbLine
 10
260.095
 20
85.020926653158
 30
0.0
 11
257.773
 21
75.727926653158
 31
0.0
  0
LINE
  5
10B8
330
1D
100
AcDbEntity
  8
0
100
AcDbLine
 10
257.773
 20
75.727926653158
 30
0.0
 11
254.547
 21
66.675926653158
 31
0.0
  0
LINE
  5
10B9
330
1D
100
AcDbEntity
  8
0
100
AcDbLine
 10
261.482
 20
117.302926653158
 30
0.0
 11
260.081
 21
126.759926653158
 31
0.0
  0
LINE
  5
10BA
330
1D
100
AcDbEntity
  8
0
100
AcDbLine
 10
261.947
 20
107.795926653158
 30
0.0
 11
261.482
 21
117.302926653158
 31
0.0
  0
LINE
  5
10BB
330
1D
100
AcDbEntity
  8
0
100
AcDbLine
 10
261.959
 20
103.983926653158
 30
0.0
 11
261.947
 21
107.795926653158
 31
0.0
  0
LINE
  5
10BC
330
1D
100
AcDbEntity
  8
0
100
AcDbLine
 10
209.7088
 20
15.628426653158
 30
0.0
 11
200.8616
 21
10.998526653158
 31
0.0
  0
LINE
  5
10BD
330
1D
100
AcDbEntity
  8
0
100
AcDbLine
 10
239.4729
 20
41.130626653158
 30
0.0
 11
233.0055
 21
33.810126653158
 31
0.0
  0
LINE
  5
10BE
330
1D
100
AcDbEntity
  8
0
100
AcDbLine
 10
225.8491
 20
27.083126653158
 30
0.0
 11
218.0601
 21
21.004726653158
 31
0.0
  0
LINE
  5
10BF
330
1D
100
AcDbEntity
  8
0
100
AcDbLine
 10
233.0055
 20
33.810126653158
 30
0.0
 11
225.8491
 21
27.083126653158
 31
0.0
  0
LINE
  5
10C0
330
1D
100
AcDbEntity
  8
0
100
AcDbLine
 10
218.0601
 20
21.004726653158
 30
0.0
 11
209.7088
 21
15.628426653158
 31
0.0
  0
LINE
  5
10C1
330
1D
100
AcDbEntity
  8
0
100
AcDbLine
 10
200.8616
 20
10.998526653158
 30
0.0
 11
191.601
 21
7.157026653158
 31
0.0
  0
LINE
  5
10C2
330
1D
100
AcDbEntity
  8
0
100
AcDbLine
 10
191.601
 20
7.157026653158
 30
0.0
 11
182.001
 21
4.133226653158
 31
0.0
  0
LINE
  5
10C3
330
1D
100
AcDbEntity
  8
0
100
AcDbLine
 10
245.491
 20
162.191926653158
 30
0.0
 11
239.7499
 21
170.073926653158
 31
0.0
  0
LINE
  5
10C4
330
1D
100
AcDbEntity
  8
0
100
AcDbLine
 10
250.431
 20
153.847926653158
 30
0.0
 11
245.491
 21
162.191926653158
 31
0.0
  0
LINE
  5
10C5
330
1D
100
AcDbEntity
  8
0
100
AcDbLine
 10
254.532
 20
145.110926653158
 30
0.0
 11
250.431
 21
153.847926653158
 31
0.0
  0
LINE
  5
10C6
330
1D
100
AcDbEntity
  8
0
100
AcDbLine
 10
257.758
 20
136.055926653158
 30
0.0
 11
254.532
 21
145.110926653158
 31
0.0
  0
LINE
  5
10C7
330
1D
100
AcDbEntity
  8
0
100
AcDbLine
 10
209.8847
 20
195.682926653158
 30
0.0
 11
201.01
 21
200.335926653158
 31
0.0
  0
LINE
  5
10C8
330
1D
100
AcDbEntity
  8
0
100
AcDbLine
 10
218.2665
 20
190.281926653158
 30
0.0
 11
209.8847
 21
195.682926653158
 31
0.0
  0
LINE
  5
10C9
330
1D
100
AcDbEntity
  8
0
100
AcDbLine
 10
226.08
 20
184.178926653158
 30
0.0
 11
218.2665
 21
190.281926653158
 31
0.0
  0
LINE
  5
10CA
330
1D
100
AcDbEntity
  8
0
100
AcDbLine
 10
233.2619
 20
177.422926653158
 30
0.0
 11
226.08
 21
184.178926653158
 31
0.0
  0
LINE
  5
10CB
330
1D
100
AcDbEntity
  8
0
100
AcDbLine
 10
239.7499
 20
170.073926653158
 30
0.0
 11
233.2619
 21
177.422926653158
 31
0.0
  0
LINE
  5
10CC
330
1D
100
AcDbEntity
  8
0
100
AcDbLine
 10
191.718
 20
204.198926653158
 30
0.0
 11
182.086
 21
207.238926653158
 31
0.0
  0
LINE
  5
10CD
330
1D
100
AcDbEntity
  8
0
100
AcDbLine
 10
201.01
 20
200.335926653158
 30
0.0
 11
191.718
 21
204.198926653158
 31
0.0
  0
LINE
  5
10CE
330
1D
100
AcDbEntity
  8
0
100
AcDbLine
 10
164.293
 20
128.051926653158
 30
0.0
 11
163.587
 21
129.123926653158
 31
0.0
  0
LINE
  5
10CF
330
1D
100
AcDbEntity
  8
0
100
AcDbLine
 10
164.08
 20
127.590926653158
 30
0.0
 11
163.418
 21
128.679926653158
 31
0.0
  0
LINE
  5
10D0
330
1D
100
AcDbEntity
  8
0
100
AcDbLine
 10
162.959
 20
121.194926653158
 30
0.0
 11
162.959
 21
136.084926653158
 31
0.0
  0
LINE
  5
10D1
330
1D
100
AcDbEntity
  8
0
100
AcDbLine
 10
162.959
 20
136.084926653158
 30
0.0
 11
162.959
 21
121.194926653158
 31
0.0
  0
LINE
  5
10D2
330
1D
100
AcDbEntity
  8
0
100
AcDbLine
 10
172.145
 20
1.956226653158
 30
0.0
 11
162.117
 21
0.645026653158
 31
0.0
  0
LINE
  5
10D3
330
1D
100
AcDbEntity
  8
0
100
AcDbLine
 10
162.117
 20
0.645026653158
 30
0.0
 11
152.0
 21
0.206626653158
 31
0.0
  0
LINE
  5
10D4
330
1D
100
AcDbEntity
  8
0
100
AcDbLine
 10
160.669
 20
96.525926653158
 30
0.0
 11
159.442
 21
95.777926653158
 31
0.0
  0
LINE
  5
10D5
330
1D
100
AcDbEntity
  8
0
100
AcDbLine
 10
156.782
 20
94.638926653158
 30
0.0
 11
155.376
 21
94.258926653158
 31
0.0
  0
LINE
  5
10D6
330
1D
100
AcDbEntity
  8
0
100
AcDbLine
 10
158.141
 20
95.146926653158
 30
0.0
 11
156.782
 21
94.638926653158
 31
0.0
  0
LINE
  5
10D7
330
1D
100
AcDbEntity
  8
0
100
AcDbLine
 10
159.442
 20
95.777926653158
 30
0.0
 11
158.141
 21
95.146926653158
 31
0.0
  0
LINE
  5
10D8
330
1D
100
AcDbEntity
  8
0
100
AcDbLine
 10
153.937
 20
94.009926653158
 30
0.0
 11
152.479
 21
93.893926653158
 31
0.0
  0
LINE
  5
10D9
330
1D
100
AcDbEntity
  8
0
100
AcDbLine
 10
155.376
 20
94.258926653158
 30
0.0
 11
153.937
 21
94.009926653158
 31
0.0
  0
LINE
  5
10DA
330
1D
100
AcDbEntity
  8
0
100
AcDbLine
 10
151.959
 20
93.900926653158
 30
0.0
 11
151.439
 21
93.893926653158
 31
0.0
  0
LINE
  5
10DB
330
1D
100
AcDbEntity
  8
0
100
AcDbLine
 10
152.479
 20
93.893926653158
 30
0.0
 11
151.959
 21
93.900926653158
 31
0.0
  0
LINE
  5
10DC
330
1D
100
AcDbEntity
  8
0
100
AcDbLine
 10
160.727
 20
100.149926653158
 30
0.0
 11
159.492
 21
99.396926653158
 31
0.0
  0
LINE
  5
10DD
330
1D
100
AcDbEntity
  8
0
100
AcDbLine
 10
160.728
 20
102.822926653158
 30
0.0
 11
159.492
 21
102.069926653158
 31
0.0
  0
LINE
  5
10DE
330
1D
100
AcDbEntity
  8
0
100
AcDbLine
 10
160.875
 20
103.562926653158
 30
0.0
 11
159.672
 21
102.770926653158
 31
0.0
  0
LINE
  5
10DF
330
1D
100
AcDbEntity
  8
0
100
AcDbLine
 10
160.565
 20
104.369926653158
 30
0.0
 11
159.403
 21
103.604926653158
 31
0.0
  0
LINE
  5
10E0
330
1D
100
AcDbEntity
  8
0
100
AcDbLine
 10
160.875
 20
103.825926653158
 30
0.0
 11
159.671
 21
103.032926653158
 31
0.0
  0
LINE
  5
10E1
330
1D
100
AcDbEntity
  8
0
100
AcDbLine
 10
160.868
 20
108.106926653158
 30
0.0
 11
159.789
 21
107.358926653158
 31
0.0
  0
LINE
  5
10E2
330
1D
100
AcDbEntity
  8
0
100
AcDbLine
 10
160.799
 20
112.095926653158
 30
0.0
 11
159.743
 21
111.328926653158
 31
0.0
  0
LINE
  5
10E3
330
1D
100
AcDbEntity
  8
0
100
AcDbLine
 10
160.868
 20
111.362926653158
 30
0.0
 11
159.79
 21
110.613926653158
 31
0.0
  0
LINE
  5
10E4
330
1D
100
AcDbEntity
  8
0
100
AcDbLine
 10
160.62
 20
115.311926653158
 30
0.0
 11
159.821
 21
114.468926653158
 31
0.0
  0
LINE
  5
10E5
330
1D
100
AcDbEntity
  8
0
100
AcDbLine
 10
166.951
 20
114.264926653158
 30
0.0
 11
166.951
 21
111.591926653158
 31
0.0
  0
LINE
  5
10E6
330
1D
100
AcDbEntity
  8
0
100
AcDbLine
 10
166.937
 20
113.377926653158
 30
0.0
 11
166.773
 21
112.001926653158
 31
0.0
  0
LINE
  5
10E7
330
1D
100
AcDbEntity
  8
0
100
AcDbLine
 10
166.951
 20
111.591926653158
 30
0.0
 11
166.951
 21
114.264926653158
 31
0.0
  0
LINE
  5
10E8
330
1D
100
AcDbEntity
  8
0
100
AcDbLine
 10
166.395
 20
112.979926653158
 30
0.0
 11
166.177
 21
111.614926653158
 31
0.0
  0
LINE
  5
10E9
330
1D
100
AcDbEntity
  8
0
100
AcDbLine
 10
166.394
 20
113.241926653158
 30
0.0
 11
166.177
 21
111.876926653158
 31
0.0
  0
LINE
  5
10EA
330
1D
100
AcDbEntity
  8
0
100
AcDbLine
 10
165.683
 20
112.141926653158
 30
0.0
 11
165.331
 21
110.849926653158
 31
0.0
  0
LINE
  5
10EB
330
1D
100
AcDbEntity
  8
0
100
AcDbLine
 10
164.887
 20
113.086926653158
 30
0.0
 11
164.293
 21
111.954926653158
 31
0.0
  0
LINE
  5
10EC
330
1D
100
AcDbEntity
  8
0
100
AcDbLine
 10
161.769
 20
112.956926653158
 30
0.0
 11
160.799
 21
112.095926653158
 31
0.0
  0
LINE
  5
10ED
330
1D
100
AcDbEntity
  8
0
100
AcDbLine
 10
161.867
 20
112.204926653158
 30
0.0
 11
160.868
 21
111.362926653158
 31
0.0
  0
LINE
  5
10EE
330
1D
100
AcDbEntity
  8
0
100
AcDbLine
 10
164.722
 20
104.174926653158
 30
0.0
 11
163.887
 21
103.034926653158
 31
0.0
  0
LINE
  5
10EF
330
1D
100
AcDbEntity
  8
0
100
AcDbLine
 10
166.367
 20
104.298926653158
 30
0.0
 11
165.923
 21
102.989926653158
 31
0.0
  0
LINE
  5
10F0
330
1D
100
AcDbEntity
  8
0
100
AcDbLine
 10
162.936
 20
104.649926653158
 30
0.0
 11
161.88
 21
103.685926653158
 31
0.0
  0
LINE
  5
10F1
330
1D
100
AcDbEntity
  8
0
100
AcDbLine
 10
161.987
 20
104.465926653158
 30
0.0
 11
160.875
 21
103.562926653158
 31
0.0
  0
LINE
  5
10F2
330
1D
100
AcDbEntity
  8
0
100
AcDbLine
 10
161.986
 20
104.728926653158
 30
0.0
 11
160.875
 21
103.825926653158
 31
0.0
  0
LINE
  5
10F3
330
1D
100
AcDbEntity
  8
0
100
AcDbLine
 10
163.806
 20
99.390926653158
 30
0.0
 11
162.863
 21
98.340926653158
 31
0.0
  0
LINE
  5
10F4
330
1D
100
AcDbEntity
  8
0
100
AcDbLine
 10
164.636
 20
100.523926653158
 30
0.0
 11
163.806
 21
99.390926653158
 31
0.0
  0
LINE
  5
10F5
330
1D
100
AcDbEntity
  8
0
100
AcDbLine
 10
163.887
 20
103.034926653158
 30
0.0
 11
162.935
 21
101.977926653158
 31
0.0
  0
LINE
  5
10F6
330
1D
100
AcDbEntity
  8
0
100
AcDbLine
 10
165.344
 20
101.726926653158
 30
0.0
 11
164.636
 21
100.523926653158
 31
0.0
  0
LINE
  5
10F7
330
1D
100
AcDbEntity
  8
0
100
AcDbLine
 10
165.923
 20
102.989926653158
 30
0.0
 11
165.344
 21
101.726926653158
 31
0.0
  0
LINE
  5
10F8
330
1D
100
AcDbEntity
  8
0
100
AcDbLine
 10
161.813
 20
97.382926653158
 30
0.0
 11
160.669
 21
96.525926653158
 31
0.0
  0
LINE
  5
10F9
330
1D
100
AcDbEntity
  8
0
100
AcDbLine
 10
161.88
 20
101.012926653158
 30
0.0
 11
160.727
 21
100.149926653158
 31
0.0
  0
LINE
  5
10FA
330
1D
100
AcDbEntity
  8
0
100
AcDbLine
 10
162.935
 20
101.977926653158
 30
0.0
 11
161.88
 21
101.012926653158
 31
0.0
  0
LINE
  5
10FB
330
1D
100
AcDbEntity
  8
0
100
AcDbLine
 10
161.88
 20
103.685926653158
 30
0.0
 11
160.728
 21
102.822926653158
 31
0.0
  0
LINE
  5
10FC
330
1D
100
AcDbEntity
  8
0
100
AcDbLine
 10
162.863
 20
98.340926653158
 30
0.0
 11
161.813
 21
97.382926653158
 31
0.0
  0
LINE
  5
10FD
330
1D
100
AcDbEntity
  8
0
100
AcDbLine
 10
164.722
 20
106.847926653158
 30
0.0
 11
163.886
 21
105.707926653158
 31
0.0
  0
LINE
  5
10FE
330
1D
100
AcDbEntity
  8
0
100
AcDbLine
 10
164.665
 20
107.737926653158
 30
0.0
 11
163.892
 21
106.564926653158
 31
0.0
  0
LINE
  5
10FF
330
1D
100
AcDbEntity
  8
0
100
AcDbLine
 10
164.293
 20
111.954926653158
 30
0.0
 11
163.587
 21
110.882926653158
 31
0.0
  0
LINE
  5
1100
330
1D
100
AcDbEntity
  8
0
100
AcDbLine
 10
164.223
 20
108.400926653158
 30
0.0
 11
163.477
 21
107.266926653158
 31
0.0
  0
LINE
  5
1101
330
1D
100
AcDbEntity
  8
0
100
AcDbLine
 10
164.664
 20
108.000926653158
 30
0.0
 11
163.891
 21
106.826926653158
 31
0.0
  0
LINE
  5
1102
330
1D
100
AcDbEntity
  8
0
100
AcDbLine
 10
166.85
 20
109.974505921451
 30
0.0
 11
166.85
 21
107.890926653158
 31
0.0
  0
LINE
  5
1103
330
1D
100
AcDbEntity
  8
0
100
AcDbLine
 10
165.307
 20
108.980926653158
 30
0.0
 11
164.665
 21
107.737926653158
 31
0.0
  0
LINE
  5
1104
330
1D
100
AcDbEntity
  8
0
100
AcDbLine
 10
166.017
 20
109.329926653158
 30
0.0
 11
165.434
 21
108.058926653158
 31
0.0
  0
LINE
  5
1105
330
1D
100
AcDbEntity
  8
0
100
AcDbLine
 10
166.773
 20
109.328926653158
 30
0.0
 11
166.465
 21
107.975926653158
 31
0.0
  0
LINE
  5
1106
330
1D
100
AcDbEntity
  8
0
100
AcDbLine
 10
165.307
 20
109.242926653158
 30
0.0
 11
164.664
 21
108.000926653158
 31
0.0
  0
LINE
  5
1107
330
1D
100
AcDbEntity
  8
0
100
AcDbLine
 10
166.85
 20
107.890926653158
 30
0.0
 11
166.85
 21
109.974505921451
 31
0.0
  0
LINE
  5
1108
330
1D
100
AcDbEntity
  8
0
100
AcDbLine
 10
165.434
 20
105.385926653158
 30
0.0
 11
164.722
 21
104.174926653158
 31
0.0
  0
LINE
  5
1109
330
1D
100
AcDbEntity
  8
0
100
AcDbLine
 10
166.017
 20
106.657926653158
 30
0.0
 11
165.434
 21
105.385926653158
 31
0.0
  0
LINE
  5
110A
330
1D
100
AcDbEntity
  8
0
100
AcDbLine
 10
166.673
 20
105.644926653158
 30
0.0
 11
166.367
 21
104.298926653158
 31
0.0
  0
LINE
  5
110B
330
1D
100
AcDbEntity
  8
0
100
AcDbLine
 10
166.465
 20
107.975926653158
 30
0.0
 11
166.017
 21
106.657926653158
 31
0.0
  0
LINE
  5
110C
330
1D
100
AcDbEntity
  8
0
100
AcDbLine
 10
165.434
 20
108.058926653158
 30
0.0
 11
164.722
 21
106.847926653158
 31
0.0
  0
LINE
  5
110D
330
1D
100
AcDbEntity
  8
0
100
AcDbLine
 10
166.837
 20
107.009926653158
 30
0.0
 11
166.673
 21
105.644926653158
 31
0.0
  0
LINE
  5
110E
330
1D
100
AcDbEntity
  8
0
100
AcDbLine
 10
166.85
 20
107.890926653158
 30
0.0
 11
166.837
 21
107.009926653158
 31
0.0
  0
LINE
  5
110F
330
1D
100
AcDbEntity
  8
0
100
AcDbLine
 10
166.937
 20
110.703926653158
 30
0.0
 11
166.773
 21
109.328926653158
 31
0.0
  0
LINE
  5
1110
330
1D
100
AcDbEntity
  8
0
100
AcDbLine
 10
166.951
 20
111.591926653158
 30
0.0
 11
166.937
 21
110.703926653158
 31
0.0
  0
LINE
  5
1111
330
1D
100
AcDbEntity
  8
0
100
AcDbLine
 10
165.813
 20
110.276926653158
 30
0.0
 11
165.307
 21
108.980926653158
 31
0.0
  0
LINE
  5
1112
330
1D
100
AcDbEntity
  8
0
100
AcDbLine
 10
166.464
 20
110.648926653158
 30
0.0
 11
166.017
 21
109.329926653158
 31
0.0
  0
LINE
  5
1113
330
1D
100
AcDbEntity
  8
0
100
AcDbLine
 10
166.177
 20
111.614926653158
 30
0.0
 11
165.813
 21
110.276926653158
 31
0.0
  0
LINE
  5
1114
330
1D
100
AcDbEntity
  8
0
100
AcDbLine
 10
166.773
 20
112.001926653158
 30
0.0
 11
166.464
 21
110.648926653158
 31
0.0
  0
LINE
  5
1115
330
1D
100
AcDbEntity
  8
0
100
AcDbLine
 10
166.177
 20
111.876926653158
 30
0.0
 11
165.813
 21
110.538926653158
 31
0.0
  0
LINE
  5
1116
330
1D
100
AcDbEntity
  8
0
100
AcDbLine
 10
165.331
 20
110.849926653158
 30
0.0
 11
164.844
 21
109.598926653158
 31
0.0
  0
LINE
  5
1117
330
1D
100
AcDbEntity
  8
0
100
AcDbLine
 10
165.813
 20
110.538926653158
 30
0.0
 11
165.307
 21
109.242926653158
 31
0.0
  0
LINE
  5
1118
330
1D
100
AcDbEntity
  8
0
100
AcDbLine
 10
164.844
 20
109.598926653158
 30
0.0
 11
164.223
 21
108.400926653158
 31
0.0
  0
LINE
  5
1119
330
1D
100
AcDbEntity
  8
0
100
AcDbLine
 10
163.886
 20
105.707926653158
 30
0.0
 11
162.936
 21
104.649926653158
 31
0.0
  0
LINE
  5
111A
330
1D
100
AcDbEntity
  8
0
100
AcDbLine
 10
163.892
 20
106.564926653158
 30
0.0
 11
162.995
 21
105.469926653158
 31
0.0
  0
LINE
  5
111B
330
1D
100
AcDbEntity
  8
0
100
AcDbLine
 10
163.891
 20
106.826926653158
 30
0.0
 11
162.996
 21
105.732926653158
 31
0.0
  0
LINE
  5
111C
330
1D
100
AcDbEntity
  8
0
100
AcDbLine
 10
162.995
 20
105.469926653158
 30
0.0
 11
161.987
 21
104.465926653158
 31
0.0
  0
LINE
  5
111D
330
1D
100
AcDbEntity
  8
0
100
AcDbLine
 10
162.996
 20
105.732926653158
 30
0.0
 11
161.986
 21
104.728926653158
 31
0.0
  0
LINE
  5
111E
330
1D
100
AcDbEntity
  8
0
100
AcDbLine
 10
163.587
 20
110.882926653158
 30
0.0
 11
162.776
 21
109.877926653158
 31
0.0
  0
LINE
  5
111F
330
1D
100
AcDbEntity
  8
0
100
AcDbLine
 10
163.477
 20
107.266926653158
 30
0.0
 11
162.613
 21
106.209926653158
 31
0.0
  0
LINE
  5
1120
330
1D
100
AcDbEntity
  8
0
100
AcDbLine
 10
162.613
 20
106.209926653158
 30
0.0
 11
161.638
 21
105.241926653158
 31
0.0
  0
LINE
  5
1121
330
1D
100
AcDbEntity
  8
0
100
AcDbLine
 10
161.638
 20
105.241926653158
 30
0.0
 11
160.565
 21
104.369926653158
 31
0.0
  0
LINE
  5
1122
330
1D
100
AcDbEntity
  8
0
100
AcDbLine
 10
162.776
 20
109.877926653158
 30
0.0
 11
161.867
 21
108.949926653158
 31
0.0
  0
LINE
  5
1123
330
1D
100
AcDbEntity
  8
0
100
AcDbLine
 10
161.867
 20
108.949926653158
 30
0.0
 11
160.868
 21
108.106926653158
 31
0.0
  0
LINE
  5
1124
330
1D
100
AcDbEntity
  8
0
100
AcDbLine
 10
166.055
 20
120.313926653158
 30
0.0
 11
166.054756682028
 21
119.938973657766
 31
0.0
  0
LINE
  5
1125
330
1D
100
AcDbEntity
  8
0
100
AcDbLine
 10
166.054
 20
121.235926653158
 30
0.0
 11
165.95
 21
119.978926653158
 31
0.0
  0
LINE
  5
1126
330
1D
100
AcDbEntity
  8
0
100
AcDbLine
 10
166.055
 20
119.521926653158
 30
0.0
 11
166.054
 21
121.235926653158
 31
0.0
  0
LINE
  5
1127
330
1D
100
AcDbEntity
  8
0
100
AcDbLine
 10
165.516
 20
120.813926653158
 30
0.0
 11
165.347
 21
119.570926653158
 31
0.0
  0
LINE
  5
1128
330
1D
100
AcDbEntity
  8
0
100
AcDbLine
 10
162.959
 20
121.194926653158
 30
0.0
 11
162.644419748288
 21
119.09216421305
 31
0.0
  0
LINE
  5
1129
330
1D
100
AcDbEntity
  8
0
100
AcDbLine
 10
164.293
 20
115.209926653158
 30
0.0
 11
163.587
 21
114.137926653158
 31
0.0
  0
LINE
  5
112A
330
1D
100
AcDbEntity
  8
0
100
AcDbLine
 10
164.08
 20
116.013926653158
 30
0.0
 11
163.418
 21
114.925926653158
 31
0.0
  0
LINE
  5
112B
330
1D
100
AcDbEntity
  8
0
100
AcDbLine
 10
166.937
 20
115.151926653158
 30
0.0
 11
166.773
 21
116.528926653158
 31
0.0
  0
LINE
  5
112C
330
1D
100
AcDbEntity
  8
0
100
AcDbLine
 10
166.394
 20
115.904926653158
 30
0.0
 11
166.177
 21
117.268926653158
 31
0.0
  0
LINE
  5
112D
330
1D
100
AcDbEntity
  8
0
100
AcDbLine
 10
165.893
 20
116.028926653158
 30
0.0
 11
165.860171101531
 21
116.234967073072
 31
0.0
  0
LINE
  5
112E
330
1D
100
AcDbEntity
  8
0
100
AcDbLine
 10
165.951
 20
116.722926653158
 30
0.0
 11
165.72
 21
115.481926653158
 31
0.0
  0
LINE
  5
112F
330
1D
100
AcDbEntity
  8
0
100
AcDbLine
 10
164.887
 20
116.341926653158
 30
0.0
 11
164.293
 21
115.209926653158
 31
0.0
  0
LINE
  5
1130
330
1D
100
AcDbEntity
  8
0
100
AcDbLine
 10
164.626
 20
117.158926653158
 30
0.0
 11
164.08
 21
116.013926653158
 31
0.0
  0
LINE
  5
1131
330
1D
100
AcDbEntity
  8
0
100
AcDbLine
 10
166.951
 20
114.264926653158
 30
0.0
 11
166.937
 21
113.377926653158
 31
0.0
  0
LINE
  5
1132
330
1D
100
AcDbEntity
  8
0
100
AcDbLine
 10
166.951
 20
114.264926653158
 30
0.0
 11
166.937
 21
115.151926653158
 31
0.0
  0
LINE
  5
1133
330
1D
100
AcDbEntity
  8
0
100
AcDbLine
 10
165.958
 20
114.743926653158
 30
0.0
 11
165.893
 21
113.459926653158
 31
0.0
  0
LINE
  5
1134
330
1D
100
AcDbEntity
  8
0
100
AcDbLine
 10
165.958
 20
114.743926653158
 30
0.0
 11
165.893
 21
116.028926653158
 31
0.0
  0
LINE
  5
1135
330
1D
100
AcDbEntity
  8
0
100
AcDbLine
 10
166.462
 20
114.572926653158
 30
0.0
 11
166.394
 21
113.241926653158
 31
0.0
  0
LINE
  5
1136
330
1D
100
AcDbEntity
  8
0
100
AcDbLine
 10
166.462
 20
114.572926653158
 30
0.0
 11
166.394
 21
115.904926653158
 31
0.0
  0
LINE
  5
1137
330
1D
100
AcDbEntity
  8
0
100
AcDbLine
 10
165.72
 20
115.481926653158
 30
0.0
 11
165.364
 21
114.264926653158
 31
0.0
  0
LINE
  5
1138
330
1D
100
AcDbEntity
  8
0
100
AcDbLine
 10
165.893
 20
113.459926653158
 30
0.0
 11
165.683
 21
112.141926653158
 31
0.0
  0
LINE
  5
1139
330
1D
100
AcDbEntity
  8
0
100
AcDbLine
 10
165.364
 20
114.264926653158
 30
0.0
 11
164.887
 21
113.086926653158
 31
0.0
  0
LINE
  5
113A
330
1D
100
AcDbEntity
  8
0
100
AcDbLine
 10
166.177
 20
117.268926653158
 30
0.0
 11
166.03772192992
 21
117.78127098238
 31
0.0
  0
LINE
  5
113B
330
1D
100
AcDbEntity
  8
0
100
AcDbLine
 10
166.773
 20
116.528926653158
 30
0.0
 11
166.464
 21
117.880926653158
 31
0.0
  0
LINE
  5
113C
330
1D
100
AcDbEntity
  8
0
100
AcDbLine
 10
166.464
 20
117.880926653158
 30
0.0
 11
166.054719000917
 21
119.088626066561
 31
0.0
  0
LINE
  5
113D
330
1D
100
AcDbEntity
  8
0
100
AcDbLine
 10
166.054
 20
117.979926653158
 30
0.0
 11
166.047
 21
118.375926653158
 31
0.0
  0
LINE
  5
113E
330
1D
100
AcDbEntity
  8
0
100
AcDbLine
 10
166.054
 20
117.979926653158
 30
0.0
 11
165.951
 21
116.722926653158
 31
0.0
  0
LINE
  5
113F
330
1D
100
AcDbEntity
  8
0
100
AcDbLine
 10
166.055
 20
119.521926653158
 30
0.0
 11
166.054
 21
117.979926653158
 31
0.0
  0
LINE
  5
1140
330
1D
100
AcDbEntity
  8
0
100
AcDbLine
 10
165.95
 20
119.978926653158
 30
0.0
 11
165.72
 21
118.736926653158
 31
0.0
  0
LINE
  5
1141
330
1D
100
AcDbEntity
  8
0
100
AcDbLine
 10
165.72
 20
118.736926653158
 30
0.0
 11
165.364
 21
117.519926653158
 31
0.0
  0
LINE
  5
1142
330
1D
100
AcDbEntity
  8
0
100
AcDbLine
 10
165.347
 20
119.570926653158
 30
0.0
 11
165.05
 21
118.347926653158
 31
0.0
  0
LINE
  5
1143
330
1D
100
AcDbEntity
  8
0
100
AcDbLine
 10
165.364
 20
117.519926653158
 30
0.0
 11
164.887
 21
116.341926653158
 31
0.0
  0
LINE
  5
1144
330
1D
100
AcDbEntity
  8
0
100
AcDbLine
 10
165.05
 20
118.347926653158
 30
0.0
 11
164.626
 21
117.158926653158
 31
0.0
  0
LINE
  5
1145
330
1D
100
AcDbEntity
  8
0
100
AcDbLine
 10
163.587
 20
114.137926653158
 30
0.0
 11
162.776
 21
113.132926653158
 31
0.0
  0
LINE
  5
1146
330
1D
100
AcDbEntity
  8
0
100
AcDbLine
 10
163.418
 20
114.925926653158
 30
0.0
 11
162.645
 21
113.903926653158
 31
0.0
  0
LINE
  5
1147
330
1D
100
AcDbEntity
  8
0
100
AcDbLine
 10
162.776
 20
113.132926653158
 30
0.0
 11
161.867
 21
112.204926653158
 31
0.0
  0
LINE
  5
1148
330
1D
100
AcDbEntity
  8
0
100
AcDbLine
 10
162.645
 20
113.903926653158
 30
0.0
 11
161.769
 21
112.956926653158
 31
0.0
  0
LINE
  5
1149
330
1D
100
AcDbEntity
  8
0
100
AcDbLine
 10
162.372
 20
118.249926653158
 30
0.0
 11
161.903
 21
117.213926653158
 31
0.0
  0
LINE
  5
114A
330
1D
100
AcDbEntity
  8
0
100
AcDbLine
 10
161.903
 20
117.213926653158
 30
0.0
 11
161.316
 21
116.229926653158
 31
0.0
  0
LINE
  5
114B
330
1D
100
AcDbEntity
  8
0
100
AcDbLine
 10
161.316
 20
116.229926653158
 30
0.0
 11
160.62
 21
115.311926653158
 31
0.0
  0
LINE
  5
114C
330
1D
100
AcDbEntity
  8
0
100
AcDbLine
 10
162.644419748288
 20
119.092164213052
 30
0.0
 11
162.372
 21
118.249926653158
 31
0.0
  0
LINE
  5
114D
330
1D
100
AcDbEntity
  8
0
100
AcDbLine
 10
165.95
 20
123.282926653158
 30
0.0
 11
165.72
 21
124.525926653158
 31
0.0
  0
LINE
  5
114E
330
1D
100
AcDbEntity
  8
0
100
AcDbLine
 10
165.347
 20
124.034926653158
 30
0.0
 11
165.05
 21
125.256926653158
 31
0.0
  0
LINE
  5
114F
330
1D
100
AcDbEntity
  8
0
100
AcDbLine
 10
166.055
 20
120.313926653158
 30
0.0
 11
166.054
 21
122.027926653158
 31
0.0
  0
LINE
  5
1150
330
1D
100
AcDbEntity
  8
0
100
AcDbLine
 10
166.054
 20
122.027926653158
 30
0.0
 11
166.047
 21
121.630926653158
 31
0.0
  0
LINE
  5
1151
330
1D
100
AcDbEntity
  8
0
100
AcDbLine
 10
166.054
 20
122.027926653158
 30
0.0
 11
165.95
 21
123.282926653158
 31
0.0
  0
LINE
  5
1152
330
1D
100
AcDbEntity
  8
0
100
AcDbLine
 10
166.054
 20
121.235926653158
 30
0.0
 11
166.047
 21
121.630926653158
 31
0.0
  0
LINE
  5
1153
330
1D
100
AcDbEntity
  8
0
100
AcDbLine
 10
165.516
 20
122.790926653158
 30
0.0
 11
165.347
 21
124.034926653158
 31
0.0
  0
LINE
  5
1154
330
1D
100
AcDbEntity
  8
0
100
AcDbLine
 10
165.547
 20
121.802926653158
 30
0.0
 11
165.516
 21
120.813926653158
 31
0.0
  0
LINE
  5
1155
330
1D
100
AcDbEntity
  8
0
100
AcDbLine
 10
165.547
 20
121.802926653158
 30
0.0
 11
165.516
 21
122.790926653158
 31
0.0
  0
LINE
  5
1156
330
1D
100
AcDbEntity
  8
0
100
AcDbLine
 10
165.72
 20
124.525926653158
 30
0.0
 11
165.364
 21
125.742926653158
 31
0.0
  0
LINE
  5
1157
330
1D
100
AcDbEntity
  8
0
100
AcDbLine
 10
165.364
 20
125.742926653158
 30
0.0
 11
164.887
 21
126.920926653158
 31
0.0
  0
LINE
  5
1158
330
1D
100
AcDbEntity
  8
0
100
AcDbLine
 10
164.887
 20
126.920926653158
 30
0.0
 11
164.293
 21
128.051926653158
 31
0.0
  0
LINE
  5
1159
330
1D
100
AcDbEntity
  8
0
100
AcDbLine
 10
165.05
 20
125.256926653158
 30
0.0
 11
164.626
 21
126.446926653158
 31
0.0
  0
LINE
  5
115A
330
1D
100
AcDbEntity
  8
0
100
AcDbLine
 10
164.626
 20
126.446926653158
 30
0.0
 11
164.08
 21
127.590926653158
 31
0.0
  0
LINE
  5
115B
330
1D
100
AcDbEntity
  8
0
100
AcDbLine
 10
156.917
 20
112.494926653158
 30
0.0
 11
155.816
 21
112.044926653158
 31
0.0
  0
LINE
  5
115C
330
1D
100
AcDbEntity
  8
0
100
AcDbLine
 10
152.741
 20
100.703926653158
 30
0.0
 11
151.959
 21
100.700926653158
 31
0.0
  0
LINE
  5
115D
330
1D
100
AcDbEntity
  8
0
100
AcDbLine
 10
152.483
 20
100.172926653158
 30
0.0
 11
151.959
 21
100.179926653158
 31
0.0
  0
LINE
  5
115E
330
1D
100
AcDbEntity
  8
0
100
AcDbLine
 10
152.483
 20
97.499926653158
 30
0.0
 11
151.959
 21
97.506926653158
 31
0.0
  0
LINE
  5
115F
330
1D
100
AcDbEntity
  8
0
100
AcDbLine
 10
152.713
 20
101.609926653158
 30
0.0
 11
151.959
 21
101.607926653158
 31
0.0
  0
LINE
  5
1160
330
1D
100
AcDbEntity
  8
0
100
AcDbLine
 10
152.741
 20
100.965926653158
 30
0.0
 11
151.959
 21
100.963926653158
 31
0.0
  0
LINE
  5
1161
330
1D
100
AcDbEntity
  8
0
100
AcDbLine
 10
152.206
 20
108.384926653158
 30
0.0
 11
151.959
 21
108.391926653158
 31
0.0
  0
LINE
  5
1162
330
1D
100
AcDbEntity
  8
0
100
AcDbLine
 10
152.237
 20
109.030926653158
 30
0.0
 11
151.959
 21
109.037926653158
 31
0.0
  0
LINE
  5
1163
330
1D
100
AcDbEntity
  8
0
100
AcDbLine
 10
152.206
 20
105.129926653158
 30
0.0
 11
151.959
 21
105.136926653158
 31
0.0
  0
LINE
  5
1164
330
1D
100
AcDbEntity
  8
0
100
AcDbLine
 10
152.297
 20
111.398926653158
 30
0.0
 11
151.959
 21
111.406926653158
 31
0.0
  0
LINE
  5
1165
330
1D
100
AcDbEntity
  8
0
100
AcDbLine
 10
156.815
 20
98.250926653158
 30
0.0
 11
155.4
 21
97.867926653158
 31
0.0
  0
LINE
  5
1166
330
1D
100
AcDbEntity
  8
0
100
AcDbLine
 10
157.041
 20
101.547926653158
 30
0.0
 11
155.64
 21
101.129926653158
 31
0.0
  0
LINE
  5
1167
330
1D
100
AcDbEntity
  8
0
100
AcDbLine
 10
156.815
 20
100.923926653158
 30
0.0
 11
155.399
 21
100.539926653158
 31
0.0
  0
LINE
  5
1168
330
1D
100
AcDbEntity
  8
0
100
AcDbLine
 10
156.864
 20
102.424926653158
 30
0.0
 11
155.512
 21
102.021926653158
 31
0.0
  0
LINE
  5
1169
330
1D
100
AcDbEntity
  8
0
100
AcDbLine
 10
157.041
 20
101.810926653158
 30
0.0
 11
155.641
 21
101.392926653158
 31
0.0
  0
LINE
  5
116A
330
1D
100
AcDbEntity
  8
0
100
AcDbLine
 10
159.492
 20
99.396926653158
 30
0.0
 11
158.183
 21
98.761926653158
 31
0.0
  0
LINE
  5
116B
330
1D
100
AcDbEntity
  8
0
100
AcDbLine
 10
159.492
 20
102.069926653158
 30
0.0
 11
158.183
 21
101.434926653158
 31
0.0
  0
LINE
  5
116C
330
1D
100
AcDbEntity
  8
0
100
AcDbLine
 10
158.183
 20
101.434926653158
 30
0.0
 11
156.815
 21
100.923926653158
 31
0.0
  0
LINE
  5
116D
330
1D
100
AcDbEntity
  8
0
100
AcDbLine
 10
158.183
 20
98.761926653158
 30
0.0
 11
156.815
 21
98.250926653158
 31
0.0
  0
LINE
  5
116E
330
1D
100
AcDbEntity
  8
0
100
AcDbLine
 10
158.389
 20
102.095926653158
 30
0.0
 11
157.041
 21
101.547926653158
 31
0.0
  0
LINE
  5
116F
330
1D
100
AcDbEntity
  8
0
100
AcDbLine
 10
159.672
 20
102.770926653158
 30
0.0
 11
158.389
 21
102.095926653158
 31
0.0
  0
LINE
  5
1170
330
1D
100
AcDbEntity
  8
0
100
AcDbLine
 10
159.403
 20
103.604926653158
 30
0.0
 11
158.166
 21
102.954926653158
 31
0.0
  0
LINE
  5
1171
330
1D
100
AcDbEntity
  8
0
100
AcDbLine
 10
159.671
 20
103.032926653158
 30
0.0
 11
158.389
 21
102.358926653158
 31
0.0
  0
LINE
  5
1172
330
1D
100
AcDbEntity
  8
0
100
AcDbLine
 10
158.166
 20
102.954926653158
 30
0.0
 11
156.864
 21
102.424926653158
 31
0.0
  0
LINE
  5
1173
330
1D
100
AcDbEntity
  8
0
100
AcDbLine
 10
158.389
 20
102.358926653158
 30
0.0
 11
157.041
 21
101.810926653158
 31
0.0
  0
LINE
  5
1174
330
1D
100
AcDbEntity
  8
0
100
AcDbLine
 10
155.399
 20
100.539926653158
 30
0.0
 11
153.95
 21
100.288926653158
 31
0.0
  0
LINE
  5
1175
330
1D
100
AcDbEntity
  8
0
100
AcDbLine
 10
155.4
 20
97.867926653158
 30
0.0
 11
153.95
 21
97.616926653158
 31
0.0
  0
LINE
  5
1176
330
1D
100
AcDbEntity
  8
0
100
AcDbLine
 10
154.202
 20
100.848926653158
 30
0.0
 11
152.741
 21
100.703926653158
 31
0.0
  0
LINE
  5
1177
330
1D
100
AcDbEntity
  8
0
100
AcDbLine
 10
155.64
 20
101.129926653158
 30
0.0
 11
154.202
 21
100.848926653158
 31
0.0
  0
LINE
  5
1178
330
1D
100
AcDbEntity
  8
0
100
AcDbLine
 10
155.512
 20
102.021926653158
 30
0.0
 11
154.124
 21
101.748926653158
 31
0.0
  0
LINE
  5
1179
330
1D
100
AcDbEntity
  8
0
100
AcDbLine
 10
155.641
 20
101.392926653158
 30
0.0
 11
154.201
 21
101.110926653158
 31
0.0
  0
LINE
  5
117A
330
1D
100
AcDbEntity
  8
0
100
AcDbLine
 10
153.95
 20
100.288926653158
 30
0.0
 11
152.483
 21
100.172926653158
 31
0.0
  0
LINE
  5
117B
330
1D
100
AcDbEntity
  8
0
100
AcDbLine
 10
153.95
 20
97.616926653158
 30
0.0
 11
152.483
 21
97.499926653158
 31
0.0
  0
LINE
  5
117C
330
1D
100
AcDbEntity
  8
0
100
AcDbLine
 10
154.124
 20
101.748926653158
 30
0.0
 11
152.713
 21
101.609926653158
 31
0.0
  0
LINE
  5
117D
330
1D
100
AcDbEntity
  8
0
100
AcDbLine
 10
154.201
 20
101.110926653158
 30
0.0
 11
152.741
 21
100.965926653158
 31
0.0
  0
LINE
  5
117E
330
1D
100
AcDbEntity
  8
0
100
AcDbLine
 10
156.167
 20
105.731926653158
 30
0.0
 11
154.869
 21
105.412926653158
 31
0.0
  0
LINE
  5
117F
330
1D
100
AcDbEntity
  8
0
100
AcDbLine
 10
156.172
 20
109.655926653158
 30
0.0
 11
154.884
 21
109.326926653158
 31
0.0
  0
LINE
  5
1180
330
1D
100
AcDbEntity
  8
0
100
AcDbLine
 10
156.167
 20
108.986926653158
 30
0.0
 11
154.869
 21
108.667926653158
 31
0.0
  0
LINE
  5
1181
330
1D
100
AcDbEntity
  8
0
100
AcDbLine
 10
159.79
 20
110.613926653158
 30
0.0
 11
158.639
 21
109.964926653158
 31
0.0
  0
LINE
  5
1182
330
1D
100
AcDbEntity
  8
0
100
AcDbLine
 10
159.743
 20
111.328926653158
 30
0.0
 11
158.613
 21
110.661926653158
 31
0.0
  0
LINE
  5
1183
330
1D
100
AcDbEntity
  8
0
100
AcDbLine
 10
159.789
 20
107.358926653158
 30
0.0
 11
158.639
 21
106.708926653158
 31
0.0
  0
LINE
  5
1184
330
1D
100
AcDbEntity
  8
0
100
AcDbLine
 10
158.639
 20
109.964926653158
 30
0.0
 11
157.428
 21
109.419926653158
 31
0.0
  0
LINE
  5
1185
330
1D
100
AcDbEntity
  8
0
100
AcDbLine
 10
158.613
 20
110.661926653158
 30
0.0
 11
157.419
 21
110.102926653158
 31
0.0
  0
LINE
  5
1186
330
1D
100
AcDbEntity
  8
0
100
AcDbLine
 10
157.419
 20
110.102926653158
 30
0.0
 11
156.172
 21
109.655926653158
 31
0.0
  0
LINE
  5
1187
330
1D
100
AcDbEntity
  8
0
100
AcDbLine
 10
157.428
 20
109.419926653158
 30
0.0
 11
156.167
 21
108.986926653158
 31
0.0
  0
LINE
  5
1188
330
1D
100
AcDbEntity
  8
0
100
AcDbLine
 10
157.428
 20
106.164926653158
 30
0.0
 11
156.167
 21
105.731926653158
 31
0.0
  0
LINE
  5
1189
330
1D
100
AcDbEntity
  8
0
100
AcDbLine
 10
158.639
 20
106.708926653158
 30
0.0
 11
157.428
 21
106.164926653158
 31
0.0
  0
LINE
  5
118A
330
1D
100
AcDbEntity
  8
0
100
AcDbLine
 10
153.544
 20
105.211926653158
 30
0.0
 11
152.206
 21
105.129926653158
 31
0.0
  0
LINE
  5
118B
330
1D
100
AcDbEntity
  8
0
100
AcDbLine
 10
154.869
 20
105.412926653158
 30
0.0
 11
153.544
 21
105.211926653158
 31
0.0
  0
LINE
  5
118C
330
1D
100
AcDbEntity
  8
0
100
AcDbLine
 10
153.568
 20
109.116926653158
 30
0.0
 11
152.237
 21
109.030926653158
 31
0.0
  0
LINE
  5
118D
330
1D
100
AcDbEntity
  8
0
100
AcDbLine
 10
154.884
 20
109.326926653158
 30
0.0
 11
153.568
 21
109.116926653158
 31
0.0
  0
LINE
  5
118E
330
1D
100
AcDbEntity
  8
0
100
AcDbLine
 10
154.869
 20
108.667926653158
 30
0.0
 11
153.544
 21
108.466926653158
 31
0.0
  0
LINE
  5
118F
330
1D
100
AcDbEntity
  8
0
100
AcDbLine
 10
153.544
 20
108.466926653158
 30
0.0
 11
152.206
 21
108.384926653158
 31
0.0
  0
LINE
  5
1190
330
1D
100
AcDbEntity
  8
0
100
AcDbLine
 10
155.816
 20
112.044926653158
 30
0.0
 11
154.671
 21
111.710926653158
 31
0.0
  0
LINE
  5
1191
330
1D
100
AcDbEntity
  8
0
100
AcDbLine
 10
154.671
 20
111.710926653158
 30
0.0
 11
153.493
 21
111.493926653158
 31
0.0
  0
LINE
  5
1192
330
1D
100
AcDbEntity
  8
0
100
AcDbLine
 10
153.493
 20
111.493926653158
 30
0.0
 11
152.297
 21
111.398926653158
 31
0.0
  0
LINE
  5
1193
330
1D
100
AcDbEntity
  8
0
100
AcDbLine
 10
151.959
 20
97.506926653158
 30
0.0
 11
151.435
 21
97.499926653158
 31
0.0
  0
LINE
  5
1194
330
1D
100
AcDbEntity
  8
0
100
AcDbLine
 10
151.959
 20
100.700926653158
 30
0.0
 11
151.177
 21
100.703926653158
 31
0.0
  0
LINE
  5
1195
330
1D
100
AcDbEntity
  8
0
100
AcDbLine
 10
151.959
 20
100.963926653158
 30
0.0
 11
151.177
 21
100.965926653158
 31
0.0
  0
LINE
  5
1196
330
1D
100
AcDbEntity
  8
0
100
AcDbLine
 10
151.959
 20
101.607926653158
 30
0.0
 11
151.205
 21
101.609926653158
 31
0.0
  0
LINE
  5
1197
330
1D
100
AcDbEntity
  8
0
100
AcDbLine
 10
151.959
 20
100.179926653158
 30
0.0
 11
151.435
 21
100.172926653158
 31
0.0
  0
LINE
  5
1198
330
1D
100
AcDbEntity
  8
0
100
AcDbLine
 10
151.959
 20
105.136926653158
 30
0.0
 11
151.712
 21
105.129926653158
 31
0.0
  0
LINE
  5
1199
330
1D
100
AcDbEntity
  8
0
100
AcDbLine
 10
151.959
 20
109.037926653158
 30
0.0
 11
151.681
 21
109.030926653158
 31
0.0
  0
LINE
  5
119A
330
1D
100
AcDbEntity
  8
0
100
AcDbLine
 10
151.959
 20
108.391926653158
 30
0.0
 11
151.712
 21
108.384926653158
 31
0.0
  0
LINE
  5
119B
330
1D
100
AcDbEntity
  8
0
100
AcDbLine
 10
151.959
 20
111.406926653158
 30
0.0
 11
151.621
 21
111.398926653158
 31
0.0
  0
LINE
  5
119C
330
1D
100
AcDbEntity
  8
0
100
AcDbLine
 10
159.821
 20
114.468926653158
 30
0.0
 11
158.931
 21
113.713926653158
 31
0.0
  0
LINE
  5
119D
330
1D
100
AcDbEntity
  8
0
100
AcDbLine
 10
158.931
 20
113.713926653158
 30
0.0
 11
157.959
 21
113.052926653158
 31
0.0
  0
LINE
  5
119E
330
1D
100
AcDbEntity
  8
0
100
AcDbLine
 10
157.959
 20
113.052926653158
 30
0.0
 11
156.917
 21
112.494926653158
 31
0.0
  0
LINE
  5
119F
330
1D
100
AcDbEntity
  8
0
100
AcDbLine
 10
163.587
 20
129.123926653158
 30
0.0
 11
162.959
 21
129.902925420112
 31
0.0
  0
LINE
  5
11A0
330
1D
100
AcDbEntity
  8
0
100
AcDbLine
 10
163.418
 20
128.679926653158
 30
0.0
 11
162.959
 21
129.286780469458
 31
0.0
  0
LINE
  5
11A1
330
1D
100
AcDbEntity
  8
0
100
AcDbLine
 10
162.959
 20
136.084926653158
 30
0.0
 11
162.959
 21
138.981926653158
 31
0.0
  0
LINE
  5
11A2
330
1D
100
AcDbEntity
  8
0
100
AcDbLine
 10
162.959
 20
138.981926653158
 30
0.0
 11
162.959
 21
143.590926653158
 31
0.0
  0
LINE
  5
11A3
330
1D
100
AcDbEntity
  8
0
100
AcDbLine
 10
162.959
 20
138.981926653158
 30
0.0
 11
162.959
 21
136.084926653158
 31
0.0
  0
LINE
  5
11A4
330
1D
100
AcDbEntity
  8
0
100
AcDbLine
 10
162.959
 20
143.590926653158
 30
0.0
 11
162.959
 21
149.596926653158
 31
0.0
  0
LINE
  5
11A5
330
1D
100
AcDbEntity
  8
0
100
AcDbLine
 10
162.959
 20
143.590926653158
 30
0.0
 11
162.959
 21
138.981926653158
 31
0.0
  0
LINE
  5
11A6
330
1D
100
AcDbEntity
  8
0
100
AcDbLine
 10
162.959
 20
149.596926653158
 30
0.0
 11
162.959
 21
143.590926653158
 31
0.0
  0
LINE
  5
11A7
330
1D
100
AcDbEntity
  8
0
100
AcDbLine
 10
162.959
 20
149.596926653158
 30
0.0
 11
162.959
 21
156.590926653158
 31
0.0
  0
LINE
  5
11A8
330
1D
100
AcDbEntity
  8
0
100
AcDbLine
 10
162.959
 20
156.590926653158
 30
0.0
 11
162.959
 21
149.596926653158
 31
0.0
  0
LINE
  5
11A9
330
1D
100
AcDbEntity
  8
0
100
AcDbLine
 10
162.959
 20
156.590926653158
 30
0.0
 11
162.959
 21
164.096926653158
 31
0.0
  0
LINE
  5
11AA
330
1D
100
AcDbEntity
  8
0
100
AcDbLine
 10
162.959
 20
164.096926653158
 30
0.0
 11
162.959
 21
171.602926653158
 31
0.0
  0
LINE
  5
11AB
330
1D
100
AcDbEntity
  8
0
100
AcDbLine
 10
162.959
 20
164.096926653158
 30
0.0
 11
162.959
 21
156.590926653158
 31
0.0
  0
LINE
  5
11AC
330
1D
100
AcDbEntity
  8
0
100
AcDbLine
 10
162.959
 20
171.602926653158
 30
0.0
 11
162.959
 21
164.096926653158
 31
0.0
  0
LINE
  5
11AD
330
1D
100
AcDbEntity
  8
0
100
AcDbLine
 10
172.196
 20
209.431926653158
 30
0.0
 11
162.959
 21
210.650920591347
 31
0.0
  0
LINE
  5
1225
330
1D
100
AcDbEntity
  8
0
100
AcDbLine
 10
20.1
 20
434.82715
 30
0.0
 11
0.50802
 21
434.82715
 31
0.0
  0
LINE
  5
1226
330
1D
100
AcDbEntity
  8
0
100
AcDbLine
 10
241.0
 20
471.79515
 30
0.0
 11
212.0105
 21
471.79515
 31
0.0
  0
LINE
  5
1227
330
1D
100
AcDbEntity
  8
0
100
AcDbLine
 10
243.7
 20
486.29515
 30
0.0
 11
235.6
 21
486.29515
 31
0.0
  0
LINE
  5
1228
330
1D
100
AcDbEntity
  8
0
100
AcDbLine
 10
243.9
 20
511.79515
 30
0.0
 11
235.7
 21
511.79515
 31
0.0
  0
LINE
  5
1229
330
1D
100
AcDbEntity
  8
0
100
AcDbLine
 10
241.348
 20
469.79515
 30
0.0
 11
238.696
 21
469.79515
 31
0.0
  0
LINE
  5
122A
330
1D
100
AcDbEntity
  8
0
100
AcDbLine
 10
241.6287
 20
472.79515
 30
0.0
 11
238.9579
 21
472.15915
 31
0.0
  0
LINE
  5
122B
330
1D
100
AcDbEntity
  8
0
100
AcDbLine
 10
241.6287
 20
484.79515
 30
0.0
 11
238.9579
 21
485.43115
 31
0.0
  0
LINE
  5
122C
330
1D
100
AcDbEntity
  8
0
100
AcDbLine
 10
240.4737
 20
485.79515
 30
0.0
 11
238.0316
 21
485.79515
 31
0.0
  0
LINE
  5
122D
330
1D
100
AcDbEntity
  8
0
100
AcDbLine
 10
243.0
 20
473.79515
 30
0.0
 11
243.0
 21
483.79515
 31
0.0
  0
LINE
  5
122E
330
1D
100
AcDbEntity
  8
0
100
AcDbLine
 10
243.0
 20
483.79515
 30
0.0
 11
243.0
 21
473.79515
 31
0.0
  0
LINE
  5
122F
330
1D
100
AcDbEntity
  8
0
100
AcDbLine
 10
244.0
 20
456.79515
 30
0.0
 11
244.0
 21
469.19515
 31
0.0
  0
LINE
  5
1230
330
1D
100
AcDbEntity
  8
0
100
AcDbLine
 10
244.0
 20
469.19515
 30
0.0
 11
244.0
 21
456.79515
 31
0.0
  0
LINE
  5
1231
330
1D
100
AcDbEntity
  8
0
100
AcDbLine
 10
243.592
 20
469.79515
 30
0.0
 11
242.98
 21
469.79515
 31
0.0
  0
LINE
  5
1232
330
1D
100
AcDbEntity
  8
0
100
AcDbLine
 10
244.0
 20
469.19515
 30
0.0
 11
243.592
 21
469.79515
 31
0.0
  0
LINE
  5
1233
330
1D
100
AcDbEntity
  8
0
100
AcDbLine
 10
243.0
 20
473.79515
 30
0.0
 11
243.0
 21
472.79515
 31
0.0
  0
LINE
  5
1234
330
1D
100
AcDbEntity
  8
0
100
AcDbLine
 10
243.0
 20
472.79515
 30
0.0
 11
243.0
 21
473.79515
 31
0.0
  0
LINE
  5
1235
330
1D
100
AcDbEntity
  8
0
100
AcDbLine
 10
243.0
 20
472.79515
 30
0.0
 11
242.6632
 21
472.79515
 31
0.0
  0
LINE
  5
1236
330
1D
100
AcDbEntity
  8
0
100
AcDbLine
 10
243.0
 20
472.79515
 30
0.0
 11
243.0
 21
472.03515
 31
0.0
  0
LINE
  5
1237
330
1D
100
AcDbEntity
  8
0
100
AcDbLine
 10
243.0
 20
472.03515
 30
0.0
 11
243.0
 21
472.79515
 31
0.0
  0
LINE
  5
1238
330
1D
100
AcDbEntity
  8
0
100
AcDbLine
 10
243.0
 20
472.03515
 30
0.0
 11
243.0
 21
471.89515
 31
0.0
  0
LINE
  5
1239
330
1D
100
AcDbEntity
  8
0
100
AcDbLine
 10
242.98
 20
469.79515
 30
0.0
 11
241.348
 21
469.79515
 31
0.0
  0
LINE
  5
123A
330
1D
100
AcDbEntity
  8
0
100
AcDbLine
 10
242.5789
 20
471.79515
 30
0.0
 11
241.9895
 21
471.79515
 31
0.0
  0
LINE
  5
123B
330
1D
100
AcDbEntity
  8
0
100
AcDbLine
 10
241.9895
 20
471.79515
 30
0.0
 11
241.0
 21
471.79515
 31
0.0
  0
LINE
  5
123C
330
1D
100
AcDbEntity
  8
0
100
AcDbLine
 10
242.6632
 20
472.79515
 30
0.0
 11
241.6287
 21
472.79515
 31
0.0
  0
LINE
  5
123D
330
1D
100
AcDbEntity
  8
0
100
AcDbLine
 10
241.0
 20
471.79515
 30
0.0
 11
241.0
 21
469.79515
 31
0.0
  0
LINE
  5
123E
330
1D
100
AcDbEntity
  8
0
100
AcDbLine
 10
241.0
 20
469.79515
 30
0.0
 11
241.0
 21
471.79515
 31
0.0
  0
LINE
  5
123F
330
1D
100
AcDbEntity
  8
0
100
AcDbLine
 10
243.0
 20
471.89515
 30
0.0
 11
243.0
 21
472.03515
 31
0.0
  0
LINE
  5
1240
330
1D
100
AcDbEntity
  8
0
100
AcDbLine
 10
243.0
 20
471.89515
 30
0.0
 11
242.5789
 21
471.79515
 31
0.0
  0
LINE
  5
1241
330
1D
100
AcDbEntity
  8
0
100
AcDbLine
 10
258.3
 20
485.79515
 30
0.0
 11
255.1
 21
485.79515
 31
0.0
  0
LINE
  5
1242
330
1D
100
AcDbEntity
  8
0
100
AcDbLine
 10
259.3
 20
486.29515
 30
0.0
 11
256.0
 21
486.29515
 31
0.0
  0
LINE
  5
1243
330
1D
100
AcDbEntity
  8
0
100
AcDbLine
 10
256.4
 20
511.79515
 30
0.0
 11
251.0
 21
511.79515
 31
0.0
  0
LINE
  5
1244
330
1D
100
AcDbEntity
  8
0
100
AcDbLine
 10
259.8
 20
511.79515
 30
0.0
 11
256.4
 21
511.79515
 31
0.0
  0
LINE
  5
1245
330
1D
100
AcDbEntity
  8
0
100
AcDbLine
 10
260.5
 20
486.29515
 30
0.0
 11
259.5
 21
485.79515
 31
0.0
  0
LINE
  5
1246
330
1D
100
AcDbEntity
  8
0
100
AcDbLine
 10
260.5
 20
486.29515
 30
0.0
 11
259.3
 21
486.29515
 31
0.0
  0
LINE
  5
1247
330
1D
100
AcDbEntity
  8
0
100
AcDbLine
 10
259.5
 20
485.79515
 30
0.0
 11
258.3
 21
485.79515
 31
0.0
  0
LINE
  5
1248
330
1D
100
AcDbEntity
  8
0
100
AcDbLine
 10
261.0
 20
487.29515
 30
0.0
 11
260.5
 21
486.29515
 31
0.0
  0
LINE
  5
1249
330
1D
100
AcDbEntity
  8
0
100
AcDbLine
 10
261.0
 20
487.29515
 30
0.0
 11
261.0
 21
511.79515
 31
0.0
  0
LINE
  5
124A
330
1D
100
AcDbEntity
  8
0
100
AcDbLine
 10
261.0
 20
511.79515
 30
0.0
 11
261.0
 21
487.29515
 31
0.0
  0
LINE
  5
124B
330
1D
100
AcDbEntity
  8
0
100
AcDbLine
 10
261.0
 20
511.79515
 30
0.0
 11
259.8
 21
511.79515
 31
0.0
  0
LINE
  5
124C
330
1D
100
AcDbEntity
  8
0
100
AcDbLine
 10
250.0
 20
485.79515
 30
0.0
 11
243.2
 21
485.79515
 31
0.0
  0
LINE
  5
124D
330
1D
100
AcDbEntity
  8
0
100
AcDbLine
 10
250.7
 20
486.29515
 30
0.0
 11
243.7
 21
486.29515
 31
0.0
  0
LINE
  5
124E
330
1D
100
AcDbEntity
  8
0
100
AcDbLine
 10
255.1
 20
485.79515
 30
0.0
 11
250.0
 21
485.79515
 31
0.0
  0
LINE
  5
124F
330
1D
100
AcDbEntity
  8
0
100
AcDbLine
 10
256.0
 20
486.29515
 30
0.0
 11
250.7
 21
486.29515
 31
0.0
  0
LINE
  5
1250
330
1D
100
AcDbEntity
  8
0
100
AcDbLine
 10
243.0
 20
483.79515
 30
0.0
 11
243.0
 21
484.79515
 31
0.0
  0
LINE
  5
1251
330
1D
100
AcDbEntity
  8
0
100
AcDbLine
 10
243.0
 20
483.79515
 30
0.0
 11
241.6287
 21
484.79515
 31
0.0
  0
LINE
  5
1252
330
1D
100
AcDbEntity
  8
0
100
AcDbLine
 10
243.0
 20
484.79515
 30
0.0
 11
243.0
 21
483.79515
 31
0.0
  0
LINE
  5
1253
330
1D
100
AcDbEntity
  8
0
100
AcDbLine
 10
243.0
 20
484.79515
 30
0.0
 11
243.0
 21
485.55515
 31
0.0
  0
LINE
  5
1254
330
1D
100
AcDbEntity
  8
0
100
AcDbLine
 10
243.2
 20
485.79515
 30
0.0
 11
242.5789
 21
485.79515
 31
0.0
  0
LINE
  5
1255
330
1D
100
AcDbEntity
  8
0
100
AcDbLine
 10
243.0
 20
485.69515
 30
0.0
 11
243.0
 21
485.55515
 31
0.0
  0
LINE
  5
1256
330
1D
100
AcDbEntity
  8
0
100
AcDbLine
 10
243.0
 20
485.69515
 30
0.0
 11
242.5789
 21
485.79515
 31
0.0
  0
LINE
  5
1257
330
1D
100
AcDbEntity
  8
0
100
AcDbLine
 10
243.0
 20
485.55515
 30
0.0
 11
243.0
 21
485.69515
 31
0.0
  0
LINE
  5
1258
330
1D
100
AcDbEntity
  8
0
100
AcDbLine
 10
243.0
 20
485.55515
 30
0.0
 11
243.0
 21
484.79515
 31
0.0
  0
LINE
  5
1259
330
1D
100
AcDbEntity
  8
0
100
AcDbLine
 10
241.9895
 20
485.79515
 30
0.0
 11
240.4737
 21
485.79515
 31
0.0
  0
LINE
  5
125A
330
1D
100
AcDbEntity
  8
0
100
AcDbLine
 10
242.5789
 20
485.79515
 30
0.0
 11
241.9895
 21
485.79515
 31
0.0
  0
LINE
  5
125B
330
1D
100
AcDbEntity
  8
0
100
AcDbLine
 10
251.0
 20
511.79515
 30
0.0
 11
243.9
 21
511.79515
 31
0.0
  0
LINE
  5
125C
330
1D
100
AcDbEntity
  8
0
100
AcDbLine
 10
210.8
 20
485.79515
 30
0.0
 11
204.0
 21
485.79515
 31
0.0
  0
LINE
  5
125D
330
1D
100
AcDbEntity
  8
0
100
AcDbLine
 10
210.3
 20
486.29515
 30
0.0
 11
203.3
 21
486.29515
 31
0.0
  0
LINE
  5
125E
330
1D
100
AcDbEntity
  8
0
100
AcDbLine
 10
210.1
 20
511.79515
 30
0.0
 11
203.0
 21
511.79515
 31
0.0
  0
LINE
  5
125F
330
1D
100
AcDbEntity
  8
0
100
AcDbLine
 10
211.0
 20
483.79515
 30
0.0
 11
211.0
 21
473.79515
 31
0.0
  0
LINE
  5
1260
330
1D
100
AcDbEntity
  8
0
100
AcDbLine
 10
211.0
 20
473.79515
 30
0.0
 11
211.0
 21
483.79515
 31
0.0
  0
LINE
  5
1261
330
1D
100
AcDbEntity
  8
0
100
AcDbLine
 10
227.0
 20
469.79515
 30
0.0
 11
222.716
 21
469.79515
 31
0.0
  0
LINE
  5
1262
330
1D
100
AcDbEntity
  8
0
100
AcDbLine
 10
225.0225
 20
472.79515
 30
0.0
 11
222.6481
 21
472.21415
 31
0.0
  0
LINE
  5
1263
330
1D
100
AcDbEntity
  8
0
100
AcDbLine
 10
238.696
 20
469.79515
 30
0.0
 11
235.228
 21
469.79515
 31
0.0
  0
LINE
  5
1264
330
1D
100
AcDbEntity
  8
0
100
AcDbLine
 10
235.228
 20
469.79515
 30
0.0
 11
231.284
 21
469.79515
 31
0.0
  0
LINE
  5
1265
330
1D
100
AcDbEntity
  8
0
100
AcDbLine
 10
238.9579
 20
472.15915
 30
0.0
 11
235.1445
 21
471.99715
 31
0.0
  0
LINE
  5
1266
330
1D
100
AcDbEntity
  8
0
100
AcDbLine
 10
235.1445
 20
471.99715
 30
0.0
 11
231.3519
 21
472.21415
 31
0.0
  0
LINE
  5
1267
330
1D
100
AcDbEntity
  8
0
100
AcDbLine
 10
231.284
 20
469.79515
 30
0.0
 11
227.0
 21
469.79515
 31
0.0
  0
LINE
  5
1268
330
1D
100
AcDbEntity
  8
0
100
AcDbLine
 10
227.0
 20
472.79515
 30
0.0
 11
225.0225
 21
472.79515
 31
0.0
  0
LINE
  5
1269
330
1D
100
AcDbEntity
  8
0
100
AcDbLine
 10
228.9775
 20
472.79515
 30
0.0
 11
227.0
 21
472.79515
 31
0.0
  0
LINE
  5
126A
330
1D
100
AcDbEntity
  8
0
100
AcDbLine
 10
231.3519
 20
472.21415
 30
0.0
 11
228.9775
 21
472.79515
 31
0.0
  0
LINE
  5
126B
330
1D
100
AcDbEntity
  8
0
100
AcDbLine
 10
210.0
 20
459.230314958925
 30
0.0
 11
210.0
 21
469.19515
 31
0.0
  0
LINE
  5
126C
330
1D
100
AcDbEntity
  8
0
100
AcDbLine
 10
210.0
 20
469.19515
 30
0.0
 11
210.0
 21
459.230314958925
 31
0.0
  0
LINE
  5
126D
330
1D
100
AcDbEntity
  8
0
100
AcDbLine
 10
218.772
 20
469.79515
 30
0.0
 11
215.304
 21
469.79515
 31
0.0
  0
LINE
  5
126E
330
1D
100
AcDbEntity
  8
0
100
AcDbLine
 10
218.8555
 20
471.99715
 30
0.0
 11
215.0421
 21
472.15915
 31
0.0
  0
LINE
  5
126F
330
1D
100
AcDbEntity
  8
0
100
AcDbLine
 10
222.716
 20
469.79515
 30
0.0
 11
218.772
 21
469.79515
 31
0.0
  0
LINE
  5
1270
330
1D
100
AcDbEntity
  8
0
100
AcDbLine
 10
222.6481
 20
472.21415
 30
0.0
 11
218.8555
 21
471.99715
 31
0.0
  0
LINE
  5
1271
330
1D
100
AcDbEntity
  8
0
100
AcDbLine
 10
211.421
 20
471.79515
 30
0.0
 11
211.0
 21
471.89515
 31
0.0
  0
LINE
  5
1272
330
1D
100
AcDbEntity
  8
0
100
AcDbLine
 10
215.304
 20
469.79515
 30
0.0
 11
212.652
 21
469.79515
 31
0.0
  0
LINE
  5
1273
330
1D
100
AcDbEntity
  8
0
100
AcDbLine
 10
212.652
 20
469.79515
 30
0.0
 11
211.02
 21
469.79515
 31
0.0
  0
LINE
  5
1274
330
1D
100
AcDbEntity
  8
0
100
AcDbLine
 10
213.0
 20
469.79515
 30
0.0
 11
213.0
 21
471.79515
 31
0.0
  0
LINE
  5
1275
330
1D
100
AcDbEntity
  8
0
100
AcDbLine
 10
213.0
 20
471.79515
 30
0.0
 11
213.0
 21
469.79515
 31
0.0
  0
LINE
  5
1276
330
1D
100
AcDbEntity
  8
0
100
AcDbLine
 10
211.02
 20
469.79515
 30
0.0
 11
210.408
 21
469.79515
 31
0.0
  0
LINE
  5
1277
330
1D
100
AcDbEntity
  8
0
100
AcDbLine
 10
210.408
 20
469.79515
 30
0.0
 11
210.0
 21
469.19515
 31
0.0
  0
LINE
  5
1278
330
1D
100
AcDbEntity
  8
0
100
AcDbLine
 10
212.0105
 20
471.79515
 30
0.0
 11
211.421
 21
471.79515
 31
0.0
  0
LINE
  5
1279
330
1D
100
AcDbEntity
  8
0
100
AcDbLine
 10
211.0
 20
471.89515
 30
0.0
 11
211.0
 21
472.03515
 31
0.0
  0
LINE
  5
127A
330
1D
100
AcDbEntity
  8
0
100
AcDbLine
 10
211.0
 20
472.03515
 30
0.0
 11
211.0
 21
471.89515
 31
0.0
  0
LINE
  5
127B
330
1D
100
AcDbEntity
  8
0
100
AcDbLine
 10
211.0
 20
472.03515
 30
0.0
 11
211.0
 21
472.79515
 31
0.0
  0
LINE
  5
127C
330
1D
100
AcDbEntity
  8
0
100
AcDbLine
 10
212.3713
 20
472.79515
 30
0.0
 11
211.3368
 21
472.79515
 31
0.0
  0
LINE
  5
127D
330
1D
100
AcDbEntity
  8
0
100
AcDbLine
 10
215.0421
 20
472.15915
 30
0.0
 11
212.3713
 21
472.79515
 31
0.0
  0
LINE
  5
127E
330
1D
100
AcDbEntity
  8
0
100
AcDbLine
 10
211.3368
 20
472.79515
 30
0.0
 11
211.0
 21
472.79515
 31
0.0
  0
LINE
  5
127F
330
1D
100
AcDbEntity
  8
0
100
AcDbLine
 10
211.0
 20
473.79515
 30
0.0
 11
211.0
 21
472.79515
 31
0.0
  0
LINE
  5
1280
330
1D
100
AcDbEntity
  8
0
100
AcDbLine
 10
211.0
 20
472.79515
 30
0.0
 11
211.0
 21
472.03515
 31
0.0
  0
LINE
  5
1281
330
1D
100
AcDbEntity
  8
0
100
AcDbLine
 10
211.0
 20
472.79515
 30
0.0
 11
211.0
 21
473.79515
 31
0.0
  0
LINE
  5
1282
330
1D
100
AcDbEntity
  8
0
100
AcDbLine
 10
225.0225
 20
484.79515
 30
0.0
 11
222.6481
 21
485.37615
 31
0.0
  0
LINE
  5
1283
330
1D
100
AcDbEntity
  8
0
100
AcDbLine
 10
227.0
 20
485.79515
 30
0.0
 11
222.9579
 21
485.79515
 31
0.0
  0
LINE
  5
1284
330
1D
100
AcDbEntity
  8
0
100
AcDbLine
 10
227.0
 20
486.29515
 30
0.0
 11
218.4
 21
486.29515
 31
0.0
  0
LINE
  5
1285
330
1D
100
AcDbEntity
  8
0
100
AcDbLine
 10
227.0
 20
511.79515
 30
0.0
 11
218.3
 21
511.79515
 31
0.0
  0
LINE
  5
1286
330
1D
100
AcDbEntity
  8
0
100
AcDbLine
 10
238.9579
 20
485.43115
 30
0.0
 11
235.1445
 21
485.59315
 31
0.0
  0
LINE
  5
1287
330
1D
100
AcDbEntity
  8
0
100
AcDbLine
 10
238.0316
 20
485.79515
 30
0.0
 11
234.7474
 21
485.79515
 31
0.0
  0
LINE
  5
1288
330
1D
100
AcDbEntity
  8
0
100
AcDbLine
 10
235.1445
 20
485.59315
 30
0.0
 11
231.3519
 21
485.37615
 31
0.0
  0
LINE
  5
1289
330
1D
100
AcDbEntity
  8
0
100
AcDbLine
 10
228.9775
 20
484.79515
 30
0.0
 11
227.0
 21
484.79515
 31
0.0
  0
LINE
  5
128A
330
1D
100
AcDbEntity
  8
0
100
AcDbLine
 10
227.0
 20
484.79515
 30
0.0
 11
225.0225
 21
484.79515
 31
0.0
  0
LINE
  5
128B
330
1D
100
AcDbEntity
  8
0
100
AcDbLine
 10
231.0421
 20
485.79515
 30
0.0
 11
227.0
 21
485.79515
 31
0.0
  0
LINE
  5
128C
330
1D
100
AcDbEntity
  8
0
100
AcDbLine
 10
231.3519
 20
485.37615
 30
0.0
 11
228.9775
 21
484.79515
 31
0.0
  0
LINE
  5
128D
330
1D
100
AcDbEntity
  8
0
100
AcDbLine
 10
234.7474
 20
485.79515
 30
0.0
 11
231.0421
 21
485.79515
 31
0.0
  0
LINE
  5
128E
330
1D
100
AcDbEntity
  8
0
100
AcDbLine
 10
235.6
 20
486.29515
 30
0.0
 11
227.0
 21
486.29515
 31
0.0
  0
LINE
  5
128F
330
1D
100
AcDbEntity
  8
0
100
AcDbLine
 10
235.7
 20
511.79515
 30
0.0
 11
227.0
 21
511.79515
 31
0.0
  0
LINE
  5
1290
330
1D
100
AcDbEntity
  8
0
100
AcDbLine
 10
219.2527
 20
485.79515
 30
0.0
 11
215.9685
 21
485.79515
 31
0.0
  0
LINE
  5
1291
330
1D
100
AcDbEntity
  8
0
100
AcDbLine
 10
218.8555
 20
485.59315
 30
0.0
 11
215.0421
 21
485.43115
 31
0.0
  0
LINE
  5
1292
330
1D
100
AcDbEntity
  8
0
100
AcDbLine
 10
218.4
 20
486.29515
 30
0.0
 11
210.3
 21
486.29515
 31
0.0
  0
LINE
  5
1293
330
1D
100
AcDbEntity
  8
0
100
AcDbLine
 10
222.6481
 20
485.37615
 30
0.0
 11
218.8555
 21
485.59315
 31
0.0
  0
LINE
  5
1294
330
1D
100
AcDbEntity
  8
0
100
AcDbLine
 10
222.9579
 20
485.79515
 30
0.0
 11
219.2527
 21
485.79515
 31
0.0
  0
LINE
  5
1295
330
1D
100
AcDbEntity
  8
0
100
AcDbLine
 10
212.3713
 20
484.79515
 30
0.0
 11
211.0
 21
483.79515
 31
0.0
  0
LINE
  5
1296
330
1D
100
AcDbEntity
  8
0
100
AcDbLine
 10
213.5263
 20
485.79515
 30
0.0
 11
212.0105
 21
485.79515
 31
0.0
  0
LINE
  5
1297
330
1D
100
AcDbEntity
  8
0
100
AcDbLine
 10
215.0421
 20
485.43115
 30
0.0
 11
212.3713
 21
484.79515
 31
0.0
  0
LINE
  5
1298
330
1D
100
AcDbEntity
  8
0
100
AcDbLine
 10
215.9685
 20
485.79515
 30
0.0
 11
213.5263
 21
485.79515
 31
0.0
  0
LINE
  5
1299
330
1D
100
AcDbEntity
  8
0
100
AcDbLine
 10
211.0
 20
484.79515
 30
0.0
 11
211.0
 21
483.79515
 31
0.0
  0
LINE
  5
129A
330
1D
100
AcDbEntity
  8
0
100
AcDbLine
 10
211.0
 20
484.79515
 30
0.0
 11
211.0
 21
485.55515
 31
0.0
  0
LINE
  5
129B
330
1D
100
AcDbEntity
  8
0
100
AcDbLine
 10
211.0
 20
483.79515
 30
0.0
 11
211.0
 21
484.79515
 31
0.0
  0
LINE
  5
129C
330
1D
100
AcDbEntity
  8
0
100
AcDbLine
 10
211.0
 20
485.55515
 30
0.0
 11
211.0
 21
484.79515
 31
0.0
  0
LINE
  5
129D
330
1D
100
AcDbEntity
  8
0
100
AcDbLine
 10
211.421
 20
485.79515
 30
0.0
 11
211.0
 21
485.69515
 31
0.0
  0
LINE
  5
129E
330
1D
100
AcDbEntity
  8
0
100
AcDbLine
 10
211.421
 20
485.79515
 30
0.0
 11
210.8
 21
485.79515
 31
0.0
  0
LINE
  5
129F
330
1D
100
AcDbEntity
  8
0
100
AcDbLine
 10
212.0105
 20
485.79515
 30
0.0
 11
211.421
 21
485.79515
 31
0.0
  0
LINE
  5
12A0
330
1D
100
AcDbEntity
  8
0
100
AcDbLine
 10
211.0
 20
485.69515
 30
0.0
 11
211.0
 21
485.55515
 31
0.0
  0
LINE
  5
12A1
330
1D
100
AcDbEntity
  8
0
100
AcDbLine
 10
218.3
 20
511.79515
 30
0.0
 11
210.1
 21
511.79515
 31
0.0
  0
LINE
  5
12A2
330
1D
100
AcDbEntity
  8
0
100
AcDbLine
 10
204.0
 20
485.79515
 30
0.0
 11
198.9
 21
485.79515
 31
0.0
  0
LINE
  5
12A3
330
1D
100
AcDbEntity
  8
0
100
AcDbLine
 10
203.3
 20
486.29515
 30
0.0
 11
198.0
 21
486.29515
 31
0.0
  0
LINE
  5
12A4
330
1D
100
AcDbEntity
  8
0
100
AcDbLine
 10
203.0
 20
511.79515
 30
0.0
 11
197.6
 21
511.79515
 31
0.0
  0
LINE
  5
12A5
330
1D
100
AcDbEntity
  8
0
100
AcDbLine
 10
198.9
 20
485.79515
 30
0.0
 11
195.7
 21
485.79515
 31
0.0
  0
LINE
  5
12A6
330
1D
100
AcDbEntity
  8
0
100
AcDbLine
 10
198.0
 20
486.29515
 30
0.0
 11
194.7
 21
486.29515
 31
0.0
  0
LINE
  5
12A7
330
1D
100
AcDbEntity
  8
0
100
AcDbLine
 10
194.7
 20
486.29515
 30
0.0
 11
193.5
 21
486.29515
 31
0.0
  0
LINE
  5
12A8
330
1D
100
AcDbEntity
  8
0
100
AcDbLine
 10
195.7
 20
485.79515
 30
0.0
 11
194.5
 21
485.79515
 31
0.0
  0
LINE
  5
12A9
330
1D
100
AcDbEntity
  8
0
100
AcDbLine
 10
194.5
 20
485.79515
 30
0.0
 11
193.5
 21
486.29515
 31
0.0
  0
LINE
  5
12AA
330
1D
100
AcDbEntity
  8
0
100
AcDbLine
 10
193.5
 20
486.29515
 30
0.0
 11
193.0
 21
487.29515
 31
0.0
  0
LINE
  5
12AB
330
1D
100
AcDbEntity
  8
0
100
AcDbLine
 10
193.0
 20
487.29515
 30
0.0
 11
193.0
 21
511.79515
 31
0.0
  0
LINE
  5
12AC
330
1D
100
AcDbEntity
  8
0
100
AcDbLine
 10
197.6
 20
511.79515
 30
0.0
 11
194.2
 21
511.79515
 31
0.0
  0
LINE
  5
12AD
330
1D
100
AcDbEntity
  8
0
100
AcDbLine
 10
193.0
 20
511.79515
 30
0.0
 11
193.0
 21
487.29515
 31
0.0
  0
LINE
  5
12AE
330
1D
100
AcDbEntity
  8
0
100
AcDbLine
 10
194.2
 20
511.79515
 30
0.0
 11
193.0
 21
511.79515
 31
0.0
  0
LINE
  5
12AF
330
1D
100
AcDbEntity
  8
0
100
AcDbLine
 10
244.0
 20
456.79515
 30
0.0
 11
234.38442925516
 21
456.79515
 31
0.0
  0
ENDSEC
  0
SECTION
  2
OBJECTS
  0
DICTIONARY
  5
C
330
0
100
AcDbDictionary
281
     1
  3
ACAD_GROUP
350
D
  3
ACAD_LAYOUT
350
1A
  3
ACAD_MLEADERSTYLE
350
12B2
  3
ACAD_MLINESTYLE
350
17
  3
ACAD_PLOTSETTINGS
350
19
  3
ACAD_PLOTSTYLENAME
350
E
  3
ACAD_SCALELIST
350
7DC
  3
AcDbVariableDictionary
350
12B0
  3
DWGPROPS
350
12BD
  0
DICTIONARY
  5
D
102
{ACAD_REACTORS
330
C
102
}
330
C
100
AcDbDictionary
281
     1
  0
DICTIONARY
  5
1A
102
{ACAD_REACTORS
330
C
102
}
330
C
100
AcDbDictionary
281
     1
  3
Layout1
350
1C
  3
Model
350
1E
  0
DICTIONARY
  5
12B2
102
{ACAD_REACTORS
330
C
102
}
330
C
100
AcDbDictionary
281
     1
  0
DICTIONARY
  5
17
102
{ACAD_REACTORS
330
C
102
}
330
C
100
AcDbDictionary
281
     1
  3
Standard
350
18
  0
DICTIONARY
  5
19
102
{ACAD_REACTORS
330
C
102
}
330
C
100
AcDbDictionary
281
     1
  0
ACDBDICTIONARYWDFLT
  5
E
102
{ACAD_REACTORS
330
C
102
}
330
C
100
AcDbDictionary
281
     1
  3
Normal
350
F
100
AcDbDictionaryWithDefault
340
F
  0
DICTIONARY
  5
7DC
102
{ACAD_REACTORS
330
C
102
}
330
C
100
AcDbDictionary
281
     1
  3
A0
350
7DD
  3
A1
350
7DE
  3
A2
350
7DF
  3
A3
350
7E0
  3
A4
350
7E1
  3
A5
350
7E2
  3
A6
350
7E3
  3
A7
350
7E4
  3
A8
350
7E5
  3
A9
350
7E6
  3
B0
350
7E7
  3
B1
350
7E8
  3
B2
350
7E9
  3
B3
350
7EA
  3
B4
350
7EB
  3
B5
350
7EC
  3
B6
350
7ED
  3
B7
350
7EE
  3
B8
350
7EF
  3
B9
350
7F0
  3
C0
350
7F1
  3
C1
350
7F2
  3
C2
350
7F3
  3
C3
350
7F4
  3
C4
350
7F5
  3
C5
350
7F6
  3
C6
350
7F7
  3
C7
350
7F8
  3
C8
350
7F9
  3
C9
350
7FA
  3
D0
350
7FB
  3
D1
350
7FC
  3
D2
350
7FD
  0
DICTIONARY
  5
12B0
102
{ACAD_REACTORS
330
C
102
}
330
C
100
AcDbDictionary
281
     1
  3
CANNOSCALE
350
12BB
  0
XRECORD
  5
12BD
102
{ACAD_REACTORS
330
C
102
}
330
C
100
AcDbXrecord
280
     1
  1
DWGPROPS COOKIE
  2

  3

  4

  6

  7

  8
MARTIN
  9

300
=
301
=
302
=
303
=
304
=
305
=
306
=
307
=
308
=
309
=
 40
0.0
 41
2455870.878844109
 42
2456213.476793252
  1

 90
        0
  0
LAYOUT
  5
1C
102
{ACAD_REACTORS
330
1A
102
}
330
1A
100
AcDbPlotSettings
  1

  2
none_device
  4

  6

 40
0.0
 41
0.0
 42
0.0
 43
0.0
 44
0.0
 45
0.0
 46
0.0
 47
0.0
 48
0.0
 49
0.0
140
0.0
141
0.0
142
1.0
143
1.0
 70
   688
 72
     0
 73
     0
 74
     5
  7

 75
    16
147
1.0
148
0.0
149
0.0
100
AcDbLayout
  1
Layout1
 70
     1
 71
     1
 10
0.0
 20
0.0
 11
12.0
 21
9.0
 12
0.0
 22
0.0
 32
0.0
 14
1.000000000000E+20
 24
1.000000000000E+20
 34
1.000000000000E+20
 15
-1.000000000000E+20
 25
-1.000000000000E+20
 35
-1.000000000000E+20
146
0.0
 13
0.0
 23
0.0
 33
0.0
 16
1.0
 26
0.0
 36
0.0
 17
0.0
 27
1.0
 37
0.0
 76
     0
330
1B
  0
LAYOUT
  5
1E
102
{ACAD_REACTORS
330
1A
102
}
330
1A
100
AcDbPlotSettings
  1

  2
none_device
  4

  6

 40
0.0
 41
0.0
 42
0.0
 43
0.0
 44
0.0
 45
0.0
 46
0.0
 47
0.0
 48
0.0
 49
0.0
140
0.0
141
0.0
142
1.0
143
1.0
 70
  1712
 72
     0
 73
     0
 74
     0
  7

 75
     0
147
1.0
148
0.0
149
0.0
100
AcDbLayout
  1
Model
 70
     1
 71
     0
 10
0.0
 20
0.0
 11
12.0
 21
9.0
 12
0.0
 22
0.0
 32
0.0
 14
0.0
 24
0.20485
 34
0.0
 15
380.0
 25
511.79515
 35
0.0
146
0.0
 13
0.0
 23
0.0
 33
0.0
 16
1.0
 26
0.0
 36
0.0
 17
0.0
 27
1.0
 37
0.0
 76
     0
330
1D
331
7D7
  0
MLINESTYLE
  5
18
102
{ACAD_REACTORS
330
17
102
}
330
17
100
AcDbMlineStyle
  2
Standard
 70
     0
  3

 62
   256
 51
90.0
 52
90.0
 71
     2
 49
0.5
 62
   256
  6
BYLAYER
 49
-0.5
 62
   256
  6
BYLAYER
  0
ACDBPLACEHOLDER
  5
F
102
{ACAD_REACTORS
330
E
102
}
330
E
  0
SCALE
  5
7DD
102
{ACAD_REACTORS
330
7DC
102
}
330
7DC
100
AcDbScale
 70
     0
300
1:1
140
1.0
141
1.0
290
     1
  0
SCALE
  5
7DE
102
{ACAD_REACTORS
330
7DC
102
}
330
7DC
100
AcDbScale
 70
     0
300
1:2
140
1.0
141
2.0
290
     0
  0
SCALE
  5
7DF
102
{ACAD_REACTORS
330
7DC
102
}
330
7DC
100
AcDbScale
 70
     0
300
1:4
140
1.0
141
4.0
290
     0
  0
SCALE
  5
7E0
102
{ACAD_REACTORS
330
7DC
102
}
330
7DC
100
AcDbScale
 70
     0
300
1:5
140
1.0
141
5.0
290
     0
  0
SCALE
  5
7E1
102
{ACAD_REACTORS
330
7DC
102
}
330
7DC
100
AcDbScale
 70
     0
300
1:8
140
1.0
141
8.0
290
     0
  0
SCALE
  5
7E2
102
{ACAD_REACTORS
330
7DC
102
}
330
7DC
100
AcDbScale
 70
     0
300
1:10
140
1.0
141
10.0
290
     0
  0
SCALE
  5
7E3
102
{ACAD_REACTORS
330
7DC
102
}
330
7DC
100
AcDbScale
 70
     0
300
1:16
140
1.0
141
16.0
290
     0
  0
SCALE
  5
7E4
102
{ACAD_REACTORS
330
7DC
102
}
330
7DC
100
AcDbScale
 70
     0
300
1:20
140
1.0
141
20.0
290
     0
  0
SCALE
  5
7E5
102
{ACAD_REACTORS
330
7DC
102
}
330
7DC
100
AcDbScale
 70
     0
300
1:30
140
1.0
141
30.0
290
     0
  0
SCALE
  5
7E6
102
{ACAD_REACTORS
330
7DC
102
}
330
7DC
100
AcDbScale
 70
     0
300
1:40
140
1.0
141
40.0
290
     0
  0
SCALE
  5
7E7
102
{ACAD_REACTORS
330
7DC
102
}
330
7DC
100
AcDbScale
 70
     0
300
1:50
140
1.0
141
50.0
290
     0
  0
SCALE
  5
7E8
102
{ACAD_REACTORS
330
7DC
102
}
330
7DC
100
AcDbScale
 70
     0
300
1:100
140
1.0
141
100.0
290
     0
  0
SCALE
  5
7E9
102
{ACAD_REACTORS
330
7DC
102
}
330
7DC
100
AcDbScale
 70
     0
300
2:1
140
2.0
141
1.0
290
     0
  0
SCALE
  5
7EA
102
{ACAD_REACTORS
330
7DC
102
}
330
7DC
100
AcDbScale
 70
     0
300
4:1
140
4.0
141
1.0
290
     0
  0
SCALE
  5
7EB
102
{ACAD_REACTORS
330
7DC
102
}
330
7DC
100
AcDbScale
 70
     0
300
8:1
140
8.0
141
1.0
290
     0
  0
SCALE
  5
7EC
102
{ACAD_REACTORS
330
7DC
102
}
330
7DC
100
AcDbScale
 70
     0
300
10:1
140
10.0
141
1.0
290
     0
  0
SCALE
  5
7ED
102
{ACAD_REACTORS
330
7DC
102
}
330
7DC
100
AcDbScale
 70
     0
300
100:1
140
100.0
141
1.0
290
     0
  0
SCALE
  5
7EE
102
{ACAD_REACTORS
330
7DC
102
}
330
7DC
100
AcDbScale
 70
     0
300
1/128" = 1'-0"
140
0.0078125
141
12.0
290
     0
  0
SCALE
  5
7EF
102
{ACAD_REACTORS
330
7DC
102
}
330
7DC
100
AcDbScale
 70
     0
300
1/64" = 1'-0"
140
0.015625
141
12.0
290
     0
  0
SCALE
  5
7F0
102
{ACAD_REACTORS
330
7DC
102
}
330
7DC
100
AcDbScale
 70
     0
300
1/32" = 1'-0"
140
0.03125
141
12.0
290
     0
  0
SCALE
  5
7F1
102
{ACAD_REACTORS
330
7DC
102
}
330
7DC
100
AcDbScale
 70
     0
300
1/16" = 1'-0"
140
0.0625
141
12.0
290
     0
  0
SCALE
  5
7F2
102
{ACAD_REACTORS
330
7DC
102
}
330
7DC
100
AcDbScale
 70
     0
300
3/32" = 1'-0"
140
0.09375
141
12.0
290
     0
  0
SCALE
  5
7F3
102
{ACAD_REACTORS
330
7DC
102
}
330
7DC
100
AcDbScale
 70
     0
300
1/8" = 1'-0"
140
0.125
141
12.0
290
     0
  0
SCALE
  5
7F4
102
{ACAD_REACTORS
330
7DC
102
}
330
7DC
100
AcDbScale
 70
     0
300
3/16" = 1'-0"
140
0.1875
141
12.0
290
     0
  0
SCALE
  5
7F5
102
{ACAD_REACTORS
330
7DC
102
}
330
7DC
100
AcDbScale
 70
     0
300
1/4" = 1'-0"
140
0.25
141
12.0
290
     0
  0
SCALE
  5
7F6
102
{ACAD_REACTORS
330
7DC
102
}
330
7DC
100
AcDbScale
 70
     0
300
3/8" = 1'-0"
140
0.375
141
12.0
290
     0
  0
SCALE
  5
7F7
102
{ACAD_REACTORS
330
7DC
102
}
330
7DC
100
AcDbScale
 70
     0
300
1/2" = 1'-0"
140
0.5
141
12.0
290
     0
  0
SCALE
  5
7F8
102
{ACAD_REACTORS
330
7DC
102
}
330
7DC
100
AcDbScale
 70
     0
300
3/4" = 1'-0"
140
0.75
141
12.0
290
     0
  0
SCALE
  5
7F9
102
{ACAD_REACTORS
330
7DC
102
}
330
7DC
100
AcDbScale
 70
     0
300
1" = 1'-0"
140
1.0
141
12.0
290
     0
  0
SCALE
  5
7FA
102
{ACAD_REACTORS
330
7DC
102
}
330
7DC
100
AcDbScale
 70
     0
300
1-1/2" = 1'-0"
140
1.5
141
12.0
290
     0
  0
SCALE
  5
7FB
102
{ACAD_REACTORS
330
7DC
102
}
330
7DC
100
AcDbScale
 70
     0
300
3" = 1'-0"
140
3.0
141
12.0
290
     0
  0
SCALE
  5
7FC
102
{ACAD_REACTORS
330
7DC
102
}
330
7DC
100
AcDbScale
 70
     0
300
6" = 1'-0"
140
6.0
141
12.0
290
     0
  0
SCALE
  5
7FD
102
{ACAD_REACTORS
330
7DC
102
}
330
7DC
100
AcDbScale
 70
     0
300
1'-0" = 1'-0"
140
12.0
141
12.0
290
     0
  0
DICTIONARYVAR
  5
12BB
102
{ACAD_REACTORS
330
12B0
102
}
330
12B0
100
DictionaryVariables
280
     0
  1
1:1
  0
ENDSEC
  0
SECTION
  2
THUMBNAILIMAGE
 90
    16364
310
28000000B40000005500000001000800000000000000000000000000000000000000000000000000FFFFFF000000FF0000FFFF0000FF0000FFFF0000FF000000FF00FF000000000080808000C0C0C0000000FF007F7FFF000000A5005252A50000007F003F3F7F0000004C0026264C000000260013132600003FFF007F9FFF
310
000029A5005267A500001F7F003F4F7F0000134C00262F4C000009260013172600007FFF007FBFFF000052A500527CA500003F7F003F5F7F0000264C0026394C0000132600131C260000BFFF007FDFFF00007CA5005291A500005F7F003F6F7F0000394C0026424C00001C26001321260000FFFF007FFFFF0000A5A50052A5
310
A500007F7F003F7F7F00004C4C00264C4C00002626001326260000FFBF007FFFDF0000A57C0052A59100007F5F003F7F6F00004C3900264C420000261C001326210000FF7F007FFFBF0000A5520052A57C00007F3F003F7F5F00004C2600264C39000026130013261C0000FF3F007FFF9F0000A5290052A56700007F1F003F
310
7F4F00004C1300264C2F00002609001326170000FF00007FFF7F0000A5000052A55200007F00003F7F3F00004C0000264C260000260000132613003FFF00009FFF7F0029A5000067A552001F7F00004F7F3F00134C00002F4C260009260000172613007FFF0000BFFF7F0052A500007CA552003F7F00005F7F3F00264C0000
310
394C2600132600001C261300BFFF0000DFFF7F007CA5000091A552005F7F00006F7F3F00394C0000424C26001C26000021261300FFFF0000FFFF7F00A5A50000A5A552007F7F00007F7F3F004C4C00004C4C26002626000026261300FFBF0000FFDF7F00A57C0000A59152007F5F00007F6F3F004C3900004C422600261C00
310
0026211300FF7F0000FFBF7F00A5520000A57C52007F3F00007F5F3F004C2600004C39260026130000261C1300FF3F0000FF9F7F00A5290000A56752007F1F00007F4F3F004C1300004C2F26002609000026171300FF000000FF7F7F00A5000000A55252007F0000007F3F3F004C0000004C2626002600000026131300FF00
310
3F00FF7F9F00A5002900A55267007F001F007F3F4F004C0013004C262F002600090026131700FF007F00FF7FBF00A5005200A5527C007F003F007F3F5F004C0026004C2639002600130026131C00FF00BF00FF7FDF00A5007C00A55291007F005F007F3F6F004C0039004C26420026001C0026132100FF00FF00FF7FFF00A5
310
00A500A552A5007F007F007F3F7F004C004C004C264C002600260026132600BF00FF00DF7FFF007C00A5009152A5005F007F006F3F7F0039004C0042264C001C002600211326007F00FF00BF7FFF005200A5007C52A5003F007F005F3F7F0026004C0039264C00130026001C1326003F00FF009F7FFF002900A5006752A500
310
1F007F004F3F7F0013004C002F264C000900260017132600000000002D2D2D005B5B5B0089898900B7B7B700B3B3B30000000000000000000000000000000000000000000000000000000000000000000000000000000000000000000000000000000000000000000000000000000000000000000000000000000000000000
310
00000000000000000000000000000000000000000000000000000000000000000000000000000000000000000000000000000000000000000000000000000000000000000000000000000000000000000000000000000000000000000000000000000000000000000000000000000000000000000000000000000000000000
310
00000000000000000000000000000000000000000000000000000000000000000000000000000000000000000000000000000000000000000000000000000000000000000000000000000000000000000000000000000000000000000000000000000000000000000000000000000000000000000000000000000000000000
310
00000000000000000000000000000000000000000000000000000000000000000000000000000000000000000000000000000000000000000000000000000000000000000000000000000000000000000000000000000000000000000000000000000000000000000000000000000000000000000000000000000000000000
310
00000000000000000000000000000000000000000000000000000000000000000000000000000000000000000000000000000000000000000000000000000000000000000000000000000000000000000000000000000000000000000000000000000000000000000000000000000000000000000000000000000000000000
310
00000000000000000000000000000000000000000000000000000000000000000007070707000707070707000000000000000000000000000000000000000000000000000000000000000000000000000000000000000000000000000000000000000000000000000000000000000000000000000000000000000000000000
310
00000000000000000000000000000000000000000000000000000000000000000000000000000000000000000000000000000000000000000000000000000000000000000000000000000000000000000000000707070000000000000000000007070700000000000000000000000000000000000000000000000000000000
310
00000000000000000000000000000000000000000000000000000000000000000000000000000000000000000000000000000000000000000000000000000000000000000000000000000000000000000000000000000000000000000000000000000000000000000000000000000000000000000000000000000000000000
310
00000000000000070700000000000000000000000000000000070000000000000000000000000000000000000000000000000000000000000000000000000000000000000000000000000000000000000000000000000000000000000000000000000000000000000000000000000000000000000000000000000000000000
310
00000000000000000000000000000000000000000000000000000000000000000000000000000000000000000000000000000000000000000000000700000000000000000000000000000000000000070000000000000000000000000000000000000000000000000000000000000000000000000000000000000000000000
310
00000000000000000000000000000000000000000000000000000000000000000000000000000000000000000000000000000000000000000000000000000000000000000000000000000000000000000000000000000000000000000000000000000000000000000000000000000007000000000000000000000000000000
310
00000000000007000000000000000000000000000000000000000000000000000000000000000000000000000000000000000000000000000000000000000000000000000000000000000000000000000000000000000000000000000000000000000000000000000000000000000000000000000000000000000000000000
310
00000000000000000000000000000000000000000000000000000000000000000000000007000000000000000000000000000000000000000000000007070000000000000000000000000000000000000000000000000000000000000000000000000000000000000000000000000000000000000000000000000000000000
310
00000000000000000000000000000000000000000000000000000000000000000000000000000000000000000000000000000000000000000000000000000000000000000000000000000000000000000000000000000000070000000000000000000000000000000000000000000000000000070000000000000000000000
310
00000000000000000000000000000000000000000000000000000000000000000000000000000000000000000000000000000000000000000000000000000000000000000000000000000000000000000000000000000000000000000000000000000000000000000000000000000000000000000000000000000000000000
310
00000000000000000000000000070000000000000000000000000000000000000000000000000000000700000000000000000000000000000000000000000000000000000000000000000000000000000000000000000000000000000000000000000000000000000000000000000000000000000000000000000000000000
310
00000000000000000000000000000000000000000000000000000000000000000000000000000000000000000000000000000000000000000000000000000000000700000000000000000000000000000000000000000000000000000000000700000000000000000000000000000000000000000000000000000000000000
310
00000000000000000000000000000000000000000000000000000000000000000000000000000000000000000000000000000000000000000000000000000000000000000000000000000000000000000000000000000000000000000000000000000000000000000000000000000000000000000000070000000000000000
310
00000000000000000000000000000000000000000007000000000000000000000000000000000000000000000000000000000000000000000000000000000000000000000000000000000000000000000000000000000000000000000000000000000000000000000000000000000000000000000000000000000000000000
310
00000000000000000000000000000000000000000000000000000000000000000000000000000000000000000700000000000000000000000000000000000000000000000000000000000007000000000000000000000000000000000000000000000000000000000000000000000000000000000000000000000000000000
310
00000000000000000000000000000000000000000000000000000000000000000000000000000000000000000000000000000000000000000000000000000000000000000000000000000000000000000000000000000000000000000000000007000000000000000000000000000000000000000000000000000000000000
310
00070000000000000000000000000000000000000000000000000000000000000000000000000000000000000000000000000000000000000000000000000000000000000000000000000000000000000000000000000000000000000000000000000000000000000000000000000000000000000000000000000000000000
310
00000000000000000000000000000000000000000000070000000000000000000000000000000000000000000000000000000000000007000000000000000000000000000000000000000000000000000000000000000000000000000000000000000000000000000000000000000000000000000000000000000000000000
310
00000000000000000000000000000000000000000000000000000000000000000000000000000000000000000000000000000000000000000000000000000000000000000000000000000007000000000000000000000000000000000000000000000000000000000000000007000000000000000000000000000000000000
310
00000000000000000000000000000000000000000000000000000000000000000000000000000000000000000000000000000000000000000000000000000000000000000000000000000000000000000000000000000000000000000000000000000000000000000000000000000000000000000000000000000000000000
310
00070000000000000000000000000000070707070000000000000000000000000000070000000000000000000000000000000000000000000000000000000000000000000000000000000000000000000000000000000000000000000000000000000000000000000000000000000000000000000000000000000000000000
310
00000000000000000000000000000000000000000000000000000000000000000000000000000000000000000000000000000000000007000000000000000000000000000707070707000000000000000000000000000007000000000000000000000000000000000000000000000000000000000000000000000000000000
310
00000000000000000000000000000000000000000000000000000000000000000000000000000000000000000000000000000000000000000000000000000000000000000000000000000000000000000000000000000000000000000000000000000000000000000000000700000000000000000000000000070707070700
310
00000000000000000000000000070000000000000000000000000000000000000000000000000000000000000000000000000000000000000000000000000000000000000000000000000000000000000000000000000000000000000000000000000000000000000000000000000000000000000000000000000000000000
310
00000000000000000000000000000000000000000000000000000000000000000007000000000000000000000000000707070707070000000000000000000000000007000000000000000000000000000000000000000000000000000000000000000000000000000000000000000000000000000000000000000000000000
310
00000000000000000000000000000000000000000000000000000000000000000000000000000000000000000000000000000000000000000000000000000000000000000000000000000000000000000000000000000700000000000000000000000000070700000700000000000000000000000000000700000000000000
310
00000000000000000000000000000000000000000000000000000000000000000000000000000000000000000000000000000000000000000000000000000000000000000000000000000000000000000000000000000000000000000000000000000000000000000000000000000000000000000000000000000000000000
310
00000000000000000000000007000000000000000000000000000707000007000000000000000000000000000007000000000000000000000000000000000000000000000000000000000000000000000000000000000000000000000000000000000000000000000000000000000000000000000000000000000000000000
310
00000000000000000000000000000000000000000000000000000000000000000000000000000000000000000000000000000000000000000000000000000000000700000000000000000000000000000700000700000000000000000000000000070000000000000000000000000000000000000000000000000000000000
310
00000000000000000000000000000000000000000000000000000000000000000000000000000000000000000000000000000000000000000000000000000000000000000000000000000000000000000000000000000000000000000000000000000000000000000000000000000000000000000000070000000000000000
310
00000000000007000007000000000000000000000000000700000000000000000000000000000000000000000000000000000000000000000000000000000000000000000000000000000000000000000000000000000000000000000000000000000000000000000000000000000000000000000000000000000000000000
310
00000000000000000000000000000000000000000000000000000000000000000000000000000000000000000007000000000000000000000000000700000700000000000000000000000000070000000000000000000000000000000000000000000000000000000000000000000000000000000000000000000000000000
310
00000000000000000000000000000000000000000000000000000000000000000000000000000000000000000000000000000000000000000000000000000000000000000000000000000000000000000000000000000000000000000000000000000700000000000000000000000000070000070000000000000000000000
310
00070000000000000000000000000000000000000000000000000000000000000000000000000000000000000000000000000000000000000000000000000000000000000000000000000000000000000000000000000000000000000000000000000000000000000000000000000000000000000000000000000000000000
310
00000000000000000000000000000000000000000000000000070000000000000000000000000700000700000000000000000000000700000000000000000000000000000000000000000000000000000000000000000000000000000000000000000000000000000000000000000000000000000000000000000000000000
310
00000000000000000000000000000000000000000000000000000000000000000000000000000000000000000000000000000000000000000000000000000000000000000000000000000000000000070000000000000000000000070000070000000000000000000000070000000000000000000000000000000000000000
310
00000000000000000000000000000000000000000000000000000000000000000000000000000000000000000000000000000000000000000000000000000000000000000000000000000000000000000000000000000000000000000000000000000000000000000000000000000000000000000000000000000000000000
310
00000000000700000000000000000000000700000700000000000000000000070000000000000000000000000000000000000000000000000000000000000000000000000000000000000000000000000000000000000000000000000000000000000000000000000000000000000000000000000000000000000000000000
310
00000000000000000000000000000000000000000000000000000000000000000000000000000000000000000000000000000000000000000000000700000000000000000000070000070000000000000000000007000000000000000000000000000000000000000000000000000000000000000000000000000000000000
310
00000000000000000000000000000000000000000000000000000000000000000000000000000000000000000000000000000000000000000000000000000000000000000000000000000000000000000000000000000000000000000000000000000000000000000000000000000000000700000000000000000007000007
310
00000000000000000707000000000000000000000000000000000000000000000000000000000000000000000000000000000000000000000000000000000000000000000000000000000000000000000000000000000000000000000000000000000000000000000000000000000000000000000000000000000000000000
310
00000000000000000000000000000000000000000000000000000000000000000000000000000000070700000000000000070000070000000000000707000000000000000000000000000000000000000000000000000000000000000000000000000000000000000000000000000000000000000000000000000000000000
310
00000000000000000000000000000000000000000000000000000000000000000000000000000000000000000000000000000000000000000000000000000000000000000000000000000000000000000000000000000000000000000000000707000000000007000007000000000007000000000000000000000000000000
310
00000000000000000000000000000000000000000000000000000000000000000000000000000000000000000000000000000000000000000000000000000000000000000000000000000000000000000000000000000000000000000000000000000000000000000000000000000000000000000000000000000000000000
310
00000000000000000000000000000000000000000000000707070700070000070707070707000000000000000000000000000000000000000000000000000000000000000000000000000000000000000000000000000000000000000000000000000000000000000000000000000000000000000000000000000000000000
310
00000000000000000000000000000000000000000000000000000000000000000000000000000000000000000000000000000000000000000000000000000000000000000000000000000000000000000707000007000000000000000000000000000000000000000000000000000000000000000000000000000000000000
310
00000000000000000000000000000000000000000000000000000000000000000000000000000000000000000000000000000000000000000000000000000000000000000000000000000000000000000000000000000000000000000000000000000000000000000000000000000000000000000000000000000000000000
310
00000000000000070000070000000000000000000000000000000000000000000000000000000000000000000000000000000000000000000000000000000000000000000000000000000000000000000000000000000000000000000000000000000000000000000000000000000000000000000000000000000000000000
310
00000000000000000000000000000000000000000000000000000000000000000000000000000000000000000000000000000000000000000000000007000007000000000000000000000000000000000000000000000000000000000000000000000000000000000000000000000000000000000000000000000000000000
310
00000000000000000000000000000000000000000000000000000000000000000000000000000000000000000000000000000000000000000000000000000000000000000000000000000000000000000000000000000000000000000000000000000000000000000000000000000000000700000707070707070707000000
310
00000000000000000000000000000000000000000000000000000000000000000000000000000000000000000000000000000000000000000000000000000000000000000000000000000000000000000000000000000000000000000000000000000000000000000000000000000000000000000000000000000000000000
310
00000000000000000000000000000000000000000000000000000000000000000000000000000007000007070000000007070707000000000000000000000000000000000000000000000000000000000000000000000000000000000000000000000000000000000000000000000000000000000000000000000000000000
310
00000000000000000000000000000000000000000000000000000000000000000000000000000000000000000000000000000000000000000000000000000000000000000000000000000000000000000000000000000000000000000700000700000000000000070700000000000000000000000000000000000000000000
310
00000000000000000000000000000000000000000000000000000000000000000000000000000000000000000000000000000000000000000000000000000000000000000000000000000000000000000000000000000000000000000000000000000000000000000000000000000000000000000000000000000000000000
310
00000000000000000000000000000000000007000007000000000000000000070000000000000000000000000000000000000000000000000000000000000000000000000000000000000000000000000000000000000000000000000000000000000000000000000000000000000000000000000000000000000000000000
310
00000000000000000000000000000000000000000000000000000000000000000000000000000000000000000000000000000000000000000000000000000000000000000000070700000700000000000000000007070000000000000000000000000000000000000000000000000000000000000000000000000000000000
310
00000000000000000000000000000000000000000000000000000000000000000000000000000000000000000000000000000000000000000000000000000000000000000000000000000000000000000000000000000000000000000000000000000000000000000000000000000000000000000000000000000007070000
310
07000000000000000000000700000000000000000000000000000000000000000000000000000000000000000000000000000000000000000000000000000000000000000000000000000000000000000000000000000000000000000000000000000000000000000000000000000000000000000000000000000000000000
310
00000000000000000000000000000000000000000000000000000000000000000000000000000000000000000000000000070700000700000000000000000000070000000000000000000000000000000000000000000000000000000000000000000000000000000000000000000000000000000000000000000000000000
310
00000000000000000000000000000000000000000000000000000000000000000000000000000000000000000000000000000000000000000000000000000000000000000000000000000000000000000000000000000000000000000000000000000000000007070000070000000000000000000007000000000000000000
310
00000000000000000000000000000000000000000000000000000000000000000000000000000000000000000000000000000000000000000000000000000000000000000000000000000000000000000000000000000000000000000000000000000000000000000000000000000000000000000000000000000000000000
310
00000000000000000000000000000000000000000000000000000000070700000700000000000000000000070000000000000000000000000000000000000000000000000000000000000000000000000000000000000000000000000000000000000000000000000000000000000000000000000000000000000000000000
310
00000000000000000000000000000000000000000000000000000000000000000000000000000000000000000000000000000000000000000000000000000000000000000000000000000000000000000007070000070000000000000000000007000000000000000000000000000000000000000000000000000000000000
310
00000000000000000000000000000000000000000000000000000000000000000000000000000000000000000000000000000000000000000000000000000000000000000000000000000000000000000000000000000000000000000000000000000000000000000000000000000000000000000000000000000000000000
310
00000000000000000700000700000000000000000007000000000000000000000000000000000000000000000000000000000000000000000000000000000000000000000000000000000000000000000000000000000000000000000000000000000000000000000000000000000000000000000000000000000000000000
310
00000000000000000000000000000000000000000000000000000000000000000000000000000000000000000000000000000000000000000000000000070000070000000000000000070000000000000000000000000000000000000000000000000000000000000000000000000000000000000000000000000000000000
310
00000000000000000000000000000000000000000000000000000000000000000000000000000000000000000000000000000000000000000000000000000000000000000000000000000000000000000000000000000000000000000000000000000000000000000000000000000000000007000007000000000000000007
310
00000000000000000000000000000000000000000000000000000000000000000000000000000000000000000000000000000000000000000000000000000000000000000000000000000000000000000000000000000000000000000000000000000000000000000000000000000000000000000000000000000000000000
310
00000000000000000000000000000000000000000000000000000000000000000000000000000000070000070000000000000707000000000000000000000000000000000000000000000000000000000000000000000000000000000000000000000000000000000000000000000000000000000000000000000000000000
310
00000000000000000000000000000000000000000000000000000000000000000000000000000000000000000000000000000000000000000000000000000000000000000000000000000000000000000000000000000000000000000007000007070000000007000000000000000000000000000000000000000000000000
310
00000000000000000000000000000000000000000000000000000000000000000000000000000000000000000000000000000000000000000000000000000000000000000000000000000000000000000000000000000000000000000000000000000000000000000000000000000000000000000000000000000000000000
310
00000000000000000000000000000000000000070000070007000007000000000000000000000000000000000000000000000000000000000000000000000000000000000000000000000000000000000000000000000000000000000000000000000000000000000000000000000000000000000000000000000000000000
310
00000000000000000000000000000000000000000000000000000000000000000000000000000000000000000000000000000000000000000000000000000000000000000000000007000007000700000700000000000000000000000000000000000000000000000000000000000000000000000000000000000000000000
310
00000000000000000000000000000000000000000000000000000000000000000000000000000000000000000000000000000000000000000000000000000000000000000000000000000000000000000000000000000000000000000000000000000000000000000000000000000000000000000000000000000000000700
310
00070007000007000000000000000000000000000000000000000000000000000000000000000000000000000000000000000000000000000000000000000000000000000000000000000000000000000000000000000000000000000000000000000000000000000000000000000000000000000000000000000000000000
310
00000000000000000000000000000000000000000000000000000000000000000000000000000000000000000000000000000007000007000700000700000000000000000000000000000000000000000000000000000000000000000000000000000000000000000000000000000000000000000000000000000000000000
310
00000000000000000000000000000000000000000000000000000000000000000000000000000000000000000000000000000000000000000000000000000000000000000000000000000000000000000000000000000000000000000000000000000000000000000700000700070000070000000000000000000000000000
310
00000000000000000000000000000000000000000000000000000000000000000000000000000000000000000000000000000000000000000000000000000000000000000000000000000000000000000000000000000000000000000000000000000000000000000000000000000000000000000000000000000000000000
310
00000000000000000000000000000000000000000000000000000000000007000007000700000700000000000000000000000000000000000000000000000000000000000000000000000000000000000000000000000000000000000000000000000000000000000000000000000000000000000000000000000000000000
310
00000000000000000000000000000000000000000000000000000000000000000000000000000000000000000000000000000000000000000000000000000000000000000000000000000000000000000000000700000700070000070000000000000000000000000000000000000000000000000000000000000000000000
310
00000000000000000000000000000000000000000000000000000000000000000000000000000000000000000000000000000000000000000000000000000000000000000000000000000000000000000000000000000000000000000000000000000000000000000000000000000000000000000000000000000000000000
310
00000000000000000007000007000700000700000000000000000000000000000000000000000000000000000000000000000000000000000000000000000000000000000000000000000000000000000000000000000000000000000000000000000000000000000000000000000000000000000000000000000000000000
310
00000000000000000000000000000000000000000000000000000000000000000000000000000000000000000000000000000000000000000000000000000700000700070000070000000000000000000000000000000000000000000000000000000000000000000000000000000000000000000000000000000000000000
310
00000000000000000000000000000000000000000000000000000000000000000000000000000000000000000000000000000000000000000000000000000000000000000000000000000000000000000000000000000000000000000000000000000000000000000000000000000000000000070000070007000007000000
310
00000000000000000000000000000000000000000000000000000000000000000000000000000000000000000000000000000000000000000000000000000000000000000000000000000000000000000000000000000000000000000000000000000000000000000000000000000000000000000000000000000000000000
310
00000000000000000000000000000000000000000000000000000000000000000000000000000000000700000700070000070000000000000000000000000000000000000000000000000000000000000000000000000000000000000000000000000000000000000000000000000000000000000000000000000000000000
310
00000000000000000000000000000000000000000000000000000000000000000000000000000000000000000000000000000000000000000000000000000000000000000000000000000000000000000000000000000000000000000000070000070007000007000000000000000000000000000000000000000000000000
310
00000000000000000000000000000000000000000000000000000000000000000000000000000000000000000000000000000000000000000000000000000000000000000000000000000000000000000000000000000000000000000000000000000000000000000000000000000000000000000000000000000000000000
310
00000000000000000000000000000000000000000700000707070000070000000000000000000000000000000000000000000000000000000000000000000000000000000000000000000000000000000000000000000000000000000000000000000000000000000000000000000000000000000000000000000000000000
310
00000000000000000000000000000000000000000000000000000000000000000000000000000000000000000000000000000007070707070707070707070707070707070707070707070000070707000007070707070707070707070707070707070000000000000000000000000000000000000000000000000000000000
310
00000000000000000000000000000000000000000000000000000000000000000000000000000000000000000000000000000000000000000000000000000000000000000000000000000000000000000000000000000000000000000000000000000000000000000707070700000007000700000000000000000000000007
310
00000707070707070700000000000007070000000707070700000000000000000000000000000000000000000000000000000000000000000000000000000000000000000000000000000000000000000000000000000000000000000000000000000000000000000000000000000000000000000000000000000000000000
310
00000000000000000000000000000000000000000000000000000000000007000007000000070007000000000000070707070707070000070700000000070000000000000707000000070000070707070707070707070707000000000000000000000000000000000000000000000000000000000000000000000000000000
310
00000000000000000000000000000000000000000000000000000000000000000000000000000000000000000000000000000000000000000000000000000000000000000000000000000000000000000000000707070700000007000700000000000007000000000707000007070000000007000000070707070707070707
310
07070707070707070700000000000700000000000000000000000000000000000000000000000000000000000000000000000000000000000000000000000000000000000000000000000000000000000000000000000000000000000000000000000000000000000000000000000000000000000000000000000000000000
310
00000000000000000007000000000000070007000000000007070000000007070000070707000007070707070000000000000000000000000000000000000000000007070000000000000000000000000000000000000000000000000000000000000000000000000000000000000000000000000000000000000000000000
310
00000000000000000000000000000000000000000000000000000000000000000000000000000000000000000000000000000000000000000000000000000700000000000007000700000000000707000000000707000007070707070700000000000000000000000000070707070707070707070707070000000000000000
310
00000000000000000000000000000000000000000000000000000000000000000000000000000000000000000000000000000000000000000000000000000000000000000000000000000000000000000000000000000000000000000000000000000000000000000000000000000000000000070707070707070707070707
310
07070707070000000007070707070707000707000707070707070707070707070707070000000000000000000000000000000000000000000000000000000000000000000000000000000000000000000000000000000000000000000000000000000000000000000000000000000000000000000000000000000000000000
310
00000000000000000000000000000000000000000000000000000000000000000000000000000000000000000000000000000700000000070007070707070707000007070707070707070000000007000000000000000000000000000000000000000000000000000000000000000000000000000000000000000000000000
310
00000000000000000000000000000000000000000000000000000000000000000000000000000000000000000000000000000000000000000000000000000000000000000000000000000000000000000000000000000000000000000000000000000000000000070707070707000000000000000700000700000000000007
310
07070707070000000000000000000000000000000000000000000000000000000000000000000000000000000000000000000000000000000000000000000000000000000000000000000000000000000000000000000000000000000000000000000000000000000000000000000000000000000000000000000000000000
310
00000000000000000000000000000000000000000000000000000000000700000000070000000000000007000007000000000000070000000007000000000000000000000000000000000000000000000000000000000000000000000000000000000000000000000000000000000000000000000000000000000000000000
310
00000000000000000000000000000000000000000000000000000000000000000000000000000000000000000000000000000000000000000000000000000000000000000000000000000000000000000707070707070707070707000000000700000700000000070707070707070707070700000000000000000000000000
310
00000000000000000000000000000000000000000000000000000000000000000000000000000000000000000000000000000000000000000000000000000000000000000000000000000000000000000000000000000000000000000000000000000000000000000000000000000000000000000000000000000000000000
310
00000000000007000000000000000000070000000007000007000000070000000000000000000007000000000000000000000000000000000000000000000000000000000000000000000000000000000000000000000000000000000000000000000000000000000000000000000000000000000000000000000000000000
310
00000000000000000000000000000000000000000000000000000000000000000000000000000000000000000000000000000000000000000000000700000000000000000007000000000700000700000007000000000000000000000700000000000000000000000000000000000000000000000000000000000000000000
310
00000000000000000000000000000000000000000000000000000000000000000000000000000000000000000000000000000000000000000000000000000000000000000000000000000000000000000000000000000000000000000000000000000000000000000000000000000000070000000000000000000700070707
310
07070707070707070000000000000000000007000000000000000000000000000000000000000000000000000000000000000000000000000000000000000000000000000000000000000000000000000000000000000000000000000000000000000000000000000000000000000000000000000000000000000000000000
310
00000000000000000000000000000000000000000000000000000000000000000000000000000707070707070707070707000707070707070707070707070707070707070707070700000000000000000000000000000000000000000000000000000000000000000000000000000000000000000000000000000000000000
310
00000000000000000000000000000000000000000000000000000000000000000000000000000000000000000000000000000000000000000000000000000000000000000000000000000000000000000000000000000000000000000000000000000000000000000000000000000000000000000000000000000000000000
310
00000000000000000000000000000000000000000000000000000000000000000000000000000000000000000000000000000000000000000000000000000000000000000000000000000000000000000000000000000000000000000000000000000000000000000000000000000000000000000000000000000000000000
310
00000000000000000000000000000000000000000000000000000000000000000000000000000000000000000000000000000000000000000000000000000000000000000000000000000000000000000000000000000000000000000000000000000000000000000000000000000000000000000000000000000000000000
310
00000000000000000000000000000000000000000000000000000000000000000000000000000000000000000000000000000000000000000000000000000000000000000000000000000000000000000000000000000000000000000000000000000000000000000000000000000000000000000000000000000000000000
310
00000000000000000000000000000000000000000000000000000000000000000000000000000000000000000000000000000000000000000000000000000000000000000000000000000000000000000000000000000000000000000000000000000000000000000000000000000000000000000000000000000000000000
310
000000000000000000000000000000000000000000000000000000000000000000000000000000000000000000000000000000000000000000000000000000000000000000000000000000000000000000000000000000000000000000000000000000000000000000000000
  0
ENDSEC
  0
EOF
