  0
SECTION
  2
HEADER
  9
$ACADVER
  1
AC1015
  9
$ACADMAINTVER
 70
     6
  9
$DWGCODEPAGE
  3
ANSI_1252
  9
$INSBASE
 10
0.0
 20
0.0
 30
0.0
  9
$EXTMIN
 10
0.001
 20
0.0
 30
0.0
  9
$EXTMAX
 10
299.999
 20
201.0
 30
0.0
  9
$LIMMIN
 10
0.0
 20
0.0
  9
$LIMMAX
 10
12.0
 20
9.0
  9
$ORTHOMODE
 70
     0
  9
$REGENMODE
 70
     1
  9
$FILLMODE
 70
     1
  9
$QTEXTMODE
 70
     0
  9
$MIRRTEXT
 70
     1
  9
$LTSCALE
 40
1.0
  9
$ATTMODE
 70
     1
  9
$TEXTSIZE
 40
0.2
  9
$TRACEWID
 40
0.05
  9
$TEXTSTYLE
  7
Standard
  9
$CLAYER
  8
0
  9
$CELTYPE
  6
ByBlock
  9
$CECOLOR
 62
   256
  9
$CELTSCALE
 40
1.0
  9
$DISPSILH
 70
     0
  9
$DIMSCALE
 40
1.0
  9
$DIMASZ
 40
0.18
  9
$DIMEXO
 40
0.0625
  9
$DIMDLI
 40
0.38
  9
$DIMRND
 40
0.0
  9
$DIMDLE
 40
0.0
  9
$DIMEXE
 40
0.18
  9
$DIMTP
 40
0.0
  9
$DIMTM
 40
0.0
  9
$DIMTXT
 40
0.18
  9
$DIMCEN
 40
0.09
  9
$DIMTSZ
 40
0.0
  9
$DIMTOL
 70
     0
  9
$DIMLIM
 70
     0
  9
$DIMTIH
 70
     1
  9
$DIMTOH
 70
     1
  9
$DIMSE1
 70
     0
  9
$DIMSE2
 70
     0
  9
$DIMTAD
 70
     0
  9
$DIMZIN
 70
     0
  9
$DIMBLK
  1

  9
$DIMASO
 70
     1
  9
$DIMSHO
 70
     1
  9
$DIMPOST
  1

  9
$DIMAPOST
  1

  9
$DIMALT
 70
     0
  9
$DIMALTD
 70
     2
  9
$DIMALTF
 40
25.4
  9
$DIMLFAC
 40
1.0
  9
$DIMTOFL
 70
     0
  9
$DIMTVP
 40
0.0
  9
$DIMTIX
 70
     0
  9
$DIMSOXD
 70
     0
  9
$DIMSAH
 70
     0
  9
$DIMBLK1
  1

  9
$DIMBLK2
  1

  9
$DIMSTYLE
  2
Standard
  9
$DIMCLRD
 70
     0
  9
$DIMCLRE
 70
     0
  9
$DIMCLRT
 70
     0
  9
$DIMTFAC
 40
1.0
  9
$DIMGAP
 40
0.09
  9
$DIMJUST
 70
     0
  9
$DIMSD1
 70
     0
  9
$DIMSD2
 70
     0
  9
$DIMTOLJ
 70
     1
  9
$DIMTZIN
 70
     0
  9
$DIMALTZ
 70
     0
  9
$DIMALTTZ
 70
     0
  9
$DIMUPT
 70
     0
  9
$DIMDEC
 70
     4
  9
$DIMTDEC
 70
     4
  9
$DIMALTU
 70
     2
  9
$DIMALTTD
 70
     2
  9
$DIMTXSTY
  7
Standard
  9
$DIMAUNIT
 70
     0
  9
$DIMADEC
 70
     0
  9
$DIMALTRND
 40
0.0
  9
$DIMAZIN
 70
     0
  9
$DIMDSEP
 70
    46
  9
$DIMATFIT
 70
     3
  9
$DIMFRAC
 70
     0
  9
$DIMLDRBLK
  1

  9
$DIMLUNIT
 70
     2
  9
$DIMLWD
 70
    -2
  9
$DIMLWE
 70
    -2
  9
$DIMTMOVE
 70
     2
  9
$LUNITS
 70
     2
  9
$LUPREC
 70
     4
  9
$SKETCHINC
 40
0.1
  9
$FILLETRAD
 40
0.5
  9
$AUNITS
 70
     0
  9
$AUPREC
 70
     0
  9
$MENU
  1
.
  9
$ELEVATION
 40
0.0
  9
$PELEVATION
 40
0.0
  9
$THICKNESS
 40
0.0
  9
$LIMCHECK
 70
     0
  9
$CHAMFERA
 40
0.5
  9
$CHAMFERB
 40
0.5
  9
$CHAMFERC
 40
1.0
  9
$CHAMFERD
 40
0.0
  9
$SKPOLY
 70
     0
  9
$TDCREATE
 40
2456213.936465926
  9
$TDUCREATE
 40
2456213.853132593
  9
$TDUPDATE
 40
2456213.94293963
  9
$TDUUPDATE
 40
2456213.859606296
  9
$TDINDWG
 40
0.0064731713
  9
$TDUSRTIMER
 40
0.0064731713
  9
$USRTIMER
 70
     1
  9
$ANGBASE
 50
0.0
  9
$ANGDIR
 70
     0
  9
$PDMODE
 70
     0
  9
$PDSIZE
 40
0.0
  9
$PLINEWID
 40
0.0
  9
$SPLFRAME
 70
     0
  9
$SPLINETYPE
 70
     6
  9
$SPLINESEGS
 70
     8
  9
$HANDSEED
  5
1035
  9
$SURFTAB1
 70
     6
  9
$SURFTAB2
 70
     6
  9
$SURFTYPE
 70
     6
  9
$SURFU
 70
     6
  9
$SURFV
 70
     6
  9
$UCSBASE
  2

  9
$UCSNAME
  2

  9
$UCSORG
 10
0.0
 20
0.0
 30
0.0
  9
$UCSXDIR
 10
1.0
 20
0.0
 30
0.0
  9
$UCSYDIR
 10
0.0
 20
1.0
 30
0.0
  9
$UCSORTHOREF
  2

  9
$UCSORTHOVIEW
 70
     0
  9
$UCSORGTOP
 10
0.0
 20
0.0
 30
0.0
  9
$UCSORGBOTTOM
 10
0.0
 20
0.0
 30
0.0
  9
$UCSORGLEFT
 10
0.0
 20
0.0
 30
0.0
  9
$UCSORGRIGHT
 10
0.0
 20
0.0
 30
0.0
  9
$UCSORGFRONT
 10
0.0
 20
0.0
 30
0.0
  9
$UCSORGBACK
 10
0.0
 20
0.0
 30
0.0
  9
$PUCSBASE
  2

  9
$PUCSNAME
  2

  9
$PUCSORG
 10
0.0
 20
0.0
 30
0.0
  9
$PUCSXDIR
 10
1.0
 20
0.0
 30
0.0
  9
$PUCSYDIR
 10
0.0
 20
1.0
 30
0.0
  9
$PUCSORTHOREF
  2

  9
$PUCSORTHOVIEW
 70
     0
  9
$PUCSORGTOP
 10
0.0
 20
0.0
 30
0.0
  9
$PUCSORGBOTTOM
 10
0.0
 20
0.0
 30
0.0
  9
$PUCSORGLEFT
 10
0.0
 20
0.0
 30
0.0
  9
$PUCSORGRIGHT
 10
0.0
 20
0.0
 30
0.0
  9
$PUCSORGFRONT
 10
0.0
 20
0.0
 30
0.0
  9
$PUCSORGBACK
 10
0.0
 20
0.0
 30
0.0
  9
$USERI1
 70
     0
  9
$USERI2
 70
     0
  9
$USERI3
 70
     0
  9
$USERI4
 70
     0
  9
$USERI5
 70
     0
  9
$USERR1
 40
0.0
  9
$USERR2
 40
0.0
  9
$USERR3
 40
0.0
  9
$USERR4
 40
0.0
  9
$USERR5
 40
0.0
  9
$WORLDVIEW
 70
     1
  9
$SHADEDGE
 70
     3
  9
$SHADEDIF
 70
    70
  9
$TILEMODE
 70
     1
  9
$MAXACTVP
 70
    64
  9
$PINSBASE
 10
0.0
 20
0.0
 30
0.0
  9
$PLIMCHECK
 70
     0
  9
$PEXTMIN
 10
1.000000000000E+20
 20
1.000000000000E+20
 30
1.000000000000E+20
  9
$PEXTMAX
 10
-1.000000000000E+20
 20
-1.000000000000E+20
 30
-1.000000000000E+20
  9
$PLIMMIN
 10
0.0
 20
0.0
  9
$PLIMMAX
 10
12.0
 20
9.0
  9
$UNITMODE
 70
     0
  9
$VISRETAIN
 70
     1
  9
$PLINEGEN
 70
     0
  9
$PSLTSCALE
 70
     1
  9
$TREEDEPTH
 70
  3020
  9
$CMLSTYLE
  2
Standard
  9
$CMLJUST
 70
     0
  9
$CMLSCALE
 40
1.0
  9
$PROXYGRAPHICS
 70
     1
  9
$MEASUREMENT
 70
     0
  9
$CELWEIGHT
370
    -1
  9
$ENDCAPS
280
     0
  9
$JOINSTYLE
280
     0
  9
$LWDISPLAY
290
     0
  9
$INSUNITS
 70
     0
  9
$HYPERLINKBASE
  1

  9
$STYLESHEET
  1

  9
$XEDIT
290
     1
  9
$CEPSNTYPE
380
     0
  9
$PSTYLEMODE
290
     1
  9
$FINGERPRINTGUID
  2
{83389D6A-B279-4A4E-A1A5-21EC33CCB684}
  9
$VERSIONGUID
  2
{FAEB1C32-E019-11D5-929B-00C0DF256EC4}
  9
$EXTNAMES
290
     1
  9
$PSVPSCALE
 40
0.0
  9
$OLESTARTUP
290
     0
  0
ENDSEC
  0
SECTION
  2
CLASSES
  0
CLASS
  1
ACDBDICTIONARYWDFLT
  2
AcDbDictionaryWithDefault
  3
ObjectDBX Classes
 90
        0
280
     0
281
     0
  0
CLASS
  1
SCALE
  2
AcDbScale
  3
ObjectDBX Classes
 90
     1153
280
     0
281
     0
  0
CLASS
  1
DICTIONARYVAR
  2
AcDbDictionaryVar
  3
ObjectDBX Classes
 90
        0
280
     0
281
     0
  0
CLASS
  1
ACDBPLACEHOLDER
  2
AcDbPlaceHolder
  3
ObjectDBX Classes
 90
        0
280
     0
281
     0
  0
CLASS
  1
LAYOUT
  2
AcDbLayout
  3
ObjectDBX Classes
 90
        0
280
     0
281
     0
  0
ENDSEC
  0
SECTION
  2
TABLES
  0
TABLE
  2
VPORT
  5
8
330
0
100
AcDbSymbolTable
 70
     1
  0
VPORT
  5
C00
330
8
100
AcDbSymbolTableRecord
100
AcDbViewportTableRecord
  2
*Active
 70
     0
 10
0.0
 20
0.0
 11
1.0
 21
1.0
 12
149.9995
 22
100.5
 13
0.0
 23
0.0
 14
0.5
 24
0.5
 15
0.5
 25
0.5
 16
0.0
 26
0.0
 36
1.0
 17
0.0
 27
0.0
 37
0.0
 40
205.02
 41
1.863448275862
 42
50.0
 43
0.0
 44
0.0
 50
0.0
 51
0.0
 71
    16
 72
   100
 73
     1
 74
     3
 75
     0
 76
     0
 77
     0
 78
     0
281
     0
 65
     1
110
0.0
120
0.0
130
0.0
111
1.0
121
0.0
131
0.0
112
0.0
122
1.0
132
0.0
 79
     0
146
0.0
  0
ENDTAB
  0
TABLE
  2
LTYPE
  5
5
330
0
100
AcDbSymbolTable
 70
     1
  0
LTYPE
  5
14
330
5
100
AcDbSymbolTableRecord
100
AcDbLinetypeTableRecord
  2
ByBlock
 70
     0
  3

 72
    65
 73
     0
 40
0.0
  0
LTYPE
  5
15
330
5
100
AcDbSymbolTableRecord
100
AcDbLinetypeTableRecord
  2
ByLayer
 70
     0
  3

 72
    65
 73
     0
 40
0.0
  0
LTYPE
  5
16
330
5
100
AcDbSymbolTableRecord
100
AcDbLinetypeTableRecord
  2
Continuous
 70
     0
  3
Solid line
 72
    65
 73
     0
 40
0.0
  0
ENDTAB
  0
TABLE
  2
LAYER
  5
2
330
0
100
AcDbSymbolTable
 70
     1
  0
LAYER
  5
10
330
2
100
AcDbSymbolTableRecord
100
AcDbLayerTableRecord
  2
0
 70
     0
 62
     7
  6
Continuous
370
    -3
390
F
  0
ENDTAB
  0
TABLE
  2
STYLE
  5
3
330
0
100
AcDbSymbolTable
 70
     1
  0
STYLE
  5
11
330
3
100
AcDbSymbolTableRecord
100
AcDbTextStyleTableRecord
  2
Standard
 70
     0
 40
0.0
 41
1.0
 50
0.0
 71
     0
 42
0.2
  3
txt
  4

  0
ENDTAB
  0
TABLE
  2
VIEW
  5
6
330
0
100
AcDbSymbolTable
 70
     0
  0
ENDTAB
  0
TABLE
  2
UCS
  5
7
330
0
100
AcDbSymbolTable
 70
     0
  0
ENDTAB
  0
TABLE
  2
APPID
  5
9
330
0
100
AcDbSymbolTable
 70
     1
  0
APPID
  5
12
330
9
100
AcDbSymbolTableRecord
100
AcDbRegAppTableRecord
  2
ACAD
 70
     0
  0
ENDTAB
  0
TABLE
  2
DIMSTYLE
  5
A
330
0
100
AcDbSymbolTable
 70
     1
100
AcDbDimStyleTable
  0
DIMSTYLE
105
20
330
A
100
AcDbSymbolTableRecord
100
AcDbDimStyleTableRecord
  2
Standard
 70
     0
340
11
  0
ENDTAB
  0
TABLE
  2
BLOCK_RECORD
  5
1
330
0
100
AcDbSymbolTable
 70
     0
  0
BLOCK_RECORD
  5
1D
330
1
100
AcDbSymbolTableRecord
100
AcDbBlockTableRecord
  2
*Model_Space
340
1E
  0
BLOCK_RECORD
  5
1B
330
1
100
AcDbSymbolTableRecord
100
AcDbBlockTableRecord
  2
*Paper_Space
340
1C
  0
ENDTAB
  0
ENDSEC
  0
SECTION
  2
BLOCKS
  0
BLOCK
  5
C03
330
1D
100
AcDbEntity
  8
0
100
AcDbBlockBegin
  2
*Model_Space
 70
     0
 10
0.0
 20
0.0
 30
0.0
  3
*Model_Space
  1
*Model_Space
  0
ENDBLK
  5
C04
330
1D
100
AcDbEntity
  8
0
100
AcDbBlockEnd
  0
BLOCK
  5
C01
330
1B
100
AcDbEntity
 67
     1
  8
0
100
AcDbBlockBegin
  2
*Paper_Space
 70
     0
 10
0.0
 20
0.0
 30
0.0
  3
*Paper_Space
  1
*Paper_Space
  0
ENDBLK
  5
C02
330
1B
100
AcDbEntity
 67
     1
  8
0
100
AcDbBlockEnd
  0
ENDSEC
  0
SECTION
  2
ENTITIES
  0
LINE
  5
21
330
1D
100
AcDbEntity
  8
0
100
AcDbLine
 10
0.916
 20
13.488
 30
0.0
 11
1.196
 21
12.839
 31
0.0
  0
LINE
  5
22
330
1D
100
AcDbEntity
  8
0
100
AcDbLine
 10
1.196
 20
12.839
 30
0.0
 11
1.653
 21
12.378
 31
0.0
  0
LINE
  5
23
330
1D
100
AcDbEntity
  8
0
100
AcDbLine
 10
0.109
 20
27.899
 30
0.0
 11
0.712
 21
14.852
 31
0.0
  0
LINE
  5
28
330
1D
100
AcDbEntity
  8
0
100
AcDbLine
 10
0.109
 20
27.899
 30
0.0
 11
0.712
 21
14.852
 31
0.0
  0
LINE
  5
29
330
1D
100
AcDbEntity
  8
0
100
AcDbLine
 10
0.001
 20
34.325
 30
0.0
 11
0.109
 21
27.899
 31
0.0
  0
LINE
  5
2B
330
1D
100
AcDbEntity
  8
0
100
AcDbLine
 10
0.712
 20
14.852
 30
0.0
 11
0.916
 21
13.488
 31
0.0
  0
LINE
  5
2C
330
1D
100
AcDbEntity
  8
0
100
AcDbLine
 10
15.942
 20
8.834
 30
0.0
 11
16.0779
 21
8.814641770934
 31
0.0
  0
LINE
  5
2D
330
1D
100
AcDbEntity
  8
0
100
AcDbLine
 10
15.799
 20
8.846
 30
0.0
 11
15.942
 21
8.834
 31
0.0
  0
LINE
  5
30
330
1D
100
AcDbEntity
  8
0
100
AcDbLine
 10
16.2461
 20
7.0
 30
0.0
 11
16.8461
 21
7.0
 31
0.0
  0
LINE
  5
31
330
1D
100
AcDbEntity
  8
0
100
AcDbLine
 10
16.0779
 20
7.0
 30
0.0
 11
16.6779
 21
7.0
 31
0.0
  0
LINE
  5
32
330
1D
100
AcDbEntity
  8
0
100
AcDbLine
 10
16.0779
 20
7.0
 30
0.0
 11
16.0779
 21
8.72196391226
 31
0.0
  0
LINE
  5
33
330
1D
100
AcDbEntity
  8
0
100
AcDbLine
 10
16.8461
 20
7.0
 30
0.0
 11
18.2461
 21
7.0
 31
0.0
  0
LINE
  5
34
330
1D
100
AcDbEntity
  8
0
100
AcDbLine
 10
18.2461
 20
7.0
 30
0.0
 11
19.6461
 21
7.0
 31
0.0
  0
LINE
  5
35
330
1D
100
AcDbEntity
  8
0
100
AcDbLine
 10
18.0779
 20
7.0
 30
0.0
 11
19.4779
 21
7.0
 31
0.0
  0
LINE
  5
36
330
1D
100
AcDbEntity
  8
0
100
AcDbLine
 10
16.6779
 20
7.0
 30
0.0
 11
18.0779
 21
7.0
 31
0.0
  0
LINE
  5
37
330
1D
100
AcDbEntity
  8
0
100
AcDbLine
 10
18.2461
 20
7.0
 30
0.0
 11
19.6461
 21
7.0
 31
0.0
  0
LINE
  5
3A
330
1D
100
AcDbEntity
  8
0
100
AcDbLine
 10
16.8461
 20
7.0
 30
0.0
 11
18.2461
 21
7.0
 31
0.0
  0
LINE
  5
3C
330
1D
100
AcDbEntity
  8
0
100
AcDbLine
 10
16.2461
 20
7.0
 30
0.0
 11
16.8461
 21
7.0
 31
0.0
  0
LINE
  5
3E
330
1D
100
AcDbEntity
  8
0
100
AcDbLine
 10
16.0779
 20
8.72196391226
 30
0.0
 11
16.0779
 21
7.0
 31
0.0
  0
LINE
  5
41
330
1D
100
AcDbEntity
  8
0
100
AcDbLine
 10
16.083
 20
8.721
 30
0.0
 11
16.2461
 21
8.695193037975
 31
0.0
  0
LINE
  5
42
330
1D
100
AcDbEntity
  8
0
100
AcDbLine
 10
16.057
 20
8.791
 30
0.0
 11
16.2461
 21
8.758032775453
 31
0.0
  0
LINE
  5
43
330
1D
100
AcDbEntity
  8
0
100
AcDbLine
 10
18.299
 20
8.787
 30
0.0
 11
18.797
 21
8.765
 31
0.0
  0
LINE
  5
44
330
1D
100
AcDbEntity
  8
0
100
AcDbLine
 10
18.299
 20
8.787
 30
0.0
 11
18.6845
 21
8.686275534442
 31
0.0
  0
LINE
  5
45
330
1D
100
AcDbEntity
  8
0
100
AcDbLine
 10
16.981
 20
8.686
 30
0.0
 11
18.63
 21
8.438
 31
0.0
  0
LINE
  5
46
330
1D
100
AcDbEntity
  8
0
100
AcDbLine
 10
15.942
 20
8.834
 30
0.0
 11
16.981
 21
8.686
 31
0.0
  0
LINE
  5
47
330
1D
100
AcDbEntity
  8
0
100
AcDbLine
 10
12.755
 20
9.35
 30
0.0
 11
16.2461
 21
8.755844140333
 31
0.0
  0
LINE
  5
4D
330
1D
100
AcDbEntity
  8
0
100
AcDbLine
 10
15.799
 20
8.846
 30
0.0
 11
15.942
 21
8.834
 31
0.0
  0
LINE
  5
4E
330
1D
100
AcDbEntity
  8
0
100
AcDbLine
 10
15.799
 20
8.846
 30
0.0
 11
16.057
 21
8.791
 31
0.0
  0
LINE
  5
4F
330
1D
100
AcDbEntity
  8
0
100
AcDbLine
 10
47.3239
 20
3.0
 30
0.0
 11
48.7239
 21
3.0
 31
0.0
  0
LINE
  5
50
330
1D
100
AcDbEntity
  8
0
100
AcDbLine
 10
47.3239
 20
3.0
 30
0.0
 11
48.7239
 21
3.0
 31
0.0
  0
LINE
  5
51
330
1D
100
AcDbEntity
  8
0
100
AcDbLine
 10
46.7239
 20
3.0
 30
0.0
 11
47.3239
 21
3.0
 31
0.0
  0
LINE
  5
52
330
1D
100
AcDbEntity
  8
0
100
AcDbLine
 10
46.7239
 20
3.0
 30
0.0
 11
47.3239
 21
3.0
 31
0.0
  0
LINE
  5
53
330
1D
100
AcDbEntity
  8
0
100
AcDbLine
 10
46.7239
 20
3.0
 30
0.0
 11
46.7239
 21
3.44
 31
0.0
  0
LINE
  5
54
330
1D
100
AcDbEntity
  8
0
100
AcDbLine
 10
48.7239
 20
3.0
 30
0.0
 11
50.1239
 21
3.0
 31
0.0
  0
LINE
  5
55
330
1D
100
AcDbEntity
  8
0
100
AcDbLine
 10
50.1239
 20
3.0
 30
0.0
 11
50.7239
 21
3.0
 31
0.0
  0
LINE
  5
56
330
1D
100
AcDbEntity
  8
0
100
AcDbLine
 10
50.1239
 20
3.0
 30
0.0
 11
50.7239
 21
3.0
 31
0.0
  0
LINE
  5
57
330
1D
100
AcDbEntity
  8
0
100
AcDbLine
 10
48.7239
 20
3.0
 30
0.0
 11
50.1239
 21
3.0
 31
0.0
  0
LINE
  5
58
330
1D
100
AcDbEntity
  8
0
100
AcDbLine
 10
48.7239
 20
3.0
 30
0.0
 11
50.1239
 21
3.0
 31
0.0
  0
LINE
  5
59
330
1D
100
AcDbEntity
  8
0
100
AcDbLine
 10
58.4069
 20
2.0
 30
0.0
 11
59.0069
 21
2.0
 31
0.0
  0
LINE
  5
5A
330
1D
100
AcDbEntity
  8
0
100
AcDbLine
 10
58.4069
 20
2.0
 30
0.0
 11
58.4069
 21
3.969012037833
 31
0.0
  0
LINE
  5
5B
330
1D
100
AcDbEntity
  8
0
100
AcDbLine
 10
59.0069
 20
2.0
 30
0.0
 11
60.4069
 21
2.0
 31
0.0
  0
LINE
  5
5C
330
1D
100
AcDbEntity
  8
0
100
AcDbLine
 10
59.0069
 20
2.0
 30
0.0
 11
60.4069
 21
2.0
 31
0.0
  0
LINE
  5
5D
330
1D
100
AcDbEntity
  8
0
100
AcDbLine
 10
59.0069
 20
2.0
 30
0.0
 11
60.4069
 21
2.0
 31
0.0
  0
LINE
  5
5F
330
1D
100
AcDbEntity
  8
0
100
AcDbLine
 10
58.4069
 20
2.0
 30
0.0
 11
59.0069
 21
2.0
 31
0.0
  0
LINE
  5
60
330
1D
100
AcDbEntity
  8
0
100
AcDbLine
 10
58.4069
 20
2.0
 30
0.0
 11
59.0069
 21
2.0
 31
0.0
  0
LINE
  5
61
330
1D
100
AcDbEntity
  8
0
100
AcDbLine
 10
58.4069
 20
2.0
 30
0.0
 11
58.4069
 21
3.998441378016
 31
0.0
  0
LINE
  5
62
330
1D
100
AcDbEntity
  8
0
100
AcDbLine
 10
50.7239
 20
3.0
 30
0.0
 11
50.7239
 21
4.0
 31
0.0
  0
LINE
  5
63
330
1D
100
AcDbEntity
  8
0
100
AcDbLine
 10
50.1239
 20
3.0
 30
0.0
 11
50.7239
 21
3.0
 31
0.0
  0
LINE
  5
65
330
1D
100
AcDbEntity
  8
0
100
AcDbLine
 10
48.7239
 20
3.0
 30
0.0
 11
50.1239
 21
3.0
 31
0.0
  0
LINE
  5
67
330
1D
100
AcDbEntity
  8
0
100
AcDbLine
 10
47.3239
 20
3.0
 30
0.0
 11
48.7239
 21
3.0
 31
0.0
  0
LINE
  5
68
330
1D
100
AcDbEntity
  8
0
100
AcDbLine
 10
47.3239
 20
3.0
 30
0.0
 11
48.7239
 21
3.0
 31
0.0
  0
LINE
  5
6A
330
1D
100
AcDbEntity
  8
0
100
AcDbLine
 10
46.7239
 20
3.0
 30
0.0
 11
47.3239
 21
3.0
 31
0.0
  0
LINE
  5
6B
330
1D
100
AcDbEntity
  8
0
100
AcDbLine
 10
46.7239
 20
3.0
 30
0.0
 11
46.7239
 21
5.251746678024
 31
0.0
  0
LINE
  5
6C
330
1D
100
AcDbEntity
  8
0
100
AcDbLine
 10
60.4069
 20
2.0
 30
0.0
 11
61.8069
 21
2.0
 31
0.0
  0
LINE
  5
6D
330
1D
100
AcDbEntity
  8
0
100
AcDbLine
 10
61.8069
 20
2.0
 30
0.0
 11
62.4069
 21
2.0
 31
0.0
  0
LINE
  5
6E
330
1D
100
AcDbEntity
  8
0
100
AcDbLine
 10
60.4069
 20
2.0
 30
0.0
 11
61.8069
 21
2.0
 31
0.0
  0
LINE
  5
6F
330
1D
100
AcDbEntity
  8
0
100
AcDbLine
 10
61.8069
 20
2.0
 30
0.0
 11
62.4069
 21
2.0
 31
0.0
  0
LINE
  5
70
330
1D
100
AcDbEntity
  8
0
100
AcDbLine
 10
62.4069
 20
2.0
 30
0.0
 11
62.4069
 21
3.0
 31
0.0
  0
LINE
  5
71
330
1D
100
AcDbEntity
  8
0
100
AcDbLine
 10
61.8069
 20
2.0
 30
0.0
 11
62.4069
 21
2.0
 31
0.0
  0
LINE
  5
73
330
1D
100
AcDbEntity
  8
0
100
AcDbLine
 10
63.026
 20
3.0
 30
0.0
 11
63.626
 21
3.0
 31
0.0
  0
LINE
  5
74
330
1D
100
AcDbEntity
  8
0
100
AcDbLine
 10
62.4069
 20
3.0
 30
0.0
 11
63.026
 21
3.0
 31
0.0
  0
LINE
  5
75
330
1D
100
AcDbEntity
  8
0
100
AcDbLine
 10
60.4069
 20
2.0
 30
0.0
 11
61.8069
 21
2.0
 31
0.0
  0
LINE
  5
77
330
1D
100
AcDbEntity
  8
0
100
AcDbLine
 10
60.226
 20
3.0
 30
0.0
 11
61.626
 21
3.0
 31
0.0
  0
LINE
  5
78
330
1D
100
AcDbEntity
  8
0
100
AcDbLine
 10
61.626
 20
3.0
 30
0.0
 11
63.026
 21
3.0
 31
0.0
  0
LINE
  5
79
330
1D
100
AcDbEntity
  8
0
100
AcDbLine
 10
66.4366
 20
3.0
 30
0.0
 11
67.8366
 21
3.0
 31
0.0
  0
LINE
  5
7A
330
1D
100
AcDbEntity
  8
0
100
AcDbLine
 10
66.4366
 20
3.0
 30
0.0
 11
67.8366
 21
3.0
 31
0.0
  0
LINE
  5
7B
330
1D
100
AcDbEntity
  8
0
100
AcDbLine
 10
65.8366
 20
3.0
 30
0.0
 11
66.4366
 21
3.0
 31
0.0
  0
LINE
  5
7C
330
1D
100
AcDbEntity
  8
0
100
AcDbLine
 10
65.8366
 20
3.0
 30
0.0
 11
66.4366
 21
3.0
 31
0.0
  0
LINE
  5
7D
330
1D
100
AcDbEntity
  8
0
100
AcDbLine
 10
65.8366
 20
3.0
 30
0.0
 11
65.8366
 21
3.656643160942
 31
0.0
  0
LINE
  5
7E
330
1D
100
AcDbEntity
  8
0
100
AcDbLine
 10
63.626
 20
3.0
 30
0.0
 11
63.626
 21
4.271482536962
 31
0.0
  0
LINE
  5
7F
330
1D
100
AcDbEntity
  8
0
100
AcDbLine
 10
63.026
 20
3.0
 30
0.0
 11
63.626
 21
3.0
 31
0.0
  0
LINE
  5
80
330
1D
100
AcDbEntity
  8
0
100
AcDbLine
 10
62.4069
 20
3.0
 30
0.0
 11
62.4069
 21
2.0
 31
0.0
  0
LINE
  5
83
330
1D
100
AcDbEntity
  8
0
100
AcDbLine
 10
63.026
 20
3.0
 30
0.0
 11
63.626
 21
3.0
 31
0.0
  0
LINE
  5
85
330
1D
100
AcDbEntity
  8
0
100
AcDbLine
 10
61.626
 20
3.0
 30
0.0
 11
63.026
 21
3.0
 31
0.0
  0
LINE
  5
87
330
1D
100
AcDbEntity
  8
0
100
AcDbLine
 10
60.226
 20
3.0
 30
0.0
 11
61.626
 21
3.0
 31
0.0
  0
LINE
  5
89
330
1D
100
AcDbEntity
  8
0
100
AcDbLine
 10
59.626
 20
3.0
 30
0.0
 11
60.226
 21
3.0
 31
0.0
  0
LINE
  5
8A
330
1D
100
AcDbEntity
  8
0
100
AcDbLine
 10
59.626
 20
3.0
 30
0.0
 11
60.226
 21
3.0
 31
0.0
  0
LINE
  5
8B
330
1D
100
AcDbEntity
  8
0
100
AcDbLine
 10
59.626
 20
3.0
 30
0.0
 11
59.626
 21
4.444888326069
 31
0.0
  0
LINE
  5
8C
330
1D
100
AcDbEntity
  8
0
100
AcDbLine
 10
69.2366
 20
3.0
 30
0.0
 11
69.8366
 21
3.0
 31
0.0
  0
LINE
  5
8D
330
1D
100
AcDbEntity
  8
0
100
AcDbLine
 10
67.8366
 20
3.0
 30
0.0
 11
69.2366
 21
3.0
 31
0.0
  0
LINE
  5
8E
330
1D
100
AcDbEntity
  8
0
100
AcDbLine
 10
69.2366
 20
3.0
 30
0.0
 11
69.8366
 21
3.0
 31
0.0
  0
LINE
  5
8F
330
1D
100
AcDbEntity
  8
0
100
AcDbLine
 10
67.8366
 20
3.0
 30
0.0
 11
69.2366
 21
3.0
 31
0.0
  0
LINE
  5
90
330
1D
100
AcDbEntity
  8
0
100
AcDbLine
 10
69.8366
 20
3.0
 30
0.0
 11
69.8366
 21
4.963767172023
 31
0.0
  0
LINE
  5
91
330
1D
100
AcDbEntity
  8
0
100
AcDbLine
 10
69.2366
 20
3.0
 30
0.0
 11
69.8366
 21
3.0
 31
0.0
  0
LINE
  5
93
330
1D
100
AcDbEntity
  8
0
100
AcDbLine
 10
67.8366
 20
3.0
 30
0.0
 11
69.2366
 21
3.0
 31
0.0
  0
LINE
  5
95
330
1D
100
AcDbEntity
  8
0
100
AcDbLine
 10
66.4366
 20
3.0
 30
0.0
 11
67.8366
 21
3.0
 31
0.0
  0
LINE
  5
97
330
1D
100
AcDbEntity
  8
0
100
AcDbLine
 10
46.7239
 20
3.44
 30
0.0
 11
46.7239
 21
3.0
 31
0.0
  0
LINE
  5
98
330
1D
100
AcDbEntity
  8
0
100
AcDbLine
 10
46.444
 20
3.44
 30
0.0
 11
46.7239
 21
3.44
 31
0.0
  0
LINE
  5
99
330
1D
100
AcDbEntity
  8
0
100
AcDbLine
 10
46.444
 20
3.44
 30
0.0
 11
46.444
 21
5.130518314297
 31
0.0
  0
LINE
  5
9A
330
1D
100
AcDbEntity
  8
0
100
AcDbLine
 10
45.844
 20
3.44
 30
0.0
 11
46.444
 21
3.44
 31
0.0
  0
LINE
  5
9B
330
1D
100
AcDbEntity
  8
0
100
AcDbLine
 10
45.844
 20
3.44
 30
0.0
 11
45.844
 21
5.165365771812
 31
0.0
  0
LINE
  5
9C
330
1D
100
AcDbEntity
  8
0
100
AcDbLine
 10
65.8366
 20
3.0
 30
0.0
 11
66.4366
 21
3.0
 31
0.0
  0
LINE
  5
9D
330
1D
100
AcDbEntity
  8
0
100
AcDbLine
 10
65.8366
 20
3.0
 30
0.0
 11
65.8366
 21
5.0
 31
0.0
  0
LINE
  5
9E
330
1D
100
AcDbEntity
  8
0
100
AcDbLine
 10
72.0107
 20
1.0
 30
0.0
 11
73.4107
 21
1.0
 31
0.0
  0
LINE
  5
9F
330
1D
100
AcDbEntity
  8
0
100
AcDbLine
 10
72.0107
 20
1.0
 30
0.0
 11
73.4107
 21
1.0
 31
0.0
  0
LINE
  5
A1
330
1D
100
AcDbEntity
  8
0
100
AcDbLine
 10
71.4107
 20
1.0
 30
0.0
 11
72.0107
 21
1.0
 31
0.0
  0
LINE
  5
A2
330
1D
100
AcDbEntity
  8
0
100
AcDbLine
 10
71.4107
 20
1.0
 30
0.0
 11
72.0107
 21
1.0
 31
0.0
  0
LINE
  5
A3
330
1D
100
AcDbEntity
  8
0
100
AcDbLine
 10
71.4107
 20
1.0
 30
0.0
 11
71.4107
 21
3.476948327931
 31
0.0
  0
LINE
  5
A4
330
1D
100
AcDbEntity
  8
0
100
AcDbLine
 10
73.4107
 20
1.0
 30
0.0
 11
74.8107
 21
1.0
 31
0.0
  0
LINE
  5
A5
330
1D
100
AcDbEntity
  8
0
100
AcDbLine
 10
73.4107
 20
1.0
 30
0.0
 11
74.8107
 21
1.0
 31
0.0
  0
LINE
  5
A7
330
1D
100
AcDbEntity
  8
0
100
AcDbLine
 10
72.6202
 20
2.0
 30
0.0
 11
74.0202
 21
2.0
 31
0.0
  0
LINE
  5
AB
330
1D
100
AcDbEntity
  8
0
100
AcDbLine
 10
71.4107
 20
3.476948327931
 30
0.0
 11
71.4107
 21
1.0
 31
0.0
  0
LINE
  5
AC
330
1D
100
AcDbEntity
  8
0
100
AcDbLine
 10
72.0202
 20
2.0
 30
0.0
 11
72.6202
 21
2.0
 31
0.0
  0
LINE
  5
AD
330
1D
100
AcDbEntity
  8
0
100
AcDbLine
 10
72.0202
 20
2.0
 30
0.0
 11
72.0202
 21
3.67225046799
 31
0.0
  0
LINE
  5
AE
330
1D
100
AcDbEntity
  8
0
100
AcDbLine
 10
71.1509
 20
3.471
 30
0.0
 11
72.0202
 21
3.451422640943
 31
0.0
  0
LINE
  5
AF
330
1D
100
AcDbEntity
  8
0
100
AcDbLine
 10
71.1509
 20
3.471
 30
0.0
 11
71.4107
 21
3.465149087906
 31
0.0
  0
LINE
  5
B0
330
1D
100
AcDbEntity
  8
0
100
AcDbLine
 10
70.7416
 20
3.48
 30
0.0
 11
71.1509
 21
3.471
 31
0.0
  0
LINE
  5
B1
330
1D
100
AcDbEntity
  8
0
100
AcDbLine
 10
70.5997
 20
3.483
 30
0.0
 11
70.7416
 21
3.48
 31
0.0
  0
LINE
  5
B2
330
1D
100
AcDbEntity
  8
0
100
AcDbLine
 10
52.3589
 20
4.0
 30
0.0
 11
52.9589
 21
4.0
 31
0.0
  0
LINE
  5
B3
330
1D
100
AcDbEntity
  8
0
100
AcDbLine
 10
50.9589
 20
4.0
 30
0.0
 11
52.3589
 21
4.0
 31
0.0
  0
LINE
  5
B4
330
1D
100
AcDbEntity
  8
0
100
AcDbLine
 10
50.7239
 20
4.0
 30
0.0
 11
50.9589
 21
4.0
 31
0.0
  0
LINE
  5
B5
330
1D
100
AcDbEntity
  8
0
100
AcDbLine
 10
52.9589
 20
4.0
 30
0.0
 11
52.9589
 21
5.412807320907
 31
0.0
  0
LINE
  5
B6
330
1D
100
AcDbEntity
  8
0
100
AcDbLine
 10
52.3589
 20
4.0
 30
0.0
 11
52.9589
 21
4.0
 31
0.0
  0
LINE
  5
B8
330
1D
100
AcDbEntity
  8
0
100
AcDbLine
 10
50.9589
 20
4.0
 30
0.0
 11
52.3589
 21
4.0
 31
0.0
  0
LINE
  5
BA
330
1D
100
AcDbEntity
  8
0
100
AcDbLine
 10
49.5589
 20
4.0
 30
0.0
 11
50.9589
 21
4.0
 31
0.0
  0
LINE
  5
BC
330
1D
100
AcDbEntity
  8
0
100
AcDbLine
 10
50.7239
 20
4.0
 30
0.0
 11
50.7239
 21
3.0
 31
0.0
  0
LINE
  5
BE
330
1D
100
AcDbEntity
  8
0
100
AcDbLine
 10
48.9589
 20
4.0
 30
0.0
 11
49.5589
 21
4.0
 31
0.0
  0
LINE
  5
BF
330
1D
100
AcDbEntity
  8
0
100
AcDbLine
 10
48.9589
 20
4.0
 30
0.0
 11
48.9589
 21
5.5
 31
0.0
  0
LINE
  5
C0
330
1D
100
AcDbEntity
  8
0
100
AcDbLine
 10
56.1935
 20
4.0
 30
0.0
 11
57.5935
 21
4.0
 31
0.0
  0
LINE
  5
C1
330
1D
100
AcDbEntity
  8
0
100
AcDbLine
 10
55.5935
 20
4.0
 30
0.0
 11
56.1935
 21
4.0
 31
0.0
  0
LINE
  5
C2
330
1D
100
AcDbEntity
  8
0
100
AcDbLine
 10
55.5935
 20
4.0
 30
0.0
 11
55.5935
 21
4.115579583927
 31
0.0
  0
LINE
  5
C3
330
1D
100
AcDbEntity
  8
0
100
AcDbLine
 10
57.5935
 20
4.0
 30
0.0
 11
57.727188793104
 21
4.0
 31
0.0
  0
LINE
  5
C4
330
1D
100
AcDbEntity
  8
0
100
AcDbLine
 10
57.5935
 20
4.0
 30
0.0
 11
58.9935
 21
4.0
 31
0.0
  0
LINE
  5
C6
330
1D
100
AcDbEntity
  8
0
100
AcDbLine
 10
56.1935
 20
4.0
 30
0.0
 11
57.5935
 21
4.0
 31
0.0
  0
LINE
  5
C8
330
1D
100
AcDbEntity
  8
0
100
AcDbLine
 10
55.5935
 20
4.0
 30
0.0
 11
56.1935
 21
4.0
 31
0.0
  0
LINE
  5
C9
330
1D
100
AcDbEntity
  8
0
100
AcDbLine
 10
55.5935
 20
4.0
 30
0.0
 11
55.5935
 21
6.361654082858
 31
0.0
  0
LINE
  5
CC
330
1D
100
AcDbEntity
  8
0
100
AcDbLine
 10
58.4069
 20
3.969012037833
 30
0.0
 11
58.4069
 21
2.0
 31
0.0
  0
LINE
  5
CF
330
1D
100
AcDbEntity
  8
0
100
AcDbLine
 10
59.2603
 20
3.968
 30
0.0
 11
59.626
 21
3.951907084931
 31
0.0
  0
LINE
  5
D0
330
1D
100
AcDbEntity
  8
0
100
AcDbLine
 10
58.4069
 20
3.998441378016
 30
0.0
 11
58.4069
 21
2.0
 31
0.0
  0
LINE
  5
D1
330
1D
100
AcDbEntity
  8
0
100
AcDbLine
 10
59.5935
 20
4.0
 30
0.0
 11
59.5935
 21
6.157513468678
 31
0.0
  0
LINE
  5
D2
330
1D
100
AcDbEntity
  8
0
100
AcDbLine
 10
58.9935
 20
4.0
 30
0.0
 11
59.5935
 21
4.0
 31
0.0
  0
LINE
  5
D4
330
1D
100
AcDbEntity
  8
0
100
AcDbLine
 10
58.363205263158
 20
4.0
 30
0.0
 11
59.2603
 21
3.968
 31
0.0
  0
LINE
  5
D8
330
1D
100
AcDbEntity
  8
0
100
AcDbLine
 10
55.5935
 20
4.115579583927
 30
0.0
 11
55.5935
 21
4.0
 31
0.0
  0
LINE
  5
D9
330
1D
100
AcDbEntity
  8
0
100
AcDbLine
 10
54.677625257575
 20
4.165191515152
 30
0.0
 11
55.5935
 21
4.115579583927
 31
0.0
  0
LINE
  5
DA
330
1D
100
AcDbEntity
  8
0
100
AcDbLine
 10
54.677625257575
 20
4.165191515152
 30
0.0
 11
55.5935
 21
4.115579583927
 31
0.0
  0
LINE
  5
DB
330
1D
100
AcDbEntity
  8
0
100
AcDbLine
 10
63.626
 20
4.099291562029
 30
0.0
 11
64.3966
 21
4.108
 31
0.0
  0
LINE
  5
DD
330
1D
100
AcDbEntity
  8
0
100
AcDbLine
 10
54.6625
 20
4.166
 30
0.0
 11
55.5935
 21
4.116235598292
 31
0.0
  0
LINE
  5
DE
330
1D
100
AcDbEntity
  8
0
100
AcDbLine
 10
63.626
 20
3.737232603024
 30
0.0
 11
65.8366
 21
3.656643160942
 31
0.0
  0
LINE
  5
DF
330
1D
100
AcDbEntity
  8
0
100
AcDbLine
 10
69.8366
 20
3.510819507488
 30
0.0
 11
70.5997
 21
3.483
 31
0.0
  0
LINE
  5
E0
330
1D
100
AcDbEntity
  8
0
100
AcDbLine
 10
64.0649
 20
4.237
 30
0.0
 11
64.5998
 21
4.143
 31
0.0
  0
LINE
  5
E1
330
1D
100
AcDbEntity
  8
0
100
AcDbLine
 10
72.0107
 20
3.598071031862
 30
0.0
 11
72.0107
 21
3.671752527143
 31
0.0
  0
LINE
  5
E2
330
1D
100
AcDbEntity
  8
0
100
AcDbLine
 10
71.7419
 20
3.613
 30
0.0
 11
72.0202
 21
3.59754340836
 31
0.0
  0
LINE
  5
E3
330
1D
100
AcDbEntity
  8
0
100
AcDbLine
 10
65.8366
 20
3.656643160942
 30
0.0
 11
65.8366
 21
3.0
 31
0.0
  0
LINE
  5
E4
330
1D
100
AcDbEntity
  8
0
100
AcDbLine
 10
72.0107
 20
3.671752527143
 30
0.0
 11
72.0107
 21
3.598071031862
 31
0.0
  0
LINE
  5
E5
330
1D
100
AcDbEntity
  8
0
100
AcDbLine
 10
72.0202
 20
3.67225046799
 30
0.0
 11
72.0202
 21
2.0
 31
0.0
  0
LINE
  5
E7
330
1D
100
AcDbEntity
  8
0
100
AcDbLine
 10
72.0345
 20
3.673
 30
0.0
 11
73.4346
 21
3.666
 31
0.0
  0
LINE
  5
E8
330
1D
100
AcDbEntity
  8
0
100
AcDbLine
 10
71.5003
 20
3.645
 30
0.0
 11
71.7419
 21
3.613
 31
0.0
  0
LINE
  5
E9
330
1D
100
AcDbEntity
  8
0
100
AcDbLine
 10
71.5003
 20
3.645
 30
0.0
 11
72.0345
 21
3.673
 31
0.0
  0
LINE
  5
EA
330
1D
100
AcDbEntity
  8
0
100
AcDbLine
 10
64.3966
 20
4.108
 30
0.0
 11
64.5998
 21
4.143
 31
0.0
  0
LINE
  5
EB
330
1D
100
AcDbEntity
  8
0
100
AcDbLine
 10
69.8366
 20
3.513209386925
 30
0.0
 11
70.5997
 21
3.483
 31
0.0
  0
LINE
  5
EC
330
1D
100
AcDbEntity
  8
0
100
AcDbLine
 10
63.626
 20
3.737232603024
 30
0.0
 11
65.8366
 21
3.656643160942
 31
0.0
  0
LINE
  5
ED
330
1D
100
AcDbEntity
  8
0
100
AcDbLine
 10
69.8366
 20
3.510819507488
 30
0.0
 11
70.5997
 21
3.483
 31
0.0
  0
LINE
  5
EE
330
1D
100
AcDbEntity
  8
0
100
AcDbLine
 10
75.4107
 20
1.0
 30
0.0
 11
75.4107
 21
2.0
 31
0.0
  0
LINE
  5
EF
330
1D
100
AcDbEntity
  8
0
100
AcDbLine
 10
74.8107
 20
1.0
 30
0.0
 11
75.4107
 21
1.0
 31
0.0
  0
LINE
  5
F0
330
1D
100
AcDbEntity
  8
0
100
AcDbLine
 10
75.4202
 20
2.0
 30
0.0
 11
76.0202
 21
2.0
 31
0.0
  0
LINE
  5
F1
330
1D
100
AcDbEntity
  8
0
100
AcDbLine
 10
75.4202
 20
2.0
 30
0.0
 11
76.0202
 21
2.0
 31
0.0
  0
LINE
  5
F2
330
1D
100
AcDbEntity
  8
0
100
AcDbLine
 10
74.8107
 20
1.0
 30
0.0
 11
75.4107
 21
1.0
 31
0.0
  0
LINE
  5
F4
330
1D
100
AcDbEntity
  8
0
100
AcDbLine
 10
75.9245
 20
2.0
 30
0.0
 11
76.5245
 21
2.0
 31
0.0
  0
LINE
  5
F5
330
1D
100
AcDbEntity
  8
0
100
AcDbLine
 10
75.9245
 20
2.0
 30
0.0
 11
76.5245
 21
2.0
 31
0.0
  0
LINE
  5
F6
330
1D
100
AcDbEntity
  8
0
100
AcDbLine
 10
75.4202
 20
2.0
 30
0.0
 11
76.0202
 21
2.0
 31
0.0
  0
LINE
  5
F7
330
1D
100
AcDbEntity
  8
0
100
AcDbLine
 10
75.4202
 20
2.0
 30
0.0
 11
75.4202
 21
3.61784043412
 31
0.0
  0
LINE
  5
F8
330
1D
100
AcDbEntity
  8
0
100
AcDbLine
 10
75.4107
 20
2.0
 30
0.0
 11
75.4107
 21
1.0
 31
0.0
  0
LINE
  5
FA
330
1D
100
AcDbEntity
  8
0
100
AcDbLine
 10
74.0202
 20
2.0
 30
0.0
 11
75.4202
 21
2.0
 31
0.0
  0
LINE
  5
FC
330
1D
100
AcDbEntity
  8
0
100
AcDbLine
 10
76.5245
 20
2.0
 30
0.0
 11
77.9245
 21
2.0
 31
0.0
  0
LINE
  5
FD
330
1D
100
AcDbEntity
  8
0
100
AcDbLine
 10
76.5245
 20
2.0
 30
0.0
 11
77.9245
 21
2.0
 31
0.0
  0
LINE
  5
FE
330
1D
100
AcDbEntity
  8
0
100
AcDbLine
 10
77.9245
 20
2.0
 30
0.0
 11
79.3245
 21
2.0
 31
0.0
  0
LINE
  5
FF
330
1D
100
AcDbEntity
  8
0
100
AcDbLine
 10
77.9245
 20
2.0
 30
0.0
 11
79.3245
 21
2.0
 31
0.0
  0
LINE
  5
100
330
1D
100
AcDbEntity
  8
0
100
AcDbLine
 10
76.5245
 20
2.0
 30
0.0
 11
77.9245
 21
2.0
 31
0.0
  0
LINE
  5
101
330
1D
100
AcDbEntity
  8
0
100
AcDbLine
 10
77.9245
 20
2.0
 30
0.0
 11
79.3245
 21
2.0
 31
0.0
  0
LINE
  5
102
330
1D
100
AcDbEntity
  8
0
100
AcDbLine
 10
79.3245
 20
2.0
 30
0.0
 11
79.9245
 21
2.0
 31
0.0
  0
LINE
  5
103
330
1D
100
AcDbEntity
  8
0
100
AcDbLine
 10
79.3245
 20
2.0
 30
0.0
 11
79.9245
 21
2.0
 31
0.0
  0
LINE
  5
104
330
1D
100
AcDbEntity
  8
0
100
AcDbLine
 10
79.9245
 20
2.0
 30
0.0
 11
79.9245
 21
4.157664050235
 31
0.0
  0
LINE
  5
105
330
1D
100
AcDbEntity
  8
0
100
AcDbLine
 10
79.3245
 20
2.0
 30
0.0
 11
79.9245
 21
2.0
 31
0.0
  0
LINE
  5
106
330
1D
100
AcDbEntity
  8
0
100
AcDbLine
 10
79.3245
 20
2.0
 30
0.0
 11
79.9245
 21
2.0
 31
0.0
  0
LINE
  5
108
330
1D
100
AcDbEntity
  8
0
100
AcDbLine
 10
77.9245
 20
2.0
 30
0.0
 11
79.3245
 21
2.0
 31
0.0
  0
LINE
  5
10A
330
1D
100
AcDbEntity
  8
0
100
AcDbLine
 10
76.5245
 20
2.0
 30
0.0
 11
77.9245
 21
2.0
 31
0.0
  0
LINE
  5
10C
330
1D
100
AcDbEntity
  8
0
100
AcDbLine
 10
75.9245
 20
2.0
 30
0.0
 11
76.5245
 21
2.0
 31
0.0
  0
LINE
  5
10D
330
1D
100
AcDbEntity
  8
0
100
AcDbLine
 10
75.9245
 20
2.0
 30
0.0
 11
76.5245
 21
2.0
 31
0.0
  0
LINE
  5
10E
330
1D
100
AcDbEntity
  8
0
100
AcDbLine
 10
75.9245
 20
2.0
 30
0.0
 11
75.9245
 21
4.0
 31
0.0
  0
LINE
  5
112
330
1D
100
AcDbEntity
  8
0
100
AcDbLine
 10
79.9245
 20
3.100606960227
 30
0.0
 11
80.3168
 21
2.827
 31
0.0
  0
LINE
  5
115
330
1D
100
AcDbEntity
  8
0
100
AcDbLine
 10
80.3168
 20
2.827
 30
0.0
 11
84.3128
 21
2.75276929911
 31
0.0
  0
LINE
  5
117
330
1D
100
AcDbEntity
  8
0
100
AcDbLine
 10
86.3128
 20
1.0
 30
0.0
 11
87.7128
 21
1.0
 31
0.0
  0
LINE
  5
118
330
1D
100
AcDbEntity
  8
0
100
AcDbLine
 10
84.9128
 20
1.0
 30
0.0
 11
86.3128
 21
1.0
 31
0.0
  0
LINE
  5
119
330
1D
100
AcDbEntity
  8
0
100
AcDbLine
 10
86.3128
 20
1.0
 30
0.0
 11
87.7128
 21
1.0
 31
0.0
  0
LINE
  5
11A
330
1D
100
AcDbEntity
  8
0
100
AcDbLine
 10
84.9128
 20
1.0
 30
0.0
 11
86.3128
 21
1.0
 31
0.0
  0
LINE
  5
11B
330
1D
100
AcDbEntity
  8
0
100
AcDbLine
 10
84.3128
 20
1.0
 30
0.0
 11
84.9128
 21
1.0
 31
0.0
  0
LINE
  5
11C
330
1D
100
AcDbEntity
  8
0
100
AcDbLine
 10
84.3128
 20
1.0
 30
0.0
 11
84.9128
 21
1.0
 31
0.0
  0
LINE
  5
11D
330
1D
100
AcDbEntity
  8
0
100
AcDbLine
 10
84.3128
 20
1.0
 30
0.0
 11
84.3128
 21
2.75025513086
 31
0.0
  0
LINE
  5
11E
330
1D
100
AcDbEntity
  8
0
100
AcDbLine
 10
84.9128
 20
1.0
 30
0.0
 11
86.3128
 21
1.0
 31
0.0
  0
LINE
  5
11F
330
1D
100
AcDbEntity
  8
0
100
AcDbLine
 10
86.3128
 20
1.0
 30
0.0
 11
87.7128
 21
1.0
 31
0.0
  0
LINE
  5
120
330
1D
100
AcDbEntity
  8
0
100
AcDbLine
 10
84.3128
 20
2.75025513086
 30
0.0
 11
84.3128
 21
1.0
 31
0.0
  0
LINE
  5
121
330
1D
100
AcDbEntity
  8
0
100
AcDbLine
 10
86.3128
 20
1.0
 30
0.0
 11
87.7128
 21
1.0
 31
0.0
  0
LINE
  5
123
330
1D
100
AcDbEntity
  8
0
100
AcDbLine
 10
84.9128
 20
1.0
 30
0.0
 11
86.3128
 21
1.0
 31
0.0
  0
LINE
  5
125
330
1D
100
AcDbEntity
  8
0
100
AcDbLine
 10
84.3128
 20
1.0
 30
0.0
 11
84.9128
 21
1.0
 31
0.0
  0
LINE
  5
126
330
1D
100
AcDbEntity
  8
0
100
AcDbLine
 10
84.3128
 20
1.0
 30
0.0
 11
84.9128
 21
1.0
 31
0.0
  0
LINE
  5
127
330
1D
100
AcDbEntity
  8
0
100
AcDbLine
 10
84.3128
 20
1.0
 30
0.0
 11
84.3128
 21
2.793321459105
 31
0.0
  0
LINE
  5
128
330
1D
100
AcDbEntity
  8
0
100
AcDbLine
 10
87.7128
 20
1.0
 30
0.0
 11
88.3128
 21
1.0
 31
0.0
  0
LINE
  5
129
330
1D
100
AcDbEntity
  8
0
100
AcDbLine
 10
87.7128
 20
1.0
 30
0.0
 11
88.3128
 21
1.0
 31
0.0
  0
LINE
  5
12A
330
1D
100
AcDbEntity
  8
0
100
AcDbLine
 10
87.7128
 20
1.0
 30
0.0
 11
88.3128
 21
1.0
 31
0.0
  0
LINE
  5
12C
330
1D
100
AcDbEntity
  8
0
100
AcDbLine
 10
87.7128
 20
1.0
 30
0.0
 11
88.3128
 21
1.0
 31
0.0
  0
LINE
  5
12E
330
1D
100
AcDbEntity
  8
0
100
AcDbLine
 10
87.4643
 20
2.0
 30
0.0
 11
88.0643
 21
2.0
 31
0.0
  0
LINE
  5
12F
330
1D
100
AcDbEntity
  8
0
100
AcDbLine
 10
87.4643
 20
2.0
 30
0.0
 11
88.0643
 21
2.0
 31
0.0
  0
LINE
  5
130
330
1D
100
AcDbEntity
  8
0
100
AcDbLine
 10
87.4643
 20
2.0
 30
0.0
 11
87.4643
 21
3.0
 31
0.0
  0
LINE
  5
134
330
1D
100
AcDbEntity
  8
0
100
AcDbLine
 10
84.3128
 20
2.793321459105
 30
0.0
 11
84.3128
 21
1.0
 31
0.0
  0
LINE
  5
135
330
1D
100
AcDbEntity
  8
0
100
AcDbLine
 10
84.5172
 20
3.0
 30
0.0
 11
85.9172
 21
3.0
 31
0.0
  0
LINE
  5
136
330
1D
100
AcDbEntity
  8
0
100
AcDbLine
 10
84.5172
 20
3.0
 30
0.0
 11
85.9172
 21
3.0
 31
0.0
  0
LINE
  5
138
330
1D
100
AcDbEntity
  8
0
100
AcDbLine
 10
83.9172
 20
3.0
 30
0.0
 11
84.5172
 21
3.0
 31
0.0
  0
LINE
  5
139
330
1D
100
AcDbEntity
  8
0
100
AcDbLine
 10
83.9172
 20
3.0
 30
0.0
 11
84.5172
 21
3.0
 31
0.0
  0
LINE
  5
13A
330
1D
100
AcDbEntity
  8
0
100
AcDbLine
 10
83.9172
 20
3.0
 30
0.0
 11
83.9172
 21
4.94102116235
 31
0.0
  0
LINE
  5
13C
330
1D
100
AcDbEntity
  8
0
100
AcDbLine
 10
85.9172
 20
3.0
 30
0.0
 11
87.3172
 21
3.0
 31
0.0
  0
LINE
  5
13D
330
1D
100
AcDbEntity
  8
0
100
AcDbLine
 10
87.3172
 20
3.0
 30
0.0
 11
87.9172
 21
3.0
 31
0.0
  0
LINE
  5
13E
330
1D
100
AcDbEntity
  8
0
100
AcDbLine
 10
87.3172
 20
3.0
 30
0.0
 11
87.9172
 21
3.0
 31
0.0
  0
LINE
  5
140
330
1D
100
AcDbEntity
  8
0
100
AcDbLine
 10
85.9172
 20
3.0
 30
0.0
 11
87.3172
 21
3.0
 31
0.0
  0
LINE
  5
142
330
1D
100
AcDbEntity
  8
0
100
AcDbLine
 10
87.4643
 20
3.0
 30
0.0
 11
87.4643
 21
2.0
 31
0.0
  0
LINE
  5
143
330
1D
100
AcDbEntity
  8
0
100
AcDbLine
 10
84.3128
 20
2.794
 30
0.0
 11
86.1396
 21
2.782
 31
0.0
  0
LINE
  5
144
330
1D
100
AcDbEntity
  8
0
100
AcDbLine
 10
86.1396
 20
2.782
 30
0.0
 11
87.4643
 21
2.761603103162
 31
0.0
  0
LINE
  5
148
330
1D
100
AcDbEntity
  8
0
100
AcDbLine
 10
75.4202
 20
3.61784043412
 30
0.0
 11
75.4202
 21
2.0
 31
0.0
  0
LINE
  5
14B
330
1D
100
AcDbEntity
  8
0
100
AcDbLine
 10
75.9245
 20
4.0
 30
0.0
 11
75.9245
 21
2.0
 31
0.0
  0
LINE
  5
14C
330
1D
100
AcDbEntity
  8
0
100
AcDbLine
 10
75.2053
 20
4.0
 30
0.0
 11
76.6053
 21
4.0
 31
0.0
  0
LINE
  5
14D
330
1D
100
AcDbEntity
  8
0
100
AcDbLine
 10
76.6053
 20
4.0
 30
0.0
 11
78.0053
 21
4.0
 31
0.0
  0
LINE
  5
14F
330
1D
100
AcDbEntity
  8
0
100
AcDbLine
 10
78.6053
 20
4.0
 30
0.0
 11
78.6053
 21
5.784324808184
 31
0.0
  0
LINE
  5
150
330
1D
100
AcDbEntity
  8
0
100
AcDbLine
 10
78.0053
 20
4.0
 30
0.0
 11
78.6053
 21
4.0
 31
0.0
  0
LINE
  5
151
330
1D
100
AcDbEntity
  8
0
100
AcDbLine
 10
78.0053
 20
4.0
 30
0.0
 11
78.6053
 21
4.0
 31
0.0
  0
LINE
  5
153
330
1D
100
AcDbEntity
  8
0
100
AcDbLine
 10
76.6053
 20
4.0
 30
0.0
 11
78.0053
 21
4.0
 31
0.0
  0
LINE
  5
155
330
1D
100
AcDbEntity
  8
0
100
AcDbLine
 10
75.2053
 20
4.0
 30
0.0
 11
76.6053
 21
4.0
 31
0.0
  0
LINE
  5
157
330
1D
100
AcDbEntity
  8
0
100
AcDbLine
 10
74.6053
 20
4.0
 30
0.0
 11
75.2053
 21
4.0
 31
0.0
  0
LINE
  5
158
330
1D
100
AcDbEntity
  8
0
100
AcDbLine
 10
74.6053
 20
4.0
 30
0.0
 11
75.2053
 21
4.0
 31
0.0
  0
LINE
  5
159
330
1D
100
AcDbEntity
  8
0
100
AcDbLine
 10
74.6053
 20
4.0
 30
0.0
 11
74.6053
 21
5.875044575504
 31
0.0
  0
LINE
  5
15A
330
1D
100
AcDbEntity
  8
0
100
AcDbLine
 10
75.1649
 20
3.627
 30
0.0
 11
75.9245
 21
3.599747331599
 31
0.0
  0
LINE
  5
15B
330
1D
100
AcDbEntity
  8
0
100
AcDbLine
 10
79.9245
 20
3.969959157071
 30
0.0
 11
80.4275
 21
3.994
 31
0.0
  0
LINE
  5
167
330
1D
100
AcDbEntity
  8
0
100
AcDbLine
 10
79.9245
 20
4.157664050235
 30
0.0
 11
79.9245
 21
2.0
 31
0.0
  0
LINE
  5
16A
330
1D
100
AcDbEntity
  8
0
100
AcDbLine
 10
80.066
 20
4.151
 30
0.0
 11
80.6004
 21
4.04
 31
0.0
  0
LINE
  5
16B
330
1D
100
AcDbEntity
  8
0
100
AcDbLine
 10
80.4275
 20
3.994
 30
0.0
 11
80.6004
 21
4.04
 31
0.0
  0
LINE
  5
16C
330
1D
100
AcDbEntity
  8
0
100
AcDbLine
 10
78.6053
 20
4.21979277865
 30
0.0
 11
80.066
 21
4.151
 31
0.0
  0
LINE
  5
16E
330
1D
100
AcDbEntity
  8
0
100
AcDbLine
 10
73.4346
 20
3.666
 30
0.0
 11
75.1649
 21
3.627
 31
0.0
  0
LINE
  5
16F
330
1D
100
AcDbEntity
  8
0
100
AcDbLine
 10
33.4108
 20
4.5
 30
0.0
 11
34.8108
 21
4.5
 31
0.0
  0
LINE
  5
170
330
1D
100
AcDbEntity
  8
0
100
AcDbLine
 10
33.4108
 20
4.5
 30
0.0
 11
34.8108
 21
4.5
 31
0.0
  0
LINE
  5
171
330
1D
100
AcDbEntity
  8
0
100
AcDbLine
 10
32.8108
 20
4.5
 30
0.0
 11
33.4108
 21
4.5
 31
0.0
  0
LINE
  5
172
330
1D
100
AcDbEntity
  8
0
100
AcDbLine
 10
32.8108
 20
4.5
 30
0.0
 11
33.4108
 21
4.5
 31
0.0
  0
LINE
  5
173
330
1D
100
AcDbEntity
  8
0
100
AcDbLine
 10
32.8108
 20
4.5
 30
0.0
 11
32.8108
 21
6.168906658446
 31
0.0
  0
LINE
  5
174
330
1D
100
AcDbEntity
  8
0
100
AcDbLine
 10
33.4108
 20
4.5
 30
0.0
 11
34.8108
 21
4.5
 31
0.0
  0
LINE
  5
176
330
1D
100
AcDbEntity
  8
0
100
AcDbLine
 10
32.8108
 20
4.5
 30
0.0
 11
33.4108
 21
4.5
 31
0.0
  0
LINE
  5
177
330
1D
100
AcDbEntity
  8
0
100
AcDbLine
 10
32.8108
 20
4.5
 30
0.0
 11
32.8108
 21
6.199256986301
 31
0.0
  0
LINE
  5
178
330
1D
100
AcDbEntity
  8
0
100
AcDbLine
 10
36.2108
 20
4.5
 30
0.0
 11
36.8108
 21
4.5
 31
0.0
  0
LINE
  5
179
330
1D
100
AcDbEntity
  8
0
100
AcDbLine
 10
34.8108
 20
4.5
 30
0.0
 11
36.2108
 21
4.5
 31
0.0
  0
LINE
  5
17A
330
1D
100
AcDbEntity
  8
0
100
AcDbLine
 10
36.2108
 20
4.5
 30
0.0
 11
36.8108
 21
4.5
 31
0.0
  0
LINE
  5
17B
330
1D
100
AcDbEntity
  8
0
100
AcDbLine
 10
34.8108
 20
4.5
 30
0.0
 11
36.2108
 21
4.5
 31
0.0
  0
LINE
  5
17C
330
1D
100
AcDbEntity
  8
0
100
AcDbLine
 10
36.8108
 20
4.5
 30
0.0
 11
36.8108
 21
5.0
 31
0.0
  0
LINE
  5
17D
330
1D
100
AcDbEntity
  8
0
100
AcDbLine
 10
36.2108
 20
4.5
 30
0.0
 11
36.8108
 21
4.5
 31
0.0
  0
LINE
  5
17F
330
1D
100
AcDbEntity
  8
0
100
AcDbLine
 10
36.8108
 20
5.0
 30
0.0
 11
37.4249
 21
5.0
 31
0.0
  0
LINE
  5
180
330
1D
100
AcDbEntity
  8
0
100
AcDbLine
 10
37.4249
 20
5.0
 30
0.0
 11
38.0249
 21
5.0
 31
0.0
  0
LINE
  5
181
330
1D
100
AcDbEntity
  8
0
100
AcDbLine
 10
36.8108
 20
5.0
 30
0.0
 11
36.8108
 21
4.5
 31
0.0
  0
LINE
  5
184
330
1D
100
AcDbEntity
  8
0
100
AcDbLine
 10
34.8108
 20
4.5
 30
0.0
 11
36.2108
 21
4.5
 31
0.0
  0
LINE
  5
186
330
1D
100
AcDbEntity
  8
0
100
AcDbLine
 10
38.0886
 20
5.0
 30
0.0
 11
38.6886
 21
5.0
 31
0.0
  0
LINE
  5
187
330
1D
100
AcDbEntity
  8
0
100
AcDbLine
 10
38.0886
 20
5.0
 30
0.0
 11
38.0886
 21
5.703483081496
 31
0.0
  0
LINE
  5
188
330
1D
100
AcDbEntity
  8
0
100
AcDbLine
 10
38.0249
 20
5.0
 30
0.0
 11
38.0249
 21
6.041159212598
 31
0.0
  0
LINE
  5
189
330
1D
100
AcDbEntity
  8
0
100
AcDbLine
 10
37.4249
 20
5.0
 30
0.0
 11
38.0249
 21
5.0
 31
0.0
  0
LINE
  5
18B
330
1D
100
AcDbEntity
  8
0
100
AcDbLine
 10
36.0249
 20
5.0
 30
0.0
 11
37.4249
 21
5.0
 31
0.0
  0
LINE
  5
18D
330
1D
100
AcDbEntity
  8
0
100
AcDbLine
 10
34.6249
 20
5.0
 30
0.0
 11
36.0249
 21
5.0
 31
0.0
  0
LINE
  5
18F
330
1D
100
AcDbEntity
  8
0
100
AcDbLine
 10
34.0249
 20
5.0
 30
0.0
 11
34.6249
 21
5.0
 31
0.0
  0
LINE
  5
190
330
1D
100
AcDbEntity
  8
0
100
AcDbLine
 10
34.0249
 20
5.0
 30
0.0
 11
34.0249
 21
6.375024711316
 31
0.0
  0
LINE
  5
191
330
1D
100
AcDbEntity
  8
0
100
AcDbLine
 10
38.6886
 20
5.0
 30
0.0
 11
40.0886
 21
5.0
 31
0.0
  0
LINE
  5
192
330
1D
100
AcDbEntity
  8
0
100
AcDbLine
 10
40.0886
 20
5.0
 30
0.0
 11
41.4886
 21
5.0
 31
0.0
  0
LINE
  5
193
330
1D
100
AcDbEntity
  8
0
100
AcDbLine
 10
38.6886
 20
5.0
 30
0.0
 11
40.0886
 21
5.0
 31
0.0
  0
LINE
  5
194
330
1D
100
AcDbEntity
  8
0
100
AcDbLine
 10
40.0886
 20
5.0
 30
0.0
 11
41.4886
 21
5.0
 31
0.0
  0
LINE
  5
195
330
1D
100
AcDbEntity
  8
0
100
AcDbLine
 10
41.4886
 20
5.0
 30
0.0
 11
42.0886
 21
5.0
 31
0.0
  0
LINE
  5
196
330
1D
100
AcDbEntity
  8
0
100
AcDbLine
 10
42.0886
 20
5.0
 30
0.0
 11
42.0886
 21
6.52562194617
 31
0.0
  0
LINE
  5
197
330
1D
100
AcDbEntity
  8
0
100
AcDbLine
 10
41.4886
 20
5.0
 30
0.0
 11
42.0886
 21
5.0
 31
0.0
  0
LINE
  5
198
330
1D
100
AcDbEntity
  8
0
100
AcDbLine
 10
41.4886
 20
5.0
 30
0.0
 11
42.0886
 21
5.0
 31
0.0
  0
LINE
  5
19A
330
1D
100
AcDbEntity
  8
0
100
AcDbLine
 10
40.0886
 20
5.0
 30
0.0
 11
41.4886
 21
5.0
 31
0.0
  0
LINE
  5
19C
330
1D
100
AcDbEntity
  8
0
100
AcDbLine
 10
38.6886
 20
5.0
 30
0.0
 11
40.0886
 21
5.0
 31
0.0
  0
LINE
  5
19E
330
1D
100
AcDbEntity
  8
0
100
AcDbLine
 10
38.0886
 20
5.0
 30
0.0
 11
38.6886
 21
5.0
 31
0.0
  0
LINE
  5
19F
330
1D
100
AcDbEntity
  8
0
100
AcDbLine
 10
38.0886
 20
5.0
 30
0.0
 11
38.6886
 21
5.0
 31
0.0
  0
LINE
  5
1A0
330
1D
100
AcDbEntity
  8
0
100
AcDbLine
 10
38.0886
 20
5.0
 30
0.0
 11
38.0886
 21
6.8356073903
 31
0.0
  0
LINE
  5
1A3
330
1D
100
AcDbEntity
  8
0
100
AcDbLine
 10
54.1262
 20
4.252
 30
0.0
 11
54.6625
 21
4.166
 31
0.0
  0
LINE
  5
1A4
330
1D
100
AcDbEntity
  8
0
100
AcDbLine
 10
45.844
 20
5.165365771812
 30
0.0
 11
45.844
 21
3.44
 31
0.0
  0
LINE
  5
1A5
330
1D
100
AcDbEntity
  8
0
100
AcDbLine
 10
46.094
 20
5.148
 30
0.0
 11
46.7239
 21
5.108113240132
 31
0.0
  0
LINE
  5
1A6
330
1D
100
AcDbEntity
  8
0
100
AcDbLine
 10
45.228
 20
5.203
 30
0.0
 11
45.844
 21
5.163877598152
 31
0.0
  0
LINE
  5
1A7
330
1D
100
AcDbEntity
  8
0
100
AcDbLine
 10
45.228
 20
5.203
 30
0.0
 11
46.094
 21
5.148
 31
0.0
  0
LINE
  5
1B3
330
1D
100
AcDbEntity
  8
0
100
AcDbLine
 10
53.5967
 20
5.238
 30
0.0
 11
53.8002
 21
5.273
 31
0.0
  0
LINE
  5
1B4
330
1D
100
AcDbEntity
  8
0
100
AcDbLine
 10
52.9589
 20
5.235215252511
 30
0.0
 11
53.5967
 21
5.238
 31
0.0
  0
LINE
  5
1B5
330
1D
100
AcDbEntity
  8
0
100
AcDbLine
 10
47.84
 20
5.194
 30
0.0
 11
48.9589
 21
5.126551857969
 31
0.0
  0
LINE
  5
1B6
330
1D
100
AcDbEntity
  8
0
100
AcDbLine
 10
46.794
 20
5.249
 30
0.0
 11
47.84
 21
5.194
 31
0.0
  0
LINE
  5
1B7
330
1D
100
AcDbEntity
  8
0
100
AcDbLine
 10
52.9589
 20
4.732894819769
 30
0.0
 11
53.61
 21
4.695
 31
0.0
  0
LINE
  5
1B8
330
1D
100
AcDbEntity
  8
0
100
AcDbLine
 10
46.305
 20
5.229
 30
0.0
 11
46.7239
 21
5.195627467301
 31
0.0
  0
LINE
  5
1B9
330
1D
100
AcDbEntity
  8
0
100
AcDbLine
 10
53.61
 20
4.695
 30
0.0
 11
54.1262
 21
4.252
 31
0.0
  0
LINE
  5
1BC
330
1D
100
AcDbEntity
  8
0
100
AcDbLine
 10
46.7239
 20
5.251746678024
 30
0.0
 11
46.7239
 21
3.0
 31
0.0
  0
LINE
  5
1BD
330
1D
100
AcDbEntity
  8
0
100
AcDbLine
 10
46.207
 20
5.272
 30
0.0
 11
46.794
 21
5.249
 31
0.0
  0
LINE
  5
1BE
330
1D
100
AcDbEntity
  8
0
100
AcDbLine
 10
46.0
 20
5.268
 30
0.0
 11
46.305
 21
5.229
 31
0.0
  0
LINE
  5
1BF
330
1D
100
AcDbEntity
  8
0
100
AcDbLine
 10
46.0
 20
5.268
 30
0.0
 11
46.207
 21
5.272
 31
0.0
  0
LINE
  5
1C1
330
1D
100
AcDbEntity
  8
0
100
AcDbLine
 10
59.626
 20
4.444888326069
 30
0.0
 11
59.626
 21
3.0
 31
0.0
  0
LINE
  5
1C3
330
1D
100
AcDbEntity
  8
0
100
AcDbLine
 10
63.626
 20
4.271482536962
 30
0.0
 11
63.626
 21
3.0
 31
0.0
  0
LINE
  5
1C5
330
1D
100
AcDbEntity
  8
0
100
AcDbLine
 10
63.626
 20
4.271482536962
 30
0.0
 11
64.0649
 21
4.237
 31
0.0
  0
LINE
  5
1C6
330
1D
100
AcDbEntity
  8
0
100
AcDbLine
 10
62.6648
 20
4.347
 30
0.0
 11
64.0649
 21
4.237
 31
0.0
  0
LINE
  5
1C8
330
1D
100
AcDbEntity
  8
0
100
AcDbLine
 10
61.363
 20
4.413
 30
0.0
 11
62.6648
 21
4.347
 31
0.0
  0
LINE
  5
1C9
330
1D
100
AcDbEntity
  8
0
100
AcDbLine
 10
60.1543
 20
4.448
 30
0.0
 11
61.363
 21
4.413
 31
0.0
  0
LINE
  5
1CA
330
1D
100
AcDbEntity
  8
0
100
AcDbLine
 10
70.011169399852
 20
4.729626983514
 30
0.0
 11
70.2998
 21
4.804
 31
0.0
  0
LINE
  5
1CB
330
1D
100
AcDbEntity
  8
0
100
AcDbLine
 10
69.8366
 20
4.717072960251
 30
0.0
 11
70.1276
 21
4.738
 31
0.0
  0
LINE
  5
1CC
330
1D
100
AcDbEntity
  8
0
100
AcDbLine
 10
83.2003
 20
4.789
 30
0.0
 11
83.4226
 21
4.884
 31
0.0
  0
LINE
  5
1CD
330
1D
100
AcDbEntity
  8
0
100
AcDbLine
 10
70.1276
 20
4.738
 30
0.0
 11
70.2998
 21
4.804
 31
0.0
  0
LINE
  5
1CE
330
1D
100
AcDbEntity
  8
0
100
AcDbLine
 10
65.8366
 20
4.846823671191
 30
0.0
 11
65.8366
 21
5.0
 31
0.0
  0
LINE
  5
1CF
330
1D
100
AcDbEntity
  8
0
100
AcDbLine
 10
69.8366
 20
4.934424614416
 30
0.0
 11
70.054529075233
 21
4.90115561804
 31
0.0
  0
LINE
  5
1D0
330
1D
100
AcDbEntity
  8
0
100
AcDbLine
 10
83.4226
 20
4.884
 30
0.0
 11
83.9172
 21
4.94102116235
 31
0.0
  0
LINE
  5
1D1
330
1D
100
AcDbEntity
  8
0
100
AcDbLine
 10
65.3837
 20
4.906
 30
0.0
 11
65.8366
 21
4.846823671191
 31
0.0
  0
LINE
  5
1D2
330
1D
100
AcDbEntity
  8
0
100
AcDbLine
 10
83.2003
 20
4.789
 30
0.0
 11
83.7352
 21
4.635
 31
0.0
  0
LINE
  5
1D3
330
1D
100
AcDbEntity
  8
0
100
AcDbLine
 10
83.2003
 20
4.789
 30
0.0
 11
83.4226
 21
4.884
 31
0.0
  0
LINE
  5
1D4
330
1D
100
AcDbEntity
  8
0
100
AcDbLine
 10
83.9172
 20
4.620578241005
 30
0.0
 11
83.9172
 21
4.94102116235
 31
0.0
  0
LINE
  5
1D5
330
1D
100
AcDbEntity
  8
0
100
AcDbLine
 10
83.9172
 20
4.94102116235
 30
0.0
 11
83.9172
 21
4.620578241005
 31
0.0
  0
LINE
  5
1D7
330
1D
100
AcDbEntity
  8
0
100
AcDbLine
 10
83.9172
 20
4.94102116235
 30
0.0
 11
83.9172
 21
3.0
 31
0.0
  0
LINE
  5
1D8
330
1D
100
AcDbEntity
  8
0
100
AcDbLine
 10
83.7352
 20
4.635
 30
0.0
 11
83.9172
 21
4.620578241005
 31
0.0
  0
LINE
  5
1D9
330
1D
100
AcDbEntity
  8
0
100
AcDbLine
 10
83.4226
 20
4.884
 30
0.0
 11
84.0558
 21
4.957
 31
0.0
  0
LINE
  5
1DA
330
1D
100
AcDbEntity
  8
0
100
AcDbLine
 10
65.2934
 20
5.0
 30
0.0
 11
65.8366
 21
5.0
 31
0.0
  0
LINE
  5
1DB
330
1D
100
AcDbEntity
  8
0
100
AcDbLine
 10
65.2934
 20
5.0
 30
0.0
 11
65.2934
 21
5.075442564559
 31
0.0
  0
LINE
  5
1DC
330
1D
100
AcDbEntity
  8
0
100
AcDbLine
 10
65.8366
 20
5.0
 30
0.0
 11
65.8366
 21
3.0
 31
0.0
  0
LINE
  5
1DD
330
1D
100
AcDbEntity
  8
0
100
AcDbLine
 10
65.8366
 20
5.0
 30
0.0
 11
65.8366
 21
4.846823671191
 31
0.0
  0
LINE
  5
1E0
330
1D
100
AcDbEntity
  8
0
100
AcDbLine
 10
69.8366
 20
4.963767172023
 30
0.0
 11
69.8366
 21
3.0
 31
0.0
  0
LINE
  5
1E2
330
1D
100
AcDbEntity
  8
0
100
AcDbLine
 10
69.2934
 20
5.0
 30
0.0
 11
69.2934
 21
7.052067805603
 31
0.0
  0
LINE
  5
1E3
330
1D
100
AcDbEntity
  8
0
100
AcDbLine
 10
68.6934
 20
5.0
 30
0.0
 11
69.2934
 21
5.0
 31
0.0
  0
LINE
  5
1E5
330
1D
100
AcDbEntity
  8
0
100
AcDbLine
 10
67.2934
 20
5.0
 30
0.0
 11
68.6934
 21
5.0
 31
0.0
  0
LINE
  5
1E7
330
1D
100
AcDbEntity
  8
0
100
AcDbLine
 10
65.8934
 20
5.0
 30
0.0
 11
67.2934
 21
5.0
 31
0.0
  0
LINE
  5
1E9
330
1D
100
AcDbEntity
  8
0
100
AcDbLine
 10
65.2934
 20
5.0
 30
0.0
 11
65.8934
 21
5.0
 31
0.0
  0
LINE
  5
1EA
330
1D
100
AcDbEntity
  8
0
100
AcDbLine
 10
65.2934
 20
5.0
 30
0.0
 11
65.2934
 21
7.174049010299
 31
0.0
  0
LINE
  5
1EC
330
1D
100
AcDbEntity
  8
0
100
AcDbLine
 10
65.2934
 20
5.075442564559
 30
0.0
 11
65.2934
 21
5.0
 31
0.0
  0
LINE
  5
1ED
330
1D
100
AcDbEntity
  8
0
100
AcDbLine
 10
65.1
 20
5.01
 30
0.0
 11
65.2934
 21
5.075442564559
 31
0.0
  0
LINE
  5
1EE
330
1D
100
AcDbEntity
  8
0
100
AcDbLine
 10
69.290125
 20
5.0
 30
0.0
 11
69.9085
 21
4.959
 31
0.0
  0
LINE
  5
1EF
330
1D
100
AcDbEntity
  8
0
100
AcDbLine
 10
65.1
 20
5.01
 30
0.0
 11
65.2934
 21
5.075442564559
 31
0.0
  0
LINE
  5
1F0
330
1D
100
AcDbEntity
  8
0
100
AcDbLine
 10
65.1
 20
5.01
 30
0.0
 11
65.3837
 21
4.906
 31
0.0
  0
LINE
  5
1F1
330
1D
100
AcDbEntity
  8
0
100
AcDbLine
 10
69.9085
 20
4.959
 30
0.0
 11
70.2998
 21
4.804
 31
0.0
  0
LINE
  5
1F3
330
1D
100
AcDbEntity
  8
0
100
AcDbLine
 10
87.0004
 20
5.0
 30
0.0
 11
88.4004
 21
5.0
 31
0.0
  0
LINE
  5
1F5
330
1D
100
AcDbEntity
  8
0
100
AcDbLine
 10
86.4004
 20
5.0
 30
0.0
 11
87.0004
 21
5.0
 31
0.0
  0
LINE
  5
1F6
330
1D
100
AcDbEntity
  8
0
100
AcDbLine
 10
86.4004
 20
5.0
 30
0.0
 11
86.4004
 21
6.809141140761
 31
0.0
  0
LINE
  5
1F7
330
1D
100
AcDbEntity
  8
0
100
AcDbLine
 10
85.6057
 20
5.015
 30
0.0
 11
87.7248
 21
4.897
 31
0.0
  0
LINE
  5
1F8
330
1D
100
AcDbEntity
  8
0
100
AcDbLine
 10
84.0558
 20
4.957
 30
0.0
 11
85.6057
 21
5.015
 31
0.0
  0
LINE
  5
1F9
330
1D
100
AcDbEntity
  8
0
100
AcDbLine
 10
59.5935
 20
4.444696901873
 30
0.0
 11
60.1543
 21
4.448
 31
0.0
  0
LINE
  5
1FA
330
1D
100
AcDbEntity
  8
0
100
AcDbLine
 10
64.0649
 20
4.237
 30
0.0
 11
64.5998
 21
4.143
 31
0.0
  0
LINE
  5
1FB
330
1D
100
AcDbEntity
  8
0
100
AcDbLine
 10
98.8309
 20
1.0
 30
0.0
 11
100.231
 21
1.0
 31
0.0
  0
LINE
  5
1FC
330
1D
100
AcDbEntity
  8
0
100
AcDbLine
 10
98.8309
 20
1.0
 30
0.0
 11
100.231
 21
1.0
 31
0.0
  0
LINE
  5
1FD
330
1D
100
AcDbEntity
  8
0
100
AcDbLine
 10
98.2309
 20
1.0
 30
0.0
 11
98.8309
 21
1.0
 31
0.0
  0
LINE
  5
1FE
330
1D
100
AcDbEntity
  8
0
100
AcDbLine
 10
98.2309
 20
1.0
 30
0.0
 11
98.8309
 21
1.0
 31
0.0
  0
LINE
  5
1FF
330
1D
100
AcDbEntity
  8
0
100
AcDbLine
 10
97.5102
 20
1.0
 30
0.0
 11
98.9102
 21
1.0
 31
0.0
  0
LINE
  5
200
330
1D
100
AcDbEntity
  8
0
100
AcDbLine
 10
97.5102
 20
1.0
 30
0.0
 11
98.9102
 21
1.0
 31
0.0
  0
LINE
  5
202
330
1D
100
AcDbEntity
  8
0
100
AcDbLine
 10
96.9102
 20
1.0
 30
0.0
 11
97.5102
 21
1.0
 31
0.0
  0
LINE
  5
203
330
1D
100
AcDbEntity
  8
0
100
AcDbLine
 10
96.9102
 20
1.0
 30
0.0
 11
97.5102
 21
1.0
 31
0.0
  0
LINE
  5
204
330
1D
100
AcDbEntity
  8
0
100
AcDbLine
 10
96.9102
 20
1.0
 30
0.0
 11
96.9102
 21
2.619779236014
 31
0.0
  0
LINE
  5
205
330
1D
100
AcDbEntity
  8
0
100
AcDbLine
 10
88.3128
 20
1.0
 30
0.0
 11
88.3128
 21
2.0
 31
0.0
  0
LINE
  5
206
330
1D
100
AcDbEntity
  8
0
100
AcDbLine
 10
98.8309
 20
1.0
 30
0.0
 11
100.231
 21
1.0
 31
0.0
  0
LINE
  5
207
330
1D
100
AcDbEntity
  8
0
100
AcDbLine
 10
100.231
 20
1.0
 30
0.0
 11
101.631
 21
1.0
 31
0.0
  0
LINE
  5
208
330
1D
100
AcDbEntity
  8
0
100
AcDbLine
 10
100.231
 20
1.0
 30
0.0
 11
101.631
 21
1.0
 31
0.0
  0
LINE
  5
209
330
1D
100
AcDbEntity
  8
0
100
AcDbLine
 10
98.9102
 20
1.0
 30
0.0
 11
100.31
 21
1.0
 31
0.0
  0
LINE
  5
20A
330
1D
100
AcDbEntity
  8
0
100
AcDbLine
 10
98.9102
 20
1.0
 30
0.0
 11
100.31
 21
1.0
 31
0.0
  0
LINE
  5
20B
330
1D
100
AcDbEntity
  8
0
100
AcDbLine
 10
101.631
 20
1.0
 30
0.0
 11
102.231
 21
1.0
 31
0.0
  0
LINE
  5
20C
330
1D
100
AcDbEntity
  8
0
100
AcDbLine
 10
101.631
 20
1.0
 30
0.0
 11
102.231
 21
1.0
 31
0.0
  0
LINE
  5
20D
330
1D
100
AcDbEntity
  8
0
100
AcDbLine
 10
100.31
 20
1.0
 30
0.0
 11
100.91
 21
1.0
 31
0.0
  0
LINE
  5
20E
330
1D
100
AcDbEntity
  8
0
100
AcDbLine
 10
100.31
 20
1.0
 30
0.0
 11
100.91
 21
1.0
 31
0.0
  0
LINE
  5
20F
330
1D
100
AcDbEntity
  8
0
100
AcDbLine
 10
100.231
 20
1.0
 30
0.0
 11
101.631
 21
1.0
 31
0.0
  0
LINE
  5
210
330
1D
100
AcDbEntity
  8
0
100
AcDbLine
 10
101.631
 20
1.0
 30
0.0
 11
102.231
 21
1.0
 31
0.0
  0
LINE
  5
211
330
1D
100
AcDbEntity
  8
0
100
AcDbLine
 10
102.231
 20
1.0
 30
0.0
 11
102.231
 21
2.911332774518
 31
0.0
  0
LINE
  5
212
330
1D
100
AcDbEntity
  8
0
100
AcDbLine
 10
101.631
 20
1.0
 30
0.0
 11
102.231
 21
1.0
 31
0.0
  0
LINE
  5
214
330
1D
100
AcDbEntity
  8
0
100
AcDbLine
 10
100.231
 20
1.0
 30
0.0
 11
101.631
 21
1.0
 31
0.0
  0
LINE
  5
216
330
1D
100
AcDbEntity
  8
0
100
AcDbLine
 10
98.8309
 20
1.0
 30
0.0
 11
100.231
 21
1.0
 31
0.0
  0
LINE
  5
218
330
1D
100
AcDbEntity
  8
0
100
AcDbLine
 10
88.0643
 20
2.0
 30
0.0
 11
89.4643
 21
2.0
 31
0.0
  0
LINE
  5
219
330
1D
100
AcDbEntity
  8
0
100
AcDbLine
 10
89.4643
 20
2.0
 30
0.0
 11
90.8643
 21
2.0
 31
0.0
  0
LINE
  5
21A
330
1D
100
AcDbEntity
  8
0
100
AcDbLine
 10
89.4643
 20
2.0
 30
0.0
 11
90.8643
 21
2.0
 31
0.0
  0
LINE
  5
21B
330
1D
100
AcDbEntity
  8
0
100
AcDbLine
 10
88.3128
 20
2.0
 30
0.0
 11
89.4643
 21
2.0
 31
0.0
  0
LINE
  5
21C
330
1D
100
AcDbEntity
  8
0
100
AcDbLine
 10
88.3128
 20
2.0
 30
0.0
 11
89.4643
 21
2.0
 31
0.0
  0
LINE
  5
21D
330
1D
100
AcDbEntity
  8
0
100
AcDbLine
 10
90.8643
 20
2.0
 30
0.0
 11
91.4643
 21
2.0
 31
0.0
  0
LINE
  5
21E
330
1D
100
AcDbEntity
  8
0
100
AcDbLine
 10
89.4643
 20
2.0
 30
0.0
 11
90.8643
 21
2.0
 31
0.0
  0
LINE
  5
21F
330
1D
100
AcDbEntity
  8
0
100
AcDbLine
 10
90.8643
 20
2.0
 30
0.0
 11
91.4643
 21
2.0
 31
0.0
  0
LINE
  5
220
330
1D
100
AcDbEntity
  8
0
100
AcDbLine
 10
105.247
 20
2.0
 30
0.0
 11
106.647
 21
2.0
 31
0.0
  0
LINE
  5
221
330
1D
100
AcDbEntity
  8
0
100
AcDbLine
 10
104.647
 20
2.0
 30
0.0
 11
105.247
 21
2.0
 31
0.0
  0
LINE
  5
222
330
1D
100
AcDbEntity
  8
0
100
AcDbLine
 10
104.647
 20
2.0
 30
0.0
 11
104.647
 21
2.615213592233
 31
0.0
  0
LINE
  5
223
330
1D
100
AcDbEntity
  8
0
100
AcDbLine
 10
91.4643
 20
2.0
 30
0.0
 11
91.4643
 21
3.150718975379
 31
0.0
  0
LINE
  5
224
330
1D
100
AcDbEntity
  8
0
100
AcDbLine
 10
90.8643
 20
2.0
 30
0.0
 11
91.4643
 21
2.0
 31
0.0
  0
LINE
  5
226
330
1D
100
AcDbEntity
  8
0
100
AcDbLine
 10
89.4643
 20
2.0
 30
0.0
 11
90.8643
 21
2.0
 31
0.0
  0
LINE
  5
228
330
1D
100
AcDbEntity
  8
0
100
AcDbLine
 10
88.0643
 20
2.0
 30
0.0
 11
89.4643
 21
2.0
 31
0.0
  0
LINE
  5
22A
330
1D
100
AcDbEntity
  8
0
100
AcDbLine
 10
98.2309
 20
1.0
 30
0.0
 11
98.8309
 21
1.0
 31
0.0
  0
LINE
  5
22B
330
1D
100
AcDbEntity
  8
0
100
AcDbLine
 10
98.2309
 20
1.0
 30
0.0
 11
98.8309
 21
1.0
 31
0.0
  0
LINE
  5
22C
330
1D
100
AcDbEntity
  8
0
100
AcDbLine
 10
98.2309
 20
1.0
 30
0.0
 11
98.2309
 21
2.884902652927
 31
0.0
  0
LINE
  5
22D
330
1D
100
AcDbEntity
  8
0
100
AcDbLine
 10
105.49
 20
2.0
 30
0.0
 11
106.09
 21
2.0
 31
0.0
  0
LINE
  5
22E
330
1D
100
AcDbEntity
  8
0
100
AcDbLine
 10
105.247
 20
2.0
 30
0.0
 11
106.647
 21
2.0
 31
0.0
  0
LINE
  5
22F
330
1D
100
AcDbEntity
  8
0
100
AcDbLine
 10
88.3128
 20
2.0
 30
0.0
 11
88.3128
 21
1.0
 31
0.0
  0
LINE
  5
230
330
1D
100
AcDbEntity
  8
0
100
AcDbLine
 10
105.247
 20
2.0
 30
0.0
 11
106.647
 21
2.0
 31
0.0
  0
LINE
  5
232
330
1D
100
AcDbEntity
  8
0
100
AcDbLine
 10
104.647
 20
2.0
 30
0.0
 11
105.247
 21
2.0
 31
0.0
  0
LINE
  5
233
330
1D
100
AcDbEntity
  8
0
100
AcDbLine
 10
104.647
 20
2.0
 30
0.0
 11
105.247
 21
2.0
 31
0.0
  0
LINE
  5
234
330
1D
100
AcDbEntity
  8
0
100
AcDbLine
 10
104.647
 20
2.0
 30
0.0
 11
104.647
 21
3.371281341108
 31
0.0
  0
LINE
  5
235
330
1D
100
AcDbEntity
  8
0
100
AcDbLine
 10
106.09
 20
2.0
 30
0.0
 11
107.49
 21
2.0
 31
0.0
  0
LINE
  5
236
330
1D
100
AcDbEntity
  8
0
100
AcDbLine
 10
106.647
 20
2.0
 30
0.0
 11
108.047
 21
2.0
 31
0.0
  0
LINE
  5
237
330
1D
100
AcDbEntity
  8
0
100
AcDbLine
 10
107.49
 20
2.0
 30
0.0
 11
108.89
 21
2.0
 31
0.0
  0
LINE
  5
238
330
1D
100
AcDbEntity
  8
0
100
AcDbLine
 10
106.647
 20
2.0
 30
0.0
 11
108.047
 21
2.0
 31
0.0
  0
LINE
  5
239
330
1D
100
AcDbEntity
  8
0
100
AcDbLine
 10
106.647
 20
2.0
 30
0.0
 11
108.047
 21
2.0
 31
0.0
  0
LINE
  5
23A
330
1D
100
AcDbEntity
  8
0
100
AcDbLine
 10
106.09
 20
2.0
 30
0.0
 11
107.49
 21
2.0
 31
0.0
  0
LINE
  5
23B
330
1D
100
AcDbEntity
  8
0
100
AcDbLine
 10
107.49
 20
2.0
 30
0.0
 11
108.89
 21
2.0
 31
0.0
  0
LINE
  5
23C
330
1D
100
AcDbEntity
  8
0
100
AcDbLine
 10
108.047
 20
2.0
 30
0.0
 11
108.647
 21
2.0
 31
0.0
  0
LINE
  5
23D
330
1D
100
AcDbEntity
  8
0
100
AcDbLine
 10
108.89
 20
2.0
 30
0.0
 11
109.49
 21
2.0
 31
0.0
  0
LINE
  5
23E
330
1D
100
AcDbEntity
  8
0
100
AcDbLine
 10
108.047
 20
2.0
 30
0.0
 11
108.647
 21
2.0
 31
0.0
  0
LINE
  5
23F
330
1D
100
AcDbEntity
  8
0
100
AcDbLine
 10
108.047
 20
2.0
 30
0.0
 11
108.647
 21
2.0
 31
0.0
  0
LINE
  5
240
330
1D
100
AcDbEntity
  8
0
100
AcDbLine
 10
110.411
 20
0.0
 30
0.0
 11
111.011
 21
0.0
 31
0.0
  0
LINE
  5
241
330
1D
100
AcDbEntity
  8
0
100
AcDbLine
 10
110.411
 20
0.0
 30
0.0
 11
111.011
 21
0.0
 31
0.0
  0
LINE
  5
242
330
1D
100
AcDbEntity
  8
0
100
AcDbLine
 10
110.411
 20
0.0
 30
0.0
 11
110.411
 21
2.068629302864
 31
0.0
  0
LINE
  5
243
330
1D
100
AcDbEntity
  8
0
100
AcDbLine
 10
111.011
 20
0.0
 30
0.0
 11
112.411
 21
0.0
 31
0.0
  0
LINE
  5
244
330
1D
100
AcDbEntity
  8
0
100
AcDbLine
 10
112.411
 20
0.0
 30
0.0
 11
113.811
 21
0.0
 31
0.0
  0
LINE
  5
245
330
1D
100
AcDbEntity
  8
0
100
AcDbLine
 10
112.411
 20
0.0
 30
0.0
 11
113.811
 21
0.0
 31
0.0
  0
LINE
  5
246
330
1D
100
AcDbEntity
  8
0
100
AcDbLine
 10
111.011
 20
0.0
 30
0.0
 11
112.411
 21
0.0
 31
0.0
  0
LINE
  5
247
330
1D
100
AcDbEntity
  8
0
100
AcDbLine
 10
111.011
 20
0.0
 30
0.0
 11
112.411
 21
0.0
 31
0.0
  0
LINE
  5
248
330
1D
100
AcDbEntity
  8
0
100
AcDbLine
 10
113.811
 20
0.0
 30
0.0
 11
114.411
 21
0.0
 31
0.0
  0
LINE
  5
249
330
1D
100
AcDbEntity
  8
0
100
AcDbLine
 10
113.811
 20
0.0
 30
0.0
 11
114.411
 21
0.0
 31
0.0
  0
LINE
  5
24A
330
1D
100
AcDbEntity
  8
0
100
AcDbLine
 10
112.411
 20
0.0
 30
0.0
 11
113.811
 21
0.0
 31
0.0
  0
LINE
  5
24B
330
1D
100
AcDbEntity
  8
0
100
AcDbLine
 10
113.811
 20
0.0
 30
0.0
 11
114.411
 21
0.0
 31
0.0
  0
LINE
  5
24C
330
1D
100
AcDbEntity
  8
0
100
AcDbLine
 10
114.411
 20
0.0
 30
0.0
 11
114.411
 21
2.135717171717
 31
0.0
  0
LINE
  5
24D
330
1D
100
AcDbEntity
  8
0
100
AcDbLine
 10
113.811
 20
0.0
 30
0.0
 11
114.411
 21
0.0
 31
0.0
  0
LINE
  5
24F
330
1D
100
AcDbEntity
  8
0
100
AcDbLine
 10
112.411
 20
0.0
 30
0.0
 11
113.811
 21
0.0
 31
0.0
  0
LINE
  5
251
330
1D
100
AcDbEntity
  8
0
100
AcDbLine
 10
111.011
 20
0.0
 30
0.0
 11
112.411
 21
0.0
 31
0.0
  0
LINE
  5
253
330
1D
100
AcDbEntity
  8
0
100
AcDbLine
 10
110.411
 20
0.0
 30
0.0
 11
111.011
 21
0.0
 31
0.0
  0
LINE
  5
254
330
1D
100
AcDbEntity
  8
0
100
AcDbLine
 10
110.411
 20
0.0
 30
0.0
 11
111.011
 21
0.0
 31
0.0
  0
LINE
  5
255
330
1D
100
AcDbEntity
  8
0
100
AcDbLine
 10
110.411
 20
0.0
 30
0.0
 11
110.411
 21
2.186948663854
 31
0.0
  0
LINE
  5
256
330
1D
100
AcDbEntity
  8
0
100
AcDbLine
 10
109.49
 20
2.0
 30
0.0
 11
109.49
 21
4.43284319754
 31
0.0
  0
LINE
  5
257
330
1D
100
AcDbEntity
  8
0
100
AcDbLine
 10
108.89
 20
2.0
 30
0.0
 11
109.49
 21
2.0
 31
0.0
  0
LINE
  5
258
330
1D
100
AcDbEntity
  8
0
100
AcDbLine
 10
108.89
 20
2.0
 30
0.0
 11
109.49
 21
2.0
 31
0.0
  0
LINE
  5
25A
330
1D
100
AcDbEntity
  8
0
100
AcDbLine
 10
107.49
 20
2.0
 30
0.0
 11
108.89
 21
2.0
 31
0.0
  0
LINE
  5
25C
330
1D
100
AcDbEntity
  8
0
100
AcDbLine
 10
106.09
 20
2.0
 30
0.0
 11
107.49
 21
2.0
 31
0.0
  0
LINE
  5
25E
330
1D
100
AcDbEntity
  8
0
100
AcDbLine
 10
105.49
 20
2.0
 30
0.0
 11
106.09
 21
2.0
 31
0.0
  0
LINE
  5
25F
330
1D
100
AcDbEntity
  8
0
100
AcDbLine
 10
105.49
 20
2.0
 30
0.0
 11
106.09
 21
2.0
 31
0.0
  0
LINE
  5
260
330
1D
100
AcDbEntity
  8
0
100
AcDbLine
 10
105.49
 20
2.0
 30
0.0
 11
105.49
 21
4.402319796954
 31
0.0
  0
LINE
  5
261
330
1D
100
AcDbEntity
  8
0
100
AcDbLine
 10
110.411
 20
2.068629302864
 30
0.0
 11
110.411
 21
0.0
 31
0.0
  0
LINE
  5
262
330
1D
100
AcDbEntity
  8
0
100
AcDbLine
 10
109.49
 20
2.083415389066
 30
0.0
 11
110.411
 21
2.068629302864
 31
0.0
  0
LINE
  5
263
330
1D
100
AcDbEntity
  8
0
100
AcDbLine
 10
114.411
 20
2.024110849365
 30
0.0
 11
115.283
 21
2.019431880644
 31
0.0
  0
LINE
  5
264
330
1D
100
AcDbEntity
  8
0
100
AcDbLine
 10
115.283
 20
2.019431880644
 30
0.0
 11
115.283
 21
1.0
 31
0.0
  0
LINE
  5
265
330
1D
100
AcDbEntity
  8
0
100
AcDbLine
 10
115.283
 20
1.0
 30
0.0
 11
115.883
 21
1.0
 31
0.0
  0
LINE
  5
266
330
1D
100
AcDbEntity
  8
0
100
AcDbLine
 10
115.283
 20
1.0
 30
0.0
 11
115.883
 21
1.0
 31
0.0
  0
LINE
  5
267
330
1D
100
AcDbEntity
  8
0
100
AcDbLine
 10
115.283
 20
1.0
 30
0.0
 11
115.283
 21
2.019431880644
 31
0.0
  0
LINE
  5
268
330
1D
100
AcDbEntity
  8
0
100
AcDbLine
 10
115.283
 20
1.0
 30
0.0
 11
115.883
 21
1.0
 31
0.0
  0
LINE
  5
269
330
1D
100
AcDbEntity
  8
0
100
AcDbLine
 10
115.283
 20
1.0
 30
0.0
 11
115.883
 21
1.0
 31
0.0
  0
LINE
  5
26A
330
1D
100
AcDbEntity
  8
0
100
AcDbLine
 10
115.283
 20
1.0
 30
0.0
 11
115.283
 21
2.529779439252
 31
0.0
  0
LINE
  5
26B
330
1D
100
AcDbEntity
  8
0
100
AcDbLine
 10
114.595
 20
2.092
 30
0.0
 11
114.9
 21
2.107
 31
0.0
  0
LINE
  5
26C
330
1D
100
AcDbEntity
  8
0
100
AcDbLine
 10
114.411
 20
2.091362770563
 30
0.0
 11
114.595
 21
2.092
 31
0.0
  0
LINE
  5
26D
330
1D
100
AcDbEntity
  8
0
100
AcDbLine
 10
87.9172
 20
3.0
 30
0.0
 11
87.9172
 21
4.866760314342
 31
0.0
  0
LINE
  5
26E
330
1D
100
AcDbEntity
  8
0
100
AcDbLine
 10
87.9172
 20
3.187094263185
 30
0.0
 11
89.03
 21
3.204
 31
0.0
  0
LINE
  5
26F
330
1D
100
AcDbEntity
  8
0
100
AcDbLine
 10
91.4643
 20
3.150718975379
 30
0.0
 11
91.4643
 21
2.0
 31
0.0
  0
LINE
  5
271
330
1D
100
AcDbEntity
  8
0
100
AcDbLine
 10
91.4643
 20
3.150718975379
 30
0.0
 11
91.8361
 21
3.135
 31
0.0
  0
LINE
  5
272
330
1D
100
AcDbEntity
  8
0
100
AcDbLine
 10
91.4643
 20
3.021918660287
 30
0.0
 11
91.5321
 21
3.023
 31
0.0
  0
LINE
  5
275
330
1D
100
AcDbEntity
  8
0
100
AcDbLine
 10
89.03
 20
3.204
 30
0.0
 11
90.6298
 21
3.186
 31
0.0
  0
LINE
  5
276
330
1D
100
AcDbEntity
  8
0
100
AcDbLine
 10
90.6298
 20
3.186
 30
0.0
 11
91.8361
 21
3.135
 31
0.0
  0
LINE
  5
278
330
1D
100
AcDbEntity
  8
0
100
AcDbLine
 10
96.9102
 20
2.619779236014
 30
0.0
 11
96.9102
 21
1.0
 31
0.0
  0
LINE
  5
27B
330
1D
100
AcDbEntity
  8
0
100
AcDbLine
 10
91.8361
 20
3.135
 30
0.0
 11
92.2
 21
3.082
 31
0.0
  0
LINE
  5
27C
330
1D
100
AcDbEntity
  8
0
100
AcDbLine
 10
91.8361
 20
3.135
 30
0.0
 11
92.2
 21
3.082
 31
0.0
  0
LINE
  5
27D
330
1D
100
AcDbEntity
  8
0
100
AcDbLine
 10
92.0277
 20
3.048
 30
0.0
 11
92.2
 21
3.082
 31
0.0
  0
LINE
  5
27E
330
1D
100
AcDbEntity
  8
0
100
AcDbLine
 10
92.0277
 20
3.048
 30
0.0
 11
92.2
 21
3.082
 31
0.0
  0
LINE
  5
27F
330
1D
100
AcDbEntity
  8
0
100
AcDbLine
 10
91.5321
 20
3.023
 30
0.0
 11
92.0277
 21
3.048
 31
0.0
  0
LINE
  5
280
330
1D
100
AcDbEntity
  8
0
100
AcDbLine
 10
95.4596
 20
3.0
 30
0.0
 11
96.8596
 21
3.0
 31
0.0
  0
LINE
  5
281
330
1D
100
AcDbEntity
  8
0
100
AcDbLine
 10
96.8596
 20
3.0
 30
0.0
 11
98.2596
 21
3.0
 31
0.0
  0
LINE
  5
282
330
1D
100
AcDbEntity
  8
0
100
AcDbLine
 10
98.2596
 20
3.0
 30
0.0
 11
98.8596
 21
3.0
 31
0.0
  0
LINE
  5
283
330
1D
100
AcDbEntity
  8
0
100
AcDbLine
 10
98.2596
 20
3.0
 30
0.0
 11
98.8596
 21
3.0
 31
0.0
  0
LINE
  5
285
330
1D
100
AcDbEntity
  8
0
100
AcDbLine
 10
96.8596
 20
3.0
 30
0.0
 11
98.2596
 21
3.0
 31
0.0
  0
LINE
  5
287
330
1D
100
AcDbEntity
  8
0
100
AcDbLine
 10
95.4596
 20
3.0
 30
0.0
 11
96.8596
 21
3.0
 31
0.0
  0
LINE
  5
289
330
1D
100
AcDbEntity
  8
0
100
AcDbLine
 10
94.8596
 20
3.0
 30
0.0
 11
95.4596
 21
3.0
 31
0.0
  0
LINE
  5
28A
330
1D
100
AcDbEntity
  8
0
100
AcDbLine
 10
94.8596
 20
3.0
 30
0.0
 11
95.4596
 21
3.0
 31
0.0
  0
LINE
  5
28B
330
1D
100
AcDbEntity
  8
0
100
AcDbLine
 10
94.8596
 20
3.0
 30
0.0
 11
94.8596
 21
3.768909947104
 31
0.0
  0
LINE
  5
28C
330
1D
100
AcDbEntity
  8
0
100
AcDbLine
 10
98.2309
 20
2.884902652927
 30
0.0
 11
98.2309
 21
1.0
 31
0.0
  0
LINE
  5
28D
330
1D
100
AcDbEntity
  8
0
100
AcDbLine
 10
98.8596
 20
3.0
 30
0.0
 11
98.8596
 21
3.746273575569
 31
0.0
  0
LINE
  5
28F
330
1D
100
AcDbEntity
  8
0
100
AcDbLine
 10
98.3563
 20
2.897
 30
0.0
 11
99.9593
 21
2.927
 31
0.0
  0
LINE
  5
290
330
1D
100
AcDbEntity
  8
0
100
AcDbLine
 10
97.9002
 20
2.853
 30
0.0
 11
98.3563
 21
2.897
 31
0.0
  0
LINE
  5
291
330
1D
100
AcDbEntity
  8
0
100
AcDbLine
 10
97.9002
 20
2.853
 30
0.0
 11
98.2309
 21
2.827679427765
 31
0.0
  0
LINE
  5
293
330
1D
100
AcDbEntity
  8
0
100
AcDbLine
 10
97.7427
 20
2.621
 30
0.0
 11
98.2309
 21
2.621564654175
 31
0.0
  0
LINE
  5
294
330
1D
100
AcDbEntity
  8
0
100
AcDbLine
 10
91.4643
 20
2.673893593908
 30
0.0
 11
97.7427
 21
2.621
 31
0.0
  0
LINE
  5
295
330
1D
100
AcDbEntity
  8
0
100
AcDbLine
 10
94.0002
 20
3.654
 30
0.0
 11
94.2761
 21
3.726
 31
0.0
  0
LINE
  5
29A
330
1D
100
AcDbEntity
  8
0
100
AcDbLine
 10
94.2761
 20
3.726
 30
0.0
 11
94.8596
 21
3.768909947104
 31
0.0
  0
LINE
  5
29B
330
1D
100
AcDbEntity
  8
0
100
AcDbLine
 10
94.0002
 20
3.654
 30
0.0
 11
94.2761
 21
3.726
 31
0.0
  0
LINE
  5
29C
330
1D
100
AcDbEntity
  8
0
100
AcDbLine
 10
94.0002
 20
3.654
 30
0.0
 11
94.535
 21
3.559
 31
0.0
  0
LINE
  5
29D
330
1D
100
AcDbEntity
  8
0
100
AcDbLine
 10
94.8596
 20
3.545088571429
 30
0.0
 11
94.8596
 21
3.768909947104
 31
0.0
  0
LINE
  5
29E
330
1D
100
AcDbEntity
  8
0
100
AcDbLine
 10
98.8596
 20
3.746273575569
 30
0.0
 11
98.8596
 21
3.0
 31
0.0
  0
LINE
  5
29F
330
1D
100
AcDbEntity
  8
0
100
AcDbLine
 10
94.8596
 20
3.768909947104
 30
0.0
 11
94.8596
 21
3.0
 31
0.0
  0
LINE
  5
2A0
330
1D
100
AcDbEntity
  8
0
100
AcDbLine
 10
94.8596
 20
3.768909947104
 30
0.0
 11
94.8596
 21
3.545088571429
 31
0.0
  0
LINE
  5
2A1
330
1D
100
AcDbEntity
  8
0
100
AcDbLine
 10
94.535
 20
3.559
 30
0.0
 11
94.8596
 21
3.545088571429
 31
0.0
  0
LINE
  5
2A4
330
1D
100
AcDbEntity
  8
0
100
AcDbLine
 10
97.2467
 20
4.0
 30
0.0
 11
98.6467
 21
4.0
 31
0.0
  0
LINE
  5
2A6
330
1D
100
AcDbEntity
  8
0
100
AcDbLine
 10
95.8467
 20
4.0
 30
0.0
 11
97.2467
 21
4.0
 31
0.0
  0
LINE
  5
2A8
330
1D
100
AcDbEntity
  8
0
100
AcDbLine
 10
95.2467
 20
4.0
 30
0.0
 11
95.8467
 21
4.0
 31
0.0
  0
LINE
  5
2A9
330
1D
100
AcDbEntity
  8
0
100
AcDbLine
 10
95.2467
 20
4.0
 30
0.0
 11
95.2467
 21
5.725042206897
 31
0.0
  0
LINE
  5
2AA
330
1D
100
AcDbEntity
  8
0
100
AcDbLine
 10
96.3788
 20
3.816
 30
0.0
 11
98.0866
 21
3.796
 31
0.0
  0
LINE
  5
2AB
330
1D
100
AcDbEntity
  8
0
100
AcDbLine
 10
98.6467
 20
4.0
 30
0.0
 11
99.2467
 21
4.0
 31
0.0
  0
LINE
  5
2AE
330
1D
100
AcDbEntity
  8
0
100
AcDbLine
 10
98.0866
 20
3.796
 30
0.0
 11
99.5012
 21
3.705
 31
0.0
  0
LINE
  5
2AF
330
1D
100
AcDbEntity
  8
0
100
AcDbLine
 10
95.0512
 20
3.783
 30
0.0
 11
96.3788
 21
3.816
 31
0.0
  0
LINE
  5
2B0
330
1D
100
AcDbEntity
  8
0
100
AcDbLine
 10
94.2761
 20
3.726
 30
0.0
 11
95.0512
 21
3.783
 31
0.0
  0
LINE
  5
2B1
330
1D
100
AcDbEntity
  8
0
100
AcDbLine
 10
99.2467
 20
4.0
 30
0.0
 11
99.2467
 21
5.662756045821
 31
0.0
  0
LINE
  5
2B2
330
1D
100
AcDbEntity
  8
0
100
AcDbLine
 10
98.8602
 20
3.537
 30
0.0
 11
99.5251
 21
3.607
 31
0.0
  0
LINE
  5
2B3
330
1D
100
AcDbEntity
  8
0
100
AcDbLine
 10
88.5589
 20
4.583
 30
0.0
 11
88.7998
 21
4.675
 31
0.0
  0
LINE
  5
2B4
330
1D
100
AcDbEntity
  8
0
100
AcDbLine
 10
87.9172
 20
4.522905179982
 30
0.0
 11
88.5589
 21
4.583
 31
0.0
  0
LINE
  5
2B5
330
1D
100
AcDbEntity
  8
0
100
AcDbLine
 10
87.9172
 20
4.866760314342
 30
0.0
 11
87.9172
 21
3.0
 31
0.0
  0
LINE
  5
2B7
330
1D
100
AcDbEntity
  8
0
100
AcDbLine
 10
90.4004
 20
5.0
 30
0.0
 11
90.4004
 21
6.791473975552
 31
0.0
  0
LINE
  5
2B8
330
1D
100
AcDbEntity
  8
0
100
AcDbLine
 10
89.8004
 20
5.0
 30
0.0
 11
90.4004
 21
5.0
 31
0.0
  0
LINE
  5
2BA
330
1D
100
AcDbEntity
  8
0
100
AcDbLine
 10
88.4004
 20
5.0
 30
0.0
 11
89.8004
 21
5.0
 31
0.0
  0
LINE
  5
2BE
330
1D
100
AcDbEntity
  8
0
100
AcDbLine
 10
88.6919
 20
4.745
 30
0.0
 11
88.7998
 21
4.675
 31
0.0
  0
LINE
  5
2BF
330
1D
100
AcDbEntity
  8
0
100
AcDbLine
 10
104.647
 20
2.615213592233
 30
0.0
 11
104.647
 21
2.0
 31
0.0
  0
LINE
  5
2C2
330
1D
100
AcDbEntity
  8
0
100
AcDbLine
 10
102.231
 20
2.628537406076
 30
0.0
 11
104.561
 21
2.643
 31
0.0
  0
LINE
  5
2C3
330
1D
100
AcDbEntity
  8
0
100
AcDbLine
 10
102.231
 20
2.911332774518
 30
0.0
 11
102.231
 21
1.0
 31
0.0
  0
LINE
  5
2C5
330
1D
100
AcDbEntity
  8
0
100
AcDbLine
 10
102.231
 20
2.911332774518
 30
0.0
 11
102.751
 21
2.9
 31
0.0
  0
LINE
  5
2C6
330
1D
100
AcDbEntity
  8
0
100
AcDbLine
 10
102.751
 20
2.9
 30
0.0
 11
103.1
 21
2.867
 31
0.0
  0
LINE
  5
2C7
330
1D
100
AcDbEntity
  8
0
100
AcDbLine
 10
102.603
 20
2.828
 30
0.0
 11
103.1
 21
2.867
 31
0.0
  0
LINE
  5
2C8
330
1D
100
AcDbEntity
  8
0
100
AcDbLine
 10
102.231
 20
2.819987692308
 30
0.0
 11
102.603
 21
2.828
 31
0.0
  0
LINE
  5
2C9
330
1D
100
AcDbEntity
  8
0
100
AcDbLine
 10
102.751
 20
2.9
 30
0.0
 11
103.1
 21
2.867
 31
0.0
  0
LINE
  5
2CB
330
1D
100
AcDbEntity
  8
0
100
AcDbLine
 10
99.9593
 20
2.927
 30
0.0
 11
101.558
 21
2.926
 31
0.0
  0
LINE
  5
2CC
330
1D
100
AcDbEntity
  8
0
100
AcDbLine
 10
101.558
 20
2.926
 30
0.0
 11
102.751
 21
2.9
 31
0.0
  0
LINE
  5
2CD
330
1D
100
AcDbEntity
  8
0
100
AcDbLine
 10
104.647
 20
3.230518072289
 30
0.0
 11
104.647
 21
3.371281341108
 31
0.0
  0
LINE
  5
2CE
330
1D
100
AcDbEntity
  8
0
100
AcDbLine
 10
104.268
 20
3.342
 30
0.0
 11
104.647
 21
3.371281341108
 31
0.0
  0
LINE
  5
2CF
330
1D
100
AcDbEntity
  8
0
100
AcDbLine
 10
104.1
 20
3.297
 30
0.0
 11
104.268
 21
3.342
 31
0.0
  0
LINE
  5
2D0
330
1D
100
AcDbEntity
  8
0
100
AcDbLine
 10
104.427
 20
3.239
 30
0.0
 11
104.647
 21
3.230518072289
 31
0.0
  0
LINE
  5
2D1
330
1D
100
AcDbEntity
  8
0
100
AcDbLine
 10
104.1
 20
3.297
 30
0.0
 11
104.268
 21
3.342
 31
0.0
  0
LINE
  5
2D2
330
1D
100
AcDbEntity
  8
0
100
AcDbLine
 10
104.1
 20
3.297
 30
0.0
 11
104.427
 21
3.239
 31
0.0
  0
LINE
  5
2D4
330
1D
100
AcDbEntity
  8
0
100
AcDbLine
 10
99.5012
 20
3.705
 30
0.0
 11
99.5251
 21
3.607
 31
0.0
  0
LINE
  5
2D5
330
1D
100
AcDbEntity
  8
0
100
AcDbLine
 10
104.647
 20
3.371281341108
 30
0.0
 11
104.647
 21
3.230518072289
 31
0.0
  0
LINE
  5
2D6
330
1D
100
AcDbEntity
  8
0
100
AcDbLine
 10
104.647
 20
3.371281341108
 30
0.0
 11
104.647
 21
2.0
 31
0.0
  0
LINE
  5
2D8
330
1D
100
AcDbEntity
  8
0
100
AcDbLine
 10
104.268
 20
3.342
 30
0.0
 11
104.954
 21
3.395
 31
0.0
  0
LINE
  5
2D9
330
1D
100
AcDbEntity
  8
0
100
AcDbLine
 10
105.0
 20
4.295
 30
0.0
 11
105.225
 21
4.216
 31
0.0
  0
LINE
  5
2DA
330
1D
100
AcDbEntity
  8
0
100
AcDbLine
 10
105.0
 20
4.295
 30
0.0
 11
105.304
 21
4.388
 31
0.0
  0
LINE
  5
2DB
330
1D
100
AcDbEntity
  8
0
100
AcDbLine
 10
104.954
 20
3.395
 30
0.0
 11
105.49
 21
3.41237037037
 31
0.0
  0
LINE
  5
2DD
330
1D
100
AcDbEntity
  8
0
100
AcDbLine
 10
99.2467
 20
5.27187515996
 30
0.0
 11
99.8862
 21
5.431
 31
0.0
  0
LINE
  5
2E7
330
1D
100
AcDbEntity
  8
0
100
AcDbLine
 10
109.7
 20
2.162
 30
0.0
 11
110.338
 21
2.187
 31
0.0
  0
LINE
  5
2E8
330
1D
100
AcDbEntity
  8
0
100
AcDbLine
 10
110.411
 20
2.129028037383
 30
0.0
 11
110.411
 21
2.186948663854
 31
0.0
  0
LINE
  5
2E9
330
1D
100
AcDbEntity
  8
0
100
AcDbLine
 10
114.411
 20
2.135717171717
 30
0.0
 11
114.411
 21
0.0
 31
0.0
  0
LINE
  5
2EC
330
1D
100
AcDbEntity
  8
0
100
AcDbLine
 10
114.107
 20
2.148
 30
0.0
 11
114.8
 21
2.12
 31
0.0
  0
LINE
  5
2ED
330
1D
100
AcDbEntity
  8
0
100
AcDbLine
 10
110.197
 20
2.133
 30
0.0
 11
110.411
 21
2.128593080725
 31
0.0
  0
LINE
  5
2EE
330
1D
100
AcDbEntity
  8
0
100
AcDbLine
 10
109.7
 20
2.162
 30
0.0
 11
110.197
 21
2.133
 31
0.0
  0
LINE
  5
2EF
330
1D
100
AcDbEntity
  8
0
100
AcDbLine
 10
109.7
 20
2.162
 30
0.0
 11
110.338
 21
2.187
 31
0.0
  0
LINE
  5
2F0
330
1D
100
AcDbEntity
  8
0
100
AcDbLine
 10
114.8
 20
2.12
 30
0.0
 11
114.9
 21
2.107
 31
0.0
  0
LINE
  5
2F1
330
1D
100
AcDbEntity
  8
0
100
AcDbLine
 10
110.411
 20
2.186948663854
 30
0.0
 11
110.411
 21
2.129028037383
 31
0.0
  0
LINE
  5
2F3
330
1D
100
AcDbEntity
  8
0
100
AcDbLine
 10
110.411
 20
2.186948663854
 30
0.0
 11
110.411
 21
0.0
 31
0.0
  0
LINE
  5
2F4
330
1D
100
AcDbEntity
  8
0
100
AcDbLine
 10
110.338
 20
2.187
 30
0.0
 11
110.411
 21
2.186739551478
 31
0.0
  0
LINE
  5
2F5
330
1D
100
AcDbEntity
  8
0
100
AcDbLine
 10
110.338
 20
2.187
 30
0.0
 11
111.76
 21
2.186
 31
0.0
  0
LINE
  5
2F7
330
1D
100
AcDbEntity
  8
0
100
AcDbLine
 10
111.76
 20
2.186
 30
0.0
 11
112.841
 21
2.174
 31
0.0
  0
LINE
  5
2F8
330
1D
100
AcDbEntity
  8
0
100
AcDbLine
 10
112.841
 20
2.174
 30
0.0
 11
114.107
 21
2.148
 31
0.0
  0
LINE
  5
2F9
330
1D
100
AcDbEntity
  8
0
100
AcDbLine
 10
115.283
 20
2.409706542056
 30
0.0
 11
115.283
 21
2.529779439252
 31
0.0
  0
LINE
  5
2FA
330
1D
100
AcDbEntity
  8
0
100
AcDbLine
 10
115.283
 20
2.529779439252
 30
0.0
 11
115.283
 21
2.409706542056
 31
0.0
  0
LINE
  5
2FB
330
1D
100
AcDbEntity
  8
0
100
AcDbLine
 10
115.283
 20
2.529779439252
 30
0.0
 11
115.283
 21
1.0
 31
0.0
  0
LINE
  5
2FD
330
1D
100
AcDbEntity
  8
0
100
AcDbLine
 10
114.8
 20
2.472
 30
0.0
 11
115.283
 21
2.529779439252
 31
0.0
  0
LINE
  5
2FE
330
1D
100
AcDbEntity
  8
0
100
AcDbLine
 10
114.8
 20
2.472
 30
0.0
 11
115.335
 21
2.536
 31
0.0
  0
LINE
  5
2FF
330
1D
100
AcDbEntity
  8
0
100
AcDbLine
 10
114.8
 20
2.472
 30
0.0
 11
115.283
 21
2.409706542056
 31
0.0
  0
LINE
  5
302
330
1D
100
AcDbEntity
  8
0
100
AcDbLine
 10
115.335
 20
2.536
 30
0.0
 11
116.735
 21
2.568
 31
0.0
  0
LINE
  5
306
330
1D
100
AcDbEntity
  8
0
100
AcDbLine
 10
105.49
 20
4.402319796954
 30
0.0
 11
105.49
 21
2.0
 31
0.0
  0
LINE
  5
307
330
1D
100
AcDbEntity
  8
0
100
AcDbLine
 10
109.704
 20
4.421
 30
0.0
 11
110.2
 21
4.305
 31
0.0
  0
LINE
  5
308
330
1D
100
AcDbEntity
  8
0
100
AcDbLine
 10
109.703
 20
4.191
 30
0.0
 11
110.2
 21
4.305
 31
0.0
  0
LINE
  5
309
330
1D
100
AcDbEntity
  8
0
100
AcDbLine
 10
105.304
 20
4.388
 30
0.0
 11
106.486
 21
4.479
 31
0.0
  0
LINE
  5
30C
330
1D
100
AcDbEntity
  8
0
100
AcDbLine
 10
106.486
 20
4.479
 30
0.0
 11
107.432
 21
4.5
 31
0.0
  0
LINE
  5
30D
330
1D
100
AcDbEntity
  8
0
100
AcDbLine
 10
107.432
 20
4.5
 30
0.0
 11
108.403
 21
4.493
 31
0.0
  0
LINE
  5
30E
330
1D
100
AcDbEntity
  8
0
100
AcDbLine
 10
109.49
 20
4.43284319754
 30
0.0
 11
109.49
 21
2.0
 31
0.0
  0
LINE
  5
310
330
1D
100
AcDbEntity
  8
0
100
AcDbLine
 10
115.232
 20
5.0
 30
0.0
 11
115.232
 21
6.580775806452
 31
0.0
  0
LINE
  5
311
330
1D
100
AcDbEntity
  8
0
100
AcDbLine
 10
113.232
 20
5.0
 30
0.0
 11
114.632
 21
5.0
 31
0.0
  0
LINE
  5
312
330
1D
100
AcDbEntity
  8
0
100
AcDbLine
 10
114.632
 20
5.0
 30
0.0
 11
115.232
 21
5.0
 31
0.0
  0
LINE
  5
314
330
1D
100
AcDbEntity
  8
0
100
AcDbLine
 10
111.832
 20
5.0
 30
0.0
 11
113.232
 21
5.0
 31
0.0
  0
LINE
  5
315
330
1D
100
AcDbEntity
  8
0
100
AcDbLine
 10
111.832
 20
5.0
 30
0.0
 11
113.232
 21
5.0
 31
0.0
  0
LINE
  5
317
330
1D
100
AcDbEntity
  8
0
100
AcDbLine
 10
113.232
 20
5.0
 30
0.0
 11
114.632
 21
5.0
 31
0.0
  0
LINE
  5
319
330
1D
100
AcDbEntity
  8
0
100
AcDbLine
 10
111.232
 20
5.0
 30
0.0
 11
111.832
 21
5.0
 31
0.0
  0
LINE
  5
31A
330
1D
100
AcDbEntity
  8
0
100
AcDbLine
 10
111.232
 20
5.0
 30
0.0
 11
111.232
 21
6.648896551724
 31
0.0
  0
LINE
  5
31E
330
1D
100
AcDbEntity
  8
0
100
AcDbLine
 10
109.49
 20
4.43284319754
 30
0.0
 11
109.704
 21
4.421
 31
0.0
  0
LINE
  5
31F
330
1D
100
AcDbEntity
  8
0
100
AcDbLine
 10
108.403
 20
4.493
 30
0.0
 11
109.704
 21
4.421
 31
0.0
  0
LINE
  5
320
330
1D
100
AcDbEntity
  8
0
100
AcDbLine
 10
109.704
 20
4.421
 30
0.0
 11
110.2
 21
4.305
 31
0.0
  0
LINE
  5
321
330
1D
100
AcDbEntity
  8
0
100
AcDbLine
 10
105.225
 20
4.216
 30
0.0
 11
105.49
 21
4.195273743017
 31
0.0
  0
LINE
  5
322
330
1D
100
AcDbEntity
  8
0
100
AcDbLine
 10
109.49
 20
4.176676214197
 30
0.0
 11
109.703
 21
4.191
 31
0.0
  0
LINE
  5
325
330
1D
100
AcDbEntity
  8
0
100
AcDbLine
 10
87.7248
 20
4.897
 30
0.0
 11
88.6919
 21
4.745
 31
0.0
  0
LINE
  5
326
330
1D
100
AcDbEntity
  8
0
100
AcDbLine
 10
52.9589
 20
5.412807320907
 30
0.0
 11
52.9589
 21
4.0
 31
0.0
  0
LINE
  5
327
330
1D
100
AcDbEntity
  8
0
100
AcDbLine
 10
52.9096
 20
5.421
 30
0.0
 11
53.8002
 21
5.273
 31
0.0
  0
LINE
  5
328
330
1D
100
AcDbEntity
  8
0
100
AcDbLine
 10
38.0249
 20
5.957238549832
 30
0.0
 11
38.0886
 21
5.953832418813
 31
0.0
  0
LINE
  5
329
330
1D
100
AcDbEntity
  8
0
100
AcDbLine
 10
38.0249
 20
5.95563625
 30
0.0
 11
38.0886
 21
5.952089318182
 31
0.0
  0
LINE
  5
32B
330
1D
100
AcDbEntity
  8
0
100
AcDbLine
 10
38.0249
 20
6.041159212598
 30
0.0
 11
38.0249
 21
5.0
 31
0.0
  0
LINE
  5
32C
330
1D
100
AcDbEntity
  8
0
100
AcDbLine
 10
37.838
 20
6.065
 30
0.0
 11
38.0886
 21
6.033033700787
 31
0.0
  0
LINE
  5
32E
330
1D
100
AcDbEntity
  8
0
100
AcDbLine
 10
32.8108
 20
6.168906658446
 30
0.0
 11
32.8108
 21
4.5
 31
0.0
  0
LINE
  5
32F
330
1D
100
AcDbEntity
  8
0
100
AcDbLine
 10
32.8108
 20
6.199256986301
 30
0.0
 11
32.8108
 21
4.5
 31
0.0
  0
LINE
  5
331
330
1D
100
AcDbEntity
  8
0
100
AcDbLine
 10
36.802
 20
6.168
 30
0.0
 11
37.838
 21
6.065
 31
0.0
  0
LINE
  5
332
330
1D
100
AcDbEntity
  8
0
100
AcDbLine
 10
32.663
 20
6.211
 30
0.0
 11
33.758
 21
6.124
 31
0.0
  0
LINE
  5
333
330
1D
100
AcDbEntity
  8
0
100
AcDbLine
 10
33.758
 20
6.124
 30
0.0
 11
34.0249
 21
6.101586979969
 31
0.0
  0
LINE
  5
335
330
1D
100
AcDbEntity
  8
0
100
AcDbLine
 10
35.196
 20
6.302
 30
0.0
 11
36.802
 21
6.168
 31
0.0
  0
LINE
  5
336
330
1D
100
AcDbEntity
  8
0
100
AcDbLine
 10
33.4
 20
6.381
 30
0.0
 11
33.897
 21
6.383
 31
0.0
  0
LINE
  5
337
330
1D
100
AcDbEntity
  8
0
100
AcDbLine
 10
33.4
 20
6.381
 30
0.0
 11
33.625
 21
6.333
 31
0.0
  0
LINE
  5
338
330
1D
100
AcDbEntity
  8
0
100
AcDbLine
 10
38.0249
 20
6.605666261615
 30
0.0
 11
38.0249
 21
6.83671073903
 31
0.0
  0
LINE
  5
33A
330
1D
100
AcDbEntity
  8
0
100
AcDbLine
 10
34.0249
 20
6.375024711316
 30
0.0
 11
34.0249
 21
5.0
 31
0.0
  0
LINE
  5
33B
330
1D
100
AcDbEntity
  8
0
100
AcDbLine
 10
37.834
 20
6.629
 30
0.0
 11
38.0886
 21
6.597880200143
 31
0.0
  0
LINE
  5
33C
330
1D
100
AcDbEntity
  8
0
100
AcDbLine
 10
33.897
 20
6.383
 30
0.0
 11
35.196
 21
6.302
 31
0.0
  0
LINE
  5
33D
330
1D
100
AcDbEntity
  8
0
100
AcDbLine
 10
33.625
 20
6.333
 30
0.0
 11
34.0249
 21
6.284508188976
 31
0.0
  0
LINE
  5
341
330
1D
100
AcDbEntity
  8
0
100
AcDbLine
 10
38.0249
 20
6.605682928571
 30
0.0
 11
38.0886
 21
6.597902428571
 31
0.0
  0
LINE
  5
342
330
1D
100
AcDbEntity
  8
0
100
AcDbLine
 10
38.0249
 20
6.027442563291
 30
0.0
 11
38.0886
 21
6.014642088608
 31
0.0
  0
LINE
  5
344
330
1D
100
AcDbEntity
  8
0
100
AcDbLine
 10
26.868
 20
7.0
 30
0.0
 11
32.8108
 21
6.168906658446
 31
0.0
  0
LINE
  5
346
330
1D
100
AcDbEntity
  8
0
100
AcDbLine
 10
18.6845
 20
7.0
 30
0.0
 11
19.2845
 21
7.0
 31
0.0
  0
LINE
  5
347
330
1D
100
AcDbEntity
  8
0
100
AcDbLine
 10
19.2845
 20
7.0
 30
0.0
 11
20.6845
 21
7.0
 31
0.0
  0
LINE
  5
348
330
1D
100
AcDbEntity
  8
0
100
AcDbLine
 10
19.6461
 20
7.0
 30
0.0
 11
20.2461
 21
7.0
 31
0.0
  0
LINE
  5
349
330
1D
100
AcDbEntity
  8
0
100
AcDbLine
 10
20.6845
 20
7.0
 30
0.0
 11
22.0845
 21
7.0
 31
0.0
  0
LINE
  5
34A
330
1D
100
AcDbEntity
  8
0
100
AcDbLine
 10
19.4779
 20
7.0
 30
0.0
 11
20.0779
 21
7.0
 31
0.0
  0
LINE
  5
34B
330
1D
100
AcDbEntity
  8
0
100
AcDbLine
 10
19.6461
 20
7.0
 30
0.0
 11
20.2461
 21
7.0
 31
0.0
  0
LINE
  5
34C
330
1D
100
AcDbEntity
  8
0
100
AcDbLine
 10
22.0845
 20
7.0
 30
0.0
 11
22.6845
 21
7.0
 31
0.0
  0
LINE
  5
34D
330
1D
100
AcDbEntity
  8
0
100
AcDbLine
 10
22.6845
 20
7.0
 30
0.0
 11
22.6845
 21
8.227217413973
 31
0.0
  0
LINE
  5
34E
330
1D
100
AcDbEntity
  8
0
100
AcDbLine
 10
22.0845
 20
7.0
 30
0.0
 11
22.6845
 21
7.0
 31
0.0
  0
LINE
  5
350
330
1D
100
AcDbEntity
  8
0
100
AcDbLine
 10
20.6845
 20
7.0
 30
0.0
 11
22.0845
 21
7.0
 31
0.0
  0
LINE
  5
352
330
1D
100
AcDbEntity
  8
0
100
AcDbLine
 10
19.2845
 20
7.0
 30
0.0
 11
20.6845
 21
7.0
 31
0.0
  0
LINE
  5
354
330
1D
100
AcDbEntity
  8
0
100
AcDbLine
 10
18.6845
 20
7.0
 30
0.0
 11
19.2845
 21
7.0
 31
0.0
  0
LINE
  5
355
330
1D
100
AcDbEntity
  8
0
100
AcDbLine
 10
18.6845
 20
7.0
 30
0.0
 11
18.6845
 21
8.769969879518
 31
0.0
  0
LINE
  5
356
330
1D
100
AcDbEntity
  8
0
100
AcDbLine
 10
22.6845
 20
7.823759342594
 30
0.0
 11
25.8976
 21
7.29190988065
 31
0.0
  0
LINE
  5
358
330
1D
100
AcDbEntity
  8
0
100
AcDbLine
 10
26.4976
 20
7.0
 30
0.0
 11
26.7783671875
 21
7.0
 31
0.0
  0
LINE
  5
359
330
1D
100
AcDbEntity
  8
0
100
AcDbLine
 10
25.8976
 20
7.0
 30
0.0
 11
26.4976
 21
7.0
 31
0.0
  0
LINE
  5
35A
330
1D
100
AcDbEntity
  8
0
100
AcDbLine
 10
25.8976
 20
7.0
 30
0.0
 11
25.8976
 21
7.29190988065
 31
0.0
  0
LINE
  5
35B
330
1D
100
AcDbEntity
  8
0
100
AcDbLine
 10
26.4976
 20
7.0
 30
0.0
 11
27.8976
 21
7.0
 31
0.0
  0
LINE
  5
35D
330
1D
100
AcDbEntity
  8
0
100
AcDbLine
 10
25.8976
 20
7.29190988065
 30
0.0
 11
25.8976
 21
7.0
 31
0.0
  0
LINE
  5
35E
330
1D
100
AcDbEntity
  8
0
100
AcDbLine
 10
25.8976
 20
7.0
 30
0.0
 11
26.4976
 21
7.0
 31
0.0
  0
LINE
  5
35F
330
1D
100
AcDbEntity
  8
0
100
AcDbLine
 10
25.8976
 20
7.0
 30
0.0
 11
25.8976
 21
8.698553369272
 31
0.0
  0
LINE
  5
360
330
1D
100
AcDbEntity
  8
0
100
AcDbLine
 10
29.8976
 20
7.0
 30
0.0
 11
29.8976
 21
8.259997668998
 31
0.0
  0
LINE
  5
361
330
1D
100
AcDbEntity
  8
0
100
AcDbLine
 10
29.2976
 20
7.0
 30
0.0
 11
29.8976
 21
7.0
 31
0.0
  0
LINE
  5
363
330
1D
100
AcDbEntity
  8
0
100
AcDbLine
 10
27.8976
 20
7.0
 30
0.0
 11
29.2976
 21
7.0
 31
0.0
  0
LINE
  5
36E
330
1D
100
AcDbEntity
  8
0
100
AcDbLine
 10
38.0249
 20
6.83671073903
 30
0.0
 11
38.0249
 21
6.605666261615
 31
0.0
  0
LINE
  5
36F
330
1D
100
AcDbEntity
  8
0
100
AcDbLine
 10
37.835
 20
6.84
 30
0.0
 11
38.701
 21
6.825
 31
0.0
  0
LINE
  5
370
330
1D
100
AcDbEntity
  8
0
100
AcDbLine
 10
38.0249
 20
6.83671073903
 30
0.0
 11
38.0886
 21
6.8356073903
 31
0.0
  0
LINE
  5
373
330
1D
100
AcDbEntity
  8
0
100
AcDbLine
 10
30.423
 20
7.922
 30
0.0
 11
30.9
 21
7.989
 31
0.0
  0
LINE
  5
377
330
1D
100
AcDbEntity
  8
0
100
AcDbLine
 10
23.116
 20
8.049
 30
0.0
 11
23.5
 21
8.046
 31
0.0
  0
LINE
  5
378
330
1D
100
AcDbEntity
  8
0
100
AcDbLine
 10
29.8976
 20
7.940653254438
 30
0.0
 11
30.423
 21
7.922
 31
0.0
  0
LINE
  5
37A
330
1D
100
AcDbEntity
  8
0
100
AcDbLine
 10
37.3
 20
6.774
 30
0.0
 11
37.834
 21
6.629
 31
0.0
  0
LINE
  5
37B
330
1D
100
AcDbEntity
  8
0
100
AcDbLine
 10
37.3
 20
6.774
 30
0.0
 11
37.835
 21
6.84
 31
0.0
  0
LINE
  5
37C
330
1D
100
AcDbEntity
  8
0
100
AcDbLine
 10
38.0886
 20
5.703483081496
 30
0.0
 11
38.0886
 21
5.0
 31
0.0
  0
LINE
  5
37D
330
1D
100
AcDbEntity
  8
0
100
AcDbLine
 10
38.0886
 20
5.953832418813
 30
0.0
 11
38.0886
 21
6.014642088608
 31
0.0
  0
LINE
  5
37E
330
1D
100
AcDbEntity
  8
0
100
AcDbLine
 10
38.0886
 20
6.014642088608
 30
0.0
 11
38.0886
 21
5.953832418813
 31
0.0
  0
LINE
  5
382
330
1D
100
AcDbEntity
  8
0
100
AcDbLine
 10
42.0886
 20
6.28344359352
 30
0.0
 11
42.617
 21
6.285
 31
0.0
  0
LINE
  5
384
330
1D
100
AcDbEntity
  8
0
100
AcDbLine
 10
48.6696
 20
5.5
 30
0.0
 11
50.0696
 21
5.5
 31
0.0
  0
LINE
  5
386
330
1D
100
AcDbEntity
  8
0
100
AcDbLine
 10
47.2696
 20
5.5
 30
0.0
 11
48.6696
 21
5.5
 31
0.0
  0
LINE
  5
388
330
1D
100
AcDbEntity
  8
0
100
AcDbLine
 10
46.6696
 20
5.5
 30
0.0
 11
47.2696
 21
5.5
 31
0.0
  0
LINE
  5
389
330
1D
100
AcDbEntity
  8
0
100
AcDbLine
 10
46.6696
 20
5.5
 30
0.0
 11
46.6696
 21
7.600251881188
 31
0.0
  0
LINE
  5
38A
330
1D
100
AcDbEntity
  8
0
100
AcDbLine
 10
48.7449390625
 20
5.5
 30
0.0
 11
48.9589
 21
5.480440651336
 31
0.0
  0
LINE
  5
38C
330
1D
100
AcDbEntity
  8
0
100
AcDbLine
 10
48.9589
 20
5.5
 30
0.0
 11
48.9589
 21
4.0
 31
0.0
  0
LINE
  5
38D
330
1D
100
AcDbEntity
  8
0
100
AcDbLine
 10
50.6696
 20
5.5
 30
0.0
 11
50.6696
 21
7.388576560395
 31
0.0
  0
LINE
  5
38E
330
1D
100
AcDbEntity
  8
0
100
AcDbLine
 10
50.0696
 20
5.5
 30
0.0
 11
50.6696
 21
5.5
 31
0.0
  0
LINE
  5
390
330
1D
100
AcDbEntity
  8
0
100
AcDbLine
 10
48.861851182796
 20
5.5
 30
0.0
 11
48.9589
 21
5.490313033959
 31
0.0
  0
LINE
  5
391
330
1D
100
AcDbEntity
  8
0
100
AcDbLine
 10
50.6696
 20
5.602432644846
 30
0.0
 11
50.9417
 21
5.595
 31
0.0
  0
LINE
  5
394
330
1D
100
AcDbEntity
  8
0
100
AcDbLine
 10
50.9417
 20
5.595
 30
0.0
 11
52.9096
 21
5.421
 31
0.0
  0
LINE
  5
395
330
1D
100
AcDbEntity
  8
0
100
AcDbLine
 10
55.0003
 20
6.237
 30
0.0
 11
55.1419
 21
6.309
 31
0.0
  0
LINE
  5
396
330
1D
100
AcDbEntity
  8
0
100
AcDbLine
 10
55.0003
 20
6.237
 30
0.0
 11
55.4963
 21
6.074
 31
0.0
  0
LINE
  5
398
330
1D
100
AcDbEntity
  8
0
100
AcDbLine
 10
42.617
 20
6.285
 30
0.0
 11
42.939
 21
6.361
 31
0.0
  0
LINE
  5
399
330
1D
100
AcDbEntity
  8
0
100
AcDbLine
 10
55.4963
 20
6.074
 30
0.0
 11
55.5935
 21
6.062940109172
 31
0.0
  0
LINE
  5
39A
330
1D
100
AcDbEntity
  8
0
100
AcDbLine
 10
55.0003
 20
6.237
 30
0.0
 11
55.1419
 21
6.309
 31
0.0
  0
LINE
  5
39B
330
1D
100
AcDbEntity
  8
0
100
AcDbLine
 10
42.0886
 20
6.52562194617
 30
0.0
 11
42.0886
 21
5.0
 31
0.0
  0
LINE
  5
39C
330
1D
100
AcDbEntity
  8
0
100
AcDbLine
 10
38.0886
 20
6.597902428571
 30
0.0
 11
38.0886
 21
6.8356073903
 31
0.0
  0
LINE
  5
39E
330
1D
100
AcDbEntity
  8
0
100
AcDbLine
 10
38.0886
 20
6.8356073903
 30
0.0
 11
38.0886
 21
6.597902428571
 31
0.0
  0
LINE
  5
3A0
330
1D
100
AcDbEntity
  8
0
100
AcDbLine
 10
38.0886
 20
6.8356073903
 30
0.0
 11
38.0886
 21
5.0
 31
0.0
  0
LINE
  5
3A1
330
1D
100
AcDbEntity
  8
0
100
AcDbLine
 10
38.701
 20
6.825
 30
0.0
 11
40.393
 21
6.718
 31
0.0
  0
LINE
  5
3A3
330
1D
100
AcDbEntity
  8
0
100
AcDbLine
 10
40.393
 20
6.718
 30
0.0
 11
41.973
 21
6.548
 31
0.0
  0
LINE
  5
3A4
330
1D
100
AcDbEntity
  8
0
100
AcDbLine
 10
41.973
 20
6.548
 30
0.0
 11
42.939
 21
6.361
 31
0.0
  0
LINE
  5
3A5
330
1D
100
AcDbEntity
  8
0
100
AcDbLine
 10
55.1419
 20
6.309
 30
0.0
 11
55.552
 21
6.361
 31
0.0
  0
LINE
  5
3A6
330
1D
100
AcDbEntity
  8
0
100
AcDbLine
 10
55.552
 20
6.361
 30
0.0
 11
56.8844
 21
6.382
 31
0.0
  0
LINE
  5
3A7
330
1D
100
AcDbEntity
  8
0
100
AcDbLine
 10
42.844337630722
 20
6.379324909995
 30
0.0
 11
42.888324008811
 21
6.349039207048
 31
0.0
  0
LINE
  5
3A8
330
1D
100
AcDbEntity
  8
0
100
AcDbLine
 10
55.1419
 20
6.309
 30
0.0
 11
55.552
 21
6.361
 31
0.0
  0
LINE
  5
3A9
330
1D
100
AcDbEntity
  8
0
100
AcDbLine
 10
55.5935
 20
6.062940109172
 30
0.0
 11
55.5935
 21
6.361654082858
 31
0.0
  0
LINE
  5
3AC
330
1D
100
AcDbEntity
  8
0
100
AcDbLine
 10
55.5935
 20
6.361654082858
 30
0.0
 11
55.5935
 21
4.0
 31
0.0
  0
LINE
  5
3AD
330
1D
100
AcDbEntity
  8
0
100
AcDbLine
 10
55.5935
 20
6.361654082858
 30
0.0
 11
55.5935
 21
6.062940109172
 31
0.0
  0
LINE
  5
3AE
330
1D
100
AcDbEntity
  8
0
100
AcDbLine
 10
56.8844
 20
6.382
 30
0.0
 11
58.4899
 21
6.297
 31
0.0
  0
LINE
  5
3AF
330
1D
100
AcDbEntity
  8
0
100
AcDbLine
 10
59.5935
 20
6.157513468678
 30
0.0
 11
59.5935
 21
4.0
 31
0.0
  0
LINE
  5
3B1
330
1D
100
AcDbEntity
  8
0
100
AcDbLine
 10
59.626
 20
5.862911479945
 30
0.0
 11
59.626
 21
6.153405719251
 31
0.0
  0
LINE
  5
3B4
330
1D
100
AcDbEntity
  8
0
100
AcDbLine
 10
59.626
 20
6.153405719251
 30
0.0
 11
59.626
 21
5.862911479945
 31
0.0
  0
LINE
  5
3B5
330
1D
100
AcDbEntity
  8
0
100
AcDbLine
 10
59.7558
 20
6.137
 30
0.0
 11
60.1999
 21
5.978
 31
0.0
  0
LINE
  5
3B6
330
1D
100
AcDbEntity
  8
0
100
AcDbLine
 10
59.7047
 20
5.864
 30
0.0
 11
60.1999
 21
5.978
 31
0.0
  0
LINE
  5
3B7
330
1D
100
AcDbEntity
  8
0
100
AcDbLine
 10
59.5935
 20
5.862461964039
 30
0.0
 11
59.7047
 21
5.864
 31
0.0
  0
LINE
  5
3B8
330
1D
100
AcDbEntity
  8
0
100
AcDbLine
 10
64.5423
 20
6.879
 30
0.0
 11
65.2934
 21
6.660403872241
 31
0.0
  0
LINE
  5
3B9
330
1D
100
AcDbEntity
  8
0
100
AcDbLine
 10
58.4899
 20
6.297
 30
0.0
 11
59.7558
 21
6.137
 31
0.0
  0
LINE
  5
3BB
330
1D
100
AcDbEntity
  8
0
100
AcDbLine
 10
50.6696
 20
6.996391737892
 30
0.0
 11
51.1261
 21
7.036
 31
0.0
  0
LINE
  5
3BC
330
1D
100
AcDbEntity
  8
0
100
AcDbLine
 10
51.1261
 20
7.036
 30
0.0
 11
51.3497
 21
7.147
 31
0.0
  0
LINE
  5
3BD
330
1D
100
AcDbEntity
  8
0
100
AcDbLine
 10
64.49978802329
 20
6.947696168454
 30
0.0
 11
64.5423
 21
6.879
 31
0.0
  0
LINE
  5
3BE
330
1D
100
AcDbEntity
  8
0
100
AcDbLine
 10
64.495
 20
6.945
 30
0.0
 11
64.804
 21
7.119
 31
0.0
  0
LINE
  5
3BF
330
1D
100
AcDbEntity
  8
0
100
AcDbLine
 10
64.495
 20
6.945
 30
0.0
 11
64.5423
 21
6.879
 31
0.0
  0
LINE
  5
3C3
330
1D
100
AcDbEntity
  8
0
100
AcDbLine
 10
69.2934
 20
6.520431775867
 30
0.0
 11
69.5632
 21
6.53
 31
0.0
  0
LINE
  5
3C4
330
1D
100
AcDbEntity
  8
0
100
AcDbLine
 10
65.2934
 20
6.660403872241
 30
0.0
 11
65.2934
 21
7.174049010299
 31
0.0
  0
LINE
  5
3C5
330
1D
100
AcDbEntity
  8
0
100
AcDbLine
 10
69.2934
 20
7.052067805603
 30
0.0
 11
69.2934
 21
5.0
 31
0.0
  0
LINE
  5
3C7
330
1D
100
AcDbEntity
  8
0
100
AcDbLine
 10
65.2934
 20
7.174049010299
 30
0.0
 11
65.2934
 21
5.0
 31
0.0
  0
LINE
  5
3C8
330
1D
100
AcDbEntity
  8
0
100
AcDbLine
 10
65.2934
 20
7.174049010299
 30
0.0
 11
65.2934
 21
6.660403872241
 31
0.0
  0
LINE
  5
3C9
330
1D
100
AcDbEntity
  8
0
100
AcDbLine
 10
69.5632
 20
6.53
 30
0.0
 11
70.0994
 21
6.74
 31
0.0
  0
LINE
  5
3CA
330
1D
100
AcDbEntity
  8
0
100
AcDbLine
 10
64.804
 20
7.119
 30
0.0
 11
66.1731
 21
7.273
 31
0.0
  0
LINE
  5
3CB
330
1D
100
AcDbEntity
  8
0
100
AcDbLine
 10
46.15
 20
7.471
 30
0.0
 11
46.223
 21
7.541
 31
0.0
  0
LINE
  5
3CC
330
1D
100
AcDbEntity
  8
0
100
AcDbLine
 10
46.15
 20
7.471
 30
0.0
 11
46.646
 21
7.26
 31
0.0
  0
LINE
  5
3D0
330
1D
100
AcDbEntity
  8
0
100
AcDbLine
 10
50.6696
 20
7.388576560395
 30
0.0
 11
50.6696
 21
5.5
 31
0.0
  0
LINE
  5
3D3
330
1D
100
AcDbEntity
  8
0
100
AcDbLine
 10
46.6696
 20
7.600251881188
 30
0.0
 11
46.6696
 21
5.5
 31
0.0
  0
LINE
  5
3D4
330
1D
100
AcDbEntity
  8
0
100
AcDbLine
 10
50.2384
 20
7.482
 30
0.0
 11
51.1292
 21
7.289
 31
0.0
  0
LINE
  5
3D5
330
1D
100
AcDbEntity
  8
0
100
AcDbLine
 10
51.1292
 20
7.289
 30
0.0
 11
51.3497
 21
7.147
 31
0.0
  0
LINE
  5
3D6
330
1D
100
AcDbEntity
  8
0
100
AcDbLine
 10
46.223
 20
7.541
 30
0.0
 11
47.233
 21
7.675
 31
0.0
  0
LINE
  5
3D9
330
1D
100
AcDbEntity
  8
0
100
AcDbLine
 10
49.025
 20
7.617
 30
0.0
 11
50.2384
 21
7.482
 31
0.0
  0
LINE
  5
3DB
330
1D
100
AcDbEntity
  8
0
100
AcDbLine
 10
66.1731
 20
7.273
 30
0.0
 11
67.6945
 21
7.237
 31
0.0
  0
LINE
  5
3DC
330
1D
100
AcDbEntity
  8
0
100
AcDbLine
 10
67.6945
 20
7.237
 30
0.0
 11
69.5793
 21
7.019
 31
0.0
  0
LINE
  5
3E4
330
1D
100
AcDbEntity
  8
0
100
AcDbLine
 10
74.6053
 20
5.875044575504
 30
0.0
 11
74.6053
 21
4.0
 31
0.0
  0
LINE
  5
3E5
330
1D
100
AcDbEntity
  8
0
100
AcDbLine
 10
75.6983
 20
5.95
 30
0.0
 11
76.7999
 21
5.939
 31
0.0
  0
LINE
  5
3E6
330
1D
100
AcDbEntity
  8
0
100
AcDbLine
 10
74.2401
 20
5.85
 30
0.0
 11
75.6983
 21
5.95
 31
0.0
  0
LINE
  5
3E7
330
1D
100
AcDbEntity
  8
0
100
AcDbLine
 10
73.9
 20
5.701
 30
0.0
 11
74.4349
 21
5.504
 31
0.0
  0
LINE
  5
3E8
330
1D
100
AcDbEntity
  8
0
100
AcDbLine
 10
73.9
 20
5.701
 30
0.0
 11
74.2401
 21
5.85
 31
0.0
  0
LINE
  5
3E9
330
1D
100
AcDbEntity
  8
0
100
AcDbLine
 10
78.6053
 20
5.784324808184
 30
0.0
 11
78.6053
 21
4.0
 31
0.0
  0
LINE
  5
3EB
330
1D
100
AcDbEntity
  8
0
100
AcDbLine
 10
78.4253
 20
5.821
 30
0.0
 11
79.5983
 21
5.582
 31
0.0
  0
LINE
  5
3EC
330
1D
100
AcDbEntity
  8
0
100
AcDbLine
 10
76.7999
 20
5.939
 30
0.0
 11
78.4253
 21
5.821
 31
0.0
  0
LINE
  5
3ED
330
1D
100
AcDbEntity
  8
0
100
AcDbLine
 10
74.4349
 20
5.504
 30
0.0
 11
74.6053
 21
5.48576369863
 31
0.0
  0
LINE
  5
3EE
330
1D
100
AcDbEntity
  8
0
100
AcDbLine
 10
69.5793
 20
7.019
 30
0.0
 11
70.0994
 21
6.74
 31
0.0
  0
LINE
  5
3F0
330
1D
100
AcDbEntity
  8
0
100
AcDbLine
 10
47.233
 20
7.675
 30
0.0
 11
49.025
 21
7.617
 31
0.0
  0
LINE
  5
3F1
330
1D
100
AcDbEntity
  8
0
100
AcDbLine
 10
38.0249
 20
5.707948550904
 30
0.0
 11
38.0886
 21
5.703483081496
 31
0.0
  0
LINE
  5
3F2
330
1D
100
AcDbEntity
  8
0
100
AcDbLine
 10
42.0886
 20
5.423076839237
 30
0.0
 11
45.228
 21
5.203
 31
0.0
  0
LINE
  5
3F5
330
1D
100
AcDbEntity
  8
0
100
AcDbLine
 10
94.703546153846
 20
5.535230769231
 30
0.0
 11
94.7521
 21
5.478
 31
0.0
  0
LINE
  5
3F6
330
1D
100
AcDbEntity
  8
0
100
AcDbLine
 10
94.8596
 20
5.444867170022
 30
0.0
 11
94.8596
 21
5.597866184448
 31
0.0
  0
LINE
  5
3F7
330
1D
100
AcDbEntity
  8
0
100
AcDbLine
 10
94.8596
 20
5.597866184448
 30
0.0
 11
94.8596
 21
5.444867170022
 31
0.0
  0
LINE
  5
3FA
330
1D
100
AcDbEntity
  8
0
100
AcDbLine
 10
94.7521
 20
5.478
 30
0.0
 11
94.8596
 21
5.445122615039
 31
0.0
  0
LINE
  5
3FB
330
1D
100
AcDbEntity
  8
0
100
AcDbLine
 10
95.1085
 20
5.369
 30
0.0
 11
95.2467
 21
5.349978742927
 31
0.0
  0
LINE
  5
3FC
330
1D
100
AcDbEntity
  8
0
100
AcDbLine
 10
94.7509
 20
5.478
 30
0.0
 11
95.1085
 21
5.369
 31
0.0
  0
LINE
  5
3FE
330
1D
100
AcDbEntity
  8
0
100
AcDbLine
 10
95.2467
 20
5.725042206897
 30
0.0
 11
95.2467
 21
4.0
 31
0.0
  0
LINE
  5
3FF
330
1D
100
AcDbEntity
  8
0
100
AcDbLine
 10
99.2467
 20
5.662756045821
 30
0.0
 11
99.2467
 21
4.0
 31
0.0
  0
LINE
  5
401
330
1D
100
AcDbEntity
  8
0
100
AcDbLine
 10
98.6119
 20
5.755
 30
0.0
 11
99.5547
 21
5.618
 31
0.0
  0
LINE
  5
402
330
1D
100
AcDbEntity
  8
0
100
AcDbLine
 10
95.9223
 20
5.794
 30
0.0
 11
96.852
 21
5.825
 31
0.0
  0
LINE
  5
403
330
1D
100
AcDbEntity
  8
0
100
AcDbLine
 10
111.232
 20
6.039727013542
 30
0.0
 11
111.232
 21
6.648896551724
 31
0.0
  0
LINE
  5
405
330
1D
100
AcDbEntity
  8
0
100
AcDbLine
 10
115.61
 20
6.064
 30
0.0
 11
116.0
 21
6.283
 31
0.0
  0
LINE
  5
406
330
1D
100
AcDbEntity
  8
0
100
AcDbLine
 10
115.232
 20
6.018746478873
 30
0.0
 11
115.61
 21
6.064
 31
0.0
  0
LINE
  5
407
330
1D
100
AcDbEntity
  8
0
100
AcDbLine
 10
110.937
 20
6.074
 30
0.0
 11
111.232
 21
6.039727013542
 31
0.0
  0
LINE
  5
408
330
1D
100
AcDbEntity
  8
0
100
AcDbLine
 10
96.852
 20
5.825
 30
0.0
 11
97.7592
 21
5.81
 31
0.0
  0
LINE
  5
409
330
1D
100
AcDbEntity
  8
0
100
AcDbLine
 10
97.7592
 20
5.81
 30
0.0
 11
98.6119
 21
5.755
 31
0.0
  0
LINE
  5
40A
330
1D
100
AcDbEntity
  8
0
100
AcDbLine
 10
95.1973
 20
5.72
 30
0.0
 11
95.9223
 21
5.794
 31
0.0
  0
LINE
  5
40B
330
1D
100
AcDbEntity
  8
0
100
AcDbLine
 10
99.5547
 20
5.618
 30
0.0
 11
99.8862
 21
5.431
 31
0.0
  0
LINE
  5
40C
330
1D
100
AcDbEntity
  8
0
100
AcDbLine
 10
94.6996
 20
5.54
 30
0.0
 11
94.7509
 21
5.478
 31
0.0
  0
LINE
  5
40D
330
1D
100
AcDbEntity
  8
0
100
AcDbLine
 10
94.6996
 20
5.54
 30
0.0
 11
95.1973
 21
5.72
 31
0.0
  0
LINE
  5
410
330
1D
100
AcDbEntity
  8
0
100
AcDbLine
 10
90.729
 20
6.746
 30
0.0
 11
91.2004
 21
6.497
 31
0.0
  0
LINE
  5
412
330
1D
100
AcDbEntity
  8
0
100
AcDbLine
 10
110.4
 20
6.335
 30
0.0
 11
110.935
 21
6.603
 31
0.0
  0
LINE
  5
413
330
1D
100
AcDbEntity
  8
0
100
AcDbLine
 10
110.4
 20
6.335
 30
0.0
 11
110.937
 21
6.074
 31
0.0
  0
LINE
  5
414
330
1D
100
AcDbEntity
  8
0
100
AcDbLine
 10
115.232
 20
6.580775806452
 30
0.0
 11
115.232
 21
5.0
 31
0.0
  0
LINE
  5
415
330
1D
100
AcDbEntity
  8
0
100
AcDbLine
 10
111.232
 20
6.648896551724
 30
0.0
 11
111.232
 21
6.039727013542
 31
0.0
  0
LINE
  5
417
330
1D
100
AcDbEntity
  8
0
100
AcDbLine
 10
111.232
 20
6.648896551724
 30
0.0
 11
111.232
 21
5.0
 31
0.0
  0
LINE
  5
418
330
1D
100
AcDbEntity
  8
0
100
AcDbLine
 10
115.674
 20
6.502
 30
0.0
 11
116.0
 21
6.283
 31
0.0
  0
LINE
  5
419
330
1D
100
AcDbEntity
  8
0
100
AcDbLine
 10
115.232
 20
6.580775806452
 30
0.0
 11
115.674
 21
6.502
 31
0.0
  0
LINE
  5
41A
330
1D
100
AcDbEntity
  8
0
100
AcDbLine
 10
114.434
 20
6.723
 30
0.0
 11
115.674
 21
6.502
 31
0.0
  0
LINE
  5
41B
330
1D
100
AcDbEntity
  8
0
100
AcDbLine
 10
110.935
 20
6.603
 30
0.0
 11
111.718
 21
6.724
 31
0.0
  0
LINE
  5
41E
330
1D
100
AcDbEntity
  8
0
100
AcDbLine
 10
112.721
 20
6.783
 30
0.0
 11
114.434
 21
6.723
 31
0.0
  0
LINE
  5
41F
330
1D
100
AcDbEntity
  8
0
100
AcDbLine
 10
111.718
 20
6.724
 30
0.0
 11
112.721
 21
6.783
 31
0.0
  0
LINE
  5
420
330
1D
100
AcDbEntity
  8
0
100
AcDbLine
 10
91.0971
 20
6.389
 30
0.0
 11
91.2004
 21
6.497
 31
0.0
  0
LINE
  5
421
330
1D
100
AcDbEntity
  8
0
100
AcDbLine
 10
90.4004
 20
6.252983139212
 30
0.0
 11
91.0971
 21
6.389
 31
0.0
  0
LINE
  5
422
330
1D
100
AcDbEntity
  8
0
100
AcDbLine
 10
85.9996
 20
6.608
 30
0.0
 11
86.2833
 21
6.789
 31
0.0
  0
LINE
  5
423
330
1D
100
AcDbEntity
  8
0
100
AcDbLine
 10
85.9996
 20
6.608
 30
0.0
 11
86.4004
 21
6.414765769385
 31
0.0
  0
LINE
  5
425
330
1D
100
AcDbEntity
  8
0
100
AcDbLine
 10
86.4004
 20
6.809141140761
 30
0.0
 11
86.4004
 21
5.0
 31
0.0
  0
LINE
  5
427
330
1D
100
AcDbEntity
  8
0
100
AcDbLine
 10
87.074
 20
6.925
 30
0.0
 11
87.9492
 21
6.977
 31
0.0
  0
LINE
  5
428
330
1D
100
AcDbEntity
  8
0
100
AcDbLine
 10
87.9492
 20
6.977
 30
0.0
 11
89.4283
 21
6.926
 31
0.0
  0
LINE
  5
429
330
1D
100
AcDbEntity
  8
0
100
AcDbLine
 10
90.4004
 20
6.791473975552
 30
0.0
 11
90.4004
 21
5.0
 31
0.0
  0
LINE
  5
42B
330
1D
100
AcDbEntity
  8
0
100
AcDbLine
 10
89.4283
 20
6.926
 30
0.0
 11
90.729
 21
6.746
 31
0.0
  0
LINE
  5
42C
330
1D
100
AcDbEntity
  8
0
100
AcDbLine
 10
86.2833
 20
6.789
 30
0.0
 11
87.074
 21
6.925
 31
0.0
  0
LINE
  5
42D
330
1D
100
AcDbEntity
  8
0
100
AcDbLine
 10
79.1102
 20
5.392
 30
0.0
 11
79.5983
 21
5.582
 31
0.0
  0
LINE
  5
42E
330
1D
100
AcDbEntity
  8
0
100
AcDbLine
 10
78.6053
 20
5.351845105094
 30
0.0
 11
79.1102
 21
5.392
 31
0.0
  0
LINE
  5
42F
330
1D
100
AcDbEntity
  8
0
100
AcDbLine
 10
115.883
 20
1.0
 30
0.0
 11
117.283
 21
1.0
 31
0.0
  0
LINE
  5
430
330
1D
100
AcDbEntity
  8
0
100
AcDbLine
 10
115.883
 20
1.0
 30
0.0
 11
117.283
 21
1.0
 31
0.0
  0
LINE
  5
431
330
1D
100
AcDbEntity
  8
0
100
AcDbLine
 10
115.883
 20
1.0
 30
0.0
 11
117.283
 21
1.0
 31
0.0
  0
LINE
  5
432
330
1D
100
AcDbEntity
  8
0
100
AcDbLine
 10
117.283
 20
1.0
 30
0.0
 11
118.683
 21
1.0
 31
0.0
  0
LINE
  5
433
330
1D
100
AcDbEntity
  8
0
100
AcDbLine
 10
117.283
 20
1.0
 30
0.0
 11
118.683
 21
1.0
 31
0.0
  0
LINE
  5
434
330
1D
100
AcDbEntity
  8
0
100
AcDbLine
 10
118.683
 20
1.0
 30
0.0
 11
119.283
 21
1.0
 31
0.0
  0
LINE
  5
435
330
1D
100
AcDbEntity
  8
0
100
AcDbLine
 10
118.683
 20
1.0
 30
0.0
 11
119.283
 21
1.0
 31
0.0
  0
LINE
  5
436
330
1D
100
AcDbEntity
  8
0
100
AcDbLine
 10
117.283
 20
1.0
 30
0.0
 11
118.683
 21
1.0
 31
0.0
  0
LINE
  5
437
330
1D
100
AcDbEntity
  8
0
100
AcDbLine
 10
118.683
 20
1.0
 30
0.0
 11
119.283
 21
1.0
 31
0.0
  0
LINE
  5
438
330
1D
100
AcDbEntity
  8
0
100
AcDbLine
 10
119.283
 20
1.0
 30
0.0
 11
119.283
 21
2.0
 31
0.0
  0
LINE
  5
439
330
1D
100
AcDbEntity
  8
0
100
AcDbLine
 10
118.683
 20
1.0
 30
0.0
 11
119.283
 21
1.0
 31
0.0
  0
LINE
  5
43B
330
1D
100
AcDbEntity
  8
0
100
AcDbLine
 10
117.283
 20
1.0
 30
0.0
 11
118.683
 21
1.0
 31
0.0
  0
LINE
  5
43D
330
1D
100
AcDbEntity
  8
0
100
AcDbLine
 10
115.883
 20
1.0
 30
0.0
 11
117.283
 21
1.0
 31
0.0
  0
LINE
  5
43F
330
1D
100
AcDbEntity
  8
0
100
AcDbLine
 10
120.757
 20
2.0
 30
0.0
 11
120.757
 21
3.93735150079
 31
0.0
  0
LINE
  5
440
330
1D
100
AcDbEntity
  8
0
100
AcDbLine
 10
120.157
 20
2.0
 30
0.0
 11
120.757
 21
2.0
 31
0.0
  0
LINE
  5
442
330
1D
100
AcDbEntity
  8
0
100
AcDbLine
 10
118.757
 20
2.0
 30
0.0
 11
120.157
 21
2.0
 31
0.0
  0
LINE
  5
444
330
1D
100
AcDbEntity
  8
0
100
AcDbLine
 10
119.283
 20
2.0
 30
0.0
 11
119.283
 21
1.0
 31
0.0
  0
LINE
  5
447
330
1D
100
AcDbEntity
  8
0
100
AcDbLine
 10
117.357
 20
2.0
 30
0.0
 11
118.757
 21
2.0
 31
0.0
  0
LINE
  5
449
330
1D
100
AcDbEntity
  8
0
100
AcDbLine
 10
116.757
 20
2.0
 30
0.0
 11
117.357
 21
2.0
 31
0.0
  0
LINE
  5
44A
330
1D
100
AcDbEntity
  8
0
100
AcDbLine
 10
116.757
 20
2.0
 30
0.0
 11
116.757
 21
3.894641851107
 31
0.0
  0
LINE
  5
44B
330
1D
100
AcDbEntity
  8
0
100
AcDbLine
 10
119.283
 20
1.997968721372
 30
0.0
 11
127.077
 21
1.956147755529
 31
0.0
  0
LINE
  5
44C
330
1D
100
AcDbEntity
  8
0
100
AcDbLine
 10
120.757
 20
2.19683180778
 30
0.0
 11
123.454
 21
2.095
 31
0.0
  0
LINE
  5
44E
330
1D
100
AcDbEntity
  8
0
100
AcDbLine
 10
116.757
 20
3.894641851107
 30
0.0
 11
116.757
 21
2.0
 31
0.0
  0
LINE
  5
44F
330
1D
100
AcDbEntity
  8
0
100
AcDbLine
 10
116.3
 20
3.822
 30
0.0
 11
116.797
 21
3.901
 31
0.0
  0
LINE
  5
450
330
1D
100
AcDbEntity
  8
0
100
AcDbLine
 10
116.3
 20
3.822
 30
0.0
 11
116.757
 21
3.735565392354
 31
0.0
  0
LINE
  5
451
330
1D
100
AcDbEntity
  8
0
100
AcDbLine
 10
120.757
 20
3.717194805195
 30
0.0
 11
121.4
 21
3.784
 31
0.0
  0
LINE
  5
452
330
1D
100
AcDbEntity
  8
0
100
AcDbLine
 10
120.757
 20
3.93735150079
 30
0.0
 11
120.757
 21
2.0
 31
0.0
  0
LINE
  5
455
330
1D
100
AcDbEntity
  8
0
100
AcDbLine
 10
120.757
 20
3.93735150079
 30
0.0
 11
121.056
 21
3.922
 31
0.0
  0
LINE
  5
456
330
1D
100
AcDbEntity
  8
0
100
AcDbLine
 10
121.4
 20
3.784
 30
0.0
 11
121.492329411765
 21
3.825548235294
 31
0.0
  0
LINE
  5
457
330
1D
100
AcDbEntity
  8
0
100
AcDbLine
 10
121.056
 20
3.922
 30
0.0
 11
123.431
 21
3.397
 31
0.0
  0
LINE
  5
458
330
1D
100
AcDbEntity
  8
0
100
AcDbLine
 10
121.4
 20
3.783
 30
0.0
 11
121.492442040185
 21
3.825523338485
 31
0.0
  0
LINE
  5
459
330
1D
100
AcDbEntity
  8
0
100
AcDbLine
 10
120.757
 20
3.717122655123
 30
0.0
 11
121.4
 21
3.783
 31
0.0
  0
LINE
  5
45B
330
1D
100
AcDbEntity
  8
0
100
AcDbLine
 10
119.79
 20
3.987
 30
0.0
 11
121.056
 21
3.922
 31
0.0
  0
LINE
  5
45C
330
1D
100
AcDbEntity
  8
0
100
AcDbLine
 10
117.986
 20
3.981
 30
0.0
 11
119.79
 21
3.987
 31
0.0
  0
LINE
  5
45D
330
1D
100
AcDbEntity
  8
0
100
AcDbLine
 10
116.797
 20
3.901
 30
0.0
 11
117.986
 21
3.981
 31
0.0
  0
LINE
  5
45E
330
1D
100
AcDbEntity
  8
0
100
AcDbLine
 10
120.757
 20
2.197312600074
 30
0.0
 11
123.454
 21
2.095
 31
0.0
  0
LINE
  5
45F
330
1D
100
AcDbEntity
  8
0
100
AcDbLine
 10
127.677
 20
1.0
 30
0.0
 11
129.077
 21
1.0
 31
0.0
  0
LINE
  5
460
330
1D
100
AcDbEntity
  8
0
100
AcDbLine
 10
127.677
 20
1.0
 30
0.0
 11
129.077
 21
1.0
 31
0.0
  0
LINE
  5
461
330
1D
100
AcDbEntity
  8
0
100
AcDbLine
 10
127.077
 20
1.0
 30
0.0
 11
127.677
 21
1.0
 31
0.0
  0
LINE
  5
462
330
1D
100
AcDbEntity
  8
0
100
AcDbLine
 10
127.077
 20
1.0
 30
0.0
 11
127.677
 21
1.0
 31
0.0
  0
LINE
  5
463
330
1D
100
AcDbEntity
  8
0
100
AcDbLine
 10
127.077
 20
1.0
 30
0.0
 11
127.077
 21
1.956147755529
 31
0.0
  0
LINE
  5
464
330
1D
100
AcDbEntity
  8
0
100
AcDbLine
 10
130.477
 20
1.0
 30
0.0
 11
131.077
 21
1.0
 31
0.0
  0
LINE
  5
465
330
1D
100
AcDbEntity
  8
0
100
AcDbLine
 10
129.077
 20
1.0
 30
0.0
 11
130.477
 21
1.0
 31
0.0
  0
LINE
  5
466
330
1D
100
AcDbEntity
  8
0
100
AcDbLine
 10
130.477
 20
1.0
 30
0.0
 11
131.077
 21
1.0
 31
0.0
  0
LINE
  5
467
330
1D
100
AcDbEntity
  8
0
100
AcDbLine
 10
129.077
 20
1.0
 30
0.0
 11
130.477
 21
1.0
 31
0.0
  0
LINE
  5
468
330
1D
100
AcDbEntity
  8
0
100
AcDbLine
 10
127.677
 20
1.0
 30
0.0
 11
129.077
 21
1.0
 31
0.0
  0
LINE
  5
469
330
1D
100
AcDbEntity
  8
0
100
AcDbLine
 10
129.077
 20
1.0
 30
0.0
 11
130.477
 21
1.0
 31
0.0
  0
LINE
  5
46A
330
1D
100
AcDbEntity
  8
0
100
AcDbLine
 10
131.077
 20
1.0
 30
0.0
 11
131.077
 21
2.930720207254
 31
0.0
  0
LINE
  5
46B
330
1D
100
AcDbEntity
  8
0
100
AcDbLine
 10
130.477
 20
1.0
 30
0.0
 11
131.077
 21
1.0
 31
0.0
  0
LINE
  5
46C
330
1D
100
AcDbEntity
  8
0
100
AcDbLine
 10
127.077
 20
1.956147755529
 30
0.0
 11
127.077
 21
1.0
 31
0.0
  0
LINE
  5
46D
330
1D
100
AcDbEntity
  8
0
100
AcDbLine
 10
130.477
 20
1.0
 30
0.0
 11
131.077
 21
1.0
 31
0.0
  0
LINE
  5
46F
330
1D
100
AcDbEntity
  8
0
100
AcDbLine
 10
129.077
 20
1.0
 30
0.0
 11
130.477
 21
1.0
 31
0.0
  0
LINE
  5
471
330
1D
100
AcDbEntity
  8
0
100
AcDbLine
 10
127.677
 20
1.0
 30
0.0
 11
129.077
 21
1.0
 31
0.0
  0
LINE
  5
473
330
1D
100
AcDbEntity
  8
0
100
AcDbLine
 10
127.077
 20
1.0
 30
0.0
 11
127.677
 21
1.0
 31
0.0
  0
LINE
  5
474
330
1D
100
AcDbEntity
  8
0
100
AcDbLine
 10
127.077
 20
1.0
 30
0.0
 11
127.677
 21
1.0
 31
0.0
  0
LINE
  5
475
330
1D
100
AcDbEntity
  8
0
100
AcDbLine
 10
127.077
 20
1.0
 30
0.0
 11
127.077
 21
2.9261663286
 31
0.0
  0
LINE
  5
476
330
1D
100
AcDbEntity
  8
0
100
AcDbLine
 10
131.077
 20
2.04382916053
 30
0.0
 11
133.045
 21
2.096
 31
0.0
  0
LINE
  5
477
330
1D
100
AcDbEntity
  8
0
100
AcDbLine
 10
126.6
 20
2.849
 30
0.0
 11
126.755
 21
2.902
 31
0.0
  0
LINE
  5
478
330
1D
100
AcDbEntity
  8
0
100
AcDbLine
 10
127.077
 20
2.771490316004
 30
0.0
 11
127.077
 21
2.9261663286
 31
0.0
  0
LINE
  5
479
330
1D
100
AcDbEntity
  8
0
100
AcDbLine
 10
126.752
 20
2.797
 30
0.0
 11
127.077
 21
2.771490316004
 31
0.0
  0
LINE
  5
47A
330
1D
100
AcDbEntity
  8
0
100
AcDbLine
 10
124.202
 20
3.0
 30
0.0
 11
125.602
 21
3.0
 31
0.0
  0
LINE
  5
47B
330
1D
100
AcDbEntity
  8
0
100
AcDbLine
 10
125.602
 20
3.0
 30
0.0
 11
127.002
 21
3.0
 31
0.0
  0
LINE
  5
47C
330
1D
100
AcDbEntity
  8
0
100
AcDbLine
 10
125.602
 20
3.0
 30
0.0
 11
127.002
 21
3.0
 31
0.0
  0
LINE
  5
47E
330
1D
100
AcDbEntity
  8
0
100
AcDbLine
 10
124.202
 20
3.0
 30
0.0
 11
125.602
 21
3.0
 31
0.0
  0
LINE
  5
480
330
1D
100
AcDbEntity
  8
0
100
AcDbLine
 10
123.602
 20
3.0
 30
0.0
 11
124.202
 21
3.0
 31
0.0
  0
LINE
  5
481
330
1D
100
AcDbEntity
  8
0
100
AcDbLine
 10
123.602
 20
3.0
 30
0.0
 11
124.202
 21
3.0
 31
0.0
  0
LINE
  5
482
330
1D
100
AcDbEntity
  8
0
100
AcDbLine
 10
123.602
 20
3.0
 30
0.0
 11
123.602
 21
4.979951397327
 31
0.0
  0
LINE
  5
483
330
1D
100
AcDbEntity
  8
0
100
AcDbLine
 10
126.755
 20
2.902
 30
0.0
 11
127.077
 21
2.9261663286
 31
0.0
  0
LINE
  5
484
330
1D
100
AcDbEntity
  8
0
100
AcDbLine
 10
127.077
 20
2.9261663286
 30
0.0
 11
127.077
 21
2.771490316004
 31
0.0
  0
LINE
  5
486
330
1D
100
AcDbEntity
  8
0
100
AcDbLine
 10
127.077
 20
2.9261663286
 30
0.0
 11
127.077
 21
1.0
 31
0.0
  0
LINE
  5
487
330
1D
100
AcDbEntity
  8
0
100
AcDbLine
 10
127.002
 20
3.0
 30
0.0
 11
127.602
 21
3.0
 31
0.0
  0
LINE
  5
488
330
1D
100
AcDbEntity
  8
0
100
AcDbLine
 10
127.602
 20
3.0
 30
0.0
 11
127.602
 21
4.99959430331
 31
0.0
  0
LINE
  5
489
330
1D
100
AcDbEntity
  8
0
100
AcDbLine
 10
127.002
 20
3.0
 30
0.0
 11
127.602
 21
3.0
 31
0.0
  0
LINE
  5
48B
330
1D
100
AcDbEntity
  8
0
100
AcDbLine
 10
127.741
 20
2.976
 30
0.0
 11
129.072
 21
2.998
 31
0.0
  0
LINE
  5
48C
330
1D
100
AcDbEntity
  8
0
100
AcDbLine
 10
126.755
 20
2.902
 30
0.0
 11
127.741
 21
2.976
 31
0.0
  0
LINE
  5
48D
330
1D
100
AcDbEntity
  8
0
100
AcDbLine
 10
126.6
 20
2.849
 30
0.0
 11
126.752
 21
2.797
 31
0.0
  0
LINE
  5
48E
330
1D
100
AcDbEntity
  8
0
100
AcDbLine
 10
126.6
 20
2.849
 30
0.0
 11
126.755
 21
2.902
 31
0.0
  0
LINE
  5
491
330
1D
100
AcDbEntity
  8
0
100
AcDbLine
 10
122.95
 20
4.823
 30
0.0
 11
123.243
 21
4.903506542056
 31
0.0
  0
LINE
  5
493
330
1D
100
AcDbEntity
  8
0
100
AcDbLine
 10
128.159
 20
4.955
 30
0.0
 11
128.55
 21
4.828
 31
0.0
  0
LINE
  5
494
330
1D
100
AcDbEntity
  8
0
100
AcDbLine
 10
123.485
 20
4.683
 30
0.0
 11
123.602
 21
4.675990014265
 31
0.0
  0
LINE
  5
495
330
1D
100
AcDbEntity
  8
0
100
AcDbLine
 10
127.602
 20
4.661155279503
 30
0.0
 11
128.335
 21
4.734
 31
0.0
  0
LINE
  5
496
330
1D
100
AcDbEntity
  8
0
100
AcDbLine
 10
133.045
 20
2.096
 30
0.0
 11
136.562
 21
2.175
 31
0.0
  0
LINE
  5
497
330
1D
100
AcDbEntity
  8
0
100
AcDbLine
 10
131.65
 20
2.772
 30
0.0
 11
131.8
 21
2.823
 31
0.0
  0
LINE
  5
498
330
1D
100
AcDbEntity
  8
0
100
AcDbLine
 10
131.65
 20
2.772
 30
0.0
 11
131.8
 21
2.823
 31
0.0
  0
LINE
  5
499
330
1D
100
AcDbEntity
  8
0
100
AcDbLine
 10
131.219
 20
2.731
 30
0.0
 11
131.65
 21
2.772
 31
0.0
  0
LINE
  5
49A
330
1D
100
AcDbEntity
  8
0
100
AcDbLine
 10
131.077
 20
2.725544132918
 30
0.0
 11
131.219
 21
2.731
 31
0.0
  0
LINE
  5
49C
330
1D
100
AcDbEntity
  8
0
100
AcDbLine
 10
129.072
 20
2.998
 30
0.0
 11
130.265
 21
2.977
 31
0.0
  0
LINE
  5
49D
330
1D
100
AcDbEntity
  8
0
100
AcDbLine
 10
131.077
 20
2.930720207254
 30
0.0
 11
131.077
 21
1.0
 31
0.0
  0
LINE
  5
49F
330
1D
100
AcDbEntity
  8
0
100
AcDbLine
 10
131.273769859568
 20
2.919505344791
 30
0.0
 11
131.496139784381
 21
2.893927583487
 31
0.0
  0
LINE
  5
4A0
330
1D
100
AcDbEntity
  8
0
100
AcDbLine
 10
130.265
 20
2.977
 30
0.0
 11
131.423
 21
2.911
 31
0.0
  0
LINE
  5
4A1
330
1D
100
AcDbEntity
  8
0
100
AcDbLine
 10
131.423
 20
2.911
 30
0.0
 11
131.8
 21
2.823
 31
0.0
  0
LINE
  5
4A2
330
1D
100
AcDbEntity
  8
0
100
AcDbLine
 10
128.335
 20
4.734
 30
0.0
 11
128.55
 21
4.828
 31
0.0
  0
LINE
  5
4A3
330
1D
100
AcDbEntity
  8
0
100
AcDbLine
 10
131.077
 20
2.04382916053
 30
0.0
 11
133.045
 21
2.096
 31
0.0
  0
LINE
  5
4A4
330
1D
100
AcDbEntity
  8
0
100
AcDbLine
 10
139.432
 20
1.66251
 30
0.0
 11
141.46
 21
1.66251
 31
0.0
  0
LINE
  5
4A5
330
1D
100
AcDbEntity
  8
0
100
AcDbLine
 10
138.184
 20
1.66251
 30
0.0
 11
139.432
 21
1.66251
 31
0.0
  0
LINE
  5
4A6
330
1D
100
AcDbEntity
  8
0
100
AcDbLine
 10
139.432
 20
1.66251
 30
0.0
 11
141.46
 21
1.66251
 31
0.0
  0
LINE
  5
4A7
330
1D
100
AcDbEntity
  8
0
100
AcDbLine
 10
138.184
 20
1.66251
 30
0.0
 11
139.432
 21
1.66251
 31
0.0
  0
LINE
  5
4A8
330
1D
100
AcDbEntity
  8
0
100
AcDbLine
 10
137.716
 20
1.66251
 30
0.0
 11
138.184
 21
1.66251
 31
0.0
  0
LINE
  5
4A9
330
1D
100
AcDbEntity
  8
0
100
AcDbLine
 10
137.716
 20
1.66251
 30
0.0
 11
138.184
 21
1.66251
 31
0.0
  0
LINE
  5
4AA
330
1D
100
AcDbEntity
  8
0
100
AcDbLine
 10
139.12
 20
1.96251
 30
0.0
 11
141.2
 21
1.96251
 31
0.0
  0
LINE
  5
4AB
330
1D
100
AcDbEntity
  8
0
100
AcDbLine
 10
137.872
 20
1.96251
 30
0.0
 11
139.12
 21
1.96251
 31
0.0
  0
LINE
  5
4AC
330
1D
100
AcDbEntity
  8
0
100
AcDbLine
 10
137.404
 20
1.96251
 30
0.0
 11
137.872
 21
1.96251
 31
0.0
  0
LINE
  5
4AD
330
1D
100
AcDbEntity
  8
0
100
AcDbLine
 10
137.404
 20
1.96251
 30
0.0
 11
137.716
 21
1.66251
 31
0.0
  0
LINE
  5
4AE
330
1D
100
AcDbEntity
  8
0
100
AcDbLine
 10
137.404
 20
1.96251
 30
0.0
 11
137.404
 21
2.189536822228
 31
0.0
  0
LINE
  5
4AF
330
1D
100
AcDbEntity
  8
0
100
AcDbLine
 10
136.562
 20
2.175
 30
0.0
 11
137.404
 21
2.189536822228
 31
0.0
  0
LINE
  5
4B0
330
1D
100
AcDbEntity
  8
0
100
AcDbLine
 10
136.553
 20
3.0
 30
0.0
 11
137.953
 21
3.0
 31
0.0
  0
LINE
  5
4B2
330
1D
100
AcDbEntity
  8
0
100
AcDbLine
 10
135.153
 20
3.0
 30
0.0
 11
136.553
 21
3.0
 31
0.0
  0
LINE
  5
4B4
330
1D
100
AcDbEntity
  8
0
100
AcDbLine
 10
134.553
 20
3.0
 30
0.0
 11
135.153
 21
3.0
 31
0.0
  0
LINE
  5
4B5
330
1D
100
AcDbEntity
  8
0
100
AcDbLine
 10
134.553
 20
3.0
 30
0.0
 11
134.553
 21
4.392207224335
 31
0.0
  0
LINE
  5
4B6
330
1D
100
AcDbEntity
  8
0
100
AcDbLine
 10
138.553
 20
3.0
 30
0.0
 11
138.553
 21
4.384225501771
 31
0.0
  0
LINE
  5
4B7
330
1D
100
AcDbEntity
  8
0
100
AcDbLine
 10
137.953
 20
3.0
 30
0.0
 11
138.553
 21
3.0
 31
0.0
  0
LINE
  5
4B9
330
1D
100
AcDbEntity
  8
0
100
AcDbLine
 10
137.404
 20
2.189536822228
 30
0.0
 11
137.404
 21
1.96251
 31
0.0
  0
LINE
  5
4BA
330
1D
100
AcDbEntity
  8
0
100
AcDbLine
 10
136.562
 20
2.175
 30
0.0
 11
140.269
 21
2.239
 31
0.0
  0
LINE
  5
4BB
330
1D
100
AcDbEntity
  8
0
100
AcDbLine
 10
141.46
 20
1.66251
 30
0.0
 11
144.112
 21
1.66251
 31
0.0
  0
LINE
  5
4BC
330
1D
100
AcDbEntity
  8
0
100
AcDbLine
 10
141.46
 20
1.66251
 30
0.0
 11
144.112
 21
1.66251
 31
0.0
  0
LINE
  5
4BD
330
1D
100
AcDbEntity
  8
0
100
AcDbLine
 10
144.112
 20
1.66251
 30
0.0
 11
147.128
 21
1.66251
 31
0.0
  0
LINE
  5
4BF
330
1D
100
AcDbEntity
  8
0
100
AcDbLine
 10
147.128
 20
1.66251
 30
0.0
 11
150.404
 21
1.66251
 31
0.0
  0
LINE
  5
4C0
330
1D
100
AcDbEntity
  8
0
100
AcDbLine
 10
147.128
 20
1.66251
 30
0.0
 11
150.404
 21
1.66251
 31
0.0
  0
LINE
  5
4C1
330
1D
100
AcDbEntity
  8
0
100
AcDbLine
 10
144.112
 20
1.66251
 30
0.0
 11
147.128
 21
1.66251
 31
0.0
  0
LINE
  5
4C2
330
1D
100
AcDbEntity
  8
0
100
AcDbLine
 10
147.076
 20
1.96251
 30
0.0
 11
150.404
 21
1.96251
 31
0.0
  0
LINE
  5
4C3
330
1D
100
AcDbEntity
  8
0
100
AcDbLine
 10
143.956
 20
1.96251
 30
0.0
 11
147.076
 21
1.96251
 31
0.0
  0
LINE
  5
4C4
330
1D
100
AcDbEntity
  8
0
100
AcDbLine
 10
141.2
 20
1.96251
 30
0.0
 11
143.956
 21
1.96251
 31
0.0
  0
LINE
  5
4C6
330
1D
100
AcDbEntity
  8
0
100
AcDbLine
 10
148.737
 20
2.0
 30
0.0
 11
150.137
 21
2.0
 31
0.0
  0
LINE
  5
4C7
330
1D
100
AcDbEntity
  8
0
100
AcDbLine
 10
150.137
 20
2.0
 30
0.0
 11
151.537
 21
2.0
 31
0.0
  0
LINE
  5
4C8
330
1D
100
AcDbEntity
  8
0
100
AcDbLine
 10
152.137
 20
2.0
 30
0.0
 11
152.137
 21
3.162983903421
 31
0.0
  0
LINE
  5
4C9
330
1D
100
AcDbEntity
  8
0
100
AcDbLine
 10
151.537
 20
2.0
 30
0.0
 11
152.137
 21
2.0
 31
0.0
  0
LINE
  5
4CA
330
1D
100
AcDbEntity
  8
0
100
AcDbLine
 10
151.537
 20
2.0
 30
0.0
 11
152.137
 21
2.0
 31
0.0
  0
LINE
  5
4CC
330
1D
100
AcDbEntity
  8
0
100
AcDbLine
 10
150.137
 20
2.0
 30
0.0
 11
151.537
 21
2.0
 31
0.0
  0
LINE
  5
4CE
330
1D
100
AcDbEntity
  8
0
100
AcDbLine
 10
148.737
 20
2.0
 30
0.0
 11
150.137
 21
2.0
 31
0.0
  0
LINE
  5
4D0
330
1D
100
AcDbEntity
  8
0
100
AcDbLine
 10
148.137
 20
2.0
 30
0.0
 11
148.737
 21
2.0
 31
0.0
  0
LINE
  5
4D1
330
1D
100
AcDbEntity
  8
0
100
AcDbLine
 10
148.137
 20
2.0
 30
0.0
 11
148.737
 21
2.0
 31
0.0
  0
LINE
  5
4D2
330
1D
100
AcDbEntity
  8
0
100
AcDbLine
 10
148.137
 20
2.0
 30
0.0
 11
148.137
 21
3.0
 31
0.0
  0
LINE
  5
4EA
330
1D
100
AcDbEntity
  8
0
100
AcDbLine
 10
152.265
 20
2.93
 30
0.0
 11
152.8
 21
3.039
 31
0.0
  0
LINE
  5
4EB
330
1D
100
AcDbEntity
  8
0
100
AcDbLine
 10
152.137
 20
2.92291750503
 30
0.0
 11
152.265
 21
2.93
 31
0.0
  0
LINE
  5
4EC
330
1D
100
AcDbEntity
  8
0
100
AcDbLine
 10
146.132
 20
2.306
 30
0.0
 11
148.137
 21
2.307140933232
 31
0.0
  0
LINE
  5
505
330
1D
100
AcDbEntity
  8
0
100
AcDbLine
 10
148.137
 20
3.0
 30
0.0
 11
148.137
 21
2.0
 31
0.0
  0
LINE
  5
507
330
1D
100
AcDbEntity
  8
0
100
AcDbLine
 10
148.526
 20
3.0
 30
0.0
 11
149.926
 21
3.0
 31
0.0
  0
LINE
  5
508
330
1D
100
AcDbEntity
  8
0
100
AcDbLine
 10
149.926
 20
3.0
 30
0.0
 11
151.326
 21
3.0
 31
0.0
  0
LINE
  5
50B
330
1D
100
AcDbEntity
  8
0
100
AcDbLine
 10
151.926
 20
3.0
 30
0.0
 11
151.926
 21
5.156937590711
 31
0.0
  0
LINE
  5
50C
330
1D
100
AcDbEntity
  8
0
100
AcDbLine
 10
151.326
 20
3.0
 30
0.0
 11
151.926
 21
3.0
 31
0.0
  0
LINE
  5
50D
330
1D
100
AcDbEntity
  8
0
100
AcDbLine
 10
151.326
 20
3.0
 30
0.0
 11
151.926
 21
3.0
 31
0.0
  0
LINE
  5
50F
330
1D
100
AcDbEntity
  8
0
100
AcDbLine
 10
149.926
 20
3.0
 30
0.0
 11
151.326
 21
3.0
 31
0.0
  0
LINE
  5
511
330
1D
100
AcDbEntity
  8
0
100
AcDbLine
 10
148.526
 20
3.0
 30
0.0
 11
149.926
 21
3.0
 31
0.0
  0
LINE
  5
513
330
1D
100
AcDbEntity
  8
0
100
AcDbLine
 10
147.926
 20
3.0
 30
0.0
 11
148.526
 21
3.0
 31
0.0
  0
LINE
  5
514
330
1D
100
AcDbEntity
  8
0
100
AcDbLine
 10
147.926
 20
3.0
 30
0.0
 11
148.526
 21
3.0
 31
0.0
  0
LINE
  5
515
330
1D
100
AcDbEntity
  8
0
100
AcDbLine
 10
147.926
 20
3.0
 30
0.0
 11
147.926
 21
5.141150943396
 31
0.0
  0
LINE
  5
524
330
1D
100
AcDbEntity
  8
0
100
AcDbLine
 10
152.265
 20
3.155
 30
0.0
 11
152.8
 21
3.039
 31
0.0
  0
LINE
  5
525
330
1D
100
AcDbEntity
  8
0
100
AcDbLine
 10
152.137
 20
3.162983903421
 30
0.0
 11
152.137
 21
2.0
 31
0.0
  0
LINE
  5
526
330
1D
100
AcDbEntity
  8
0
100
AcDbLine
 10
147.735
 20
3.155
 30
0.0
 11
147.926
 21
3.162083443709
 31
0.0
  0
LINE
  5
527
330
1D
100
AcDbEntity
  8
0
100
AcDbLine
 10
147.2
 20
3.039
 30
0.0
 11
147.735
 21
3.155
 31
0.0
  0
LINE
  5
528
330
1D
100
AcDbEntity
  8
0
100
AcDbLine
 10
147.2
 20
3.039
 30
0.0
 11
147.735
 21
2.93
 31
0.0
  0
LINE
  5
529
330
1D
100
AcDbEntity
  8
0
100
AcDbLine
 10
147.735
 20
2.93
 30
0.0
 11
148.137
 21
2.907756539235
 31
0.0
  0
LINE
  5
52A
330
1D
100
AcDbEntity
  8
0
100
AcDbLine
 10
140.269
 20
2.239
 30
0.0
 11
146.132
 21
2.306
 31
0.0
  0
LINE
  5
52B
330
1D
100
AcDbEntity
  8
0
100
AcDbLine
 10
138.553
 20
4.116175438596
 30
0.0
 11
139.059
 21
4.165
 31
0.0
  0
LINE
  5
52C
330
1D
100
AcDbEntity
  8
0
100
AcDbLine
 10
138.553
 20
4.384225501771
 30
0.0
 11
138.553
 21
3.0
 31
0.0
  0
LINE
  5
52E
330
1D
100
AcDbEntity
  8
0
100
AcDbLine
 10
134.553
 20
4.392207224335
 30
0.0
 11
134.553
 21
3.0
 31
0.0
  0
LINE
  5
52F
330
1D
100
AcDbEntity
  8
0
100
AcDbLine
 10
134.235
 20
4.378
 30
0.0
 11
136.339
 21
4.472
 31
0.0
  0
LINE
  5
530
330
1D
100
AcDbEntity
  8
0
100
AcDbLine
 10
133.7
 20
4.254
 30
0.0
 11
134.235
 21
4.133
 31
0.0
  0
LINE
  5
531
330
1D
100
AcDbEntity
  8
0
100
AcDbLine
 10
133.7
 20
4.254
 30
0.0
 11
134.235
 21
4.378
 31
0.0
  0
LINE
  5
534
330
1D
100
AcDbEntity
  8
0
100
AcDbLine
 10
136.339
 20
4.472
 30
0.0
 11
138.148
 21
4.422
 31
0.0
  0
LINE
  5
535
330
1D
100
AcDbEntity
  8
0
100
AcDbLine
 10
138.148
 20
4.422
 30
0.0
 11
138.995
 21
4.343
 31
0.0
  0
LINE
  5
536
330
1D
100
AcDbEntity
  8
0
100
AcDbLine
 10
151.926
 20
4.839307692308
 30
0.0
 11
152.104
 21
4.853
 31
0.0
  0
LINE
  5
537
330
1D
100
AcDbEntity
  8
0
100
AcDbLine
 10
139.059
 20
4.165
 30
0.0
 11
139.3
 21
4.247
 31
0.0
  0
LINE
  5
538
330
1D
100
AcDbEntity
  8
0
100
AcDbLine
 10
138.995
 20
4.343
 30
0.0
 11
139.3
 21
4.247
 31
0.0
  0
LINE
  5
539
330
1D
100
AcDbEntity
  8
0
100
AcDbLine
 10
134.235
 20
4.133
 30
0.0
 11
134.553
 21
4.113804828974
 31
0.0
  0
LINE
  5
54A
330
1D
100
AcDbEntity
  8
0
100
AcDbLine
 10
152.104
 20
4.853
 30
0.0
 11
152.6
 21
4.995
 31
0.0
  0
LINE
  5
54B
330
1D
100
AcDbEntity
  8
0
100
AcDbLine
 10
151.926
 20
3.176144869215
 30
0.0
 11
152.265
 21
3.155
 31
0.0
  0
LINE
  5
54C
330
1D
100
AcDbEntity
  8
0
100
AcDbLine
 10
133.045
 20
2.096
 30
0.0
 11
136.562
 21
2.175
 31
0.0
  0
LINE
  5
54D
330
1D
100
AcDbEntity
  8
0
100
AcDbLine
 10
123.602
 20
4.979951397327
 30
0.0
 11
123.602
 21
3.0
 31
0.0
  0
LINE
  5
54F
330
1D
100
AcDbEntity
  8
0
100
AcDbLine
 10
123.485
 20
4.97
 30
0.0
 11
124.308
 21
5.04
 31
0.0
  0
LINE
  5
550
330
1D
100
AcDbEntity
  8
0
100
AcDbLine
 10
122.95
 20
4.823
 30
0.0
 11
123.485
 21
4.97
 31
0.0
  0
LINE
  5
551
330
1D
100
AcDbEntity
  8
0
100
AcDbLine
 10
122.95
 20
4.823
 30
0.0
 11
123.485
 21
4.683
 31
0.0
  0
LINE
  5
554
330
1D
100
AcDbEntity
  8
0
100
AcDbLine
 10
127.602
 20
4.99959430331
 30
0.0
 11
127.602
 21
3.0
 31
0.0
  0
LINE
  5
556
330
1D
100
AcDbEntity
  8
0
100
AcDbLine
 10
126.86
 20
5.059
 30
0.0
 11
128.159
 21
4.955
 31
0.0
  0
LINE
  5
557
330
1D
100
AcDbEntity
  8
0
100
AcDbLine
 10
134.0
 20
6.567
 30
0.0
 11
134.497
 21
6.848
 31
0.0
  0
LINE
  5
558
330
1D
100
AcDbEntity
  8
0
100
AcDbLine
 10
134.0
 20
6.567
 30
0.0
 11
134.498
 21
6.301
 31
0.0
  0
LINE
  5
559
330
1D
100
AcDbEntity
  8
0
100
AcDbLine
 10
135.364
 20
5.0
 30
0.0
 11
136.764
 21
5.0
 31
0.0
  0
LINE
  5
55A
330
1D
100
AcDbEntity
  8
0
100
AcDbLine
 10
136.764
 20
5.0
 30
0.0
 11
138.164
 21
5.0
 31
0.0
  0
LINE
  5
55B
330
1D
100
AcDbEntity
  8
0
100
AcDbLine
 10
138.164
 20
5.0
 30
0.0
 11
138.764
 21
5.0
 31
0.0
  0
LINE
  5
55C
330
1D
100
AcDbEntity
  8
0
100
AcDbLine
 10
138.164
 20
5.0
 30
0.0
 11
138.764
 21
5.0
 31
0.0
  0
LINE
  5
55E
330
1D
100
AcDbEntity
  8
0
100
AcDbLine
 10
136.764
 20
5.0
 30
0.0
 11
138.164
 21
5.0
 31
0.0
  0
LINE
  5
560
330
1D
100
AcDbEntity
  8
0
100
AcDbLine
 10
135.364
 20
5.0
 30
0.0
 11
136.764
 21
5.0
 31
0.0
  0
LINE
  5
562
330
1D
100
AcDbEntity
  8
0
100
AcDbLine
 10
134.764
 20
5.0
 30
0.0
 11
135.364
 21
5.0
 31
0.0
  0
LINE
  5
563
330
1D
100
AcDbEntity
  8
0
100
AcDbLine
 10
134.764
 20
5.0
 30
0.0
 11
135.364
 21
5.0
 31
0.0
  0
LINE
  5
564
330
1D
100
AcDbEntity
  8
0
100
AcDbLine
 10
134.764
 20
5.0
 30
0.0
 11
134.764
 21
6.885032183908
 31
0.0
  0
LINE
  5
568
330
1D
100
AcDbEntity
  8
0
100
AcDbLine
 10
134.764
 20
6.885032183908
 30
0.0
 11
134.764
 21
5.0
 31
0.0
  0
LINE
  5
56A
330
1D
100
AcDbEntity
  8
0
100
AcDbLine
 10
134.498
 20
6.301
 30
0.0
 11
134.764
 21
6.26856595092
 31
0.0
  0
LINE
  5
56C
330
1D
100
AcDbEntity
  8
0
100
AcDbLine
 10
138.764
 20
5.0
 30
0.0
 11
138.764
 21
6.800279918864
 31
0.0
  0
LINE
  5
57C
330
1D
100
AcDbEntity
  8
0
100
AcDbLine
 10
147.926
 20
5.141150943396
 30
0.0
 11
147.926
 21
3.0
 31
0.0
  0
LINE
  5
57E
330
1D
100
AcDbEntity
  8
0
100
AcDbLine
 10
151.926
 20
5.156937590711
 30
0.0
 11
151.926
 21
3.0
 31
0.0
  0
LINE
  5
57F
330
1D
100
AcDbEntity
  8
0
100
AcDbLine
 10
151.529
 20
5.199
 30
0.0
 11
152.218
 21
5.126
 31
0.0
  0
LINE
  5
580
330
1D
100
AcDbEntity
  8
0
100
AcDbLine
 10
152.218
 20
5.126
 30
0.0
 11
152.6
 21
4.995
 31
0.0
  0
LINE
  5
581
330
1D
100
AcDbEntity
  8
0
100
AcDbLine
 10
147.783
 20
5.126
 30
0.0
 11
148.472
 21
5.199
 31
0.0
  0
LINE
  5
58B
330
1D
100
AcDbEntity
  8
0
100
AcDbLine
 10
150.0
 20
5.249
 30
0.0
 11
151.529
 21
5.199
 31
0.0
  0
LINE
  5
58C
330
1D
100
AcDbEntity
  8
0
100
AcDbLine
 10
148.472
 20
5.199
 30
0.0
 11
150.0
 21
5.249
 31
0.0
  0
LINE
  5
593
330
1D
100
AcDbEntity
  8
0
100
AcDbLine
 10
138.764
 20
6.800279918864
 30
0.0
 11
138.764
 21
5.0
 31
0.0
  0
LINE
  5
5A0
330
1D
100
AcDbEntity
  8
0
100
AcDbLine
 10
138.764
 20
6.319176470588
 30
0.0
 11
139.2
 21
6.55
 31
0.0
  0
LINE
  5
5A1
330
1D
100
AcDbEntity
  8
0
100
AcDbLine
 10
138.707
 20
6.833
 30
0.0
 11
139.2
 21
6.55
 31
0.0
  0
LINE
  5
5A5
330
1D
100
AcDbEntity
  8
0
100
AcDbLine
 10
137.411
 20
7.023
 30
0.0
 11
138.707
 21
6.833
 31
0.0
  0
LINE
  5
5A6
330
1D
100
AcDbEntity
  8
0
100
AcDbLine
 10
134.497
 20
6.848
 30
0.0
 11
135.802
 21
7.029
 31
0.0
  0
LINE
  5
5A7
330
1D
100
AcDbEntity
  8
0
100
AcDbLine
 10
135.802
 20
7.029
 30
0.0
 11
137.411
 21
7.023
 31
0.0
  0
LINE
  5
5A8
330
1D
100
AcDbEntity
  8
0
100
AcDbLine
 10
124.308
 20
5.04
 30
0.0
 11
126.86
 21
5.059
 31
0.0
  0
LINE
  5
5A9
330
1D
100
AcDbEntity
  8
0
100
AcDbLine
 10
147.4
 20
4.995
 30
0.0
 11
147.897
 21
4.853
 31
0.0
  0
LINE
  5
5AA
330
1D
100
AcDbEntity
  8
0
100
AcDbLine
 10
147.4
 20
4.995
 30
0.0
 11
147.783
 21
5.126
 31
0.0
  0
LINE
  5
5AB
330
1D
100
AcDbEntity
  8
0
100
AcDbLine
 10
115.674
 20
6.502
 30
0.0
 11
116.0
 21
6.283
 31
0.0
  0
LINE
  5
5AD
330
1D
100
AcDbEntity
  8
0
100
AcDbLine
 10
22.6845
 20
8.227217413973
 30
0.0
 11
22.6845
 21
7.0
 31
0.0
  0
LINE
  5
5AF
330
1D
100
AcDbEntity
  8
0
100
AcDbLine
 10
23.387
 20
8.121
 30
0.0
 11
23.5
 21
8.046
 31
0.0
  0
LINE
  5
5B0
330
1D
100
AcDbEntity
  8
0
100
AcDbLine
 10
22.428
 20
8.266
 30
0.0
 11
23.387
 21
8.121
 31
0.0
  0
LINE
  5
5B1
330
1D
100
AcDbEntity
  8
0
100
AcDbLine
 10
18.6845
 20
8.769969879518
 30
0.0
 11
18.6845
 21
7.0
 31
0.0
  0
LINE
  5
5B3
330
1D
100
AcDbEntity
  8
0
100
AcDbLine
 10
25.8976
 20
8.439096340024
 30
0.0
 11
25.8976
 21
8.698553369272
 31
0.0
  0
LINE
  5
5B5
330
1D
100
AcDbEntity
  8
0
100
AcDbLine
 10
27.518
 20
8.595
 30
0.0
 11
29.238
 21
8.383
 31
0.0
  0
LINE
  5
5B6
330
1D
100
AcDbEntity
  8
0
100
AcDbLine
 10
25.606
 20
8.499
 30
0.0
 11
25.8976
 21
8.439096340024
 31
0.0
  0
LINE
  5
5B8
330
1D
100
AcDbEntity
  8
0
100
AcDbLine
 10
25.303609654792
 20
8.633584806951
 30
0.0
 11
25.835
 21
8.701
 31
0.0
  0
LINE
  5
5BA
330
1D
100
AcDbEntity
  8
0
100
AcDbLine
 10
25.8976
 20
8.698553369272
 30
0.0
 11
25.8976
 21
7.0
 31
0.0
  0
LINE
  5
5BB
330
1D
100
AcDbEntity
  8
0
100
AcDbLine
 10
25.8976
 20
8.698553369272
 30
0.0
 11
25.8976
 21
8.439096340024
 31
0.0
  0
LINE
  5
5BC
330
1D
100
AcDbEntity
  8
0
100
AcDbLine
 10
25.835
 20
8.701
 30
0.0
 11
25.8976
 21
8.698553369272
 31
0.0
  0
LINE
  5
5BD
330
1D
100
AcDbEntity
  8
0
100
AcDbLine
 10
25.835
 20
8.701
 30
0.0
 11
26.577
 21
8.672
 31
0.0
  0
LINE
  5
5BE
330
1D
100
AcDbEntity
  8
0
100
AcDbLine
 10
26.577
 20
8.672
 30
0.0
 11
27.518
 21
8.595
 31
0.0
  0
LINE
  5
5BF
330
1D
100
AcDbEntity
  8
0
100
AcDbLine
 10
25.299
 20
8.633
 30
0.0
 11
25.606
 21
8.499
 31
0.0
  0
LINE
  5
5C0
330
1D
100
AcDbEntity
  8
0
100
AcDbLine
 10
25.299
 20
8.633
 30
0.0
 11
25.835
 21
8.701
 31
0.0
  0
LINE
  5
5C2
330
1D
100
AcDbEntity
  8
0
100
AcDbLine
 10
20.095
 20
8.608
 30
0.0
 11
21.304
 21
8.439
 31
0.0
  0
LINE
  5
5C3
330
1D
100
AcDbEntity
  8
0
100
AcDbLine
 10
18.797
 20
8.765
 30
0.0
 11
20.095
 21
8.608
 31
0.0
  0
LINE
  5
5C4
330
1D
100
AcDbEntity
  8
0
100
AcDbLine
 10
21.304
 20
8.439
 30
0.0
 11
22.428
 21
8.266
 31
0.0
  0
LINE
  5
5C5
330
1D
100
AcDbEntity
  8
0
100
AcDbLine
 10
30.525
 20
8.143
 30
0.0
 11
30.9
 21
7.989
 31
0.0
  0
LINE
  5
5C6
330
1D
100
AcDbEntity
  8
0
100
AcDbLine
 10
29.8976
 20
8.259997668998
 30
0.0
 11
29.8976
 21
7.0
 31
0.0
  0
LINE
  5
5CA
330
1D
100
AcDbEntity
  8
0
100
AcDbLine
 10
30.525
 20
8.143
 30
0.0
 11
30.9
 21
7.989
 31
0.0
  0
LINE
  5
5CB
330
1D
100
AcDbEntity
  8
0
100
AcDbLine
 10
29.238
 20
8.383
 30
0.0
 11
30.525
 21
8.143
 31
0.0
  0
LINE
  5
5D2
330
1D
100
AcDbEntity
  8
0
100
AcDbLine
 10
22.6845
 20
8.09997673031
 30
0.0
 11
23.116
 21
8.049
 31
0.0
  0
LINE
  5
5D3
330
1D
100
AcDbEntity
  8
0
100
AcDbLine
 10
18.63
 20
8.438
 30
0.0
 11
18.6845
 21
8.429692073171
 31
0.0
  0
LINE
  5
5D4
330
1D
100
AcDbEntity
  8
0
100
AcDbLine
 10
129.09
 20
9.99
 30
0.0
 11
150.0
 21
9.982
 31
0.0
  0
LINE
  5
6DB
330
1D
100
AcDbEntity
  8
0
100
AcDbLine
 10
4.413
 20
10.979
 30
0.0
 11
4.666
 21
10.98
 31
0.0
  0
LINE
  5
6DC
330
1D
100
AcDbEntity
  8
0
100
AcDbLine
 10
4.413
 20
10.979
 30
0.0
 11
4.666
 21
10.98
 31
0.0
  0
LINE
  5
6DD
330
1D
100
AcDbEntity
  8
0
100
AcDbLine
 10
2.929839306907
 20
11.442087348683
 30
0.0
 11
3.776
 21
11.128
 31
0.0
  0
LINE
  5
6DF
330
1D
100
AcDbEntity
  8
0
100
AcDbLine
 10
2.929839306907
 20
11.442087348683
 30
0.0
 11
3.776
 21
11.128
 31
0.0
  0
LINE
  5
6E0
330
1D
100
AcDbEntity
  8
0
100
AcDbLine
 10
1.653
 20
12.378
 30
0.0
 11
2.332
 21
11.664
 31
0.0
  0
LINE
  5
6E1
330
1D
100
AcDbEntity
  8
0
100
AcDbLine
 10
3.776
 20
11.128
 30
0.0
 11
4.413
 21
10.979
 31
0.0
  0
LINE
  5
6E6
330
1D
100
AcDbEntity
  8
0
100
AcDbLine
 10
105.3
 20
10.019
 30
0.0
 11
129.09
 21
9.99
 31
0.0
  0
LINE
  5
6E8
330
1D
100
AcDbEntity
  8
0
100
AcDbLine
 10
86.39
 20
10.094
 30
0.0
 11
105.3
 21
10.019
 31
0.0
  0
LINE
  5
6E9
330
1D
100
AcDbEntity
  8
0
100
AcDbLine
 10
76.031
 20
10.169
 30
0.0
 11
86.39
 21
10.094
 31
0.0
  0
LINE
  5
6EA
330
1D
100
AcDbEntity
  8
0
100
AcDbLine
 10
63.632
 20
10.295
 30
0.0
 11
76.031
 21
10.169
 31
0.0
  0
LINE
  5
6EB
330
1D
100
AcDbEntity
  8
0
100
AcDbLine
 10
54.258
 20
10.416
 30
0.0
 11
63.632
 21
10.295
 31
0.0
  0
LINE
  5
6F9
330
1D
100
AcDbEntity
  8
0
100
AcDbLine
 10
39.441
 20
10.649
 30
0.0
 11
48.318
 21
10.504
 31
0.0
  0
LINE
  5
6FA
330
1D
100
AcDbEntity
  8
0
100
AcDbLine
 10
32.507
 20
10.77
 30
0.0
 11
39.441
 21
10.649
 31
0.0
  0
LINE
  5
6FB
330
1D
100
AcDbEntity
  8
0
100
AcDbLine
 10
27.775
 20
10.853
 30
0.0
 11
32.507
 21
10.77
 31
0.0
  0
LINE
  5
6FC
330
1D
100
AcDbEntity
  8
0
100
AcDbLine
 10
20.544
 20
10.828
 30
0.0
 11
27.775
 21
10.853
 31
0.0
  0
LINE
  5
6FD
330
1D
100
AcDbEntity
  8
0
100
AcDbLine
 10
48.318
 20
10.504
 30
0.0
 11
54.258
 21
10.416
 31
0.0
  0
LINE
  5
753
330
1D
100
AcDbEntity
  8
0
100
AcDbLine
 10
0.448
 20
35.154
 30
0.0
 11
0.792
 21
35.245
 31
0.0
  0
LINE
  5
754
330
1D
100
AcDbEntity
  8
0
100
AcDbLine
 10
0.993
 20
35.244
 30
0.0
 11
18.328
 21
37.605
 31
0.0
  0
LINE
  5
757
330
1D
100
AcDbEntity
  8
0
100
AcDbLine
 10
23.472
 20
38.289
 30
0.0
 11
37.841
 21
39.829
 31
0.0
  0
LINE
  5
758
330
1D
100
AcDbEntity
  8
0
100
AcDbLine
 10
18.328
 20
37.605
 30
0.0
 11
23.472
 21
38.289
 31
0.0
  0
LINE
  5
75B
330
1D
100
AcDbEntity
  8
0
100
AcDbLine
 10
0.993
 20
35.244
 30
0.0
 11
18.328
 21
37.605
 31
0.0
  0
LINE
  5
75C
330
1D
100
AcDbEntity
  8
0
100
AcDbLine
 10
52.532
 20
41.124
 30
0.0
 11
67.511
 21
42.185
 31
0.0
  0
LINE
  5
75F
330
1D
100
AcDbEntity
  8
0
100
AcDbLine
 10
71.469
 20
42.394
 30
0.0
 11
87.34
 21
43.217
 31
0.0
  0
LINE
  5
760
330
1D
100
AcDbEntity
  8
0
100
AcDbLine
 10
71.469
 20
42.394
 30
0.0
 11
87.341
 21
43.217
 31
0.0
  0
LINE
  5
761
330
1D
100
AcDbEntity
  8
0
100
AcDbLine
 10
67.511
 20
42.185
 30
0.0
 11
71.469
 21
42.394
 31
0.0
  0
LINE
  5
762
330
1D
100
AcDbEntity
  8
0
100
AcDbLine
 10
37.841
 20
39.829
 30
0.0
 11
52.532
 21
41.124
 31
0.0
  0
LINE
  5
763
330
1D
100
AcDbEntity
  8
0
100
AcDbLine
 10
0.792
 20
35.245
 30
0.0
 11
0.993
 21
35.244
 31
0.0
  0
LINE
  5
766
330
1D
100
AcDbEntity
  8
0
100
AcDbLine
 10
87.341
 20
43.217
 30
0.0
 11
94.013
 21
43.51
 31
0.0
  0
LINE
  5
768
330
1D
100
AcDbEntity
  8
0
100
AcDbLine
 10
87.34
 20
43.217
 30
0.0
 11
94.013
 21
43.51
 31
0.0
  0
LINE
  5
769
330
1D
100
AcDbEntity
  8
0
100
AcDbLine
 10
94.013
 20
43.51
 30
0.0
 11
103.97
 21
43.84
 31
0.0
  0
LINE
  5
770
330
1D
100
AcDbEntity
  8
0
100
AcDbLine
 10
0.292
 20
35.059
 30
0.0
 11
0.448
 21
35.154
 31
0.0
  0
LINE
  5
B0C
330
1D
100
AcDbEntity
  8
0
100
AcDbLine
 10
153.041
 20
44.128
 30
0.0
 11
156.016
 21
44.157
 31
0.0
  0
LINE
  5
B0D
330
1D
100
AcDbEntity
  8
0
100
AcDbLine
 10
150.0
 20
44.118
 30
0.0
 11
153.041
 21
44.128
 31
0.0
  0
LINE
  5
B0E
330
1D
100
AcDbEntity
  8
0
100
AcDbLine
 10
158.83
 20
44.201
 30
0.0
 11
161.39
 21
44.256
 31
0.0
  0
LINE
  5
B0F
330
1D
100
AcDbEntity
  8
0
100
AcDbLine
 10
156.016
 20
44.157
 30
0.0
 11
158.83
 21
44.201
 31
0.0
  0
LINE
  5
B10
330
1D
100
AcDbEntity
  8
0
100
AcDbLine
 10
146.959
 20
44.128
 30
0.0
 11
150.0
 21
44.118
 31
0.0
  0
LINE
  5
B11
330
1D
100
AcDbEntity
  8
0
100
AcDbLine
 10
143.984
 20
44.157
 30
0.0
 11
146.959
 21
44.128
 31
0.0
  0
LINE
  5
B14
330
1D
100
AcDbEntity
  8
0
100
AcDbLine
 10
121.28
 20
44.254
 30
0.0
 11
129.061
 21
44.373
 31
0.0
  0
LINE
  5
B15
330
1D
100
AcDbEntity
  8
0
100
AcDbLine
 10
120.216677001025
 20
44.228568704704
 30
0.0
 11
121.217
 21
44.256
 31
0.0
  0
LINE
  5
B18
330
1D
100
AcDbEntity
  8
0
100
AcDbLine
 10
141.171
 20
44.201
 30
0.0
 11
143.984
 21
44.157
 31
0.0
  0
LINE
  5
B22
330
1D
100
AcDbEntity
  8
0
100
AcDbLine
 10
121.217
 20
44.256
 30
0.0
 11
121.28
 21
44.254
 31
0.0
  0
LINE
  5
B23
330
1D
100
AcDbEntity
  8
0
100
AcDbLine
 10
129.061
 20
44.373
 30
0.0
 11
133.167
 21
44.418
 31
0.0
  0
LINE
  5
B24
330
1D
100
AcDbEntity
  8
0
100
AcDbLine
 10
136.508
 20
44.312
 30
0.0
 11
138.61
 21
44.256
 31
0.0
  0
LINE
  5
B25
330
1D
100
AcDbEntity
  8
0
100
AcDbLine
 10
161.39
 20
44.256
 30
0.0
 11
163.492
 21
44.312
 31
0.0
  0
LINE
  5
B26
330
1D
100
AcDbEntity
  8
0
100
AcDbLine
 10
138.61
 20
44.256
 30
0.0
 11
141.171
 21
44.201
 31
0.0
  0
LINE
  5
B27
330
1D
100
AcDbEntity
  8
0
100
AcDbLine
 10
134.83
 20
44.362
 30
0.0
 11
136.508
 21
44.312
 31
0.0
  0
LINE
  5
B28
330
1D
100
AcDbEntity
  8
0
100
AcDbLine
 10
134.029
 20
44.388827751196
 30
0.0
 11
134.029
 21
55.5
 31
0.0
  0
LINE
  5
B29
330
1D
100
AcDbEntity
  8
0
100
AcDbLine
 10
165.971
 20
44.388827751196
 30
0.0
 11
165.971
 21
55.5
 31
0.0
  0
LINE
  5
B2A
330
1D
100
AcDbEntity
  8
0
100
AcDbLine
 10
133.785
 20
44.397
 30
0.0
 11
134.83
 21
44.362
 31
0.0
  0
LINE
  5
B2B
330
1D
100
AcDbEntity
  8
0
100
AcDbLine
 10
166.690669287115
 20
44.391345684551
 30
0.0
 11
166.763
 21
44.415
 31
0.0
  0
LINE
  5
B2C
330
1D
100
AcDbEntity
  8
0
100
AcDbLine
 10
166.743
 20
44.405
 30
0.0
 11
166.833
 21
44.418
 31
0.0
  0
LINE
  5
B2D
330
1D
100
AcDbEntity
  8
0
100
AcDbLine
 10
166.215
 20
44.397
 30
0.0
 11
166.763
 21
44.415
 31
0.0
  0
LINE
  5
B2E
330
1D
100
AcDbEntity
  8
0
100
AcDbLine
 10
165.17
 20
44.362
 30
0.0
 11
166.215
 21
44.397
 31
0.0
  0
LINE
  5
B2F
330
1D
100
AcDbEntity
  8
0
100
AcDbLine
 10
166.763
 20
44.415
 30
0.0
 11
166.833
 21
44.418
 31
0.0
  0
LINE
  5
B30
330
1D
100
AcDbEntity
  8
0
100
AcDbLine
 10
163.492
 20
44.312
 30
0.0
 11
165.17
 21
44.362
 31
0.0
  0
LINE
  5
B31
330
1D
100
AcDbEntity
  8
0
100
AcDbLine
 10
133.237
 20
44.415
 30
0.0
 11
133.785
 21
44.397
 31
0.0
  0
LINE
  5
B32
330
1D
100
AcDbEntity
  8
0
100
AcDbLine
 10
134.147
 20
58.5668
 30
0.0
 11
134.498
 21
61.6156
 31
0.0
  0
LINE
  5
B33
330
1D
100
AcDbEntity
  8
0
100
AcDbLine
 10
135.623
 20
65.3018
 30
0.0
 11
136.033
 21
65.4
 31
0.0
  0
LINE
  5
B34
330
1D
100
AcDbEntity
  8
0
100
AcDbLine
 10
136.11
 20
65.4
 30
0.0
 11
136.424
 21
65.4
 31
0.0
  0
LINE
  5
B35
330
1D
100
AcDbEntity
  8
0
100
AcDbLine
 10
136.424
 20
65.4
 30
0.0
 11
136.97
 21
65.4
 31
0.0
  0
LINE
  5
B36
330
1D
100
AcDbEntity
  8
0
100
AcDbLine
 10
136.97
 20
65.4
 30
0.0
 11
137.739
 21
65.4
 31
0.0
  0
LINE
  5
B37
330
1D
100
AcDbEntity
  8
0
100
AcDbLine
 10
135.276
 20
65.0265
 30
0.0
 11
135.623
 21
65.3018
 31
0.0
  0
LINE
  5
B38
330
1D
100
AcDbEntity
  8
0
100
AcDbLine
 10
135.082
 20
64.6282
 30
0.0
 11
135.276
 21
65.0265
 31
0.0
  0
LINE
  5
B39
330
1D
100
AcDbEntity
  8
0
100
AcDbLine
 10
134.498
 20
61.6156
 30
0.0
 11
135.082
 21
64.6282
 31
0.0
  0
LINE
  5
B3A
330
1D
100
AcDbEntity
  8
0
100
AcDbLine
 10
138.719
 20
65.4
 30
0.0
 11
139.891
 21
65.4
 31
0.0
  0
LINE
  5
B3B
330
1D
100
AcDbEntity
  8
0
100
AcDbLine
 10
139.954804918155
 20
65.4
 30
0.0
 11
140.265
 21
65.8415
 31
0.0
  0
LINE
  5
B3C
330
1D
100
AcDbEntity
  8
0
100
AcDbLine
 10
141.372
 20
67.0449
 30
0.0
 11
141.588
 21
67.2393
 31
0.0
  0
LINE
  5
B3D
330
1D
100
AcDbEntity
  8
0
100
AcDbLine
 10
141.588
 20
67.2393
 30
0.0
 11
141.838
 21
67.5639
 31
0.0
  0
LINE
  5
B3E
330
1D
100
AcDbEntity
  8
0
100
AcDbLine
 10
141.618
 20
68.6857
 30
0.0
 11
141.856
 21
68.3505
 31
0.0
  0
LINE
  5
B3F
330
1D
100
AcDbEntity
  8
0
100
AcDbLine
 10
138.804
 20
71.5071
 30
0.0
 11
141.618
 21
68.6857
 31
0.0
  0
LINE
  5
B40
330
1D
100
AcDbEntity
  8
0
100
AcDbLine
 10
140.265
 20
65.8415
 30
0.0
 11
141.372
 21
67.0449
 31
0.0
  0
LINE
  5
B44
330
1D
100
AcDbEntity
  8
0
100
AcDbLine
 10
141.856
 20
68.3505
 30
0.0
 11
141.928
 21
67.9554
 31
0.0
  0
LINE
  5
B45
330
1D
100
AcDbEntity
  8
0
100
AcDbLine
 10
141.838
 20
67.5639
 30
0.0
 11
141.928
 21
67.9554
 31
0.0
  0
LINE
  5
B49
330
1D
100
AcDbEntity
  8
0
100
AcDbLine
 10
138.587
 20
71.8315
 30
0.0
 11
138.804
 21
71.5071
 31
0.0
  0
LINE
  5
B4A
330
1D
100
AcDbEntity
  8
0
100
AcDbLine
 10
138.506
 20
72.2142
 30
0.0
 11
138.527
 21
85.0
 31
0.0
  0
LINE
  5
B4B
330
1D
100
AcDbEntity
  8
0
100
AcDbLine
 10
138.506
 20
72.2142
 30
0.0
 11
138.587
 21
71.8315
 31
0.0
  0
LINE
  5
B4C
330
1D
100
AcDbEntity
  8
0
100
AcDbLine
 10
138.525
 20
85.0
 30
0.0
 11
138.525
 21
184.495
 31
0.0
  0
LINE
  5
B4D
330
1D
100
AcDbEntity
  8
0
100
AcDbLine
 10
139.087
 20
85.0
 30
0.0
 11
139.164
 21
85.0
 31
0.0
  0
LINE
  5
B4E
330
1D
100
AcDbEntity
  8
0
100
AcDbLine
 10
139.164
 20
85.0
 30
0.0
 11
139.789
 21
85.0
 31
0.0
  0
LINE
  5
B4F
330
1D
100
AcDbEntity
  8
0
100
AcDbLine
 10
138.74
 20
85.0
 30
0.0
 11
139.164
 21
85.0
 31
0.0
  0
LINE
  5
B50
330
1D
100
AcDbEntity
  8
0
100
AcDbLine
 10
138.527
 20
85.0
 30
0.0
 11
138.74
 21
85.0
 31
0.0
  0
LINE
  5
B51
330
1D
100
AcDbEntity
  8
0
100
AcDbLine
 10
142.742
 20
85.0
 30
0.0
 11
144.025
 21
85.0
 31
0.0
  0
LINE
  5
B52
330
1D
100
AcDbEntity
  8
0
100
AcDbLine
 10
141.595
 20
85.0
 30
0.0
 11
142.742
 21
85.0
 31
0.0
  0
LINE
  5
B53
330
1D
100
AcDbEntity
  8
0
100
AcDbLine
 10
140.605
 20
85.0
 30
0.0
 11
141.595
 21
85.0
 31
0.0
  0
LINE
  5
B54
330
1D
100
AcDbEntity
  8
0
100
AcDbLine
 10
140.605
 20
85.0
 30
0.0
 11
140.716
 21
85.0
 31
0.0
  0
LINE
  5
B55
330
1D
100
AcDbEntity
  8
0
100
AcDbLine
 10
110.149
 20
201.0
 30
0.0
 11
110.362
 21
201.0
 31
0.0
  0
LINE
  5
B56
330
1D
100
AcDbEntity
  8
0
100
AcDbLine
 10
110.54
 20
201.0
 30
0.0
 11
110.738
 21
201.0
 31
0.0
  0
LINE
  5
B57
330
1D
100
AcDbEntity
  8
0
100
AcDbLine
 10
110.362
 20
201.0
 30
0.0
 11
110.425
 21
201.0
 31
0.0
  0
LINE
  5
B58
330
1D
100
AcDbEntity
  8
0
100
AcDbLine
 10
110.738
 20
201.0
 30
0.0
 11
110.896
 21
201.0
 31
0.0
  0
LINE
  5
B59
330
1D
100
AcDbEntity
  8
0
100
AcDbLine
 10
110.787603835208
 20
187.052204022385
 30
0.0
 11
110.854
 21
186.382
 31
0.0
  0
LINE
  5
B5A
330
1D
100
AcDbEntity
  8
0
100
AcDbLine
 10
110.854
 20
186.382
 30
0.0
 11
111.223
 21
185.796
 31
0.0
  0
LINE
  5
B5B
330
1D
100
AcDbEntity
  8
0
100
AcDbLine
 10
110.0
 20
201.0
 30
0.0
 11
110.699
 21
187.554
 31
0.0
  0
LINE
  5
B5C
330
1D
100
AcDbEntity
  8
0
100
AcDbLine
 10
110.0
 20
201.0
 30
0.0
 11
110.149
 21
201.0
 31
0.0
  0
LINE
  5
B5D
330
1D
100
AcDbEntity
  8
0
100
AcDbLine
 10
113.126
 20
185.287
 30
0.0
 11
121.48
 21
184.915
 31
0.0
  0
LINE
  5
B5E
330
1D
100
AcDbEntity
  8
0
100
AcDbLine
 10
112.049
 20
185.375
 30
0.0
 11
113.126
 21
185.287
 31
0.0
  0
LINE
  5
B5F
330
1D
100
AcDbEntity
  8
0
100
AcDbLine
 10
111.858
 20
185.443
 30
0.0
 11
112.049
 21
185.375
 31
0.0
  0
LINE
  5
B60
330
1D
100
AcDbEntity
  8
0
100
AcDbLine
 10
111.673
 20
185.494
 30
0.0
 11
111.858
 21
185.443
 31
0.0
  0
LINE
  5
B61
330
1D
100
AcDbEntity
  8
0
100
AcDbLine
 10
111.169
 20
201.0
 30
0.0
 11
111.569
 21
201.0
 31
0.0
  0
LINE
  5
B62
330
1D
100
AcDbEntity
  8
0
100
AcDbLine
 10
112.704
 20
201.0
 30
0.0
 11
113.564
 21
201.0
 31
0.0
  0
LINE
  5
B63
330
1D
100
AcDbEntity
  8
0
100
AcDbLine
 10
111.819
 20
201.0
 30
0.0
 11
112.115
 21
201.0
 31
0.0
  0
LINE
  5
B64
330
1D
100
AcDbEntity
  8
0
100
AcDbLine
 10
114.793
 20
201.0
 30
0.0
 11
116.556
 21
201.0
 31
0.0
  0
LINE
  5
B65
330
1D
100
AcDbEntity
  8
0
100
AcDbLine
 10
113.564
 20
201.0
 30
0.0
 11
114.793
 21
201.0
 31
0.0
  0
LINE
  5
B66
330
1D
100
AcDbEntity
  8
0
100
AcDbLine
 10
112.115
 20
201.0
 30
0.0
 11
112.704
 21
201.0
 31
0.0
  0
LINE
  5
B67
330
1D
100
AcDbEntity
  8
0
100
AcDbLine
 10
111.569
 20
201.0
 30
0.0
 11
111.819
 21
201.0
 31
0.0
  0
LINE
  5
B68
330
1D
100
AcDbEntity
  8
0
100
AcDbLine
 10
111.223
 20
185.796
 30
0.0
 11
111.673
 21
185.494
 31
0.0
  0
LINE
  5
B69
330
1D
100
AcDbEntity
  8
0
100
AcDbLine
 10
110.896
 20
201.0
 30
0.0
 11
111.169
 21
201.0
 31
0.0
  0
LINE
  5
B6A
330
1D
100
AcDbEntity
  8
0
100
AcDbLine
 10
110.425
 20
201.0
 30
0.0
 11
110.54
 21
201.0
 31
0.0
  0
LINE
  5
B6B
330
1D
100
AcDbEntity
  8
0
100
AcDbLine
 10
138.988
 20
184.495
 30
0.0
 11
140.355
 21
184.468
 31
0.0
  0
LINE
  5
B6C
330
1D
100
AcDbEntity
  8
0
100
AcDbLine
 10
137.826
 20
184.471
 30
0.0
 11
138.353
 21
184.495
 31
0.0
  0
LINE
  5
B6D
330
1D
100
AcDbEntity
  8
0
100
AcDbLine
 10
137.826
 20
184.471
 30
0.0
 11
138.525
 21
184.469276202219
 31
0.0
  0
LINE
  5
B6E
330
1D
100
AcDbEntity
  8
0
100
AcDbLine
 10
137.826
 20
184.471
 30
0.0
 11
137.970786682469
 21
184.504137797044
 31
0.0
  0
LINE
  5
B6F
330
1D
100
AcDbEntity
  8
0
100
AcDbLine
 10
138.353
 20
184.495
 30
0.0
 11
138.988
 21
184.495
 31
0.0
  0
LINE
  5
B70
330
1D
100
AcDbEntity
  8
0
100
AcDbLine
 10
142.607
 20
184.475
 30
0.0
 11
144.786
 21
184.47
 31
0.0
  0
LINE
  5
B71
330
1D
100
AcDbEntity
  8
0
100
AcDbLine
 10
140.355
 20
184.468
 30
0.0
 11
142.607
 21
184.475
 31
0.0
  0
LINE
  5
B72
330
1D
100
AcDbEntity
  8
0
100
AcDbLine
 10
139.311
 20
201.0
 30
0.0
 11
164.966
 21
201.0
 31
0.0
  0
LINE
  5
B73
330
1D
100
AcDbEntity
  8
0
100
AcDbLine
 10
125.99
 20
201.0
 30
0.0
 11
139.311
 21
201.0
 31
0.0
  0
LINE
  5
B74
330
1D
100
AcDbEntity
  8
0
100
AcDbLine
 10
121.48
 20
184.915
 30
0.0
 11
137.826
 21
184.471
 31
0.0
  0
LINE
  5
B75
330
1D
100
AcDbEntity
  8
0
100
AcDbLine
 10
119.168
 20
201.0
 30
0.0
 11
125.99
 21
201.0
 31
0.0
  0
LINE
  5
B76
330
1D
100
AcDbEntity
  8
0
100
AcDbLine
 10
138.525
 20
184.495
 30
0.0
 11
138.525
 21
85.0
 31
0.0
  0
LINE
  5
B77
330
1D
100
AcDbEntity
  8
0
100
AcDbLine
 10
116.556
 20
201.0
 30
0.0
 11
119.168
 21
201.0
 31
0.0
  0
LINE
  5
B78
330
1D
100
AcDbEntity
  8
0
100
AcDbLine
 10
139.789
 20
85.0
 30
0.0
 11
140.605
 21
85.0
 31
0.0
  0
LINE
  5
B7F
330
1D
100
AcDbEntity
  8
0
100
AcDbLine
 10
149.67
 20
65.4
 30
0.0
 11
151.496
 21
65.4
 31
0.0
  0
LINE
  5
B83
330
1D
100
AcDbEntity
  8
0
100
AcDbLine
 10
151.496
 20
65.4
 30
0.0
 11
153.296
 21
65.4
 31
0.0
  0
LINE
  5
B84
330
1D
100
AcDbEntity
  8
0
100
AcDbLine
 10
153.296
 20
65.4
 30
0.0
 11
155.041
 21
65.4
 31
0.0
  0
LINE
  5
B8B
330
1D
100
AcDbEntity
  8
0
100
AcDbLine
 10
155.041
 20
65.4
 30
0.0
 11
156.698
 21
65.4
 31
0.0
  0
LINE
  5
B8E
330
1D
100
AcDbEntity
  8
0
100
AcDbLine
 10
156.698
 20
65.4
 30
0.0
 11
158.241
 21
65.4
 31
0.0
  0
LINE
  5
B92
330
1D
100
AcDbEntity
  8
0
100
AcDbLine
 10
158.409
 20
67.2394
 30
0.0
 11
159.045
 21
66.6278
 31
0.0
  0
LINE
  5
B93
330
1D
100
AcDbEntity
  8
0
100
AcDbLine
 10
158.162
 20
67.564
 30
0.0
 11
158.409
 21
67.2394
 31
0.0
  0
LINE
  5
B94
330
1D
100
AcDbEntity
  8
0
100
AcDbLine
 10
163.406
 20
65.4
 30
0.0
 11
163.805
 21
65.4
 31
0.0
  0
LINE
  5
B95
330
1D
100
AcDbEntity
  8
0
100
AcDbLine
 10
163.967
 20
65.4
 30
0.0
 11
164.377
 21
65.3018
 31
0.0
  0
LINE
  5
B96
330
1D
100
AcDbEntity
  8
0
100
AcDbLine
 10
163.805
 20
65.4
 30
0.0
 11
163.967
 21
65.4
 31
0.0
  0
LINE
  5
B97
330
1D
100
AcDbEntity
  8
0
100
AcDbLine
 10
162.778
 20
65.4
 30
0.0
 11
163.406
 21
65.4
 31
0.0
  0
LINE
  5
B98
330
1D
100
AcDbEntity
  8
0
100
AcDbLine
 10
161.931
 20
65.4
 30
0.0
 11
162.778
 21
65.4
 31
0.0
  0
LINE
  5
B99
330
1D
100
AcDbEntity
  8
0
100
AcDbLine
 10
159.643
 20
65.4
 30
0.0
 11
160.88
 21
65.4
 31
0.0
  0
LINE
  5
B9A
330
1D
100
AcDbEntity
  8
0
100
AcDbLine
 10
160.88
 20
65.4
 30
0.0
 11
161.931
 21
65.4
 31
0.0
  0
LINE
  5
B9B
330
1D
100
AcDbEntity
  8
0
100
AcDbLine
 10
164.377
 20
65.3018
 30
0.0
 11
164.724
 21
65.0265
 31
0.0
  0
LINE
  5
B9C
330
1D
100
AcDbEntity
  8
0
100
AcDbLine
 10
164.724
 20
65.0265
 30
0.0
 11
164.917
 21
64.6282
 31
0.0
  0
LINE
  5
B9D
330
1D
100
AcDbEntity
  8
0
100
AcDbLine
 10
165.502
 20
61.6156
 30
0.0
 11
165.853
 21
58.5668
 31
0.0
  0
LINE
  5
B9E
330
1D
100
AcDbEntity
  8
0
100
AcDbLine
 10
164.917
 20
64.6282
 30
0.0
 11
165.502
 21
61.6156
 31
0.0
  0
LINE
  5
B9F
330
1D
100
AcDbEntity
  8
0
100
AcDbLine
 10
165.853
 20
58.5668
 30
0.0
 11
165.971
 21
55.5
 31
0.0
  0
LINE
  5
BA0
330
1D
100
AcDbEntity
  8
0
100
AcDbLine
 10
159.045
 20
66.6278
 30
0.0
 11
160.071755580357
 21
65.4
 31
0.0
  0
LINE
  5
BA3
330
1D
100
AcDbEntity
  8
0
100
AcDbLine
 10
158.144
 20
68.3505
 30
0.0
 11
158.382
 21
68.6857
 31
0.0
  0
LINE
  5
BA4
330
1D
100
AcDbEntity
  8
0
100
AcDbLine
 10
158.382
 20
68.6857
 30
0.0
 11
161.196
 21
71.5071
 31
0.0
  0
LINE
  5
BA8
330
1D
100
AcDbEntity
  8
0
100
AcDbLine
 10
161.413
 20
71.8315
 30
0.0
 11
161.494
 21
72.2142
 31
0.0
  0
LINE
  5
BA9
330
1D
100
AcDbEntity
  8
0
100
AcDbLine
 10
161.196
 20
71.5071
 30
0.0
 11
161.413
 21
71.8315
 31
0.0
  0
LINE
  5
BAA
330
1D
100
AcDbEntity
  8
0
100
AcDbLine
 10
158.073
 20
67.9553
 30
0.0
 11
158.144
 21
68.3505
 31
0.0
  0
LINE
  5
BAB
330
1D
100
AcDbEntity
  8
0
100
AcDbLine
 10
158.073
 20
67.9553
 30
0.0
 11
158.162
 21
67.564
 31
0.0
  0
LINE
  5
BAD
330
1D
100
AcDbEntity
  8
0
100
AcDbLine
 10
146.454
 20
85.0
 30
0.0
 11
146.897
 21
85.0
 31
0.0
  0
LINE
  5
BB0
330
1D
100
AcDbEntity
  8
0
100
AcDbLine
 10
150.0
 20
85.0
 30
0.0
 11
151.566
 21
85.0
 31
0.0
  0
LINE
  5
BB2
330
1D
100
AcDbEntity
  8
0
100
AcDbLine
 10
155.975
 20
85.0
 30
0.0
 11
157.257
 21
85.0
 31
0.0
  0
LINE
  5
BB3
330
1D
100
AcDbEntity
  8
0
100
AcDbLine
 10
154.582
 20
85.0
 30
0.0
 11
155.975
 21
85.0
 31
0.0
  0
LINE
  5
BB4
330
1D
100
AcDbEntity
  8
0
100
AcDbLine
 10
153.103
 20
85.0
 30
0.0
 11
154.582
 21
85.0
 31
0.0
  0
LINE
  5
BB5
330
1D
100
AcDbEntity
  8
0
100
AcDbLine
 10
153.103
 20
85.0
 30
0.0
 11
153.547
 21
85.0
 31
0.0
  0
LINE
  5
BB6
330
1D
100
AcDbEntity
  8
0
100
AcDbLine
 10
151.566
 20
85.0
 30
0.0
 11
153.103
 21
85.0
 31
0.0
  0
LINE
  5
BB7
330
1D
100
AcDbEntity
  8
0
100
AcDbLine
 10
159.285
 20
85.0
 30
0.0
 11
159.395
 21
85.0
 31
0.0
  0
LINE
  5
BB8
330
1D
100
AcDbEntity
  8
0
100
AcDbLine
 10
161.476
 20
85.0
 30
0.0
 11
161.476
 21
184.479392523364
 31
0.0
  0
LINE
  5
BB9
330
1D
100
AcDbEntity
  8
0
100
AcDbLine
 10
161.26
 20
85.0
 30
0.0
 11
161.473
 21
85.0
 31
0.0
  0
LINE
  5
BBA
330
1D
100
AcDbEntity
  8
0
100
AcDbLine
 10
161.473
 20
85.0
 30
0.0
 11
161.494
 21
72.2142
 31
0.0
  0
LINE
  5
BBB
330
1D
100
AcDbEntity
  8
0
100
AcDbLine
 10
160.836
 20
85.0
 30
0.0
 11
161.26
 21
85.0
 31
0.0
  0
LINE
  5
BBC
330
1D
100
AcDbEntity
  8
0
100
AcDbLine
 10
160.836
 20
85.0
 30
0.0
 11
160.914
 21
85.0
 31
0.0
  0
LINE
  5
BBD
330
1D
100
AcDbEntity
  8
0
100
AcDbLine
 10
160.211
 20
85.0
 30
0.0
 11
160.836
 21
85.0
 31
0.0
  0
LINE
  5
BBE
330
1D
100
AcDbEntity
  8
0
100
AcDbLine
 10
159.395
 20
85.0
 30
0.0
 11
160.211
 21
85.0
 31
0.0
  0
LINE
  5
BBF
330
1D
100
AcDbEntity
  8
0
100
AcDbLine
 10
158.405
 20
85.0
 30
0.0
 11
159.395
 21
85.0
 31
0.0
  0
LINE
  5
BC0
330
1D
100
AcDbEntity
  8
0
100
AcDbLine
 10
157.257
 20
85.0
 30
0.0
 11
158.405
 21
85.0
 31
0.0
  0
LINE
  5
BC2
330
1D
100
AcDbEntity
  8
0
100
AcDbLine
 10
148.434
 20
85.0
 30
0.0
 11
150.0
 21
85.0
 31
0.0
  0
LINE
  5
BC4
330
1D
100
AcDbEntity
  8
0
100
AcDbLine
 10
146.897
 20
85.0
 30
0.0
 11
148.434
 21
85.0
 31
0.0
  0
LINE
  5
BC6
330
1D
100
AcDbEntity
  8
0
100
AcDbLine
 10
145.418
 20
85.0
 30
0.0
 11
146.897
 21
85.0
 31
0.0
  0
LINE
  5
BC7
330
1D
100
AcDbEntity
  8
0
100
AcDbLine
 10
144.786
 20
184.47
 30
0.0
 11
147.051
 21
184.497
 31
0.0
  0
LINE
  5
BC8
330
1D
100
AcDbEntity
  8
0
100
AcDbLine
 10
153.876
 20
184.469
 30
0.0
 11
157.048
 21
184.467
 31
0.0
  0
LINE
  5
BC9
330
1D
100
AcDbEntity
  8
0
100
AcDbLine
 10
157.048
 20
184.467
 30
0.0
 11
159.486
 21
184.462
 31
0.0
  0
LINE
  5
BCA
330
1D
100
AcDbEntity
  8
0
100
AcDbLine
 10
147.051
 20
184.497
 30
0.0
 11
150.008
 21
184.471
 31
0.0
  0
LINE
  5
BCB
330
1D
100
AcDbEntity
  8
0
100
AcDbLine
 10
160.878049408858
 20
184.493363331569
 30
0.0
 11
161.878
 21
184.47
 31
0.0
  0
LINE
  5
BCC
330
1D
100
AcDbEntity
  8
0
100
AcDbLine
 10
150.008
 20
184.471
 30
0.0
 11
153.876
 21
184.469
 31
0.0
  0
LINE
  5
BCD
330
1D
100
AcDbEntity
  8
0
100
AcDbLine
 10
161.878
 20
184.47
 30
0.0
 11
162.118
 21
184.471
 31
0.0
  0
LINE
  5
BCE
330
1D
100
AcDbEntity
  8
0
100
AcDbLine
 10
162.118
 20
184.471
 30
0.0
 11
176.952
 21
184.85
 31
0.0
  0
LINE
  5
BCF
330
1D
100
AcDbEntity
  8
0
100
AcDbLine
 10
164.966
 20
201.0
 30
0.0
 11
177.246
 21
201.0
 31
0.0
  0
LINE
  5
BD0
330
1D
100
AcDbEntity
  8
0
100
AcDbLine
 10
161.476
 20
184.479392523364
 30
0.0
 11
161.476
 21
85.0
 31
0.0
  0
LINE
  5
BD1
330
1D
100
AcDbEntity
  8
0
100
AcDbLine
 10
144.025
 20
85.0
 30
0.0
 11
145.418
 21
85.0
 31
0.0
  0
LINE
  5
BD3
330
1D
100
AcDbEntity
  8
0
100
AcDbLine
 10
134.029
 20
55.5
 30
0.0
 11
134.029
 21
44.388827751196
 31
0.0
  0
LINE
  5
BD4
330
1D
100
AcDbEntity
  8
0
100
AcDbLine
 10
134.029
 20
55.5
 30
0.0
 11
134.147
 21
58.5668
 31
0.0
  0
LINE
  5
BD5
330
1D
100
AcDbEntity
  8
0
100
AcDbLine
 10
165.971
 20
55.5
 30
0.0
 11
165.971
 21
44.388827751196
 31
0.0
  0
LINE
  5
BD6
330
1D
100
AcDbEntity
  8
0
100
AcDbLine
 10
133.167
 20
44.418
 30
0.0
 11
133.238
 21
44.415
 31
0.0
  0
LINE
  5
BD7
330
1D
100
AcDbEntity
  8
0
100
AcDbLine
 10
133.167
 20
44.418
 30
0.0
 11
133.237
 21
44.415
 31
0.0
  0
LINE
  5
BD8
330
1D
100
AcDbEntity
  8
0
100
AcDbLine
 10
133.167
 20
44.418
 30
0.0
 11
133.257
 21
44.405
 31
0.0
  0
LINE
  5
BD9
330
1D
100
AcDbEntity
  8
0
100
AcDbLine
 10
177.246
 20
201.0
 30
0.0
 11
181.736
 21
201.0
 31
0.0
  0
LINE
  5
BDC
330
1D
100
AcDbEntity
  8
0
100
AcDbLine
 10
184.751
 20
201.0
 30
0.0
 11
186.538
 21
201.0
 31
0.0
  0
LINE
  5
BDD
330
1D
100
AcDbEntity
  8
0
100
AcDbLine
 10
187.785626947129
 20
185.375069584991
 30
0.0
 11
188.193
 21
185.427
 31
0.0
  0
LINE
  5
BE2
330
1D
100
AcDbEntity
  8
0
100
AcDbLine
 10
181.736
 20
201.0
 30
0.0
 11
184.751
 21
201.0
 31
0.0
  0
LINE
  5
BE3
330
1D
100
AcDbEntity
  8
0
100
AcDbLine
 10
186.538
 20
201.0
 30
0.0
 11
187.811
 21
201.0
 31
0.0
  0
LINE
  5
BE4
330
1D
100
AcDbEntity
  8
0
100
AcDbLine
 10
188.531
 20
201.0
 30
0.0
 11
188.827
 21
201.0
 31
0.0
  0
LINE
  5
BE5
330
1D
100
AcDbEntity
  8
0
100
AcDbLine
 10
188.827
 20
201.0
 30
0.0
 11
189.047
 21
201.0
 31
0.0
  0
LINE
  5
BE6
330
1D
100
AcDbEntity
  8
0
100
AcDbLine
 10
189.147
 20
186.382
 30
0.0
 11
189.303
 21
187.554
 31
0.0
  0
LINE
  5
BE7
330
1D
100
AcDbEntity
  8
0
100
AcDbLine
 10
189.33
 20
201.0
 30
0.0
 11
189.491
 21
201.0
 31
0.0
  0
LINE
  5
BE8
330
1D
100
AcDbEntity
  8
0
100
AcDbLine
 10
189.64
 20
201.0
 30
0.0
 11
189.802
 21
201.0
 31
0.0
  0
LINE
  5
BE9
330
1D
100
AcDbEntity
  8
0
100
AcDbLine
 10
189.802
 20
201.0
 30
0.0
 11
189.936
 21
201.0
 31
0.0
  0
LINE
  5
BEA
330
1D
100
AcDbEntity
  8
0
100
AcDbLine
 10
189.936
 20
201.0
 30
0.0
 11
190.0
 21
201.0
 31
0.0
  0
LINE
  5
BEB
330
1D
100
AcDbEntity
  8
0
100
AcDbLine
 10
189.303
 20
187.554
 30
0.0
 11
190.0
 21
201.0
 31
0.0
  0
LINE
  5
BEC
330
1D
100
AcDbEntity
  8
0
100
AcDbLine
 10
189.21
 20
201.0
 30
0.0
 11
189.33
 21
201.0
 31
0.0
  0
LINE
  5
BED
330
1D
100
AcDbEntity
  8
0
100
AcDbLine
 10
189.047
 20
201.0
 30
0.0
 11
189.21
 21
201.0
 31
0.0
  0
LINE
  5
BEE
330
1D
100
AcDbEntity
  8
0
100
AcDbLine
 10
189.491
 20
201.0
 30
0.0
 11
189.64
 21
201.0
 31
0.0
  0
LINE
  5
BEF
330
1D
100
AcDbEntity
  8
0
100
AcDbLine
 10
188.778
 20
185.796
 30
0.0
 11
189.147
 21
186.382
 31
0.0
  0
LINE
  5
BF0
330
1D
100
AcDbEntity
  8
0
100
AcDbLine
 10
188.193
 20
185.427
 30
0.0
 11
188.778
 21
185.796
 31
0.0
  0
LINE
  5
BF1
330
1D
100
AcDbEntity
  8
0
100
AcDbLine
 10
187.811
 20
201.0
 30
0.0
 11
188.531
 21
201.0
 31
0.0
  0
LINE
  5
BFF
330
1D
100
AcDbEntity
  8
0
100
AcDbLine
 10
0.001
 20
34.325
 30
0.0
 11
0.109
 21
27.899
 31
0.0
  0
LINE
  5
C27
330
1D
100
AcDbEntity
  8
0
100
AcDbLine
 10
159.486
 20
184.462
 30
0.0
 11
160.878049408858
 21
184.493363331569
 31
0.0
  0
LINE
  5
C28
330
1D
100
AcDbEntity
  8
0
100
AcDbLine
 10
176.952
 20
184.85
 30
0.0
 11
187.785626947129
 21
185.375069584991
 31
0.0
  0
LINE
  5
C29
330
1D
100
AcDbEntity
  8
0
100
AcDbLine
 10
137.739
 20
65.4
 30
0.0
 11
159.643
 21
65.4
 31
0.0
  0
LINE
  5
C2A
330
1D
100
AcDbEntity
  8
0
100
AcDbLine
 10
136.033
 20
65.4
 30
0.0
 11
136.11
 21
65.4
 31
0.0
  0
LINE
  5
C2B
330
1D
100
AcDbEntity
  8
0
100
AcDbLine
 10
0.001
 20
34.325
 30
0.0
 11
0.110468704166
 21
34.711702791121
 31
0.0
  0
LINE
  5
C2C
330
1D
100
AcDbEntity
  8
0
100
AcDbLine
 10
0.110468704166
 20
34.711702791121
 30
0.0
 11
0.292
 21
35.059
 31
0.0
  0
LINE
  5
C2D
330
1D
100
AcDbEntity
  8
0
100
AcDbLine
 10
103.97
 20
43.84
 30
0.0
 11
120.216677001025
 21
44.228568704704
 31
0.0
  0
LINE
  5
C2E
330
1D
100
AcDbEntity
  8
0
100
AcDbLine
 10
2.332
 20
11.664
 30
0.0
 11
2.929839306907
 21
11.442087348683
 31
0.0
  0
LINE
  5
C2F
330
1D
100
AcDbEntity
  8
0
100
AcDbLine
 10
20.544
 20
10.828
 30
0.0
 11
4.666
 21
10.98
 31
0.0
  0
LINE
  5
C30
330
1D
100
AcDbEntity
  8
0
100
AcDbLine
 10
12.755
 20
9.35
 30
0.0
 11
4.413
 21
10.979
 31
0.0
  0
LINE
  5
C31
330
1D
100
AcDbEntity
  8
0
100
AcDbLine
 10
170.91
 20
9.99
 30
0.0
 11
150.0
 21
9.982
 31
0.0
  0
LINE
  5
C32
330
1D
100
AcDbEntity
  8
0
100
AcDbLine
 10
225.1893
 20
1.0
 30
0.0
 11
224.5893
 21
1.0
 31
0.0
  0
LINE
  5
C33
330
1D
100
AcDbEntity
  8
0
100
AcDbLine
 10
225.1893
 20
1.0
 30
0.0
 11
224.5893
 21
1.0
 31
0.0
  0
LINE
  5
C34
330
1D
100
AcDbEntity
  8
0
100
AcDbLine
 10
225.9798
 20
2.0
 30
0.0
 11
224.5798
 21
2.0
 31
0.0
  0
LINE
  5
C35
330
1D
100
AcDbEntity
  8
0
100
AcDbLine
 10
225.3947
 20
4.0
 30
0.0
 11
224.7947
 21
4.0
 31
0.0
  0
LINE
  5
C36
330
1D
100
AcDbEntity
  8
0
100
AcDbLine
 10
225.3947
 20
4.0
 30
0.0
 11
224.7947
 21
4.0
 31
0.0
  0
LINE
  5
C37
330
1D
100
AcDbEntity
  8
0
100
AcDbLine
 10
226.5654
 20
3.666
 30
0.0
 11
224.8351
 21
3.627
 31
0.0
  0
LINE
  5
C38
330
1D
100
AcDbEntity
  8
0
100
AcDbLine
 10
225.7599
 20
5.85
 30
0.0
 11
224.3017
 21
5.95
 31
0.0
  0
LINE
  5
C39
330
1D
100
AcDbEntity
  8
0
100
AcDbLine
 10
236.368
 20
10.295
 30
0.0
 11
223.969
 21
10.169
 31
0.0
  0
LINE
  5
C3A
330
1D
100
AcDbEntity
  8
0
100
AcDbLine
 10
228.531
 20
42.394
 30
0.0
 11
212.66
 21
43.217
 31
0.0
  0
LINE
  5
C3B
330
1D
100
AcDbEntity
  8
0
100
AcDbLine
 10
228.531
 20
42.394
 30
0.0
 11
212.659
 21
43.217
 31
0.0
  0
LINE
  5
C3C
330
1D
100
AcDbEntity
  8
0
100
AcDbLine
 10
262.5751
 20
5.0
 30
0.0
 11
261.9751
 21
5.0
 31
0.0
  0
LINE
  5
C3D
330
1D
100
AcDbEntity
  8
0
100
AcDbLine
 10
262.5751
 20
5.0
 30
0.0
 11
261.9751
 21
5.0
 31
0.0
  0
LINE
  5
C3E
330
1D
100
AcDbEntity
  8
0
100
AcDbLine
 10
263.198
 20
6.168
 30
0.0
 11
262.162
 21
6.065
 31
0.0
  0
LINE
  5
C3F
330
1D
100
AcDbEntity
  8
0
100
AcDbLine
 10
262.7
 20
6.774
 30
0.0
 11
262.166
 21
6.629
 31
0.0
  0
LINE
  5
C40
330
1D
100
AcDbEntity
  8
0
100
AcDbLine
 10
262.7
 20
6.774
 30
0.0
 11
262.165
 21
6.84
 31
0.0
  0
LINE
  5
C41
330
1D
100
AcDbEntity
  8
0
100
AcDbLine
 10
267.493
 20
10.77
 30
0.0
 11
260.559
 21
10.649
 31
0.0
  0
LINE
  5
C42
330
1D
100
AcDbEntity
  8
0
100
AcDbLine
 10
276.528
 20
38.289
 30
0.0
 11
262.159
 21
39.829
 31
0.0
  0
LINE
  5
C43
330
1D
100
AcDbEntity
  8
0
100
AcDbLine
 10
299.007
 20
35.244
 30
0.0
 11
281.672
 21
37.605
 31
0.0
  0
LINE
  5
C44
330
1D
100
AcDbEntity
  8
0
100
AcDbLine
 10
299.007
 20
35.244
 30
0.0
 11
281.672
 21
37.605
 31
0.0
  0
LINE
  5
C45
330
1D
100
AcDbEntity
  8
0
100
AcDbLine
 10
281.7539
 20
7.0
 30
0.0
 11
280.3539
 21
7.0
 31
0.0
  0
LINE
  5
C46
330
1D
100
AcDbEntity
  8
0
100
AcDbLine
 10
281.9221
 20
7.0
 30
0.0
 11
280.5221
 21
7.0
 31
0.0
  0
LINE
  5
C47
330
1D
100
AcDbEntity
  8
0
100
AcDbLine
 10
281.7539
 20
7.0
 30
0.0
 11
280.3539
 21
7.0
 31
0.0
  0
LINE
  5
C48
330
1D
100
AcDbEntity
  8
0
100
AcDbLine
 10
281.701
 20
8.787
 30
0.0
 11
281.203
 21
8.765
 31
0.0
  0
LINE
  5
C49
330
1D
100
AcDbEntity
  8
0
100
AcDbLine
 10
281.3155
 20
7.0
 30
0.0
 11
280.7155
 21
7.0
 31
0.0
  0
LINE
  5
C4A
330
1D
100
AcDbEntity
  8
0
100
AcDbLine
 10
281.3155
 20
7.0
 30
0.0
 11
280.7155
 21
7.0
 31
0.0
  0
LINE
  5
C4B
330
1D
100
AcDbEntity
  8
0
100
AcDbLine
 10
279.456
 20
10.828
 30
0.0
 11
295.334
 21
10.98
 31
0.0
  0
LINE
  5
C4C
330
1D
100
AcDbEntity
  8
0
100
AcDbLine
 10
299.891
 20
27.899
 30
0.0
 11
299.288
 21
14.852
 31
0.0
  0
LINE
  5
C4D
330
1D
100
AcDbEntity
  8
0
100
AcDbLine
 10
299.891
 20
27.899
 30
0.0
 11
299.288
 21
14.852
 31
0.0
  0
LINE
  5
C4E
330
1D
100
AcDbEntity
  8
0
100
AcDbLine
 10
287.245
 20
9.35
 30
0.0
 11
295.587
 21
10.979
 31
0.0
  0
LINE
  5
C4F
330
1D
100
AcDbEntity
  8
0
100
AcDbLine
 10
299.084
 20
13.488
 30
0.0
 11
298.804
 21
12.839
 31
0.0
  0
LINE
  5
C50
330
1D
100
AcDbEntity
  8
0
100
AcDbLine
 10
298.804
 20
12.839
 30
0.0
 11
298.347
 21
12.378
 31
0.0
  0
LINE
  5
C51
330
1D
100
AcDbEntity
  8
0
100
AcDbLine
 10
299.288
 20
14.852
 30
0.0
 11
299.084
 21
13.488
 31
0.0
  0
LINE
  5
C52
330
1D
100
AcDbEntity
  8
0
100
AcDbLine
 10
295.587
 20
10.979
 30
0.0
 11
295.334
 21
10.98
 31
0.0
  0
LINE
  5
C53
330
1D
100
AcDbEntity
  8
0
100
AcDbLine
 10
295.587
 20
10.979
 30
0.0
 11
295.334
 21
10.98
 31
0.0
  0
LINE
  5
C54
330
1D
100
AcDbEntity
  8
0
100
AcDbLine
 10
297.070160693093
 20
11.442087348683
 30
0.0
 11
296.224
 21
11.128
 31
0.0
  0
LINE
  5
C55
330
1D
100
AcDbEntity
  8
0
100
AcDbLine
 10
297.070160693093
 20
11.442087348683
 30
0.0
 11
296.224
 21
11.128
 31
0.0
  0
LINE
  5
C56
330
1D
100
AcDbEntity
  8
0
100
AcDbLine
 10
298.347
 20
12.378
 30
0.0
 11
297.668
 21
11.664
 31
0.0
  0
LINE
  5
C57
330
1D
100
AcDbEntity
  8
0
100
AcDbLine
 10
296.224
 20
11.128
 30
0.0
 11
295.587
 21
10.979
 31
0.0
  0
LINE
  5
C58
330
1D
100
AcDbEntity
  8
0
100
AcDbLine
 10
297.668
 20
11.664
 30
0.0
 11
297.070160693093
 21
11.442087348683
 31
0.0
  0
LINE
  5
C59
330
1D
100
AcDbEntity
  8
0
100
AcDbLine
 10
287.245
 20
9.35
 30
0.0
 11
283.7539
 21
8.755844140333
 31
0.0
  0
LINE
  5
C5A
330
1D
100
AcDbEntity
  8
0
100
AcDbLine
 10
283.7539
 20
7.0
 30
0.0
 11
283.1539
 21
7.0
 31
0.0
  0
LINE
  5
C5B
330
1D
100
AcDbEntity
  8
0
100
AcDbLine
 10
283.9221
 20
7.0
 30
0.0
 11
283.3221
 21
7.0
 31
0.0
  0
LINE
  5
C5C
330
1D
100
AcDbEntity
  8
0
100
AcDbLine
 10
283.7539
 20
7.0
 30
0.0
 11
283.1539
 21
7.0
 31
0.0
  0
LINE
  5
C5D
330
1D
100
AcDbEntity
  8
0
100
AcDbLine
 10
284.058
 20
8.834
 30
0.0
 11
283.019
 21
8.686
 31
0.0
  0
LINE
  5
C5E
330
1D
100
AcDbEntity
  8
0
100
AcDbLine
 10
284.058
 20
8.834
 30
0.0
 11
283.9221
 21
8.814641770934
 31
0.0
  0
LINE
  5
C5F
330
1D
100
AcDbEntity
  8
0
100
AcDbLine
 10
284.201
 20
8.846
 30
0.0
 11
284.058
 21
8.834
 31
0.0
  0
LINE
  5
C60
330
1D
100
AcDbEntity
  8
0
100
AcDbLine
 10
283.9221
 20
7.0
 30
0.0
 11
283.9221
 21
8.72196391226
 31
0.0
  0
LINE
  5
C62
330
1D
100
AcDbEntity
  8
0
100
AcDbLine
 10
283.9221
 20
8.72196391226
 30
0.0
 11
283.9221
 21
7.0
 31
0.0
  0
LINE
  5
C64
330
1D
100
AcDbEntity
  8
0
100
AcDbLine
 10
283.917
 20
8.721
 30
0.0
 11
283.7539
 21
8.695193037975
 31
0.0
  0
LINE
  5
C65
330
1D
100
AcDbEntity
  8
0
100
AcDbLine
 10
283.943
 20
8.791
 30
0.0
 11
283.7539
 21
8.758032775453
 31
0.0
  0
LINE
  5
C66
330
1D
100
AcDbEntity
  8
0
100
AcDbLine
 10
284.201
 20
8.846
 30
0.0
 11
284.058
 21
8.834
 31
0.0
  0
LINE
  5
C67
330
1D
100
AcDbEntity
  8
0
100
AcDbLine
 10
284.201
 20
8.846
 30
0.0
 11
283.943
 21
8.791
 31
0.0
  0
LINE
  5
C68
330
1D
100
AcDbEntity
  8
0
100
AcDbLine
 10
283.1539
 20
7.0
 30
0.0
 11
281.7539
 21
7.0
 31
0.0
  0
LINE
  5
C69
330
1D
100
AcDbEntity
  8
0
100
AcDbLine
 10
283.3221
 20
7.0
 30
0.0
 11
281.9221
 21
7.0
 31
0.0
  0
LINE
  5
C6C
330
1D
100
AcDbEntity
  8
0
100
AcDbLine
 10
283.1539
 20
7.0
 30
0.0
 11
281.7539
 21
7.0
 31
0.0
  0
LINE
  5
C6F
330
1D
100
AcDbEntity
  8
0
100
AcDbLine
 10
281.701
 20
8.787
 30
0.0
 11
281.3155
 21
8.686275534442
 31
0.0
  0
LINE
  5
C70
330
1D
100
AcDbEntity
  8
0
100
AcDbLine
 10
283.019
 20
8.686
 30
0.0
 11
281.37
 21
8.438
 31
0.0
  0
LINE
  5
C71
330
1D
100
AcDbEntity
  8
0
100
AcDbLine
 10
281.3155
 20
7.0
 30
0.0
 11
281.3155
 21
8.769969879518
 31
0.0
  0
LINE
  5
C72
330
1D
100
AcDbEntity
  8
0
100
AcDbLine
 10
281.3155
 20
8.769969879518
 30
0.0
 11
281.3155
 21
7.0
 31
0.0
  0
LINE
  5
C73
330
1D
100
AcDbEntity
  8
0
100
AcDbLine
 10
281.37
 20
8.438
 30
0.0
 11
281.3155
 21
8.429692073171
 31
0.0
  0
LINE
  5
C74
330
1D
100
AcDbEntity
  8
0
100
AcDbLine
 10
299.999
 20
34.325
 30
0.0
 11
299.891
 21
27.899
 31
0.0
  0
LINE
  5
C75
330
1D
100
AcDbEntity
  8
0
100
AcDbLine
 10
299.552
 20
35.154
 30
0.0
 11
299.208
 21
35.245
 31
0.0
  0
LINE
  5
C76
330
1D
100
AcDbEntity
  8
0
100
AcDbLine
 10
299.208
 20
35.245
 30
0.0
 11
299.007
 21
35.244
 31
0.0
  0
LINE
  5
C77
330
1D
100
AcDbEntity
  8
0
100
AcDbLine
 10
299.708
 20
35.059
 30
0.0
 11
299.552
 21
35.154
 31
0.0
  0
LINE
  5
C78
330
1D
100
AcDbEntity
  8
0
100
AcDbLine
 10
299.999
 20
34.325
 30
0.0
 11
299.891
 21
27.899
 31
0.0
  0
LINE
  5
C79
330
1D
100
AcDbEntity
  8
0
100
AcDbLine
 10
299.999
 20
34.325
 30
0.0
 11
299.889531295834
 21
34.711702791121
 31
0.0
  0
LINE
  5
C7A
330
1D
100
AcDbEntity
  8
0
100
AcDbLine
 10
299.889531295834
 20
34.711702791121
 30
0.0
 11
299.708
 21
35.059
 31
0.0
  0
LINE
  5
C7D
330
1D
100
AcDbEntity
  8
0
100
AcDbLine
 10
272.1024
 20
7.0
 30
0.0
 11
270.7024
 21
7.0
 31
0.0
  0
LINE
  5
C7E
330
1D
100
AcDbEntity
  8
0
100
AcDbLine
 10
272.482
 20
8.595
 30
0.0
 11
270.762
 21
8.383
 31
0.0
  0
LINE
  5
C7F
330
1D
100
AcDbEntity
  8
0
100
AcDbLine
 10
272.225
 20
10.853
 30
0.0
 11
267.493
 21
10.77
 31
0.0
  0
LINE
  5
C80
330
1D
100
AcDbEntity
  8
0
100
AcDbLine
 10
277.3155
 20
7.823759342594
 30
0.0
 11
274.1024
 21
7.29190988065
 31
0.0
  0
LINE
  5
C81
330
1D
100
AcDbEntity
  8
0
100
AcDbLine
 10
276.884
 20
8.049
 30
0.0
 11
276.5
 21
8.046
 31
0.0
  0
LINE
  5
C82
330
1D
100
AcDbEntity
  8
0
100
AcDbLine
 10
276.613
 20
8.121
 30
0.0
 11
276.5
 21
8.046
 31
0.0
  0
LINE
  5
C83
330
1D
100
AcDbEntity
  8
0
100
AcDbLine
 10
279.3155
 20
7.0
 30
0.0
 11
277.9155
 21
7.0
 31
0.0
  0
LINE
  5
C84
330
1D
100
AcDbEntity
  8
0
100
AcDbLine
 10
279.3155
 20
7.0
 30
0.0
 11
277.9155
 21
7.0
 31
0.0
  0
LINE
  5
C85
330
1D
100
AcDbEntity
  8
0
100
AcDbLine
 10
279.905
 20
8.608
 30
0.0
 11
278.696
 21
8.439
 31
0.0
  0
LINE
  5
C86
330
1D
100
AcDbEntity
  8
0
100
AcDbLine
 10
280.7155
 20
7.0
 30
0.0
 11
279.3155
 21
7.0
 31
0.0
  0
LINE
  5
C87
330
1D
100
AcDbEntity
  8
0
100
AcDbLine
 10
280.3539
 20
7.0
 30
0.0
 11
279.7539
 21
7.0
 31
0.0
  0
LINE
  5
C88
330
1D
100
AcDbEntity
  8
0
100
AcDbLine
 10
280.5221
 20
7.0
 30
0.0
 11
279.9221
 21
7.0
 31
0.0
  0
LINE
  5
C89
330
1D
100
AcDbEntity
  8
0
100
AcDbLine
 10
280.3539
 20
7.0
 30
0.0
 11
279.7539
 21
7.0
 31
0.0
  0
LINE
  5
C8B
330
1D
100
AcDbEntity
  8
0
100
AcDbLine
 10
280.7155
 20
7.0
 30
0.0
 11
279.3155
 21
7.0
 31
0.0
  0
LINE
  5
C8F
330
1D
100
AcDbEntity
  8
0
100
AcDbLine
 10
281.203
 20
8.765
 30
0.0
 11
279.905
 21
8.608
 31
0.0
  0
LINE
  5
C90
330
1D
100
AcDbEntity
  8
0
100
AcDbLine
 10
277.9155
 20
7.0
 30
0.0
 11
277.3155
 21
7.0
 31
0.0
  0
LINE
  5
C91
330
1D
100
AcDbEntity
  8
0
100
AcDbLine
 10
277.3155
 20
7.0
 30
0.0
 11
277.3155
 21
8.227217413973
 31
0.0
  0
LINE
  5
C92
330
1D
100
AcDbEntity
  8
0
100
AcDbLine
 10
277.9155
 20
7.0
 30
0.0
 11
277.3155
 21
7.0
 31
0.0
  0
LINE
  5
C95
330
1D
100
AcDbEntity
  8
0
100
AcDbLine
 10
277.3155
 20
8.227217413973
 30
0.0
 11
277.3155
 21
7.0
 31
0.0
  0
LINE
  5
C96
330
1D
100
AcDbEntity
  8
0
100
AcDbLine
 10
277.572
 20
8.266
 30
0.0
 11
276.613
 21
8.121
 31
0.0
  0
LINE
  5
C97
330
1D
100
AcDbEntity
  8
0
100
AcDbLine
 10
278.696
 20
8.439
 30
0.0
 11
277.572
 21
8.266
 31
0.0
  0
LINE
  5
C98
330
1D
100
AcDbEntity
  8
0
100
AcDbLine
 10
277.3155
 20
8.09997673031
 30
0.0
 11
276.884
 21
8.049
 31
0.0
  0
LINE
  5
C99
330
1D
100
AcDbEntity
  8
0
100
AcDbLine
 10
274.394
 20
8.499
 30
0.0
 11
274.1024
 21
8.439096340024
 31
0.0
  0
LINE
  5
C9A
330
1D
100
AcDbEntity
  8
0
100
AcDbLine
 10
274.696390345208
 20
8.633584806951
 30
0.0
 11
274.165
 21
8.701
 31
0.0
  0
LINE
  5
C9B
330
1D
100
AcDbEntity
  8
0
100
AcDbLine
 10
274.701
 20
8.633
 30
0.0
 11
274.165
 21
8.701
 31
0.0
  0
LINE
  5
C9C
330
1D
100
AcDbEntity
  8
0
100
AcDbLine
 10
274.701
 20
8.633
 30
0.0
 11
274.394
 21
8.499
 31
0.0
  0
LINE
  5
C9D
330
1D
100
AcDbEntity
  8
0
100
AcDbLine
 10
273.5024
 20
7.0
 30
0.0
 11
273.2216328125
 21
7.0
 31
0.0
  0
LINE
  5
C9E
330
1D
100
AcDbEntity
  8
0
100
AcDbLine
 10
274.1024
 20
7.0
 30
0.0
 11
273.5024
 21
7.0
 31
0.0
  0
LINE
  5
C9F
330
1D
100
AcDbEntity
  8
0
100
AcDbLine
 10
274.1024
 20
7.0
 30
0.0
 11
274.1024
 21
7.29190988065
 31
0.0
  0
LINE
  5
CA0
330
1D
100
AcDbEntity
  8
0
100
AcDbLine
 10
273.5024
 20
7.0
 30
0.0
 11
272.1024
 21
7.0
 31
0.0
  0
LINE
  5
CA1
330
1D
100
AcDbEntity
  8
0
100
AcDbLine
 10
274.1024
 20
7.29190988065
 30
0.0
 11
274.1024
 21
7.0
 31
0.0
  0
LINE
  5
CA2
330
1D
100
AcDbEntity
  8
0
100
AcDbLine
 10
274.1024
 20
7.0
 30
0.0
 11
273.5024
 21
7.0
 31
0.0
  0
LINE
  5
CA3
330
1D
100
AcDbEntity
  8
0
100
AcDbLine
 10
274.1024
 20
7.0
 30
0.0
 11
274.1024
 21
8.698553369272
 31
0.0
  0
LINE
  5
CA4
330
1D
100
AcDbEntity
  8
0
100
AcDbLine
 10
274.1024
 20
8.439096340024
 30
0.0
 11
274.1024
 21
8.698553369272
 31
0.0
  0
LINE
  5
CA5
330
1D
100
AcDbEntity
  8
0
100
AcDbLine
 10
274.1024
 20
8.698553369272
 30
0.0
 11
274.1024
 21
7.0
 31
0.0
  0
LINE
  5
CA6
330
1D
100
AcDbEntity
  8
0
100
AcDbLine
 10
274.1024
 20
8.698553369272
 30
0.0
 11
274.1024
 21
8.439096340024
 31
0.0
  0
LINE
  5
CA7
330
1D
100
AcDbEntity
  8
0
100
AcDbLine
 10
274.165
 20
8.701
 30
0.0
 11
274.1024
 21
8.698553369272
 31
0.0
  0
LINE
  5
CA8
330
1D
100
AcDbEntity
  8
0
100
AcDbLine
 10
274.165
 20
8.701
 30
0.0
 11
273.423
 21
8.672
 31
0.0
  0
LINE
  5
CA9
330
1D
100
AcDbEntity
  8
0
100
AcDbLine
 10
273.423
 20
8.672
 30
0.0
 11
272.482
 21
8.595
 31
0.0
  0
LINE
  5
CAA
330
1D
100
AcDbEntity
  8
0
100
AcDbLine
 10
279.456
 20
10.828
 30
0.0
 11
272.225
 21
10.853
 31
0.0
  0
LINE
  5
CAB
330
1D
100
AcDbEntity
  8
0
100
AcDbLine
 10
267.1892
 20
4.5
 30
0.0
 11
266.5892
 21
4.5
 31
0.0
  0
LINE
  5
CAC
330
1D
100
AcDbEntity
  8
0
100
AcDbLine
 10
267.1892
 20
4.5
 30
0.0
 11
266.5892
 21
4.5
 31
0.0
  0
LINE
  5
CAD
330
1D
100
AcDbEntity
  8
0
100
AcDbLine
 10
267.1892
 20
4.5
 30
0.0
 11
266.5892
 21
4.5
 31
0.0
  0
LINE
  5
CAE
330
1D
100
AcDbEntity
  8
0
100
AcDbLine
 10
267.337
 20
6.211
 30
0.0
 11
266.242
 21
6.124
 31
0.0
  0
LINE
  5
CAF
330
1D
100
AcDbEntity
  8
0
100
AcDbLine
 10
267.1892
 20
4.5
 30
0.0
 11
267.1892
 21
6.168906658446
 31
0.0
  0
LINE
  5
CB0
330
1D
100
AcDbEntity
  8
0
100
AcDbLine
 10
267.1892
 20
4.5
 30
0.0
 11
267.1892
 21
6.199256986301
 31
0.0
  0
LINE
  5
CB1
330
1D
100
AcDbEntity
  8
0
100
AcDbLine
 10
267.1892
 20
6.168906658446
 30
0.0
 11
267.1892
 21
4.5
 31
0.0
  0
LINE
  5
CB2
330
1D
100
AcDbEntity
  8
0
100
AcDbLine
 10
267.1892
 20
6.199256986301
 30
0.0
 11
267.1892
 21
4.5
 31
0.0
  0
LINE
  5
CB4
330
1D
100
AcDbEntity
  8
0
100
AcDbLine
 10
273.2216328125
 20
7.0
 30
0.0
 11
267.902
 21
6.253
 31
0.0
  0
LINE
  5
CB6
330
1D
100
AcDbEntity
  8
0
100
AcDbLine
 10
267.902
 20
6.253
 30
0.0
 11
267.337
 21
6.211
 31
0.0
  0
LINE
  5
CB7
330
1D
100
AcDbEntity
  8
0
100
AcDbLine
 10
270.1024
 20
7.0
 30
0.0
 11
270.1024
 21
8.259997668998
 31
0.0
  0
LINE
  5
CB8
330
1D
100
AcDbEntity
  8
0
100
AcDbLine
 10
270.7024
 20
7.0
 30
0.0
 11
270.1024
 21
7.0
 31
0.0
  0
LINE
  5
CB9
330
1D
100
AcDbEntity
  8
0
100
AcDbLine
 10
269.577
 20
7.922
 30
0.0
 11
269.1
 21
7.989
 31
0.0
  0
LINE
  5
CBA
330
1D
100
AcDbEntity
  8
0
100
AcDbLine
 10
270.1024
 20
7.940653254438
 30
0.0
 11
269.577
 21
7.922
 31
0.0
  0
LINE
  5
CBB
330
1D
100
AcDbEntity
  8
0
100
AcDbLine
 10
269.475
 20
8.143
 30
0.0
 11
269.1
 21
7.989
 31
0.0
  0
LINE
  5
CBC
330
1D
100
AcDbEntity
  8
0
100
AcDbLine
 10
270.1024
 20
8.259997668998
 30
0.0
 11
270.1024
 21
7.0
 31
0.0
  0
LINE
  5
CBD
330
1D
100
AcDbEntity
  8
0
100
AcDbLine
 10
269.475
 20
8.143
 30
0.0
 11
269.1
 21
7.989
 31
0.0
  0
LINE
  5
CBE
330
1D
100
AcDbEntity
  8
0
100
AcDbLine
 10
270.762
 20
8.383
 30
0.0
 11
269.475
 21
8.143
 31
0.0
  0
LINE
  5
CBF
330
1D
100
AcDbEntity
  8
0
100
AcDbLine
 10
263.1892
 20
4.5
 30
0.0
 11
263.1892
 21
5.0
 31
0.0
  0
LINE
  5
CC0
330
1D
100
AcDbEntity
  8
0
100
AcDbLine
 10
263.1892
 20
5.0
 30
0.0
 11
263.1892
 21
4.5
 31
0.0
  0
LINE
  5
CC1
330
1D
100
AcDbEntity
  8
0
100
AcDbLine
 10
266.5892
 20
4.5
 30
0.0
 11
265.1892
 21
4.5
 31
0.0
  0
LINE
  5
CC2
330
1D
100
AcDbEntity
  8
0
100
AcDbLine
 10
266.5892
 20
4.5
 30
0.0
 11
265.1892
 21
4.5
 31
0.0
  0
LINE
  5
CC3
330
1D
100
AcDbEntity
  8
0
100
AcDbLine
 10
266.5892
 20
4.5
 30
0.0
 11
265.1892
 21
4.5
 31
0.0
  0
LINE
  5
CC4
330
1D
100
AcDbEntity
  8
0
100
AcDbLine
 10
263.7892
 20
4.5
 30
0.0
 11
263.1892
 21
4.5
 31
0.0
  0
LINE
  5
CC5
330
1D
100
AcDbEntity
  8
0
100
AcDbLine
 10
265.1892
 20
4.5
 30
0.0
 11
263.7892
 21
4.5
 31
0.0
  0
LINE
  5
CC6
330
1D
100
AcDbEntity
  8
0
100
AcDbLine
 10
263.7892
 20
4.5
 30
0.0
 11
263.1892
 21
4.5
 31
0.0
  0
LINE
  5
CC7
330
1D
100
AcDbEntity
  8
0
100
AcDbLine
 10
265.1892
 20
4.5
 30
0.0
 11
263.7892
 21
4.5
 31
0.0
  0
LINE
  5
CC8
330
1D
100
AcDbEntity
  8
0
100
AcDbLine
 10
263.7892
 20
4.5
 30
0.0
 11
263.1892
 21
4.5
 31
0.0
  0
LINE
  5
CC9
330
1D
100
AcDbEntity
  8
0
100
AcDbLine
 10
265.1892
 20
4.5
 30
0.0
 11
263.7892
 21
4.5
 31
0.0
  0
LINE
  5
CCA
330
1D
100
AcDbEntity
  8
0
100
AcDbLine
 10
263.1892
 20
5.0
 30
0.0
 11
262.5751
 21
5.0
 31
0.0
  0
LINE
  5
CCB
330
1D
100
AcDbEntity
  8
0
100
AcDbLine
 10
263.9751
 20
5.0
 30
0.0
 11
262.5751
 21
5.0
 31
0.0
  0
LINE
  5
CCC
330
1D
100
AcDbEntity
  8
0
100
AcDbLine
 10
265.3751
 20
5.0
 30
0.0
 11
263.9751
 21
5.0
 31
0.0
  0
LINE
  5
CCD
330
1D
100
AcDbEntity
  8
0
100
AcDbLine
 10
265.9751
 20
5.0
 30
0.0
 11
265.3751
 21
5.0
 31
0.0
  0
LINE
  5
CCE
330
1D
100
AcDbEntity
  8
0
100
AcDbLine
 10
265.9751
 20
5.0
 30
0.0
 11
265.9751
 21
6.375024711316
 31
0.0
  0
LINE
  5
CCF
330
1D
100
AcDbEntity
  8
0
100
AcDbLine
 10
266.242
 20
6.124
 30
0.0
 11
265.9751
 21
6.101586979969
 31
0.0
  0
LINE
  5
CD0
330
1D
100
AcDbEntity
  8
0
100
AcDbLine
 10
264.804
 20
6.302
 30
0.0
 11
263.198
 21
6.168
 31
0.0
  0
LINE
  5
CD1
330
1D
100
AcDbEntity
  8
0
100
AcDbLine
 10
266.6
 20
6.381
 30
0.0
 11
266.103
 21
6.383
 31
0.0
  0
LINE
  5
CD2
330
1D
100
AcDbEntity
  8
0
100
AcDbLine
 10
266.6
 20
6.381
 30
0.0
 11
266.375
 21
6.333
 31
0.0
  0
LINE
  5
CD3
330
1D
100
AcDbEntity
  8
0
100
AcDbLine
 10
265.9751
 20
6.375024711316
 30
0.0
 11
265.9751
 21
5.0
 31
0.0
  0
LINE
  5
CD4
330
1D
100
AcDbEntity
  8
0
100
AcDbLine
 10
266.103
 20
6.383
 30
0.0
 11
264.804
 21
6.302
 31
0.0
  0
LINE
  5
CD5
330
1D
100
AcDbEntity
  8
0
100
AcDbLine
 10
266.375
 20
6.333
 30
0.0
 11
265.9751
 21
6.284508188976
 31
0.0
  0
LINE
  5
CD6
330
1D
100
AcDbEntity
  8
0
100
AcDbLine
 10
281.672
 20
37.605
 30
0.0
 11
276.528
 21
38.289
 31
0.0
  0
LINE
  5
CD7
330
1D
100
AcDbEntity
  8
0
100
AcDbLine
 10
243.8065
 20
4.0
 30
0.0
 11
242.4065
 21
4.0
 31
0.0
  0
LINE
  5
CD8
330
1D
100
AcDbEntity
  8
0
100
AcDbLine
 10
243.8065
 20
4.0
 30
0.0
 11
242.4065
 21
4.0
 31
0.0
  0
LINE
  5
CD9
330
1D
100
AcDbEntity
  8
0
100
AcDbLine
 10
244.448
 20
6.361
 30
0.0
 11
243.1156
 21
6.382
 31
0.0
  0
LINE
  5
CDA
330
1D
100
AcDbEntity
  8
0
100
AcDbLine
 10
245.742
 20
10.416
 30
0.0
 11
236.368
 21
10.295
 31
0.0
  0
LINE
  5
CDB
330
1D
100
AcDbEntity
  8
0
100
AcDbLine
 10
253.2761
 20
3.0
 30
0.0
 11
252.6761
 21
3.0
 31
0.0
  0
LINE
  5
CDC
330
1D
100
AcDbEntity
  8
0
100
AcDbLine
 10
253.2761
 20
3.0
 30
0.0
 11
252.6761
 21
3.0
 31
0.0
  0
LINE
  5
CDD
330
1D
100
AcDbEntity
  8
0
100
AcDbLine
 10
253.2761
 20
3.0
 30
0.0
 11
252.6761
 21
3.0
 31
0.0
  0
LINE
  5
CDE
330
1D
100
AcDbEntity
  8
0
100
AcDbLine
 10
253.206
 20
5.249
 30
0.0
 11
252.16
 21
5.194
 31
0.0
  0
LINE
  5
CDF
330
1D
100
AcDbEntity
  8
0
100
AcDbLine
 10
253.3304
 20
5.5
 30
0.0
 11
252.7304
 21
5.5
 31
0.0
  0
LINE
  5
CE0
330
1D
100
AcDbEntity
  8
0
100
AcDbLine
 10
253.777
 20
7.541
 30
0.0
 11
252.767
 21
7.675
 31
0.0
  0
LINE
  5
CE1
330
1D
100
AcDbEntity
  8
0
100
AcDbLine
 10
260.559
 20
10.649
 30
0.0
 11
251.682
 21
10.504
 31
0.0
  0
LINE
  5
CE2
330
1D
100
AcDbEntity
  8
0
100
AcDbLine
 10
257.9114
 20
6.28344359352
 30
0.0
 11
257.383
 21
6.285
 31
0.0
  0
LINE
  5
CE3
330
1D
100
AcDbEntity
  8
0
100
AcDbLine
 10
258.027
 20
6.548
 30
0.0
 11
257.061
 21
6.361
 31
0.0
  0
LINE
  5
CE4
330
1D
100
AcDbEntity
  8
0
100
AcDbLine
 10
257.9114
 20
5.423076839237
 30
0.0
 11
254.772
 21
5.203
 31
0.0
  0
LINE
  5
CE5
330
1D
100
AcDbEntity
  8
0
100
AcDbLine
 10
261.3114
 20
5.0
 30
0.0
 11
259.9114
 21
5.0
 31
0.0
  0
LINE
  5
CE6
330
1D
100
AcDbEntity
  8
0
100
AcDbLine
 10
261.3114
 20
5.0
 30
0.0
 11
259.9114
 21
5.0
 31
0.0
  0
LINE
  5
CE7
330
1D
100
AcDbEntity
  8
0
100
AcDbLine
 10
261.3114
 20
5.0
 30
0.0
 11
259.9114
 21
5.0
 31
0.0
  0
LINE
  5
CE8
330
1D
100
AcDbEntity
  8
0
100
AcDbLine
 10
261.299
 20
6.825
 30
0.0
 11
259.607
 21
6.718
 31
0.0
  0
LINE
  5
CE9
330
1D
100
AcDbEntity
  8
0
100
AcDbLine
 10
261.9114
 20
5.0
 30
0.0
 11
261.3114
 21
5.0
 31
0.0
  0
LINE
  5
CEA
330
1D
100
AcDbEntity
  8
0
100
AcDbLine
 10
261.9114
 20
5.0
 30
0.0
 11
261.3114
 21
5.0
 31
0.0
  0
LINE
  5
CEB
330
1D
100
AcDbEntity
  8
0
100
AcDbLine
 10
261.9114
 20
5.0
 30
0.0
 11
261.3114
 21
5.0
 31
0.0
  0
LINE
  5
CEC
330
1D
100
AcDbEntity
  8
0
100
AcDbLine
 10
262.165
 20
6.84
 30
0.0
 11
261.299
 21
6.825
 31
0.0
  0
LINE
  5
CED
330
1D
100
AcDbEntity
  8
0
100
AcDbLine
 10
261.9114
 20
5.0
 30
0.0
 11
261.9114
 21
5.703483081496
 31
0.0
  0
LINE
  5
CEE
330
1D
100
AcDbEntity
  8
0
100
AcDbLine
 10
261.9751
 20
5.0
 30
0.0
 11
261.9751
 21
6.041159212598
 31
0.0
  0
LINE
  5
CEF
330
1D
100
AcDbEntity
  8
0
100
AcDbLine
 10
261.9114
 20
5.0
 30
0.0
 11
261.9114
 21
6.8356073903
 31
0.0
  0
LINE
  5
CF0
330
1D
100
AcDbEntity
  8
0
100
AcDbLine
 10
261.9751
 20
5.957238549832
 30
0.0
 11
261.9114
 21
5.953832418813
 31
0.0
  0
LINE
  5
CF1
330
1D
100
AcDbEntity
  8
0
100
AcDbLine
 10
261.9751
 20
5.95563625
 30
0.0
 11
261.9114
 21
5.952089318182
 31
0.0
  0
LINE
  5
CF2
330
1D
100
AcDbEntity
  8
0
100
AcDbLine
 10
261.9751
 20
6.041159212598
 30
0.0
 11
261.9751
 21
5.0
 31
0.0
  0
LINE
  5
CF3
330
1D
100
AcDbEntity
  8
0
100
AcDbLine
 10
262.162
 20
6.065
 30
0.0
 11
261.9114
 21
6.033033700787
 31
0.0
  0
LINE
  5
CF4
330
1D
100
AcDbEntity
  8
0
100
AcDbLine
 10
261.9751
 20
6.605666261615
 30
0.0
 11
261.9751
 21
6.83671073903
 31
0.0
  0
LINE
  5
CF5
330
1D
100
AcDbEntity
  8
0
100
AcDbLine
 10
262.166
 20
6.629
 30
0.0
 11
261.9114
 21
6.597880200143
 31
0.0
  0
LINE
  5
CF6
330
1D
100
AcDbEntity
  8
0
100
AcDbLine
 10
261.9751
 20
6.605682928571
 30
0.0
 11
261.9114
 21
6.597902428571
 31
0.0
  0
LINE
  5
CF7
330
1D
100
AcDbEntity
  8
0
100
AcDbLine
 10
261.9751
 20
6.027442563291
 30
0.0
 11
261.9114
 21
6.014642088608
 31
0.0
  0
LINE
  5
CF8
330
1D
100
AcDbEntity
  8
0
100
AcDbLine
 10
261.9751
 20
6.83671073903
 30
0.0
 11
261.9751
 21
6.605666261615
 31
0.0
  0
LINE
  5
CF9
330
1D
100
AcDbEntity
  8
0
100
AcDbLine
 10
261.9751
 20
6.83671073903
 30
0.0
 11
261.9114
 21
6.8356073903
 31
0.0
  0
LINE
  5
CFA
330
1D
100
AcDbEntity
  8
0
100
AcDbLine
 10
261.9114
 20
5.703483081496
 30
0.0
 11
261.9114
 21
5.0
 31
0.0
  0
LINE
  5
CFB
330
1D
100
AcDbEntity
  8
0
100
AcDbLine
 10
261.9114
 20
5.953832418813
 30
0.0
 11
261.9114
 21
6.014642088608
 31
0.0
  0
LINE
  5
CFC
330
1D
100
AcDbEntity
  8
0
100
AcDbLine
 10
261.9114
 20
6.014642088608
 30
0.0
 11
261.9114
 21
5.953832418813
 31
0.0
  0
LINE
  5
CFD
330
1D
100
AcDbEntity
  8
0
100
AcDbLine
 10
261.9114
 20
6.597902428571
 30
0.0
 11
261.9114
 21
6.8356073903
 31
0.0
  0
LINE
  5
CFE
330
1D
100
AcDbEntity
  8
0
100
AcDbLine
 10
261.9114
 20
6.8356073903
 30
0.0
 11
261.9114
 21
6.597902428571
 31
0.0
  0
LINE
  5
CFF
330
1D
100
AcDbEntity
  8
0
100
AcDbLine
 10
261.9114
 20
6.8356073903
 30
0.0
 11
261.9114
 21
5.0
 31
0.0
  0
LINE
  5
D00
330
1D
100
AcDbEntity
  8
0
100
AcDbLine
 10
261.9751
 20
5.707948550904
 30
0.0
 11
261.9114
 21
5.703483081496
 31
0.0
  0
LINE
  5
D01
330
1D
100
AcDbEntity
  8
0
100
AcDbLine
 10
259.9114
 20
5.0
 30
0.0
 11
258.5114
 21
5.0
 31
0.0
  0
LINE
  5
D02
330
1D
100
AcDbEntity
  8
0
100
AcDbLine
 10
259.9114
 20
5.0
 30
0.0
 11
258.5114
 21
5.0
 31
0.0
  0
LINE
  5
D03
330
1D
100
AcDbEntity
  8
0
100
AcDbLine
 10
258.5114
 20
5.0
 30
0.0
 11
257.9114
 21
5.0
 31
0.0
  0
LINE
  5
D04
330
1D
100
AcDbEntity
  8
0
100
AcDbLine
 10
257.9114
 20
5.0
 30
0.0
 11
257.9114
 21
6.52562194617
 31
0.0
  0
LINE
  5
D05
330
1D
100
AcDbEntity
  8
0
100
AcDbLine
 10
258.5114
 20
5.0
 30
0.0
 11
257.9114
 21
5.0
 31
0.0
  0
LINE
  5
D06
330
1D
100
AcDbEntity
  8
0
100
AcDbLine
 10
258.5114
 20
5.0
 30
0.0
 11
257.9114
 21
5.0
 31
0.0
  0
LINE
  5
D07
330
1D
100
AcDbEntity
  8
0
100
AcDbLine
 10
259.9114
 20
5.0
 30
0.0
 11
258.5114
 21
5.0
 31
0.0
  0
LINE
  5
D08
330
1D
100
AcDbEntity
  8
0
100
AcDbLine
 10
257.9114
 20
6.52562194617
 30
0.0
 11
257.9114
 21
5.0
 31
0.0
  0
LINE
  5
D09
330
1D
100
AcDbEntity
  8
0
100
AcDbLine
 10
259.607
 20
6.718
 30
0.0
 11
258.027
 21
6.548
 31
0.0
  0
LINE
  5
D0A
330
1D
100
AcDbEntity
  8
0
100
AcDbLine
 10
253.2761
 20
3.0
 30
0.0
 11
253.2761
 21
5.251746678024
 31
0.0
  0
LINE
  5
D0C
330
1D
100
AcDbEntity
  8
0
100
AcDbLine
 10
254.156
 20
3.44
 30
0.0
 11
254.156
 21
5.165365771812
 31
0.0
  0
LINE
  5
D0D
330
1D
100
AcDbEntity
  8
0
100
AcDbLine
 10
254.156
 20
5.165365771812
 30
0.0
 11
254.156
 21
3.44
 31
0.0
  0
LINE
  5
D0E
330
1D
100
AcDbEntity
  8
0
100
AcDbLine
 10
253.2761
 20
5.251746678024
 30
0.0
 11
253.2761
 21
3.0
 31
0.0
  0
LINE
  5
D0F
330
1D
100
AcDbEntity
  8
0
100
AcDbLine
 10
253.2761
 20
3.0
 30
0.0
 11
253.2761
 21
3.44
 31
0.0
  0
LINE
  5
D10
330
1D
100
AcDbEntity
  8
0
100
AcDbLine
 10
253.2761
 20
3.44
 30
0.0
 11
253.2761
 21
3.0
 31
0.0
  0
LINE
  5
D11
330
1D
100
AcDbEntity
  8
0
100
AcDbLine
 10
253.556
 20
3.44
 30
0.0
 11
253.2761
 21
3.44
 31
0.0
  0
LINE
  5
D12
330
1D
100
AcDbEntity
  8
0
100
AcDbLine
 10
254.156
 20
3.44
 30
0.0
 11
253.556
 21
3.44
 31
0.0
  0
LINE
  5
D13
330
1D
100
AcDbEntity
  8
0
100
AcDbLine
 10
253.906
 20
5.148
 30
0.0
 11
253.2761
 21
5.108113240132
 31
0.0
  0
LINE
  5
D14
330
1D
100
AcDbEntity
  8
0
100
AcDbLine
 10
254.772
 20
5.203
 30
0.0
 11
254.156
 21
5.163877598152
 31
0.0
  0
LINE
  5
D15
330
1D
100
AcDbEntity
  8
0
100
AcDbLine
 10
254.772
 20
5.203
 30
0.0
 11
253.906
 21
5.148
 31
0.0
  0
LINE
  5
D16
330
1D
100
AcDbEntity
  8
0
100
AcDbLine
 10
253.695
 20
5.229
 30
0.0
 11
253.2761
 21
5.195627467301
 31
0.0
  0
LINE
  5
D17
330
1D
100
AcDbEntity
  8
0
100
AcDbLine
 10
253.793
 20
5.272
 30
0.0
 11
253.206
 21
5.249
 31
0.0
  0
LINE
  5
D18
330
1D
100
AcDbEntity
  8
0
100
AcDbLine
 10
254.0
 20
5.268
 30
0.0
 11
253.695
 21
5.229
 31
0.0
  0
LINE
  5
D19
330
1D
100
AcDbEntity
  8
0
100
AcDbLine
 10
254.0
 20
5.268
 30
0.0
 11
253.793
 21
5.272
 31
0.0
  0
LINE
  5
D1A
330
1D
100
AcDbEntity
  8
0
100
AcDbLine
 10
253.3304
 20
5.5
 30
0.0
 11
253.3304
 21
7.600251881188
 31
0.0
  0
LINE
  5
D1B
330
1D
100
AcDbEntity
  8
0
100
AcDbLine
 10
257.383
 20
6.285
 30
0.0
 11
257.061
 21
6.361
 31
0.0
  0
LINE
  5
D1C
330
1D
100
AcDbEntity
  8
0
100
AcDbLine
 10
257.155662369278
 20
6.379324909995
 30
0.0
 11
257.111675991189
 21
6.349039207048
 31
0.0
  0
LINE
  5
D1D
330
1D
100
AcDbEntity
  8
0
100
AcDbLine
 10
253.85
 20
7.471
 30
0.0
 11
253.777
 21
7.541
 31
0.0
  0
LINE
  5
D1E
330
1D
100
AcDbEntity
  8
0
100
AcDbLine
 10
253.85
 20
7.471
 30
0.0
 11
253.354
 21
7.26
 31
0.0
  0
LINE
  5
D1F
330
1D
100
AcDbEntity
  8
0
100
AcDbLine
 10
253.3304
 20
7.600251881188
 30
0.0
 11
253.3304
 21
5.5
 31
0.0
  0
LINE
  5
D20
330
1D
100
AcDbEntity
  8
0
100
AcDbLine
 10
249.0411
 20
4.0
 30
0.0
 11
247.6411
 21
4.0
 31
0.0
  0
LINE
  5
D21
330
1D
100
AcDbEntity
  8
0
100
AcDbLine
 10
249.0411
 20
4.0
 30
0.0
 11
247.6411
 21
4.0
 31
0.0
  0
LINE
  5
D22
330
1D
100
AcDbEntity
  8
0
100
AcDbLine
 10
249.0583
 20
5.595
 30
0.0
 11
247.0904
 21
5.421
 31
0.0
  0
LINE
  5
D23
330
1D
100
AcDbEntity
  8
0
100
AcDbLine
 10
251.0411
 20
4.0
 30
0.0
 11
251.0411
 21
5.5
 31
0.0
  0
LINE
  5
D24
330
1D
100
AcDbEntity
  8
0
100
AcDbLine
 10
251.0411
 20
5.5
 30
0.0
 11
251.0411
 21
4.0
 31
0.0
  0
LINE
  5
D25
330
1D
100
AcDbEntity
  8
0
100
AcDbLine
 10
252.6761
 20
3.0
 30
0.0
 11
251.2761
 21
3.0
 31
0.0
  0
LINE
  5
D26
330
1D
100
AcDbEntity
  8
0
100
AcDbLine
 10
252.6761
 20
3.0
 30
0.0
 11
251.2761
 21
3.0
 31
0.0
  0
LINE
  5
D27
330
1D
100
AcDbEntity
  8
0
100
AcDbLine
 10
251.2761
 20
3.0
 30
0.0
 11
249.8761
 21
3.0
 31
0.0
  0
LINE
  5
D28
330
1D
100
AcDbEntity
  8
0
100
AcDbLine
 10
249.8761
 20
3.0
 30
0.0
 11
249.2761
 21
3.0
 31
0.0
  0
LINE
  5
D29
330
1D
100
AcDbEntity
  8
0
100
AcDbLine
 10
249.8761
 20
3.0
 30
0.0
 11
249.2761
 21
3.0
 31
0.0
  0
LINE
  5
D2A
330
1D
100
AcDbEntity
  8
0
100
AcDbLine
 10
251.2761
 20
3.0
 30
0.0
 11
249.8761
 21
3.0
 31
0.0
  0
LINE
  5
D2B
330
1D
100
AcDbEntity
  8
0
100
AcDbLine
 10
251.2761
 20
3.0
 30
0.0
 11
249.8761
 21
3.0
 31
0.0
  0
LINE
  5
D2C
330
1D
100
AcDbEntity
  8
0
100
AcDbLine
 10
249.2761
 20
3.0
 30
0.0
 11
249.2761
 21
4.0
 31
0.0
  0
LINE
  5
D2D
330
1D
100
AcDbEntity
  8
0
100
AcDbLine
 10
249.8761
 20
3.0
 30
0.0
 11
249.2761
 21
3.0
 31
0.0
  0
LINE
  5
D2E
330
1D
100
AcDbEntity
  8
0
100
AcDbLine
 10
251.2761
 20
3.0
 30
0.0
 11
249.8761
 21
3.0
 31
0.0
  0
LINE
  5
D2F
330
1D
100
AcDbEntity
  8
0
100
AcDbLine
 10
252.6761
 20
3.0
 30
0.0
 11
251.2761
 21
3.0
 31
0.0
  0
LINE
  5
D30
330
1D
100
AcDbEntity
  8
0
100
AcDbLine
 10
252.6761
 20
3.0
 30
0.0
 11
251.2761
 21
3.0
 31
0.0
  0
LINE
  5
D31
330
1D
100
AcDbEntity
  8
0
100
AcDbLine
 10
249.2761
 20
4.0
 30
0.0
 11
249.0411
 21
4.0
 31
0.0
  0
LINE
  5
D32
330
1D
100
AcDbEntity
  8
0
100
AcDbLine
 10
250.4411
 20
4.0
 30
0.0
 11
249.0411
 21
4.0
 31
0.0
  0
LINE
  5
D33
330
1D
100
AcDbEntity
  8
0
100
AcDbLine
 10
249.2761
 20
4.0
 30
0.0
 11
249.2761
 21
3.0
 31
0.0
  0
LINE
  5
D34
330
1D
100
AcDbEntity
  8
0
100
AcDbLine
 10
251.0411
 20
4.0
 30
0.0
 11
250.4411
 21
4.0
 31
0.0
  0
LINE
  5
D35
330
1D
100
AcDbEntity
  8
0
100
AcDbLine
 10
251.3304
 20
5.5
 30
0.0
 11
249.9304
 21
5.5
 31
0.0
  0
LINE
  5
D36
330
1D
100
AcDbEntity
  8
0
100
AcDbLine
 10
250.975
 20
7.617
 30
0.0
 11
249.7616
 21
7.482
 31
0.0
  0
LINE
  5
D37
330
1D
100
AcDbEntity
  8
0
100
AcDbLine
 10
252.16
 20
5.194
 30
0.0
 11
251.0411
 21
5.126551857969
 31
0.0
  0
LINE
  5
D38
330
1D
100
AcDbEntity
  8
0
100
AcDbLine
 10
252.7304
 20
5.5
 30
0.0
 11
251.3304
 21
5.5
 31
0.0
  0
LINE
  5
D39
330
1D
100
AcDbEntity
  8
0
100
AcDbLine
 10
251.2550609375
 20
5.5
 30
0.0
 11
251.0411
 21
5.480440651336
 31
0.0
  0
LINE
  5
D3A
330
1D
100
AcDbEntity
  8
0
100
AcDbLine
 10
251.138148817204
 20
5.5
 30
0.0
 11
251.0411
 21
5.490313033959
 31
0.0
  0
LINE
  5
D3B
330
1D
100
AcDbEntity
  8
0
100
AcDbLine
 10
252.767
 20
7.675
 30
0.0
 11
250.975
 21
7.617
 31
0.0
  0
LINE
  5
D3C
330
1D
100
AcDbEntity
  8
0
100
AcDbLine
 10
249.3304
 20
5.5
 30
0.0
 11
249.3304
 21
7.388576560395
 31
0.0
  0
LINE
  5
D3D
330
1D
100
AcDbEntity
  8
0
100
AcDbLine
 10
249.9304
 20
5.5
 30
0.0
 11
249.3304
 21
5.5
 31
0.0
  0
LINE
  5
D3E
330
1D
100
AcDbEntity
  8
0
100
AcDbLine
 10
249.3304
 20
5.602432644846
 30
0.0
 11
249.0583
 21
5.595
 31
0.0
  0
LINE
  5
D3F
330
1D
100
AcDbEntity
  8
0
100
AcDbLine
 10
249.3304
 20
6.996391737892
 30
0.0
 11
248.8739
 21
7.036
 31
0.0
  0
LINE
  5
D40
330
1D
100
AcDbEntity
  8
0
100
AcDbLine
 10
248.8739
 20
7.036
 30
0.0
 11
248.6503
 21
7.147
 31
0.0
  0
LINE
  5
D41
330
1D
100
AcDbEntity
  8
0
100
AcDbLine
 10
249.3304
 20
7.388576560395
 30
0.0
 11
249.3304
 21
5.5
 31
0.0
  0
LINE
  5
D42
330
1D
100
AcDbEntity
  8
0
100
AcDbLine
 10
249.7616
 20
7.482
 30
0.0
 11
248.8708
 21
7.289
 31
0.0
  0
LINE
  5
D43
330
1D
100
AcDbEntity
  8
0
100
AcDbLine
 10
248.8708
 20
7.289
 30
0.0
 11
248.6503
 21
7.147
 31
0.0
  0
LINE
  5
D44
330
1D
100
AcDbEntity
  8
0
100
AcDbLine
 10
247.0411
 20
4.0
 30
0.0
 11
247.0411
 21
5.412807320907
 31
0.0
  0
LINE
  5
D45
330
1D
100
AcDbEntity
  8
0
100
AcDbLine
 10
244.4065
 20
4.0
 30
0.0
 11
244.4065
 21
6.361654082858
 31
0.0
  0
LINE
  5
D46
330
1D
100
AcDbEntity
  8
0
100
AcDbLine
 10
246.39
 20
4.695
 30
0.0
 11
245.8738
 21
4.252
 31
0.0
  0
LINE
  5
D47
330
1D
100
AcDbEntity
  8
0
100
AcDbLine
 10
247.0411
 20
5.412807320907
 30
0.0
 11
247.0411
 21
4.0
 31
0.0
  0
LINE
  5
D48
330
1D
100
AcDbEntity
  8
0
100
AcDbLine
 10
244.4065
 20
6.361654082858
 30
0.0
 11
244.4065
 21
4.0
 31
0.0
  0
LINE
  5
D49
330
1D
100
AcDbEntity
  8
0
100
AcDbLine
 10
247.6411
 20
4.0
 30
0.0
 11
247.0411
 21
4.0
 31
0.0
  0
LINE
  5
D4A
330
1D
100
AcDbEntity
  8
0
100
AcDbLine
 10
247.6411
 20
4.0
 30
0.0
 11
247.0411
 21
4.0
 31
0.0
  0
LINE
  5
D4B
330
1D
100
AcDbEntity
  8
0
100
AcDbLine
 10
244.4065
 20
4.0
 30
0.0
 11
243.8065
 21
4.0
 31
0.0
  0
LINE
  5
D4C
330
1D
100
AcDbEntity
  8
0
100
AcDbLine
 10
244.4065
 20
4.0
 30
0.0
 11
244.4065
 21
4.115579583927
 31
0.0
  0
LINE
  5
D4D
330
1D
100
AcDbEntity
  8
0
100
AcDbLine
 10
244.4065
 20
4.0
 30
0.0
 11
243.8065
 21
4.0
 31
0.0
  0
LINE
  5
D4E
330
1D
100
AcDbEntity
  8
0
100
AcDbLine
 10
244.4065
 20
4.115579583927
 30
0.0
 11
244.4065
 21
4.0
 31
0.0
  0
LINE
  5
D4F
330
1D
100
AcDbEntity
  8
0
100
AcDbLine
 10
245.322374742425
 20
4.165191515152
 30
0.0
 11
244.4065
 21
4.115579583927
 31
0.0
  0
LINE
  5
D50
330
1D
100
AcDbEntity
  8
0
100
AcDbLine
 10
245.322374742425
 20
4.165191515152
 30
0.0
 11
244.4065
 21
4.115579583927
 31
0.0
  0
LINE
  5
D51
330
1D
100
AcDbEntity
  8
0
100
AcDbLine
 10
245.3375
 20
4.166
 30
0.0
 11
244.4065
 21
4.116235598292
 31
0.0
  0
LINE
  5
D52
330
1D
100
AcDbEntity
  8
0
100
AcDbLine
 10
245.8738
 20
4.252
 30
0.0
 11
245.3375
 21
4.166
 31
0.0
  0
LINE
  5
D53
330
1D
100
AcDbEntity
  8
0
100
AcDbLine
 10
246.4033
 20
5.238
 30
0.0
 11
246.1998
 21
5.273
 31
0.0
  0
LINE
  5
D54
330
1D
100
AcDbEntity
  8
0
100
AcDbLine
 10
247.0411
 20
5.235215252511
 30
0.0
 11
246.4033
 21
5.238
 31
0.0
  0
LINE
  5
D55
330
1D
100
AcDbEntity
  8
0
100
AcDbLine
 10
247.0411
 20
4.732894819769
 30
0.0
 11
246.39
 21
4.695
 31
0.0
  0
LINE
  5
D56
330
1D
100
AcDbEntity
  8
0
100
AcDbLine
 10
247.0904
 20
5.421
 30
0.0
 11
246.1998
 21
5.273
 31
0.0
  0
LINE
  5
D57
330
1D
100
AcDbEntity
  8
0
100
AcDbLine
 10
244.9997
 20
6.237
 30
0.0
 11
244.8581
 21
6.309
 31
0.0
  0
LINE
  5
D58
330
1D
100
AcDbEntity
  8
0
100
AcDbLine
 10
244.9997
 20
6.237
 30
0.0
 11
244.5037
 21
6.074
 31
0.0
  0
LINE
  5
D59
330
1D
100
AcDbEntity
  8
0
100
AcDbLine
 10
244.5037
 20
6.074
 30
0.0
 11
244.4065
 21
6.062940109172
 31
0.0
  0
LINE
  5
D5A
330
1D
100
AcDbEntity
  8
0
100
AcDbLine
 10
244.9997
 20
6.237
 30
0.0
 11
244.8581
 21
6.309
 31
0.0
  0
LINE
  5
D5B
330
1D
100
AcDbEntity
  8
0
100
AcDbLine
 10
244.8581
 20
6.309
 30
0.0
 11
244.448
 21
6.361
 31
0.0
  0
LINE
  5
D5C
330
1D
100
AcDbEntity
  8
0
100
AcDbLine
 10
244.8581
 20
6.309
 30
0.0
 11
244.448
 21
6.361
 31
0.0
  0
LINE
  5
D5D
330
1D
100
AcDbEntity
  8
0
100
AcDbLine
 10
244.4065
 20
6.062940109172
 30
0.0
 11
244.4065
 21
6.361654082858
 31
0.0
  0
LINE
  5
D5E
330
1D
100
AcDbEntity
  8
0
100
AcDbLine
 10
244.4065
 20
6.361654082858
 30
0.0
 11
244.4065
 21
6.062940109172
 31
0.0
  0
LINE
  5
D5F
330
1D
100
AcDbEntity
  8
0
100
AcDbLine
 10
251.682
 20
10.504
 30
0.0
 11
245.742
 21
10.416
 31
0.0
  0
LINE
  5
D60
330
1D
100
AcDbEntity
  8
0
100
AcDbLine
 10
236.374
 20
3.737232603024
 30
0.0
 11
234.1634
 21
3.656643160942
 31
0.0
  0
LINE
  5
D61
330
1D
100
AcDbEntity
  8
0
100
AcDbLine
 10
236.374
 20
3.737232603024
 30
0.0
 11
234.1634
 21
3.656643160942
 31
0.0
  0
LINE
  5
D62
330
1D
100
AcDbEntity
  8
0
100
AcDbLine
 10
234.6163
 20
4.906
 30
0.0
 11
234.1634
 21
4.846823671191
 31
0.0
  0
LINE
  5
D63
330
1D
100
AcDbEntity
  8
0
100
AcDbLine
 10
234.7066
 20
5.0
 30
0.0
 11
234.1634
 21
5.0
 31
0.0
  0
LINE
  5
D64
330
1D
100
AcDbEntity
  8
0
100
AcDbLine
 10
234.7066
 20
5.0
 30
0.0
 11
234.1066
 21
5.0
 31
0.0
  0
LINE
  5
D65
330
1D
100
AcDbEntity
  8
0
100
AcDbLine
 10
235.196
 20
7.119
 30
0.0
 11
233.8269
 21
7.273
 31
0.0
  0
LINE
  5
D66
330
1D
100
AcDbEntity
  8
0
100
AcDbLine
 10
239.5931
 20
2.0
 30
0.0
 11
238.1931
 21
2.0
 31
0.0
  0
LINE
  5
D67
330
1D
100
AcDbEntity
  8
0
100
AcDbLine
 10
239.5931
 20
2.0
 30
0.0
 11
238.1931
 21
2.0
 31
0.0
  0
LINE
  5
D68
330
1D
100
AcDbEntity
  8
0
100
AcDbLine
 10
239.5931
 20
2.0
 30
0.0
 11
238.1931
 21
2.0
 31
0.0
  0
LINE
  5
D69
330
1D
100
AcDbEntity
  8
0
100
AcDbLine
 10
239.774
 20
3.0
 30
0.0
 11
238.374
 21
3.0
 31
0.0
  0
LINE
  5
D6A
330
1D
100
AcDbEntity
  8
0
100
AcDbLine
 10
239.774
 20
3.0
 30
0.0
 11
238.374
 21
3.0
 31
0.0
  0
LINE
  5
D6B
330
1D
100
AcDbEntity
  8
0
100
AcDbLine
 10
239.8457
 20
4.448
 30
0.0
 11
238.637
 21
4.413
 31
0.0
  0
LINE
  5
D6C
330
1D
100
AcDbEntity
  8
0
100
AcDbLine
 10
240.4065
 20
4.0
 30
0.0
 11
240.4065
 21
6.157513468678
 31
0.0
  0
LINE
  5
D6D
330
1D
100
AcDbEntity
  8
0
100
AcDbLine
 10
240.4065
 20
6.157513468678
 30
0.0
 11
240.4065
 21
4.0
 31
0.0
  0
LINE
  5
D6E
330
1D
100
AcDbEntity
  8
0
100
AcDbLine
 10
241.5931
 20
2.0
 30
0.0
 11
240.9931
 21
2.0
 31
0.0
  0
LINE
  5
D6F
330
1D
100
AcDbEntity
  8
0
100
AcDbLine
 10
241.5931
 20
2.0
 30
0.0
 11
240.9931
 21
2.0
 31
0.0
  0
LINE
  5
D70
330
1D
100
AcDbEntity
  8
0
100
AcDbLine
 10
241.5931
 20
2.0
 30
0.0
 11
240.9931
 21
2.0
 31
0.0
  0
LINE
  5
D71
330
1D
100
AcDbEntity
  8
0
100
AcDbLine
 10
242.4065
 20
4.0
 30
0.0
 11
241.0065
 21
4.0
 31
0.0
  0
LINE
  5
D72
330
1D
100
AcDbEntity
  8
0
100
AcDbLine
 10
241.636794736842
 20
4.0
 30
0.0
 11
240.7397
 21
3.968
 31
0.0
  0
LINE
  5
D73
330
1D
100
AcDbEntity
  8
0
100
AcDbLine
 10
241.5931
 20
2.0
 30
0.0
 11
241.5931
 21
3.969012037833
 31
0.0
  0
LINE
  5
D74
330
1D
100
AcDbEntity
  8
0
100
AcDbLine
 10
241.5931
 20
2.0
 30
0.0
 11
241.5931
 21
3.998441378016
 31
0.0
  0
LINE
  5
D75
330
1D
100
AcDbEntity
  8
0
100
AcDbLine
 10
242.4065
 20
4.0
 30
0.0
 11
242.272811206897
 21
4.0
 31
0.0
  0
LINE
  5
D76
330
1D
100
AcDbEntity
  8
0
100
AcDbLine
 10
241.5931
 20
3.969012037833
 30
0.0
 11
241.5931
 21
2.0
 31
0.0
  0
LINE
  5
D77
330
1D
100
AcDbEntity
  8
0
100
AcDbLine
 10
241.5931
 20
3.998441378016
 30
0.0
 11
241.5931
 21
2.0
 31
0.0
  0
LINE
  5
D78
330
1D
100
AcDbEntity
  8
0
100
AcDbLine
 10
240.9931
 20
2.0
 30
0.0
 11
239.5931
 21
2.0
 31
0.0
  0
LINE
  5
D79
330
1D
100
AcDbEntity
  8
0
100
AcDbLine
 10
240.9931
 20
2.0
 30
0.0
 11
239.5931
 21
2.0
 31
0.0
  0
LINE
  5
D7A
330
1D
100
AcDbEntity
  8
0
100
AcDbLine
 10
240.9931
 20
2.0
 30
0.0
 11
239.5931
 21
2.0
 31
0.0
  0
LINE
  5
D7B
330
1D
100
AcDbEntity
  8
0
100
AcDbLine
 10
240.374
 20
3.0
 30
0.0
 11
239.774
 21
3.0
 31
0.0
  0
LINE
  5
D7C
330
1D
100
AcDbEntity
  8
0
100
AcDbLine
 10
240.374
 20
3.0
 30
0.0
 11
239.774
 21
3.0
 31
0.0
  0
LINE
  5
D7D
330
1D
100
AcDbEntity
  8
0
100
AcDbLine
 10
240.374
 20
3.0
 30
0.0
 11
240.374
 21
4.444888326069
 31
0.0
  0
LINE
  5
D7E
330
1D
100
AcDbEntity
  8
0
100
AcDbLine
 10
240.7397
 20
3.968
 30
0.0
 11
240.374
 21
3.951907084931
 31
0.0
  0
LINE
  5
D7F
330
1D
100
AcDbEntity
  8
0
100
AcDbLine
 10
241.0065
 20
4.0
 30
0.0
 11
240.4065
 21
4.0
 31
0.0
  0
LINE
  5
D80
330
1D
100
AcDbEntity
  8
0
100
AcDbLine
 10
240.374
 20
4.444888326069
 30
0.0
 11
240.374
 21
3.0
 31
0.0
  0
LINE
  5
D81
330
1D
100
AcDbEntity
  8
0
100
AcDbLine
 10
240.4065
 20
4.444696901873
 30
0.0
 11
239.8457
 21
4.448
 31
0.0
  0
LINE
  5
D82
330
1D
100
AcDbEntity
  8
0
100
AcDbLine
 10
243.1156
 20
6.382
 30
0.0
 11
241.5101
 21
6.297
 31
0.0
  0
LINE
  5
D83
330
1D
100
AcDbEntity
  8
0
100
AcDbLine
 10
240.374
 20
5.862911479945
 30
0.0
 11
240.374
 21
6.153405719251
 31
0.0
  0
LINE
  5
D84
330
1D
100
AcDbEntity
  8
0
100
AcDbLine
 10
240.374
 20
6.153405719251
 30
0.0
 11
240.374
 21
5.862911479945
 31
0.0
  0
LINE
  5
D85
330
1D
100
AcDbEntity
  8
0
100
AcDbLine
 10
240.2442
 20
6.137
 30
0.0
 11
239.8001
 21
5.978
 31
0.0
  0
LINE
  5
D86
330
1D
100
AcDbEntity
  8
0
100
AcDbLine
 10
240.2953
 20
5.864
 30
0.0
 11
239.8001
 21
5.978
 31
0.0
  0
LINE
  5
D87
330
1D
100
AcDbEntity
  8
0
100
AcDbLine
 10
240.4065
 20
5.862461964039
 30
0.0
 11
240.2953
 21
5.864
 31
0.0
  0
LINE
  5
D88
330
1D
100
AcDbEntity
  8
0
100
AcDbLine
 10
241.5101
 20
6.297
 30
0.0
 11
240.2442
 21
6.137
 31
0.0
  0
LINE
  5
D89
330
1D
100
AcDbEntity
  8
0
100
AcDbLine
 10
236.974
 20
3.0
 30
0.0
 11
236.374
 21
3.0
 31
0.0
  0
LINE
  5
D8A
330
1D
100
AcDbEntity
  8
0
100
AcDbLine
 10
236.974
 20
3.0
 30
0.0
 11
236.374
 21
3.0
 31
0.0
  0
LINE
  5
D8B
330
1D
100
AcDbEntity
  8
0
100
AcDbLine
 10
236.974
 20
3.0
 30
0.0
 11
236.374
 21
3.0
 31
0.0
  0
LINE
  5
D8C
330
1D
100
AcDbEntity
  8
0
100
AcDbLine
 10
237.3352
 20
4.347
 30
0.0
 11
235.9351
 21
4.237
 31
0.0
  0
LINE
  5
D8D
330
1D
100
AcDbEntity
  8
0
100
AcDbLine
 10
238.1931
 20
2.0
 30
0.0
 11
237.5931
 21
2.0
 31
0.0
  0
LINE
  5
D8E
330
1D
100
AcDbEntity
  8
0
100
AcDbLine
 10
238.1931
 20
2.0
 30
0.0
 11
237.5931
 21
2.0
 31
0.0
  0
LINE
  5
D8F
330
1D
100
AcDbEntity
  8
0
100
AcDbLine
 10
237.5931
 20
2.0
 30
0.0
 11
237.5931
 21
3.0
 31
0.0
  0
LINE
  5
D90
330
1D
100
AcDbEntity
  8
0
100
AcDbLine
 10
238.1931
 20
2.0
 30
0.0
 11
237.5931
 21
2.0
 31
0.0
  0
LINE
  5
D91
330
1D
100
AcDbEntity
  8
0
100
AcDbLine
 10
237.5931
 20
3.0
 30
0.0
 11
236.974
 21
3.0
 31
0.0
  0
LINE
  5
D92
330
1D
100
AcDbEntity
  8
0
100
AcDbLine
 10
238.374
 20
3.0
 30
0.0
 11
236.974
 21
3.0
 31
0.0
  0
LINE
  5
D93
330
1D
100
AcDbEntity
  8
0
100
AcDbLine
 10
237.5931
 20
3.0
 30
0.0
 11
237.5931
 21
2.0
 31
0.0
  0
LINE
  5
D94
330
1D
100
AcDbEntity
  8
0
100
AcDbLine
 10
238.374
 20
3.0
 30
0.0
 11
236.974
 21
3.0
 31
0.0
  0
LINE
  5
D95
330
1D
100
AcDbEntity
  8
0
100
AcDbLine
 10
238.637
 20
4.413
 30
0.0
 11
237.3352
 21
4.347
 31
0.0
  0
LINE
  5
D96
330
1D
100
AcDbEntity
  8
0
100
AcDbLine
 10
236.374
 20
3.0
 30
0.0
 11
236.374
 21
4.271482536962
 31
0.0
  0
LINE
  5
D97
330
1D
100
AcDbEntity
  8
0
100
AcDbLine
 10
236.374
 20
4.099291562029
 30
0.0
 11
235.6034
 21
4.108
 31
0.0
  0
LINE
  5
D98
330
1D
100
AcDbEntity
  8
0
100
AcDbLine
 10
235.9351
 20
4.237
 30
0.0
 11
235.4002
 21
4.143
 31
0.0
  0
LINE
  5
D99
330
1D
100
AcDbEntity
  8
0
100
AcDbLine
 10
235.6034
 20
4.108
 30
0.0
 11
235.4002
 21
4.143
 31
0.0
  0
LINE
  5
D9A
330
1D
100
AcDbEntity
  8
0
100
AcDbLine
 10
236.374
 20
4.271482536962
 30
0.0
 11
236.374
 21
3.0
 31
0.0
  0
LINE
  5
D9B
330
1D
100
AcDbEntity
  8
0
100
AcDbLine
 10
236.374
 20
4.271482536962
 30
0.0
 11
235.9351
 21
4.237
 31
0.0
  0
LINE
  5
D9C
330
1D
100
AcDbEntity
  8
0
100
AcDbLine
 10
235.9351
 20
4.237
 30
0.0
 11
235.4002
 21
4.143
 31
0.0
  0
LINE
  5
D9D
330
1D
100
AcDbEntity
  8
0
100
AcDbLine
 10
234.7066
 20
5.0
 30
0.0
 11
234.7066
 21
5.075442564559
 31
0.0
  0
LINE
  5
D9E
330
1D
100
AcDbEntity
  8
0
100
AcDbLine
 10
234.7066
 20
5.0
 30
0.0
 11
234.7066
 21
7.174049010299
 31
0.0
  0
LINE
  5
D9F
330
1D
100
AcDbEntity
  8
0
100
AcDbLine
 10
234.7066
 20
5.075442564559
 30
0.0
 11
234.7066
 21
5.0
 31
0.0
  0
LINE
  5
DA0
330
1D
100
AcDbEntity
  8
0
100
AcDbLine
 10
234.9
 20
5.01
 30
0.0
 11
234.7066
 21
5.075442564559
 31
0.0
  0
LINE
  5
DA1
330
1D
100
AcDbEntity
  8
0
100
AcDbLine
 10
234.9
 20
5.01
 30
0.0
 11
234.7066
 21
5.075442564559
 31
0.0
  0
LINE
  5
DA2
330
1D
100
AcDbEntity
  8
0
100
AcDbLine
 10
234.9
 20
5.01
 30
0.0
 11
234.6163
 21
4.906
 31
0.0
  0
LINE
  5
DA3
330
1D
100
AcDbEntity
  8
0
100
AcDbLine
 10
235.4577
 20
6.879
 30
0.0
 11
234.7066
 21
6.660403872241
 31
0.0
  0
LINE
  5
DA4
330
1D
100
AcDbEntity
  8
0
100
AcDbLine
 10
235.50021197671
 20
6.947696168454
 30
0.0
 11
235.4577
 21
6.879
 31
0.0
  0
LINE
  5
DA5
330
1D
100
AcDbEntity
  8
0
100
AcDbLine
 10
235.505
 20
6.945
 30
0.0
 11
235.196
 21
7.119
 31
0.0
  0
LINE
  5
DA6
330
1D
100
AcDbEntity
  8
0
100
AcDbLine
 10
235.505
 20
6.945
 30
0.0
 11
235.4577
 21
6.879
 31
0.0
  0
LINE
  5
DA7
330
1D
100
AcDbEntity
  8
0
100
AcDbLine
 10
234.7066
 20
6.660403872241
 30
0.0
 11
234.7066
 21
7.174049010299
 31
0.0
  0
LINE
  5
DA8
330
1D
100
AcDbEntity
  8
0
100
AcDbLine
 10
234.7066
 20
7.174049010299
 30
0.0
 11
234.7066
 21
5.0
 31
0.0
  0
LINE
  5
DA9
330
1D
100
AcDbEntity
  8
0
100
AcDbLine
 10
234.7066
 20
7.174049010299
 30
0.0
 11
234.7066
 21
6.660403872241
 31
0.0
  0
LINE
  5
DAA
330
1D
100
AcDbEntity
  8
0
100
AcDbLine
 10
230.1634
 20
3.510819507488
 30
0.0
 11
229.4003
 21
3.483
 31
0.0
  0
LINE
  5
DAB
330
1D
100
AcDbEntity
  8
0
100
AcDbLine
 10
230.1634
 20
3.513209386925
 30
0.0
 11
229.4003
 21
3.483
 31
0.0
  0
LINE
  5
DAC
330
1D
100
AcDbEntity
  8
0
100
AcDbLine
 10
230.1634
 20
3.510819507488
 30
0.0
 11
229.4003
 21
3.483
 31
0.0
  0
LINE
  5
DAD
330
1D
100
AcDbEntity
  8
0
100
AcDbLine
 10
230.1634
 20
3.0
 30
0.0
 11
230.1634
 21
4.963767172023
 31
0.0
  0
LINE
  5
DAE
330
1D
100
AcDbEntity
  8
0
100
AcDbLine
 10
234.1634
 20
3.0
 30
0.0
 11
234.1634
 21
5.0
 31
0.0
  0
LINE
  5
DAF
330
1D
100
AcDbEntity
  8
0
100
AcDbLine
 10
234.1634
 20
5.0
 30
0.0
 11
234.1634
 21
3.0
 31
0.0
  0
LINE
  5
DB0
330
1D
100
AcDbEntity
  8
0
100
AcDbLine
 10
230.1634
 20
4.963767172023
 30
0.0
 11
230.1634
 21
3.0
 31
0.0
  0
LINE
  5
DB1
330
1D
100
AcDbEntity
  8
0
100
AcDbLine
 10
233.5634
 20
3.0
 30
0.0
 11
232.1634
 21
3.0
 31
0.0
  0
LINE
  5
DB2
330
1D
100
AcDbEntity
  8
0
100
AcDbLine
 10
233.5634
 20
3.0
 30
0.0
 11
232.1634
 21
3.0
 31
0.0
  0
LINE
  5
DB3
330
1D
100
AcDbEntity
  8
0
100
AcDbLine
 10
234.1634
 20
3.0
 30
0.0
 11
233.5634
 21
3.0
 31
0.0
  0
LINE
  5
DB4
330
1D
100
AcDbEntity
  8
0
100
AcDbLine
 10
234.1634
 20
3.0
 30
0.0
 11
233.5634
 21
3.0
 31
0.0
  0
LINE
  5
DB5
330
1D
100
AcDbEntity
  8
0
100
AcDbLine
 10
234.1634
 20
3.0
 30
0.0
 11
234.1634
 21
3.656643160942
 31
0.0
  0
LINE
  5
DB6
330
1D
100
AcDbEntity
  8
0
100
AcDbLine
 10
230.7634
 20
3.0
 30
0.0
 11
230.1634
 21
3.0
 31
0.0
  0
LINE
  5
DB7
330
1D
100
AcDbEntity
  8
0
100
AcDbLine
 10
232.1634
 20
3.0
 30
0.0
 11
230.7634
 21
3.0
 31
0.0
  0
LINE
  5
DB8
330
1D
100
AcDbEntity
  8
0
100
AcDbLine
 10
230.7634
 20
3.0
 30
0.0
 11
230.1634
 21
3.0
 31
0.0
  0
LINE
  5
DB9
330
1D
100
AcDbEntity
  8
0
100
AcDbLine
 10
232.1634
 20
3.0
 30
0.0
 11
230.7634
 21
3.0
 31
0.0
  0
LINE
  5
DBA
330
1D
100
AcDbEntity
  8
0
100
AcDbLine
 10
230.7634
 20
3.0
 30
0.0
 11
230.1634
 21
3.0
 31
0.0
  0
LINE
  5
DBB
330
1D
100
AcDbEntity
  8
0
100
AcDbLine
 10
232.1634
 20
3.0
 30
0.0
 11
230.7634
 21
3.0
 31
0.0
  0
LINE
  5
DBC
330
1D
100
AcDbEntity
  8
0
100
AcDbLine
 10
233.5634
 20
3.0
 30
0.0
 11
232.1634
 21
3.0
 31
0.0
  0
LINE
  5
DBD
330
1D
100
AcDbEntity
  8
0
100
AcDbLine
 10
234.1634
 20
3.0
 30
0.0
 11
233.5634
 21
3.0
 31
0.0
  0
LINE
  5
DBE
330
1D
100
AcDbEntity
  8
0
100
AcDbLine
 10
234.1634
 20
3.656643160942
 30
0.0
 11
234.1634
 21
3.0
 31
0.0
  0
LINE
  5
DBF
330
1D
100
AcDbEntity
  8
0
100
AcDbLine
 10
232.7066
 20
5.0
 30
0.0
 11
231.3066
 21
5.0
 31
0.0
  0
LINE
  5
DC0
330
1D
100
AcDbEntity
  8
0
100
AcDbLine
 10
232.3055
 20
7.237
 30
0.0
 11
230.4207
 21
7.019
 31
0.0
  0
LINE
  5
DC1
330
1D
100
AcDbEntity
  8
0
100
AcDbLine
 10
234.1634
 20
4.846823671191
 30
0.0
 11
234.1634
 21
5.0
 31
0.0
  0
LINE
  5
DC2
330
1D
100
AcDbEntity
  8
0
100
AcDbLine
 10
234.1634
 20
5.0
 30
0.0
 11
234.1634
 21
4.846823671191
 31
0.0
  0
LINE
  5
DC3
330
1D
100
AcDbEntity
  8
0
100
AcDbLine
 10
234.1066
 20
5.0
 30
0.0
 11
232.7066
 21
5.0
 31
0.0
  0
LINE
  5
DC4
330
1D
100
AcDbEntity
  8
0
100
AcDbLine
 10
233.8269
 20
7.273
 30
0.0
 11
232.3055
 21
7.237
 31
0.0
  0
LINE
  5
DC5
330
1D
100
AcDbEntity
  8
0
100
AcDbLine
 10
229.988830600148
 20
4.729626983514
 30
0.0
 11
229.7002
 21
4.804
 31
0.0
  0
LINE
  5
DC6
330
1D
100
AcDbEntity
  8
0
100
AcDbLine
 10
230.1634
 20
4.717072960251
 30
0.0
 11
229.8724
 21
4.738
 31
0.0
  0
LINE
  5
DC7
330
1D
100
AcDbEntity
  8
0
100
AcDbLine
 10
229.8724
 20
4.738
 30
0.0
 11
229.7002
 21
4.804
 31
0.0
  0
LINE
  5
DC8
330
1D
100
AcDbEntity
  8
0
100
AcDbLine
 10
230.1634
 20
4.934424614416
 30
0.0
 11
229.945470924767
 21
4.90115561804
 31
0.0
  0
LINE
  5
DC9
330
1D
100
AcDbEntity
  8
0
100
AcDbLine
 10
230.7066
 20
5.0
 30
0.0
 11
230.7066
 21
7.052067805603
 31
0.0
  0
LINE
  5
DCA
330
1D
100
AcDbEntity
  8
0
100
AcDbLine
 10
231.3066
 20
5.0
 30
0.0
 11
230.7066
 21
5.0
 31
0.0
  0
LINE
  5
DCB
330
1D
100
AcDbEntity
  8
0
100
AcDbLine
 10
230.709875
 20
5.0
 30
0.0
 11
230.0915
 21
4.959
 31
0.0
  0
LINE
  5
DCC
330
1D
100
AcDbEntity
  8
0
100
AcDbLine
 10
230.0915
 20
4.959
 30
0.0
 11
229.7002
 21
4.804
 31
0.0
  0
LINE
  5
DCD
330
1D
100
AcDbEntity
  8
0
100
AcDbLine
 10
230.7066
 20
6.520431775867
 30
0.0
 11
230.4368
 21
6.53
 31
0.0
  0
LINE
  5
DCE
330
1D
100
AcDbEntity
  8
0
100
AcDbLine
 10
230.7066
 20
7.052067805603
 30
0.0
 11
230.7066
 21
5.0
 31
0.0
  0
LINE
  5
DCF
330
1D
100
AcDbEntity
  8
0
100
AcDbLine
 10
230.4368
 20
6.53
 30
0.0
 11
229.9006
 21
6.74
 31
0.0
  0
LINE
  5
DD0
330
1D
100
AcDbEntity
  8
0
100
AcDbLine
 10
230.4207
 20
7.019
 30
0.0
 11
229.9006
 21
6.74
 31
0.0
  0
LINE
  5
DD1
330
1D
100
AcDbEntity
  8
0
100
AcDbLine
 10
225.3947
 20
4.0
 30
0.0
 11
225.3947
 21
5.875044575504
 31
0.0
  0
LINE
  5
DD2
330
1D
100
AcDbEntity
  8
0
100
AcDbLine
 10
225.3947
 20
5.875044575504
 30
0.0
 11
225.3947
 21
4.0
 31
0.0
  0
LINE
  5
DD3
330
1D
100
AcDbEntity
  8
0
100
AcDbLine
 10
227.9893
 20
1.0
 30
0.0
 11
226.5893
 21
1.0
 31
0.0
  0
LINE
  5
DD4
330
1D
100
AcDbEntity
  8
0
100
AcDbLine
 10
227.9893
 20
1.0
 30
0.0
 11
226.5893
 21
1.0
 31
0.0
  0
LINE
  5
DD5
330
1D
100
AcDbEntity
  8
0
100
AcDbLine
 10
227.3798
 20
2.0
 30
0.0
 11
225.9798
 21
2.0
 31
0.0
  0
LINE
  5
DD6
330
1D
100
AcDbEntity
  8
0
100
AcDbLine
 10
227.9655
 20
3.673
 30
0.0
 11
226.5654
 21
3.666
 31
0.0
  0
LINE
  5
DD7
330
1D
100
AcDbEntity
  8
0
100
AcDbLine
 10
228.5893
 20
1.0
 30
0.0
 11
227.9893
 21
1.0
 31
0.0
  0
LINE
  5
DD8
330
1D
100
AcDbEntity
  8
0
100
AcDbLine
 10
228.5893
 20
1.0
 30
0.0
 11
227.9893
 21
1.0
 31
0.0
  0
LINE
  5
DD9
330
1D
100
AcDbEntity
  8
0
100
AcDbLine
 10
228.5893
 20
1.0
 30
0.0
 11
228.5893
 21
3.476948327931
 31
0.0
  0
LINE
  5
DDA
330
1D
100
AcDbEntity
  8
0
100
AcDbLine
 10
228.5893
 20
3.476948327931
 30
0.0
 11
228.5893
 21
1.0
 31
0.0
  0
LINE
  5
DDB
330
1D
100
AcDbEntity
  8
0
100
AcDbLine
 10
227.9798
 20
2.0
 30
0.0
 11
227.3798
 21
2.0
 31
0.0
  0
LINE
  5
DDC
330
1D
100
AcDbEntity
  8
0
100
AcDbLine
 10
227.9798
 20
2.0
 30
0.0
 11
227.9798
 21
3.67225046799
 31
0.0
  0
LINE
  5
DDD
330
1D
100
AcDbEntity
  8
0
100
AcDbLine
 10
228.8491
 20
3.471
 30
0.0
 11
227.9798
 21
3.451422640943
 31
0.0
  0
LINE
  5
DDE
330
1D
100
AcDbEntity
  8
0
100
AcDbLine
 10
228.8491
 20
3.471
 30
0.0
 11
228.5893
 21
3.465149087906
 31
0.0
  0
LINE
  5
DDF
330
1D
100
AcDbEntity
  8
0
100
AcDbLine
 10
229.2584
 20
3.48
 30
0.0
 11
228.8491
 21
3.471
 31
0.0
  0
LINE
  5
DE0
330
1D
100
AcDbEntity
  8
0
100
AcDbLine
 10
229.4003
 20
3.483
 30
0.0
 11
229.2584
 21
3.48
 31
0.0
  0
LINE
  5
DE1
330
1D
100
AcDbEntity
  8
0
100
AcDbLine
 10
227.9893
 20
3.598071031862
 30
0.0
 11
227.9893
 21
3.671752527143
 31
0.0
  0
LINE
  5
DE2
330
1D
100
AcDbEntity
  8
0
100
AcDbLine
 10
228.2581
 20
3.613
 30
0.0
 11
227.9798
 21
3.59754340836
 31
0.0
  0
LINE
  5
DE3
330
1D
100
AcDbEntity
  8
0
100
AcDbLine
 10
227.9893
 20
3.671752527143
 30
0.0
 11
227.9893
 21
3.598071031862
 31
0.0
  0
LINE
  5
DE4
330
1D
100
AcDbEntity
  8
0
100
AcDbLine
 10
227.9798
 20
3.67225046799
 30
0.0
 11
227.9798
 21
2.0
 31
0.0
  0
LINE
  5
DE5
330
1D
100
AcDbEntity
  8
0
100
AcDbLine
 10
228.4997
 20
3.645
 30
0.0
 11
228.2581
 21
3.613
 31
0.0
  0
LINE
  5
DE6
330
1D
100
AcDbEntity
  8
0
100
AcDbLine
 10
228.4997
 20
3.645
 30
0.0
 11
227.9655
 21
3.673
 31
0.0
  0
LINE
  5
DE7
330
1D
100
AcDbEntity
  8
0
100
AcDbLine
 10
226.5893
 20
1.0
 30
0.0
 11
225.1893
 21
1.0
 31
0.0
  0
LINE
  5
DE8
330
1D
100
AcDbEntity
  8
0
100
AcDbLine
 10
226.5893
 20
1.0
 30
0.0
 11
225.1893
 21
1.0
 31
0.0
  0
LINE
  5
DE9
330
1D
100
AcDbEntity
  8
0
100
AcDbLine
 10
226.1
 20
5.701
 30
0.0
 11
225.5651
 21
5.504
 31
0.0
  0
LINE
  5
DEA
330
1D
100
AcDbEntity
  8
0
100
AcDbLine
 10
226.1
 20
5.701
 30
0.0
 11
225.7599
 21
5.85
 31
0.0
  0
LINE
  5
DEB
330
1D
100
AcDbEntity
  8
0
100
AcDbLine
 10
225.5651
 20
5.504
 30
0.0
 11
225.3947
 21
5.48576369863
 31
0.0
  0
LINE
  5
DEC
330
1D
100
AcDbEntity
  8
0
100
AcDbLine
 10
247.468
 20
41.124
 30
0.0
 11
232.489
 21
42.185
 31
0.0
  0
LINE
  5
DED
330
1D
100
AcDbEntity
  8
0
100
AcDbLine
 10
232.489
 20
42.185
 30
0.0
 11
228.531
 21
42.394
 31
0.0
  0
LINE
  5
DEE
330
1D
100
AcDbEntity
  8
0
100
AcDbLine
 10
262.159
 20
39.829
 30
0.0
 11
247.468
 21
41.124
 31
0.0
  0
LINE
  5
DEF
330
1D
100
AcDbEntity
  8
0
100
AcDbLine
 10
187.589
 20
0.0
 30
0.0
 11
186.189
 21
0.0
 31
0.0
  0
LINE
  5
DF0
330
1D
100
AcDbEntity
  8
0
100
AcDbLine
 10
187.589
 20
0.0
 30
0.0
 11
186.189
 21
0.0
 31
0.0
  0
LINE
  5
DF1
330
1D
100
AcDbEntity
  8
0
100
AcDbLine
 10
187.589
 20
0.0
 30
0.0
 11
186.189
 21
0.0
 31
0.0
  0
LINE
  5
DF2
330
1D
100
AcDbEntity
  8
0
100
AcDbLine
 10
187.589
 20
0.0
 30
0.0
 11
186.189
 21
0.0
 31
0.0
  0
LINE
  5
DF3
330
1D
100
AcDbEntity
  8
0
100
AcDbLine
 10
188.24
 20
2.186
 30
0.0
 11
187.159
 21
2.174
 31
0.0
  0
LINE
  5
DF4
330
1D
100
AcDbEntity
  8
0
100
AcDbLine
 10
188.168
 20
5.0
 30
0.0
 11
186.768
 21
5.0
 31
0.0
  0
LINE
  5
DF5
330
1D
100
AcDbEntity
  8
0
100
AcDbLine
 10
188.168
 20
5.0
 30
0.0
 11
186.768
 21
5.0
 31
0.0
  0
LINE
  5
DF6
330
1D
100
AcDbEntity
  8
0
100
AcDbLine
 10
188.282
 20
6.724
 30
0.0
 11
187.279
 21
6.783
 31
0.0
  0
LINE
  5
DF7
330
1D
100
AcDbEntity
  8
0
100
AcDbLine
 10
194.7
 20
10.019
 30
0.0
 11
170.91
 21
9.99
 31
0.0
  0
LINE
  5
DF8
330
1D
100
AcDbEntity
  8
0
100
AcDbLine
 10
196.03
 20
43.84
 30
0.0
 11
179.783322998975
 21
44.228568704704
 31
0.0
  0
LINE
  5
DF9
330
1D
100
AcDbEntity
  8
0
100
AcDbLine
 10
213.61
 20
10.094
 30
0.0
 11
194.7
 21
10.019
 31
0.0
  0
LINE
  5
DFA
330
1D
100
AcDbEntity
  8
0
100
AcDbLine
 10
208.5357
 20
2.673893593908
 30
0.0
 11
202.2573
 21
2.621
 31
0.0
  0
LINE
  5
DFB
330
1D
100
AcDbEntity
  8
0
100
AcDbLine
 10
215.6872
 20
1.0
 30
0.0
 11
215.0872
 21
1.0
 31
0.0
  0
LINE
  5
DFC
330
1D
100
AcDbEntity
  8
0
100
AcDbLine
 10
215.6872
 20
1.0
 30
0.0
 11
215.0872
 21
1.0
 31
0.0
  0
LINE
  5
DFD
330
1D
100
AcDbEntity
  8
0
100
AcDbLine
 10
215.6872
 20
1.0
 30
0.0
 11
215.0872
 21
1.0
 31
0.0
  0
LINE
  5
DFE
330
1D
100
AcDbEntity
  8
0
100
AcDbLine
 10
215.6872
 20
1.0
 30
0.0
 11
215.0872
 21
1.0
 31
0.0
  0
LINE
  5
DFF
330
1D
100
AcDbEntity
  8
0
100
AcDbLine
 10
216.0828
 20
3.0
 30
0.0
 11
215.4828
 21
3.0
 31
0.0
  0
LINE
  5
E00
330
1D
100
AcDbEntity
  8
0
100
AcDbLine
 10
216.0828
 20
3.0
 30
0.0
 11
215.4828
 21
3.0
 31
0.0
  0
LINE
  5
E01
330
1D
100
AcDbEntity
  8
0
100
AcDbLine
 10
215.9442
 20
4.957
 30
0.0
 11
214.3943
 21
5.015
 31
0.0
  0
LINE
  5
E02
330
1D
100
AcDbEntity
  8
0
100
AcDbLine
 10
223.969
 20
10.169
 30
0.0
 11
213.61
 21
10.094
 31
0.0
  0
LINE
  5
E03
330
1D
100
AcDbEntity
  8
0
100
AcDbLine
 10
215.6872
 20
2.794
 30
0.0
 11
213.8604
 21
2.782
 31
0.0
  0
LINE
  5
E04
330
1D
100
AcDbEntity
  8
0
100
AcDbLine
 10
220.6755
 20
2.0
 30
0.0
 11
220.0755
 21
2.0
 31
0.0
  0
LINE
  5
E05
330
1D
100
AcDbEntity
  8
0
100
AcDbLine
 10
220.6755
 20
2.0
 30
0.0
 11
220.0755
 21
2.0
 31
0.0
  0
LINE
  5
E06
330
1D
100
AcDbEntity
  8
0
100
AcDbLine
 10
220.6755
 20
2.0
 30
0.0
 11
220.0755
 21
2.0
 31
0.0
  0
LINE
  5
E07
330
1D
100
AcDbEntity
  8
0
100
AcDbLine
 10
220.6755
 20
2.0
 30
0.0
 11
220.0755
 21
2.0
 31
0.0
  0
LINE
  5
E08
330
1D
100
AcDbEntity
  8
0
100
AcDbLine
 10
221.3947
 20
4.21979277865
 30
0.0
 11
219.934
 21
4.151
 31
0.0
  0
LINE
  5
E09
330
1D
100
AcDbEntity
  8
0
100
AcDbLine
 10
221.3947
 20
4.0
 30
0.0
 11
221.3947
 21
5.784324808184
 31
0.0
  0
LINE
  5
E0A
330
1D
100
AcDbEntity
  8
0
100
AcDbLine
 10
221.3947
 20
5.784324808184
 30
0.0
 11
221.3947
 21
4.0
 31
0.0
  0
LINE
  5
E0B
330
1D
100
AcDbEntity
  8
0
100
AcDbLine
 10
223.4755
 20
2.0
 30
0.0
 11
222.0755
 21
2.0
 31
0.0
  0
LINE
  5
E0C
330
1D
100
AcDbEntity
  8
0
100
AcDbLine
 10
223.4755
 20
2.0
 30
0.0
 11
222.0755
 21
2.0
 31
0.0
  0
LINE
  5
E0D
330
1D
100
AcDbEntity
  8
0
100
AcDbLine
 10
223.4755
 20
2.0
 30
0.0
 11
222.0755
 21
2.0
 31
0.0
  0
LINE
  5
E0E
330
1D
100
AcDbEntity
  8
0
100
AcDbLine
 10
223.4755
 20
2.0
 30
0.0
 11
222.0755
 21
2.0
 31
0.0
  0
LINE
  5
E0F
330
1D
100
AcDbEntity
  8
0
100
AcDbLine
 10
223.3947
 20
4.0
 30
0.0
 11
221.9947
 21
4.0
 31
0.0
  0
LINE
  5
E10
330
1D
100
AcDbEntity
  8
0
100
AcDbLine
 10
223.3947
 20
4.0
 30
0.0
 11
221.9947
 21
4.0
 31
0.0
  0
LINE
  5
E11
330
1D
100
AcDbEntity
  8
0
100
AcDbLine
 10
224.5893
 20
1.0
 30
0.0
 11
224.5893
 21
2.0
 31
0.0
  0
LINE
  5
E12
330
1D
100
AcDbEntity
  8
0
100
AcDbLine
 10
224.5798
 20
2.0
 30
0.0
 11
223.9798
 21
2.0
 31
0.0
  0
LINE
  5
E13
330
1D
100
AcDbEntity
  8
0
100
AcDbLine
 10
224.5798
 20
2.0
 30
0.0
 11
223.9798
 21
2.0
 31
0.0
  0
LINE
  5
E14
330
1D
100
AcDbEntity
  8
0
100
AcDbLine
 10
224.0755
 20
2.0
 30
0.0
 11
223.4755
 21
2.0
 31
0.0
  0
LINE
  5
E15
330
1D
100
AcDbEntity
  8
0
100
AcDbLine
 10
224.0755
 20
2.0
 30
0.0
 11
223.4755
 21
2.0
 31
0.0
  0
LINE
  5
E16
330
1D
100
AcDbEntity
  8
0
100
AcDbLine
 10
224.5798
 20
2.0
 30
0.0
 11
223.9798
 21
2.0
 31
0.0
  0
LINE
  5
E17
330
1D
100
AcDbEntity
  8
0
100
AcDbLine
 10
224.5798
 20
2.0
 30
0.0
 11
224.5798
 21
3.61784043412
 31
0.0
  0
LINE
  5
E18
330
1D
100
AcDbEntity
  8
0
100
AcDbLine
 10
224.5893
 20
2.0
 30
0.0
 11
224.5893
 21
1.0
 31
0.0
  0
LINE
  5
E19
330
1D
100
AcDbEntity
  8
0
100
AcDbLine
 10
224.0755
 20
2.0
 30
0.0
 11
223.4755
 21
2.0
 31
0.0
  0
LINE
  5
E1A
330
1D
100
AcDbEntity
  8
0
100
AcDbLine
 10
224.0755
 20
2.0
 30
0.0
 11
223.4755
 21
2.0
 31
0.0
  0
LINE
  5
E1B
330
1D
100
AcDbEntity
  8
0
100
AcDbLine
 10
224.0755
 20
2.0
 30
0.0
 11
224.0755
 21
4.0
 31
0.0
  0
LINE
  5
E1C
330
1D
100
AcDbEntity
  8
0
100
AcDbLine
 10
224.5798
 20
3.61784043412
 30
0.0
 11
224.5798
 21
2.0
 31
0.0
  0
LINE
  5
E1D
330
1D
100
AcDbEntity
  8
0
100
AcDbLine
 10
224.0755
 20
4.0
 30
0.0
 11
224.0755
 21
2.0
 31
0.0
  0
LINE
  5
E1E
330
1D
100
AcDbEntity
  8
0
100
AcDbLine
 10
224.7947
 20
4.0
 30
0.0
 11
223.3947
 21
4.0
 31
0.0
  0
LINE
  5
E1F
330
1D
100
AcDbEntity
  8
0
100
AcDbLine
 10
224.7947
 20
4.0
 30
0.0
 11
223.3947
 21
4.0
 31
0.0
  0
LINE
  5
E20
330
1D
100
AcDbEntity
  8
0
100
AcDbLine
 10
224.8351
 20
3.627
 30
0.0
 11
224.0755
 21
3.599747331599
 31
0.0
  0
LINE
  5
E21
330
1D
100
AcDbEntity
  8
0
100
AcDbLine
 10
222.0755
 20
2.0
 30
0.0
 11
220.6755
 21
2.0
 31
0.0
  0
LINE
  5
E22
330
1D
100
AcDbEntity
  8
0
100
AcDbLine
 10
222.0755
 20
2.0
 30
0.0
 11
220.6755
 21
2.0
 31
0.0
  0
LINE
  5
E23
330
1D
100
AcDbEntity
  8
0
100
AcDbLine
 10
222.0755
 20
2.0
 30
0.0
 11
220.6755
 21
2.0
 31
0.0
  0
LINE
  5
E24
330
1D
100
AcDbEntity
  8
0
100
AcDbLine
 10
222.0755
 20
2.0
 30
0.0
 11
220.6755
 21
2.0
 31
0.0
  0
LINE
  5
E25
330
1D
100
AcDbEntity
  8
0
100
AcDbLine
 10
221.9947
 20
4.0
 30
0.0
 11
221.3947
 21
4.0
 31
0.0
  0
LINE
  5
E26
330
1D
100
AcDbEntity
  8
0
100
AcDbLine
 10
221.9947
 20
4.0
 30
0.0
 11
221.3947
 21
4.0
 31
0.0
  0
LINE
  5
E27
330
1D
100
AcDbEntity
  8
0
100
AcDbLine
 10
224.3017
 20
5.95
 30
0.0
 11
223.2001
 21
5.939
 31
0.0
  0
LINE
  5
E28
330
1D
100
AcDbEntity
  8
0
100
AcDbLine
 10
221.5747
 20
5.821
 30
0.0
 11
220.4017
 21
5.582
 31
0.0
  0
LINE
  5
E29
330
1D
100
AcDbEntity
  8
0
100
AcDbLine
 10
223.2001
 20
5.939
 30
0.0
 11
221.5747
 21
5.821
 31
0.0
  0
LINE
  5
E2A
330
1D
100
AcDbEntity
  8
0
100
AcDbLine
 10
220.8898
 20
5.392
 30
0.0
 11
220.4017
 21
5.582
 31
0.0
  0
LINE
  5
E2B
330
1D
100
AcDbEntity
  8
0
100
AcDbLine
 10
221.3947
 20
5.351845105094
 30
0.0
 11
220.8898
 21
5.392
 31
0.0
  0
LINE
  5
E2C
330
1D
100
AcDbEntity
  8
0
100
AcDbLine
 10
216.0828
 20
3.0
 30
0.0
 11
216.0828
 21
4.94102116235
 31
0.0
  0
LINE
  5
E2D
330
1D
100
AcDbEntity
  8
0
100
AcDbLine
 10
216.7997
 20
4.789
 30
0.0
 11
216.2648
 21
4.635
 31
0.0
  0
LINE
  5
E2E
330
1D
100
AcDbEntity
  8
0
100
AcDbLine
 10
216.0828
 20
4.620578241005
 30
0.0
 11
216.0828
 21
4.94102116235
 31
0.0
  0
LINE
  5
E2F
330
1D
100
AcDbEntity
  8
0
100
AcDbLine
 10
216.0828
 20
4.94102116235
 30
0.0
 11
216.0828
 21
4.620578241005
 31
0.0
  0
LINE
  5
E30
330
1D
100
AcDbEntity
  8
0
100
AcDbLine
 10
216.0828
 20
4.94102116235
 30
0.0
 11
216.0828
 21
3.0
 31
0.0
  0
LINE
  5
E31
330
1D
100
AcDbEntity
  8
0
100
AcDbLine
 10
219.6832
 20
2.827
 30
0.0
 11
215.6872
 21
2.75276929911
 31
0.0
  0
LINE
  5
E32
330
1D
100
AcDbEntity
  8
0
100
AcDbLine
 10
220.0755
 20
2.0
 30
0.0
 11
220.0755
 21
4.157664050235
 31
0.0
  0
LINE
  5
E33
330
1D
100
AcDbEntity
  8
0
100
AcDbLine
 10
220.0755
 20
3.100606960227
 30
0.0
 11
219.6832
 21
2.827
 31
0.0
  0
LINE
  5
E34
330
1D
100
AcDbEntity
  8
0
100
AcDbLine
 10
220.0755
 20
3.969959157071
 30
0.0
 11
219.5725
 21
3.994
 31
0.0
  0
LINE
  5
E35
330
1D
100
AcDbEntity
  8
0
100
AcDbLine
 10
220.0755
 20
4.157664050235
 30
0.0
 11
220.0755
 21
2.0
 31
0.0
  0
LINE
  5
E36
330
1D
100
AcDbEntity
  8
0
100
AcDbLine
 10
219.934
 20
4.151
 30
0.0
 11
219.3996
 21
4.04
 31
0.0
  0
LINE
  5
E37
330
1D
100
AcDbEntity
  8
0
100
AcDbLine
 10
219.5725
 20
3.994
 30
0.0
 11
219.3996
 21
4.04
 31
0.0
  0
LINE
  5
E38
330
1D
100
AcDbEntity
  8
0
100
AcDbLine
 10
215.6872
 20
1.0
 30
0.0
 11
215.6872
 21
2.75025513086
 31
0.0
  0
LINE
  5
E39
330
1D
100
AcDbEntity
  8
0
100
AcDbLine
 10
215.6872
 20
2.75025513086
 30
0.0
 11
215.6872
 21
1.0
 31
0.0
  0
LINE
  5
E3A
330
1D
100
AcDbEntity
  8
0
100
AcDbLine
 10
215.6872
 20
1.0
 30
0.0
 11
215.6872
 21
2.793321459105
 31
0.0
  0
LINE
  5
E3B
330
1D
100
AcDbEntity
  8
0
100
AcDbLine
 10
215.6872
 20
2.793321459105
 30
0.0
 11
215.6872
 21
1.0
 31
0.0
  0
LINE
  5
E3C
330
1D
100
AcDbEntity
  8
0
100
AcDbLine
 10
216.2648
 20
4.635
 30
0.0
 11
216.0828
 21
4.620578241005
 31
0.0
  0
LINE
  5
E3D
330
1D
100
AcDbEntity
  8
0
100
AcDbLine
 10
216.7997
 20
4.789
 30
0.0
 11
216.5774
 21
4.884
 31
0.0
  0
LINE
  5
E3E
330
1D
100
AcDbEntity
  8
0
100
AcDbLine
 10
216.5774
 20
4.884
 30
0.0
 11
216.0828
 21
4.94102116235
 31
0.0
  0
LINE
  5
E3F
330
1D
100
AcDbEntity
  8
0
100
AcDbLine
 10
216.7997
 20
4.789
 30
0.0
 11
216.5774
 21
4.884
 31
0.0
  0
LINE
  5
E40
330
1D
100
AcDbEntity
  8
0
100
AcDbLine
 10
216.5774
 20
4.884
 30
0.0
 11
215.9442
 21
4.957
 31
0.0
  0
LINE
  5
E41
330
1D
100
AcDbEntity
  8
0
100
AcDbLine
 10
211.9357
 20
2.0
 30
0.0
 11
210.5357
 21
2.0
 31
0.0
  0
LINE
  5
E42
330
1D
100
AcDbEntity
  8
0
100
AcDbLine
 10
211.6872
 20
2.0
 30
0.0
 11
210.5357
 21
2.0
 31
0.0
  0
LINE
  5
E43
330
1D
100
AcDbEntity
  8
0
100
AcDbLine
 10
211.6872
 20
2.0
 30
0.0
 11
210.5357
 21
2.0
 31
0.0
  0
LINE
  5
E44
330
1D
100
AcDbEntity
  8
0
100
AcDbLine
 10
211.9357
 20
2.0
 30
0.0
 11
210.5357
 21
2.0
 31
0.0
  0
LINE
  5
E45
330
1D
100
AcDbEntity
  8
0
100
AcDbLine
 10
210.97
 20
3.204
 30
0.0
 11
209.3702
 21
3.186
 31
0.0
  0
LINE
  5
E46
330
1D
100
AcDbEntity
  8
0
100
AcDbLine
 10
211.5996
 20
5.0
 30
0.0
 11
210.1996
 21
5.0
 31
0.0
  0
LINE
  5
E47
330
1D
100
AcDbEntity
  8
0
100
AcDbLine
 10
212.0508
 20
6.977
 30
0.0
 11
210.5717
 21
6.926
 31
0.0
  0
LINE
  5
E48
330
1D
100
AcDbEntity
  8
0
100
AcDbLine
 10
212.0828
 20
3.0
 30
0.0
 11
212.0828
 21
4.866760314342
 31
0.0
  0
LINE
  5
E49
330
1D
100
AcDbEntity
  8
0
100
AcDbLine
 10
212.0828
 20
4.866760314342
 30
0.0
 11
212.0828
 21
3.0
 31
0.0
  0
LINE
  5
E4A
330
1D
100
AcDbEntity
  8
0
100
AcDbLine
 10
211.3081
 20
4.745
 30
0.0
 11
211.2002
 21
4.675
 31
0.0
  0
LINE
  5
E4B
330
1D
100
AcDbEntity
  8
0
100
AcDbLine
 10
213.6872
 20
1.0
 30
0.0
 11
212.2872
 21
1.0
 31
0.0
  0
LINE
  5
E4C
330
1D
100
AcDbEntity
  8
0
100
AcDbLine
 10
213.6872
 20
1.0
 30
0.0
 11
212.2872
 21
1.0
 31
0.0
  0
LINE
  5
E4D
330
1D
100
AcDbEntity
  8
0
100
AcDbLine
 10
213.6872
 20
1.0
 30
0.0
 11
212.2872
 21
1.0
 31
0.0
  0
LINE
  5
E4E
330
1D
100
AcDbEntity
  8
0
100
AcDbLine
 10
213.6872
 20
1.0
 30
0.0
 11
212.2872
 21
1.0
 31
0.0
  0
LINE
  5
E4F
330
1D
100
AcDbEntity
  8
0
100
AcDbLine
 10
214.0828
 20
3.0
 30
0.0
 11
212.6828
 21
3.0
 31
0.0
  0
LINE
  5
E50
330
1D
100
AcDbEntity
  8
0
100
AcDbLine
 10
214.0828
 20
3.0
 30
0.0
 11
212.6828
 21
3.0
 31
0.0
  0
LINE
  5
E51
330
1D
100
AcDbEntity
  8
0
100
AcDbLine
 10
213.8604
 20
2.782
 30
0.0
 11
212.5357
 21
2.761603103162
 31
0.0
  0
LINE
  5
E52
330
1D
100
AcDbEntity
  8
0
100
AcDbLine
 10
215.0872
 20
1.0
 30
0.0
 11
213.6872
 21
1.0
 31
0.0
  0
LINE
  5
E53
330
1D
100
AcDbEntity
  8
0
100
AcDbLine
 10
215.0872
 20
1.0
 30
0.0
 11
213.6872
 21
1.0
 31
0.0
  0
LINE
  5
E54
330
1D
100
AcDbEntity
  8
0
100
AcDbLine
 10
215.0872
 20
1.0
 30
0.0
 11
213.6872
 21
1.0
 31
0.0
  0
LINE
  5
E55
330
1D
100
AcDbEntity
  8
0
100
AcDbLine
 10
215.0872
 20
1.0
 30
0.0
 11
213.6872
 21
1.0
 31
0.0
  0
LINE
  5
E56
330
1D
100
AcDbEntity
  8
0
100
AcDbLine
 10
215.4828
 20
3.0
 30
0.0
 11
214.0828
 21
3.0
 31
0.0
  0
LINE
  5
E57
330
1D
100
AcDbEntity
  8
0
100
AcDbLine
 10
215.4828
 20
3.0
 30
0.0
 11
214.0828
 21
3.0
 31
0.0
  0
LINE
  5
E58
330
1D
100
AcDbEntity
  8
0
100
AcDbLine
 10
212.2872
 20
1.0
 30
0.0
 11
211.6872
 21
1.0
 31
0.0
  0
LINE
  5
E59
330
1D
100
AcDbEntity
  8
0
100
AcDbLine
 10
212.2872
 20
1.0
 30
0.0
 11
211.6872
 21
1.0
 31
0.0
  0
LINE
  5
E5A
330
1D
100
AcDbEntity
  8
0
100
AcDbLine
 10
212.2872
 20
1.0
 30
0.0
 11
211.6872
 21
1.0
 31
0.0
  0
LINE
  5
E5B
330
1D
100
AcDbEntity
  8
0
100
AcDbLine
 10
212.2872
 20
1.0
 30
0.0
 11
211.6872
 21
1.0
 31
0.0
  0
LINE
  5
E5C
330
1D
100
AcDbEntity
  8
0
100
AcDbLine
 10
212.5357
 20
2.0
 30
0.0
 11
211.9357
 21
2.0
 31
0.0
  0
LINE
  5
E5D
330
1D
100
AcDbEntity
  8
0
100
AcDbLine
 10
212.5357
 20
2.0
 30
0.0
 11
211.9357
 21
2.0
 31
0.0
  0
LINE
  5
E5E
330
1D
100
AcDbEntity
  8
0
100
AcDbLine
 10
212.5357
 20
2.0
 30
0.0
 11
212.5357
 21
3.0
 31
0.0
  0
LINE
  5
E5F
330
1D
100
AcDbEntity
  8
0
100
AcDbLine
 10
212.6828
 20
3.0
 30
0.0
 11
212.0828
 21
3.0
 31
0.0
  0
LINE
  5
E60
330
1D
100
AcDbEntity
  8
0
100
AcDbLine
 10
212.6828
 20
3.0
 30
0.0
 11
212.0828
 21
3.0
 31
0.0
  0
LINE
  5
E61
330
1D
100
AcDbEntity
  8
0
100
AcDbLine
 10
212.5357
 20
3.0
 30
0.0
 11
212.5357
 21
2.0
 31
0.0
  0
LINE
  5
E62
330
1D
100
AcDbEntity
  8
0
100
AcDbLine
 10
211.6872
 20
1.0
 30
0.0
 11
211.6872
 21
2.0
 31
0.0
  0
LINE
  5
E63
330
1D
100
AcDbEntity
  8
0
100
AcDbLine
 10
211.6872
 20
2.0
 30
0.0
 11
211.6872
 21
1.0
 31
0.0
  0
LINE
  5
E64
330
1D
100
AcDbEntity
  8
0
100
AcDbLine
 10
212.0828
 20
3.187094263185
 30
0.0
 11
210.97
 21
3.204
 31
0.0
  0
LINE
  5
E65
330
1D
100
AcDbEntity
  8
0
100
AcDbLine
 10
211.4411
 20
4.583
 30
0.0
 11
211.2002
 21
4.675
 31
0.0
  0
LINE
  5
E66
330
1D
100
AcDbEntity
  8
0
100
AcDbLine
 10
212.0828
 20
4.522905179982
 30
0.0
 11
211.4411
 21
4.583
 31
0.0
  0
LINE
  5
E67
330
1D
100
AcDbEntity
  8
0
100
AcDbLine
 10
212.9996
 20
5.0
 30
0.0
 11
211.5996
 21
5.0
 31
0.0
  0
LINE
  5
E68
330
1D
100
AcDbEntity
  8
0
100
AcDbLine
 10
213.5996
 20
5.0
 30
0.0
 11
212.9996
 21
5.0
 31
0.0
  0
LINE
  5
E69
330
1D
100
AcDbEntity
  8
0
100
AcDbLine
 10
213.5996
 20
5.0
 30
0.0
 11
213.5996
 21
6.809141140761
 31
0.0
  0
LINE
  5
E6A
330
1D
100
AcDbEntity
  8
0
100
AcDbLine
 10
214.3943
 20
5.015
 30
0.0
 11
212.2752
 21
4.897
 31
0.0
  0
LINE
  5
E6B
330
1D
100
AcDbEntity
  8
0
100
AcDbLine
 10
212.2752
 20
4.897
 30
0.0
 11
211.3081
 21
4.745
 31
0.0
  0
LINE
  5
E6C
330
1D
100
AcDbEntity
  8
0
100
AcDbLine
 10
214.0004
 20
6.608
 30
0.0
 11
213.7167
 21
6.789
 31
0.0
  0
LINE
  5
E6D
330
1D
100
AcDbEntity
  8
0
100
AcDbLine
 10
214.0004
 20
6.608
 30
0.0
 11
213.5996
 21
6.414765769385
 31
0.0
  0
LINE
  5
E6E
330
1D
100
AcDbEntity
  8
0
100
AcDbLine
 10
213.5996
 20
6.809141140761
 30
0.0
 11
213.5996
 21
5.0
 31
0.0
  0
LINE
  5
E6F
330
1D
100
AcDbEntity
  8
0
100
AcDbLine
 10
212.926
 20
6.925
 30
0.0
 11
212.0508
 21
6.977
 31
0.0
  0
LINE
  5
E70
330
1D
100
AcDbEntity
  8
0
100
AcDbLine
 10
213.7167
 20
6.789
 30
0.0
 11
212.926
 21
6.925
 31
0.0
  0
LINE
  5
E71
330
1D
100
AcDbEntity
  8
0
100
AcDbLine
 10
209.1357
 20
2.0
 30
0.0
 11
208.5357
 21
2.0
 31
0.0
  0
LINE
  5
E72
330
1D
100
AcDbEntity
  8
0
100
AcDbLine
 10
209.1357
 20
2.0
 30
0.0
 11
208.5357
 21
2.0
 31
0.0
  0
LINE
  5
E73
330
1D
100
AcDbEntity
  8
0
100
AcDbLine
 10
209.1357
 20
2.0
 30
0.0
 11
208.5357
 21
2.0
 31
0.0
  0
LINE
  5
E74
330
1D
100
AcDbEntity
  8
0
100
AcDbLine
 10
209.3702
 20
3.186
 30
0.0
 11
208.1639
 21
3.135
 31
0.0
  0
LINE
  5
E75
330
1D
100
AcDbEntity
  8
0
100
AcDbLine
 10
210.5357
 20
2.0
 30
0.0
 11
209.1357
 21
2.0
 31
0.0
  0
LINE
  5
E76
330
1D
100
AcDbEntity
  8
0
100
AcDbLine
 10
210.5357
 20
2.0
 30
0.0
 11
209.1357
 21
2.0
 31
0.0
  0
LINE
  5
E77
330
1D
100
AcDbEntity
  8
0
100
AcDbLine
 10
210.5357
 20
2.0
 30
0.0
 11
209.1357
 21
2.0
 31
0.0
  0
LINE
  5
E78
330
1D
100
AcDbEntity
  8
0
100
AcDbLine
 10
210.5357
 20
2.0
 30
0.0
 11
209.1357
 21
2.0
 31
0.0
  0
LINE
  5
E79
330
1D
100
AcDbEntity
  8
0
100
AcDbLine
 10
208.5357
 20
2.0
 30
0.0
 11
208.5357
 21
3.150718975379
 31
0.0
  0
LINE
  5
E7A
330
1D
100
AcDbEntity
  8
0
100
AcDbLine
 10
208.5357
 20
3.150718975379
 30
0.0
 11
208.5357
 21
2.0
 31
0.0
  0
LINE
  5
E7B
330
1D
100
AcDbEntity
  8
0
100
AcDbLine
 10
208.5357
 20
3.150718975379
 30
0.0
 11
208.1639
 21
3.135
 31
0.0
  0
LINE
  5
E7C
330
1D
100
AcDbEntity
  8
0
100
AcDbLine
 10
208.5357
 20
3.021918660287
 30
0.0
 11
208.4679
 21
3.023
 31
0.0
  0
LINE
  5
E7D
330
1D
100
AcDbEntity
  8
0
100
AcDbLine
 10
208.1639
 20
3.135
 30
0.0
 11
207.8
 21
3.082
 31
0.0
  0
LINE
  5
E7E
330
1D
100
AcDbEntity
  8
0
100
AcDbLine
 10
208.1639
 20
3.135
 30
0.0
 11
207.8
 21
3.082
 31
0.0
  0
LINE
  5
E7F
330
1D
100
AcDbEntity
  8
0
100
AcDbLine
 10
207.9723
 20
3.048
 30
0.0
 11
207.8
 21
3.082
 31
0.0
  0
LINE
  5
E80
330
1D
100
AcDbEntity
  8
0
100
AcDbLine
 10
207.9723
 20
3.048
 30
0.0
 11
207.8
 21
3.082
 31
0.0
  0
LINE
  5
E81
330
1D
100
AcDbEntity
  8
0
100
AcDbLine
 10
208.4679
 20
3.023
 30
0.0
 11
207.9723
 21
3.048
 31
0.0
  0
LINE
  5
E82
330
1D
100
AcDbEntity
  8
0
100
AcDbLine
 10
209.5996
 20
5.0
 30
0.0
 11
209.5996
 21
6.791473975552
 31
0.0
  0
LINE
  5
E83
330
1D
100
AcDbEntity
  8
0
100
AcDbLine
 10
210.1996
 20
5.0
 30
0.0
 11
209.5996
 21
5.0
 31
0.0
  0
LINE
  5
E84
330
1D
100
AcDbEntity
  8
0
100
AcDbLine
 10
209.271
 20
6.746
 30
0.0
 11
208.7996
 21
6.497
 31
0.0
  0
LINE
  5
E85
330
1D
100
AcDbEntity
  8
0
100
AcDbLine
 10
208.9029
 20
6.389
 30
0.0
 11
208.7996
 21
6.497
 31
0.0
  0
LINE
  5
E86
330
1D
100
AcDbEntity
  8
0
100
AcDbLine
 10
209.5996
 20
6.252983139212
 30
0.0
 11
208.9029
 21
6.389
 31
0.0
  0
LINE
  5
E87
330
1D
100
AcDbEntity
  8
0
100
AcDbLine
 10
209.5996
 20
6.791473975552
 30
0.0
 11
209.5996
 21
5.0
 31
0.0
  0
LINE
  5
E88
330
1D
100
AcDbEntity
  8
0
100
AcDbLine
 10
210.5717
 20
6.926
 30
0.0
 11
209.271
 21
6.746
 31
0.0
  0
LINE
  5
E89
330
1D
100
AcDbEntity
  8
0
100
AcDbLine
 10
197.769
 20
2.628537406076
 30
0.0
 11
195.439
 21
2.643
 31
0.0
  0
LINE
  5
E8A
330
1D
100
AcDbEntity
  8
0
100
AcDbLine
 10
201.7691
 20
1.0
 30
0.0
 11
201.1691
 21
1.0
 31
0.0
  0
LINE
  5
E8B
330
1D
100
AcDbEntity
  8
0
100
AcDbLine
 10
201.7691
 20
1.0
 30
0.0
 11
201.1691
 21
1.0
 31
0.0
  0
LINE
  5
E8C
330
1D
100
AcDbEntity
  8
0
100
AcDbLine
 10
202.4898
 20
1.0
 30
0.0
 11
201.0898
 21
1.0
 31
0.0
  0
LINE
  5
E8D
330
1D
100
AcDbEntity
  8
0
100
AcDbLine
 10
202.4898
 20
1.0
 30
0.0
 11
201.0898
 21
1.0
 31
0.0
  0
LINE
  5
E8E
330
1D
100
AcDbEntity
  8
0
100
AcDbLine
 10
201.7691
 20
1.0
 30
0.0
 11
201.1691
 21
1.0
 31
0.0
  0
LINE
  5
E8F
330
1D
100
AcDbEntity
  8
0
100
AcDbLine
 10
201.7691
 20
1.0
 30
0.0
 11
201.1691
 21
1.0
 31
0.0
  0
LINE
  5
E90
330
1D
100
AcDbEntity
  8
0
100
AcDbLine
 10
201.7404
 20
3.0
 30
0.0
 11
201.1404
 21
3.0
 31
0.0
  0
LINE
  5
E91
330
1D
100
AcDbEntity
  8
0
100
AcDbLine
 10
201.7404
 20
3.0
 30
0.0
 11
201.1404
 21
3.0
 31
0.0
  0
LINE
  5
E92
330
1D
100
AcDbEntity
  8
0
100
AcDbLine
 10
201.6437
 20
2.897
 30
0.0
 11
200.0407
 21
2.927
 31
0.0
  0
LINE
  5
E93
330
1D
100
AcDbEntity
  8
0
100
AcDbLine
 10
202.7533
 20
4.0
 30
0.0
 11
201.3533
 21
4.0
 31
0.0
  0
LINE
  5
E94
330
1D
100
AcDbEntity
  8
0
100
AcDbLine
 10
201.9134
 20
3.796
 30
0.0
 11
200.4988
 21
3.705
 31
0.0
  0
LINE
  5
E95
330
1D
100
AcDbEntity
  8
0
100
AcDbLine
 10
202.2408
 20
5.81
 30
0.0
 11
201.3881
 21
5.755
 31
0.0
  0
LINE
  5
E96
330
1D
100
AcDbEntity
  8
0
100
AcDbLine
 10
204.7533
 20
4.0
 30
0.0
 11
204.7533
 21
5.725042206897
 31
0.0
  0
LINE
  5
E97
330
1D
100
AcDbEntity
  8
0
100
AcDbLine
 10
204.7533
 20
5.725042206897
 30
0.0
 11
204.7533
 21
4.0
 31
0.0
  0
LINE
  5
E98
330
1D
100
AcDbEntity
  8
0
100
AcDbLine
 10
204.5404
 20
3.0
 30
0.0
 11
203.1404
 21
3.0
 31
0.0
  0
LINE
  5
E99
330
1D
100
AcDbEntity
  8
0
100
AcDbLine
 10
204.5404
 20
3.0
 30
0.0
 11
203.1404
 21
3.0
 31
0.0
  0
LINE
  5
E9A
330
1D
100
AcDbEntity
  8
0
100
AcDbLine
 10
204.1533
 20
4.0
 30
0.0
 11
202.7533
 21
4.0
 31
0.0
  0
LINE
  5
E9B
330
1D
100
AcDbEntity
  8
0
100
AcDbLine
 10
204.9488
 20
3.783
 30
0.0
 11
203.6212
 21
3.816
 31
0.0
  0
LINE
  5
E9C
330
1D
100
AcDbEntity
  8
0
100
AcDbLine
 10
205.1404
 20
3.0
 30
0.0
 11
204.5404
 21
3.0
 31
0.0
  0
LINE
  5
E9D
330
1D
100
AcDbEntity
  8
0
100
AcDbLine
 10
205.1404
 20
3.0
 30
0.0
 11
204.5404
 21
3.0
 31
0.0
  0
LINE
  5
E9E
330
1D
100
AcDbEntity
  8
0
100
AcDbLine
 10
205.1404
 20
3.0
 30
0.0
 11
205.1404
 21
3.768909947104
 31
0.0
  0
LINE
  5
E9F
330
1D
100
AcDbEntity
  8
0
100
AcDbLine
 10
205.9998
 20
3.654
 30
0.0
 11
205.7239
 21
3.726
 31
0.0
  0
LINE
  5
EA0
330
1D
100
AcDbEntity
  8
0
100
AcDbLine
 10
205.7239
 20
3.726
 30
0.0
 11
205.1404
 21
3.768909947104
 31
0.0
  0
LINE
  5
EA1
330
1D
100
AcDbEntity
  8
0
100
AcDbLine
 10
205.9998
 20
3.654
 30
0.0
 11
205.7239
 21
3.726
 31
0.0
  0
LINE
  5
EA2
330
1D
100
AcDbEntity
  8
0
100
AcDbLine
 10
205.9998
 20
3.654
 30
0.0
 11
205.465
 21
3.559
 31
0.0
  0
LINE
  5
EA3
330
1D
100
AcDbEntity
  8
0
100
AcDbLine
 10
205.1404
 20
3.545088571429
 30
0.0
 11
205.1404
 21
3.768909947104
 31
0.0
  0
LINE
  5
EA4
330
1D
100
AcDbEntity
  8
0
100
AcDbLine
 10
205.1404
 20
3.768909947104
 30
0.0
 11
205.1404
 21
3.0
 31
0.0
  0
LINE
  5
EA5
330
1D
100
AcDbEntity
  8
0
100
AcDbLine
 10
205.1404
 20
3.768909947104
 30
0.0
 11
205.1404
 21
3.545088571429
 31
0.0
  0
LINE
  5
EA6
330
1D
100
AcDbEntity
  8
0
100
AcDbLine
 10
205.465
 20
3.559
 30
0.0
 11
205.1404
 21
3.545088571429
 31
0.0
  0
LINE
  5
EA7
330
1D
100
AcDbEntity
  8
0
100
AcDbLine
 10
204.7533
 20
4.0
 30
0.0
 11
204.1533
 21
4.0
 31
0.0
  0
LINE
  5
EA8
330
1D
100
AcDbEntity
  8
0
100
AcDbLine
 10
205.7239
 20
3.726
 30
0.0
 11
204.9488
 21
3.783
 31
0.0
  0
LINE
  5
EA9
330
1D
100
AcDbEntity
  8
0
100
AcDbLine
 10
203.0898
 20
1.0
 30
0.0
 11
202.4898
 21
1.0
 31
0.0
  0
LINE
  5
EAA
330
1D
100
AcDbEntity
  8
0
100
AcDbLine
 10
203.0898
 20
1.0
 30
0.0
 11
202.4898
 21
1.0
 31
0.0
  0
LINE
  5
EAB
330
1D
100
AcDbEntity
  8
0
100
AcDbLine
 10
203.0898
 20
1.0
 30
0.0
 11
203.0898
 21
2.619779236014
 31
0.0
  0
LINE
  5
EAC
330
1D
100
AcDbEntity
  8
0
100
AcDbLine
 10
201.7691
 20
1.0
 30
0.0
 11
201.7691
 21
2.884902652927
 31
0.0
  0
LINE
  5
EAD
330
1D
100
AcDbEntity
  8
0
100
AcDbLine
 10
203.0898
 20
2.619779236014
 30
0.0
 11
203.0898
 21
1.0
 31
0.0
  0
LINE
  5
EAE
330
1D
100
AcDbEntity
  8
0
100
AcDbLine
 10
203.1404
 20
3.0
 30
0.0
 11
201.7404
 21
3.0
 31
0.0
  0
LINE
  5
EAF
330
1D
100
AcDbEntity
  8
0
100
AcDbLine
 10
203.1404
 20
3.0
 30
0.0
 11
201.7404
 21
3.0
 31
0.0
  0
LINE
  5
EB0
330
1D
100
AcDbEntity
  8
0
100
AcDbLine
 10
201.7691
 20
2.884902652927
 30
0.0
 11
201.7691
 21
1.0
 31
0.0
  0
LINE
  5
EB1
330
1D
100
AcDbEntity
  8
0
100
AcDbLine
 10
202.0998
 20
2.853
 30
0.0
 11
201.6437
 21
2.897
 31
0.0
  0
LINE
  5
EB2
330
1D
100
AcDbEntity
  8
0
100
AcDbLine
 10
202.0998
 20
2.853
 30
0.0
 11
201.7691
 21
2.827679427765
 31
0.0
  0
LINE
  5
EB3
330
1D
100
AcDbEntity
  8
0
100
AcDbLine
 10
202.2573
 20
2.621
 30
0.0
 11
201.7691
 21
2.621564654175
 31
0.0
  0
LINE
  5
EB4
330
1D
100
AcDbEntity
  8
0
100
AcDbLine
 10
203.6212
 20
3.816
 30
0.0
 11
201.9134
 21
3.796
 31
0.0
  0
LINE
  5
EB5
330
1D
100
AcDbEntity
  8
0
100
AcDbLine
 10
205.296453846154
 20
5.535230769231
 30
0.0
 11
205.2479
 21
5.478
 31
0.0
  0
LINE
  5
EB6
330
1D
100
AcDbEntity
  8
0
100
AcDbLine
 10
205.1404
 20
5.444867170022
 30
0.0
 11
205.1404
 21
5.597866184448
 31
0.0
  0
LINE
  5
EB7
330
1D
100
AcDbEntity
  8
0
100
AcDbLine
 10
205.1404
 20
5.597866184448
 30
0.0
 11
205.1404
 21
5.444867170022
 31
0.0
  0
LINE
  5
EB8
330
1D
100
AcDbEntity
  8
0
100
AcDbLine
 10
205.2479
 20
5.478
 30
0.0
 11
205.1404
 21
5.445122615039
 31
0.0
  0
LINE
  5
EB9
330
1D
100
AcDbEntity
  8
0
100
AcDbLine
 10
204.8915
 20
5.369
 30
0.0
 11
204.7533
 21
5.349978742927
 31
0.0
  0
LINE
  5
EBA
330
1D
100
AcDbEntity
  8
0
100
AcDbLine
 10
205.2491
 20
5.478
 30
0.0
 11
204.8915
 21
5.369
 31
0.0
  0
LINE
  5
EBB
330
1D
100
AcDbEntity
  8
0
100
AcDbLine
 10
204.0777
 20
5.794
 30
0.0
 11
203.148
 21
5.825
 31
0.0
  0
LINE
  5
EBC
330
1D
100
AcDbEntity
  8
0
100
AcDbLine
 10
203.148
 20
5.825
 30
0.0
 11
202.2408
 21
5.81
 31
0.0
  0
LINE
  5
EBD
330
1D
100
AcDbEntity
  8
0
100
AcDbLine
 10
204.8027
 20
5.72
 30
0.0
 11
204.0777
 21
5.794
 31
0.0
  0
LINE
  5
EBE
330
1D
100
AcDbEntity
  8
0
100
AcDbLine
 10
205.3004
 20
5.54
 30
0.0
 11
205.2491
 21
5.478
 31
0.0
  0
LINE
  5
EBF
330
1D
100
AcDbEntity
  8
0
100
AcDbLine
 10
205.3004
 20
5.54
 30
0.0
 11
204.8027
 21
5.72
 31
0.0
  0
LINE
  5
EC0
330
1D
100
AcDbEntity
  8
0
100
AcDbLine
 10
200.7533
 20
4.0
 30
0.0
 11
200.7533
 21
5.662756045821
 31
0.0
  0
LINE
  5
EC1
330
1D
100
AcDbEntity
  8
0
100
AcDbLine
 10
200.7533
 20
5.662756045821
 30
0.0
 11
200.7533
 21
4.0
 31
0.0
  0
LINE
  5
EC2
330
1D
100
AcDbEntity
  8
0
100
AcDbLine
 10
199.769
 20
1.0
 30
0.0
 11
198.369
 21
1.0
 31
0.0
  0
LINE
  5
EC3
330
1D
100
AcDbEntity
  8
0
100
AcDbLine
 10
199.769
 20
1.0
 30
0.0
 11
198.369
 21
1.0
 31
0.0
  0
LINE
  5
EC4
330
1D
100
AcDbEntity
  8
0
100
AcDbLine
 10
199.69
 20
1.0
 30
0.0
 11
199.09
 21
1.0
 31
0.0
  0
LINE
  5
EC5
330
1D
100
AcDbEntity
  8
0
100
AcDbLine
 10
199.69
 20
1.0
 30
0.0
 11
199.09
 21
1.0
 31
0.0
  0
LINE
  5
EC6
330
1D
100
AcDbEntity
  8
0
100
AcDbLine
 10
199.769
 20
1.0
 30
0.0
 11
198.369
 21
1.0
 31
0.0
  0
LINE
  5
EC7
330
1D
100
AcDbEntity
  8
0
100
AcDbLine
 10
199.769
 20
1.0
 30
0.0
 11
198.369
 21
1.0
 31
0.0
  0
LINE
  5
EC8
330
1D
100
AcDbEntity
  8
0
100
AcDbLine
 10
200.0407
 20
2.927
 30
0.0
 11
198.442
 21
2.926
 31
0.0
  0
LINE
  5
EC9
330
1D
100
AcDbEntity
  8
0
100
AcDbLine
 10
201.1691
 20
1.0
 30
0.0
 11
199.769
 21
1.0
 31
0.0
  0
LINE
  5
ECA
330
1D
100
AcDbEntity
  8
0
100
AcDbLine
 10
201.1691
 20
1.0
 30
0.0
 11
199.769
 21
1.0
 31
0.0
  0
LINE
  5
ECB
330
1D
100
AcDbEntity
  8
0
100
AcDbLine
 10
201.1691
 20
1.0
 30
0.0
 11
199.769
 21
1.0
 31
0.0
  0
LINE
  5
ECC
330
1D
100
AcDbEntity
  8
0
100
AcDbLine
 10
201.0898
 20
1.0
 30
0.0
 11
199.69
 21
1.0
 31
0.0
  0
LINE
  5
ECD
330
1D
100
AcDbEntity
  8
0
100
AcDbLine
 10
201.0898
 20
1.0
 30
0.0
 11
199.69
 21
1.0
 31
0.0
  0
LINE
  5
ECE
330
1D
100
AcDbEntity
  8
0
100
AcDbLine
 10
201.1691
 20
1.0
 30
0.0
 11
199.769
 21
1.0
 31
0.0
  0
LINE
  5
ECF
330
1D
100
AcDbEntity
  8
0
100
AcDbLine
 10
201.1404
 20
3.0
 30
0.0
 11
201.1404
 21
3.746273575569
 31
0.0
  0
LINE
  5
ED0
330
1D
100
AcDbEntity
  8
0
100
AcDbLine
 10
201.1404
 20
3.746273575569
 30
0.0
 11
201.1404
 21
3.0
 31
0.0
  0
LINE
  5
ED1
330
1D
100
AcDbEntity
  8
0
100
AcDbLine
 10
201.3533
 20
4.0
 30
0.0
 11
200.7533
 21
4.0
 31
0.0
  0
LINE
  5
ED2
330
1D
100
AcDbEntity
  8
0
100
AcDbLine
 10
201.1398
 20
3.537
 30
0.0
 11
200.4749
 21
3.607
 31
0.0
  0
LINE
  5
ED3
330
1D
100
AcDbEntity
  8
0
100
AcDbLine
 10
200.4988
 20
3.705
 30
0.0
 11
200.4749
 21
3.607
 31
0.0
  0
LINE
  5
ED4
330
1D
100
AcDbEntity
  8
0
100
AcDbLine
 10
198.369
 20
1.0
 30
0.0
 11
197.769
 21
1.0
 31
0.0
  0
LINE
  5
ED5
330
1D
100
AcDbEntity
  8
0
100
AcDbLine
 10
198.369
 20
1.0
 30
0.0
 11
197.769
 21
1.0
 31
0.0
  0
LINE
  5
ED6
330
1D
100
AcDbEntity
  8
0
100
AcDbLine
 10
198.369
 20
1.0
 30
0.0
 11
197.769
 21
1.0
 31
0.0
  0
LINE
  5
ED7
330
1D
100
AcDbEntity
  8
0
100
AcDbLine
 10
197.769
 20
1.0
 30
0.0
 11
197.769
 21
2.911332774518
 31
0.0
  0
LINE
  5
ED8
330
1D
100
AcDbEntity
  8
0
100
AcDbLine
 10
198.369
 20
1.0
 30
0.0
 11
197.769
 21
1.0
 31
0.0
  0
LINE
  5
ED9
330
1D
100
AcDbEntity
  8
0
100
AcDbLine
 10
197.769
 20
2.911332774518
 30
0.0
 11
197.769
 21
1.0
 31
0.0
  0
LINE
  5
EDA
330
1D
100
AcDbEntity
  8
0
100
AcDbLine
 10
197.769
 20
2.911332774518
 30
0.0
 11
197.249
 21
2.9
 31
0.0
  0
LINE
  5
EDB
330
1D
100
AcDbEntity
  8
0
100
AcDbLine
 10
197.249
 20
2.9
 30
0.0
 11
196.9
 21
2.867
 31
0.0
  0
LINE
  5
EDC
330
1D
100
AcDbEntity
  8
0
100
AcDbLine
 10
197.397
 20
2.828
 30
0.0
 11
196.9
 21
2.867
 31
0.0
  0
LINE
  5
EDD
330
1D
100
AcDbEntity
  8
0
100
AcDbLine
 10
197.769
 20
2.819987692308
 30
0.0
 11
197.397
 21
2.828
 31
0.0
  0
LINE
  5
EDE
330
1D
100
AcDbEntity
  8
0
100
AcDbLine
 10
197.249
 20
2.9
 30
0.0
 11
196.9
 21
2.867
 31
0.0
  0
LINE
  5
EDF
330
1D
100
AcDbEntity
  8
0
100
AcDbLine
 10
198.442
 20
2.926
 30
0.0
 11
197.249
 21
2.9
 31
0.0
  0
LINE
  5
EE0
330
1D
100
AcDbEntity
  8
0
100
AcDbLine
 10
200.7533
 20
5.27187515996
 30
0.0
 11
200.1138
 21
5.431
 31
0.0
  0
LINE
  5
EE1
330
1D
100
AcDbEntity
  8
0
100
AcDbLine
 10
201.3881
 20
5.755
 30
0.0
 11
200.4453
 21
5.618
 31
0.0
  0
LINE
  5
EE2
330
1D
100
AcDbEntity
  8
0
100
AcDbLine
 10
200.4453
 20
5.618
 30
0.0
 11
200.1138
 21
5.431
 31
0.0
  0
LINE
  5
EE3
330
1D
100
AcDbEntity
  8
0
100
AcDbLine
 10
193.353
 20
2.0
 30
0.0
 11
191.953
 21
2.0
 31
0.0
  0
LINE
  5
EE4
330
1D
100
AcDbEntity
  8
0
100
AcDbLine
 10
192.51
 20
2.0
 30
0.0
 11
191.11
 21
2.0
 31
0.0
  0
LINE
  5
EE5
330
1D
100
AcDbEntity
  8
0
100
AcDbLine
 10
193.353
 20
2.0
 30
0.0
 11
191.953
 21
2.0
 31
0.0
  0
LINE
  5
EE6
330
1D
100
AcDbEntity
  8
0
100
AcDbLine
 10
193.353
 20
2.0
 30
0.0
 11
191.953
 21
2.0
 31
0.0
  0
LINE
  5
EE7
330
1D
100
AcDbEntity
  8
0
100
AcDbLine
 10
192.51
 20
2.0
 30
0.0
 11
191.11
 21
2.0
 31
0.0
  0
LINE
  5
EE8
330
1D
100
AcDbEntity
  8
0
100
AcDbLine
 10
192.51
 20
2.0
 30
0.0
 11
191.11
 21
2.0
 31
0.0
  0
LINE
  5
EE9
330
1D
100
AcDbEntity
  8
0
100
AcDbLine
 10
192.568
 20
4.5
 30
0.0
 11
191.597
 21
4.493
 31
0.0
  0
LINE
  5
EEA
330
1D
100
AcDbEntity
  8
0
100
AcDbLine
 10
194.753
 20
2.0
 30
0.0
 11
193.353
 21
2.0
 31
0.0
  0
LINE
  5
EEB
330
1D
100
AcDbEntity
  8
0
100
AcDbLine
 10
194.753
 20
2.0
 30
0.0
 11
193.353
 21
2.0
 31
0.0
  0
LINE
  5
EEC
330
1D
100
AcDbEntity
  8
0
100
AcDbLine
 10
194.753
 20
2.0
 30
0.0
 11
193.353
 21
2.0
 31
0.0
  0
LINE
  5
EED
330
1D
100
AcDbEntity
  8
0
100
AcDbLine
 10
195.046
 20
3.395
 30
0.0
 11
194.51
 21
3.41237037037
 31
0.0
  0
LINE
  5
EEE
330
1D
100
AcDbEntity
  8
0
100
AcDbLine
 10
194.696
 20
4.388
 30
0.0
 11
193.514
 21
4.479
 31
0.0
  0
LINE
  5
EEF
330
1D
100
AcDbEntity
  8
0
100
AcDbLine
 10
194.775
 20
4.216
 30
0.0
 11
194.51
 21
4.195273743017
 31
0.0
  0
LINE
  5
EF0
330
1D
100
AcDbEntity
  8
0
100
AcDbLine
 10
195.353
 20
2.0
 30
0.0
 11
195.353
 21
2.615213592233
 31
0.0
  0
LINE
  5
EF1
330
1D
100
AcDbEntity
  8
0
100
AcDbLine
 10
195.353
 20
2.0
 30
0.0
 11
195.353
 21
3.371281341108
 31
0.0
  0
LINE
  5
EF2
330
1D
100
AcDbEntity
  8
0
100
AcDbLine
 10
195.353
 20
2.615213592233
 30
0.0
 11
195.353
 21
2.0
 31
0.0
  0
LINE
  5
EF3
330
1D
100
AcDbEntity
  8
0
100
AcDbLine
 10
195.353
 20
3.371281341108
 30
0.0
 11
195.353
 21
2.0
 31
0.0
  0
LINE
  5
EF4
330
1D
100
AcDbEntity
  8
0
100
AcDbLine
 10
195.353
 20
2.0
 30
0.0
 11
194.753
 21
2.0
 31
0.0
  0
LINE
  5
EF5
330
1D
100
AcDbEntity
  8
0
100
AcDbLine
 10
195.353
 20
2.0
 30
0.0
 11
194.753
 21
2.0
 31
0.0
  0
LINE
  5
EF6
330
1D
100
AcDbEntity
  8
0
100
AcDbLine
 10
195.353
 20
2.0
 30
0.0
 11
194.753
 21
2.0
 31
0.0
  0
LINE
  5
EF7
330
1D
100
AcDbEntity
  8
0
100
AcDbLine
 10
195.353
 20
3.230518072289
 30
0.0
 11
195.353
 21
3.371281341108
 31
0.0
  0
LINE
  5
EF8
330
1D
100
AcDbEntity
  8
0
100
AcDbLine
 10
195.732
 20
3.342
 30
0.0
 11
195.353
 21
3.371281341108
 31
0.0
  0
LINE
  5
EF9
330
1D
100
AcDbEntity
  8
0
100
AcDbLine
 10
195.9
 20
3.297
 30
0.0
 11
195.732
 21
3.342
 31
0.0
  0
LINE
  5
EFA
330
1D
100
AcDbEntity
  8
0
100
AcDbLine
 10
195.573
 20
3.239
 30
0.0
 11
195.353
 21
3.230518072289
 31
0.0
  0
LINE
  5
EFB
330
1D
100
AcDbEntity
  8
0
100
AcDbLine
 10
195.9
 20
3.297
 30
0.0
 11
195.732
 21
3.342
 31
0.0
  0
LINE
  5
EFC
330
1D
100
AcDbEntity
  8
0
100
AcDbLine
 10
195.9
 20
3.297
 30
0.0
 11
195.573
 21
3.239
 31
0.0
  0
LINE
  5
EFD
330
1D
100
AcDbEntity
  8
0
100
AcDbLine
 10
195.353
 20
3.371281341108
 30
0.0
 11
195.353
 21
3.230518072289
 31
0.0
  0
LINE
  5
EFE
330
1D
100
AcDbEntity
  8
0
100
AcDbLine
 10
195.732
 20
3.342
 30
0.0
 11
195.046
 21
3.395
 31
0.0
  0
LINE
  5
EFF
330
1D
100
AcDbEntity
  8
0
100
AcDbLine
 10
195.0
 20
4.295
 30
0.0
 11
194.775
 21
4.216
 31
0.0
  0
LINE
  5
F00
330
1D
100
AcDbEntity
  8
0
100
AcDbLine
 10
195.0
 20
4.295
 30
0.0
 11
194.696
 21
4.388
 31
0.0
  0
LINE
  5
F01
330
1D
100
AcDbEntity
  8
0
100
AcDbLine
 10
194.51
 20
2.0
 30
0.0
 11
193.91
 21
2.0
 31
0.0
  0
LINE
  5
F02
330
1D
100
AcDbEntity
  8
0
100
AcDbLine
 10
193.91
 20
2.0
 30
0.0
 11
192.51
 21
2.0
 31
0.0
  0
LINE
  5
F03
330
1D
100
AcDbEntity
  8
0
100
AcDbLine
 10
193.91
 20
2.0
 30
0.0
 11
192.51
 21
2.0
 31
0.0
  0
LINE
  5
F04
330
1D
100
AcDbEntity
  8
0
100
AcDbLine
 10
193.91
 20
2.0
 30
0.0
 11
192.51
 21
2.0
 31
0.0
  0
LINE
  5
F05
330
1D
100
AcDbEntity
  8
0
100
AcDbLine
 10
194.51
 20
2.0
 30
0.0
 11
193.91
 21
2.0
 31
0.0
  0
LINE
  5
F06
330
1D
100
AcDbEntity
  8
0
100
AcDbLine
 10
194.51
 20
2.0
 30
0.0
 11
193.91
 21
2.0
 31
0.0
  0
LINE
  5
F07
330
1D
100
AcDbEntity
  8
0
100
AcDbLine
 10
194.51
 20
2.0
 30
0.0
 11
194.51
 21
4.402319796954
 31
0.0
  0
LINE
  5
F08
330
1D
100
AcDbEntity
  8
0
100
AcDbLine
 10
194.51
 20
4.402319796954
 30
0.0
 11
194.51
 21
2.0
 31
0.0
  0
LINE
  5
F09
330
1D
100
AcDbEntity
  8
0
100
AcDbLine
 10
193.514
 20
4.479
 30
0.0
 11
192.568
 21
4.5
 31
0.0
  0
LINE
  5
F0A
330
1D
100
AcDbEntity
  8
0
100
AcDbLine
 10
190.51
 20
2.083415389066
 30
0.0
 11
189.589
 21
2.068629302864
 31
0.0
  0
LINE
  5
F0B
330
1D
100
AcDbEntity
  8
0
100
AcDbLine
 10
190.3
 20
2.162
 30
0.0
 11
189.662
 21
2.187
 31
0.0
  0
LINE
  5
F0C
330
1D
100
AcDbEntity
  8
0
100
AcDbLine
 10
190.3
 20
2.162
 30
0.0
 11
189.803
 21
2.133
 31
0.0
  0
LINE
  5
F0D
330
1D
100
AcDbEntity
  8
0
100
AcDbLine
 10
190.3
 20
2.162
 30
0.0
 11
189.662
 21
2.187
 31
0.0
  0
LINE
  5
F0E
330
1D
100
AcDbEntity
  8
0
100
AcDbLine
 10
190.296
 20
4.421
 30
0.0
 11
189.8
 21
4.305
 31
0.0
  0
LINE
  5
F0F
330
1D
100
AcDbEntity
  8
0
100
AcDbLine
 10
190.297
 20
4.191
 30
0.0
 11
189.8
 21
4.305
 31
0.0
  0
LINE
  5
F10
330
1D
100
AcDbEntity
  8
0
100
AcDbLine
 10
190.296
 20
4.421
 30
0.0
 11
189.8
 21
4.305
 31
0.0
  0
LINE
  5
F11
330
1D
100
AcDbEntity
  8
0
100
AcDbLine
 10
191.953
 20
2.0
 30
0.0
 11
191.353
 21
2.0
 31
0.0
  0
LINE
  5
F12
330
1D
100
AcDbEntity
  8
0
100
AcDbLine
 10
191.11
 20
2.0
 30
0.0
 11
190.51
 21
2.0
 31
0.0
  0
LINE
  5
F13
330
1D
100
AcDbEntity
  8
0
100
AcDbLine
 10
191.953
 20
2.0
 30
0.0
 11
191.353
 21
2.0
 31
0.0
  0
LINE
  5
F14
330
1D
100
AcDbEntity
  8
0
100
AcDbLine
 10
191.953
 20
2.0
 30
0.0
 11
191.353
 21
2.0
 31
0.0
  0
LINE
  5
F15
330
1D
100
AcDbEntity
  8
0
100
AcDbLine
 10
190.51
 20
2.0
 30
0.0
 11
190.51
 21
4.43284319754
 31
0.0
  0
LINE
  5
F16
330
1D
100
AcDbEntity
  8
0
100
AcDbLine
 10
191.11
 20
2.0
 30
0.0
 11
190.51
 21
2.0
 31
0.0
  0
LINE
  5
F17
330
1D
100
AcDbEntity
  8
0
100
AcDbLine
 10
191.11
 20
2.0
 30
0.0
 11
190.51
 21
2.0
 31
0.0
  0
LINE
  5
F18
330
1D
100
AcDbEntity
  8
0
100
AcDbLine
 10
190.51
 20
4.43284319754
 30
0.0
 11
190.51
 21
2.0
 31
0.0
  0
LINE
  5
F19
330
1D
100
AcDbEntity
  8
0
100
AcDbLine
 10
190.51
 20
4.43284319754
 30
0.0
 11
190.296
 21
4.421
 31
0.0
  0
LINE
  5
F1A
330
1D
100
AcDbEntity
  8
0
100
AcDbLine
 10
191.597
 20
4.493
 30
0.0
 11
190.296
 21
4.421
 31
0.0
  0
LINE
  5
F1B
330
1D
100
AcDbEntity
  8
0
100
AcDbLine
 10
190.51
 20
4.176676214197
 30
0.0
 11
190.297
 21
4.191
 31
0.0
  0
LINE
  5
F1C
330
1D
100
AcDbEntity
  8
0
100
AcDbLine
 10
188.989
 20
0.0
 30
0.0
 11
187.589
 21
0.0
 31
0.0
  0
LINE
  5
F1D
330
1D
100
AcDbEntity
  8
0
100
AcDbLine
 10
188.989
 20
0.0
 30
0.0
 11
187.589
 21
0.0
 31
0.0
  0
LINE
  5
F1E
330
1D
100
AcDbEntity
  8
0
100
AcDbLine
 10
188.989
 20
0.0
 30
0.0
 11
187.589
 21
0.0
 31
0.0
  0
LINE
  5
F1F
330
1D
100
AcDbEntity
  8
0
100
AcDbLine
 10
188.989
 20
0.0
 30
0.0
 11
187.589
 21
0.0
 31
0.0
  0
LINE
  5
F20
330
1D
100
AcDbEntity
  8
0
100
AcDbLine
 10
189.662
 20
2.187
 30
0.0
 11
188.24
 21
2.186
 31
0.0
  0
LINE
  5
F21
330
1D
100
AcDbEntity
  8
0
100
AcDbLine
 10
189.589
 20
0.0
 30
0.0
 11
188.989
 21
0.0
 31
0.0
  0
LINE
  5
F22
330
1D
100
AcDbEntity
  8
0
100
AcDbLine
 10
189.589
 20
0.0
 30
0.0
 11
188.989
 21
0.0
 31
0.0
  0
LINE
  5
F23
330
1D
100
AcDbEntity
  8
0
100
AcDbLine
 10
189.589
 20
0.0
 30
0.0
 11
189.589
 21
2.068629302864
 31
0.0
  0
LINE
  5
F24
330
1D
100
AcDbEntity
  8
0
100
AcDbLine
 10
189.589
 20
0.0
 30
0.0
 11
188.989
 21
0.0
 31
0.0
  0
LINE
  5
F25
330
1D
100
AcDbEntity
  8
0
100
AcDbLine
 10
189.589
 20
0.0
 30
0.0
 11
188.989
 21
0.0
 31
0.0
  0
LINE
  5
F26
330
1D
100
AcDbEntity
  8
0
100
AcDbLine
 10
189.589
 20
0.0
 30
0.0
 11
189.589
 21
2.186948663854
 31
0.0
  0
LINE
  5
F27
330
1D
100
AcDbEntity
  8
0
100
AcDbLine
 10
189.589
 20
2.068629302864
 30
0.0
 11
189.589
 21
0.0
 31
0.0
  0
LINE
  5
F28
330
1D
100
AcDbEntity
  8
0
100
AcDbLine
 10
189.589
 20
2.129028037383
 30
0.0
 11
189.589
 21
2.186948663854
 31
0.0
  0
LINE
  5
F29
330
1D
100
AcDbEntity
  8
0
100
AcDbLine
 10
189.803
 20
2.133
 30
0.0
 11
189.589
 21
2.128593080725
 31
0.0
  0
LINE
  5
F2A
330
1D
100
AcDbEntity
  8
0
100
AcDbLine
 10
189.589
 20
2.186948663854
 30
0.0
 11
189.589
 21
2.129028037383
 31
0.0
  0
LINE
  5
F2B
330
1D
100
AcDbEntity
  8
0
100
AcDbLine
 10
189.589
 20
2.186948663854
 30
0.0
 11
189.589
 21
0.0
 31
0.0
  0
LINE
  5
F2C
330
1D
100
AcDbEntity
  8
0
100
AcDbLine
 10
189.662
 20
2.187
 30
0.0
 11
189.589
 21
2.186739551478
 31
0.0
  0
LINE
  5
F2D
330
1D
100
AcDbEntity
  8
0
100
AcDbLine
 10
188.768
 20
5.0
 30
0.0
 11
188.168
 21
5.0
 31
0.0
  0
LINE
  5
F2E
330
1D
100
AcDbEntity
  8
0
100
AcDbLine
 10
188.768
 20
5.0
 30
0.0
 11
188.768
 21
6.648896551724
 31
0.0
  0
LINE
  5
F2F
330
1D
100
AcDbEntity
  8
0
100
AcDbLine
 10
188.768
 20
6.039727013542
 30
0.0
 11
188.768
 21
6.648896551724
 31
0.0
  0
LINE
  5
F30
330
1D
100
AcDbEntity
  8
0
100
AcDbLine
 10
189.063
 20
6.074
 30
0.0
 11
188.768
 21
6.039727013542
 31
0.0
  0
LINE
  5
F31
330
1D
100
AcDbEntity
  8
0
100
AcDbLine
 10
189.6
 20
6.335
 30
0.0
 11
189.065
 21
6.603
 31
0.0
  0
LINE
  5
F32
330
1D
100
AcDbEntity
  8
0
100
AcDbLine
 10
189.6
 20
6.335
 30
0.0
 11
189.063
 21
6.074
 31
0.0
  0
LINE
  5
F33
330
1D
100
AcDbEntity
  8
0
100
AcDbLine
 10
188.768
 20
6.648896551724
 30
0.0
 11
188.768
 21
6.039727013542
 31
0.0
  0
LINE
  5
F34
330
1D
100
AcDbEntity
  8
0
100
AcDbLine
 10
188.768
 20
6.648896551724
 30
0.0
 11
188.768
 21
5.0
 31
0.0
  0
LINE
  5
F35
330
1D
100
AcDbEntity
  8
0
100
AcDbLine
 10
189.065
 20
6.603
 30
0.0
 11
188.282
 21
6.724
 31
0.0
  0
LINE
  5
F36
330
1D
100
AcDbEntity
  8
0
100
AcDbLine
 10
212.659
 20
43.217
 30
0.0
 11
205.987
 21
43.51
 31
0.0
  0
LINE
  5
F37
330
1D
100
AcDbEntity
  8
0
100
AcDbLine
 10
212.66
 20
43.217
 30
0.0
 11
205.987
 21
43.51
 31
0.0
  0
LINE
  5
F38
330
1D
100
AcDbEntity
  8
0
100
AcDbLine
 10
205.987
 20
43.51
 30
0.0
 11
196.03
 21
43.84
 31
0.0
  0
LINE
  5
F39
330
1D
100
AcDbEntity
  8
0
100
AcDbLine
 10
168.923
 20
2.04382916053
 30
0.0
 11
166.955
 21
2.096
 31
0.0
  0
LINE
  5
F3A
330
1D
100
AcDbEntity
  8
0
100
AcDbLine
 10
168.781
 20
2.731
 30
0.0
 11
168.35
 21
2.772
 31
0.0
  0
LINE
  5
F3B
330
1D
100
AcDbEntity
  8
0
100
AcDbLine
 10
169.735
 20
2.977
 30
0.0
 11
168.577
 21
2.911
 31
0.0
  0
LINE
  5
F3C
330
1D
100
AcDbEntity
  8
0
100
AcDbLine
 10
168.923
 20
2.04382916053
 30
0.0
 11
166.955
 21
2.096
 31
0.0
  0
LINE
  5
F3D
330
1D
100
AcDbEntity
  8
0
100
AcDbLine
 10
180.717
 20
1.997968721372
 30
0.0
 11
172.923
 21
1.956147755529
 31
0.0
  0
LINE
  5
F3E
330
1D
100
AcDbEntity
  8
0
100
AcDbLine
 10
179.243
 20
2.19683180778
 30
0.0
 11
176.546
 21
2.095
 31
0.0
  0
LINE
  5
F3F
330
1D
100
AcDbEntity
  8
0
100
AcDbLine
 10
178.944
 20
3.922
 30
0.0
 11
176.569
 21
3.397
 31
0.0
  0
LINE
  5
F40
330
1D
100
AcDbEntity
  8
0
100
AcDbLine
 10
179.243
 20
2.197312600074
 30
0.0
 11
176.546
 21
2.095
 31
0.0
  0
LINE
  5
F41
330
1D
100
AcDbEntity
  8
0
100
AcDbLine
 10
184.117
 20
1.0
 30
0.0
 11
182.717
 21
1.0
 31
0.0
  0
LINE
  5
F42
330
1D
100
AcDbEntity
  8
0
100
AcDbLine
 10
184.117
 20
1.0
 30
0.0
 11
182.717
 21
1.0
 31
0.0
  0
LINE
  5
F43
330
1D
100
AcDbEntity
  8
0
100
AcDbLine
 10
184.117
 20
1.0
 30
0.0
 11
182.717
 21
1.0
 31
0.0
  0
LINE
  5
F44
330
1D
100
AcDbEntity
  8
0
100
AcDbLine
 10
184.117
 20
1.0
 30
0.0
 11
182.717
 21
1.0
 31
0.0
  0
LINE
  5
F45
330
1D
100
AcDbEntity
  8
0
100
AcDbLine
 10
183.243
 20
2.0
 30
0.0
 11
182.643
 21
2.0
 31
0.0
  0
LINE
  5
F46
330
1D
100
AcDbEntity
  8
0
100
AcDbLine
 10
183.203
 20
3.901
 30
0.0
 11
182.014
 21
3.981
 31
0.0
  0
LINE
  5
F47
330
1D
100
AcDbEntity
  8
0
100
AcDbLine
 10
185.589
 20
2.024110849365
 30
0.0
 11
184.717
 21
2.019431880644
 31
0.0
  0
LINE
  5
F48
330
1D
100
AcDbEntity
  8
0
100
AcDbLine
 10
185.405
 20
2.092
 30
0.0
 11
185.1
 21
2.107
 31
0.0
  0
LINE
  5
F49
330
1D
100
AcDbEntity
  8
0
100
AcDbLine
 10
185.2
 20
2.12
 30
0.0
 11
185.1
 21
2.107
 31
0.0
  0
LINE
  5
F4A
330
1D
100
AcDbEntity
  8
0
100
AcDbLine
 10
185.2
 20
2.472
 30
0.0
 11
184.717
 21
2.529779439252
 31
0.0
  0
LINE
  5
F4B
330
1D
100
AcDbEntity
  8
0
100
AcDbLine
 10
185.2
 20
2.472
 30
0.0
 11
184.665
 21
2.536
 31
0.0
  0
LINE
  5
F4C
330
1D
100
AcDbEntity
  8
0
100
AcDbLine
 10
185.2
 20
2.472
 30
0.0
 11
184.717
 21
2.409706542056
 31
0.0
  0
LINE
  5
F4D
330
1D
100
AcDbEntity
  8
0
100
AcDbLine
 10
186.189
 20
0.0
 30
0.0
 11
185.589
 21
0.0
 31
0.0
  0
LINE
  5
F4E
330
1D
100
AcDbEntity
  8
0
100
AcDbLine
 10
186.189
 20
0.0
 30
0.0
 11
185.589
 21
0.0
 31
0.0
  0
LINE
  5
F4F
330
1D
100
AcDbEntity
  8
0
100
AcDbLine
 10
186.189
 20
0.0
 30
0.0
 11
185.589
 21
0.0
 31
0.0
  0
LINE
  5
F50
330
1D
100
AcDbEntity
  8
0
100
AcDbLine
 10
185.589
 20
0.0
 30
0.0
 11
185.589
 21
2.135717171717
 31
0.0
  0
LINE
  5
F51
330
1D
100
AcDbEntity
  8
0
100
AcDbLine
 10
186.189
 20
0.0
 30
0.0
 11
185.589
 21
0.0
 31
0.0
  0
LINE
  5
F52
330
1D
100
AcDbEntity
  8
0
100
AcDbLine
 10
185.589
 20
2.091362770563
 30
0.0
 11
185.405
 21
2.092
 31
0.0
  0
LINE
  5
F53
330
1D
100
AcDbEntity
  8
0
100
AcDbLine
 10
185.589
 20
2.135717171717
 30
0.0
 11
185.589
 21
0.0
 31
0.0
  0
LINE
  5
F54
330
1D
100
AcDbEntity
  8
0
100
AcDbLine
 10
185.893
 20
2.148
 30
0.0
 11
185.2
 21
2.12
 31
0.0
  0
LINE
  5
F55
330
1D
100
AcDbEntity
  8
0
100
AcDbLine
 10
187.159
 20
2.174
 30
0.0
 11
185.893
 21
2.148
 31
0.0
  0
LINE
  5
F56
330
1D
100
AcDbEntity
  8
0
100
AcDbLine
 10
184.717
 20
2.019431880644
 30
0.0
 11
184.717
 21
1.0
 31
0.0
  0
LINE
  5
F57
330
1D
100
AcDbEntity
  8
0
100
AcDbLine
 10
184.717
 20
1.0
 30
0.0
 11
184.117
 21
1.0
 31
0.0
  0
LINE
  5
F58
330
1D
100
AcDbEntity
  8
0
100
AcDbLine
 10
184.717
 20
1.0
 30
0.0
 11
184.117
 21
1.0
 31
0.0
  0
LINE
  5
F59
330
1D
100
AcDbEntity
  8
0
100
AcDbLine
 10
184.717
 20
1.0
 30
0.0
 11
184.717
 21
2.019431880644
 31
0.0
  0
LINE
  5
F5A
330
1D
100
AcDbEntity
  8
0
100
AcDbLine
 10
184.717
 20
1.0
 30
0.0
 11
184.117
 21
1.0
 31
0.0
  0
LINE
  5
F5B
330
1D
100
AcDbEntity
  8
0
100
AcDbLine
 10
184.717
 20
1.0
 30
0.0
 11
184.117
 21
1.0
 31
0.0
  0
LINE
  5
F5C
330
1D
100
AcDbEntity
  8
0
100
AcDbLine
 10
184.717
 20
1.0
 30
0.0
 11
184.717
 21
2.529779439252
 31
0.0
  0
LINE
  5
F5D
330
1D
100
AcDbEntity
  8
0
100
AcDbLine
 10
184.717
 20
2.409706542056
 30
0.0
 11
184.717
 21
2.529779439252
 31
0.0
  0
LINE
  5
F5E
330
1D
100
AcDbEntity
  8
0
100
AcDbLine
 10
184.717
 20
2.529779439252
 30
0.0
 11
184.717
 21
2.409706542056
 31
0.0
  0
LINE
  5
F5F
330
1D
100
AcDbEntity
  8
0
100
AcDbLine
 10
184.717
 20
2.529779439252
 30
0.0
 11
184.717
 21
1.0
 31
0.0
  0
LINE
  5
F60
330
1D
100
AcDbEntity
  8
0
100
AcDbLine
 10
184.665
 20
2.536
 30
0.0
 11
183.265
 21
2.568
 31
0.0
  0
LINE
  5
F61
330
1D
100
AcDbEntity
  8
0
100
AcDbLine
 10
183.243
 20
2.0
 30
0.0
 11
183.243
 21
3.894641851107
 31
0.0
  0
LINE
  5
F62
330
1D
100
AcDbEntity
  8
0
100
AcDbLine
 10
183.243
 20
3.894641851107
 30
0.0
 11
183.243
 21
2.0
 31
0.0
  0
LINE
  5
F63
330
1D
100
AcDbEntity
  8
0
100
AcDbLine
 10
183.7
 20
3.822
 30
0.0
 11
183.203
 21
3.901
 31
0.0
  0
LINE
  5
F64
330
1D
100
AcDbEntity
  8
0
100
AcDbLine
 10
183.7
 20
3.822
 30
0.0
 11
183.243
 21
3.735565392354
 31
0.0
  0
LINE
  5
F65
330
1D
100
AcDbEntity
  8
0
100
AcDbLine
 10
184.768
 20
5.0
 30
0.0
 11
184.768
 21
6.580775806452
 31
0.0
  0
LINE
  5
F66
330
1D
100
AcDbEntity
  8
0
100
AcDbLine
 10
186.768
 20
5.0
 30
0.0
 11
185.368
 21
5.0
 31
0.0
  0
LINE
  5
F67
330
1D
100
AcDbEntity
  8
0
100
AcDbLine
 10
185.368
 20
5.0
 30
0.0
 11
184.768
 21
5.0
 31
0.0
  0
LINE
  5
F68
330
1D
100
AcDbEntity
  8
0
100
AcDbLine
 10
186.768
 20
5.0
 30
0.0
 11
185.368
 21
5.0
 31
0.0
  0
LINE
  5
F69
330
1D
100
AcDbEntity
  8
0
100
AcDbLine
 10
184.39
 20
6.064
 30
0.0
 11
184.0
 21
6.283
 31
0.0
  0
LINE
  5
F6A
330
1D
100
AcDbEntity
  8
0
100
AcDbLine
 10
184.768
 20
6.018746478873
 30
0.0
 11
184.39
 21
6.064
 31
0.0
  0
LINE
  5
F6B
330
1D
100
AcDbEntity
  8
0
100
AcDbLine
 10
184.768
 20
6.580775806452
 30
0.0
 11
184.768
 21
5.0
 31
0.0
  0
LINE
  5
F6C
330
1D
100
AcDbEntity
  8
0
100
AcDbLine
 10
184.326
 20
6.502
 30
0.0
 11
184.0
 21
6.283
 31
0.0
  0
LINE
  5
F6D
330
1D
100
AcDbEntity
  8
0
100
AcDbLine
 10
184.768
 20
6.580775806452
 30
0.0
 11
184.326
 21
6.502
 31
0.0
  0
LINE
  5
F6E
330
1D
100
AcDbEntity
  8
0
100
AcDbLine
 10
185.566
 20
6.723
 30
0.0
 11
184.326
 21
6.502
 31
0.0
  0
LINE
  5
F6F
330
1D
100
AcDbEntity
  8
0
100
AcDbLine
 10
187.279
 20
6.783
 30
0.0
 11
185.566
 21
6.723
 31
0.0
  0
LINE
  5
F70
330
1D
100
AcDbEntity
  8
0
100
AcDbLine
 10
184.326
 20
6.502
 30
0.0
 11
184.0
 21
6.283
 31
0.0
  0
LINE
  5
F71
330
1D
100
AcDbEntity
  8
0
100
AcDbLine
 10
181.243
 20
2.0
 30
0.0
 11
179.843
 21
2.0
 31
0.0
  0
LINE
  5
F72
330
1D
100
AcDbEntity
  8
0
100
AcDbLine
 10
182.014
 20
3.981
 30
0.0
 11
180.21
 21
3.987
 31
0.0
  0
LINE
  5
F73
330
1D
100
AcDbEntity
  8
0
100
AcDbLine
 10
182.717
 20
1.0
 30
0.0
 11
181.317
 21
1.0
 31
0.0
  0
LINE
  5
F74
330
1D
100
AcDbEntity
  8
0
100
AcDbLine
 10
182.717
 20
1.0
 30
0.0
 11
181.317
 21
1.0
 31
0.0
  0
LINE
  5
F75
330
1D
100
AcDbEntity
  8
0
100
AcDbLine
 10
181.317
 20
1.0
 30
0.0
 11
180.717
 21
1.0
 31
0.0
  0
LINE
  5
F76
330
1D
100
AcDbEntity
  8
0
100
AcDbLine
 10
181.317
 20
1.0
 30
0.0
 11
180.717
 21
1.0
 31
0.0
  0
LINE
  5
F77
330
1D
100
AcDbEntity
  8
0
100
AcDbLine
 10
182.717
 20
1.0
 30
0.0
 11
181.317
 21
1.0
 31
0.0
  0
LINE
  5
F78
330
1D
100
AcDbEntity
  8
0
100
AcDbLine
 10
181.317
 20
1.0
 30
0.0
 11
180.717
 21
1.0
 31
0.0
  0
LINE
  5
F79
330
1D
100
AcDbEntity
  8
0
100
AcDbLine
 10
180.717
 20
1.0
 30
0.0
 11
180.717
 21
2.0
 31
0.0
  0
LINE
  5
F7A
330
1D
100
AcDbEntity
  8
0
100
AcDbLine
 10
181.317
 20
1.0
 30
0.0
 11
180.717
 21
1.0
 31
0.0
  0
LINE
  5
F7B
330
1D
100
AcDbEntity
  8
0
100
AcDbLine
 10
182.717
 20
1.0
 30
0.0
 11
181.317
 21
1.0
 31
0.0
  0
LINE
  5
F7C
330
1D
100
AcDbEntity
  8
0
100
AcDbLine
 10
180.717
 20
2.0
 30
0.0
 11
180.717
 21
1.0
 31
0.0
  0
LINE
  5
F7D
330
1D
100
AcDbEntity
  8
0
100
AcDbLine
 10
182.643
 20
2.0
 30
0.0
 11
181.243
 21
2.0
 31
0.0
  0
LINE
  5
F7E
330
1D
100
AcDbEntity
  8
0
100
AcDbLine
 10
179.243
 20
2.0
 30
0.0
 11
179.243
 21
3.93735150079
 31
0.0
  0
LINE
  5
F7F
330
1D
100
AcDbEntity
  8
0
100
AcDbLine
 10
179.843
 20
2.0
 30
0.0
 11
179.243
 21
2.0
 31
0.0
  0
LINE
  5
F80
330
1D
100
AcDbEntity
  8
0
100
AcDbLine
 10
179.243
 20
3.717194805195
 30
0.0
 11
178.6
 21
3.784
 31
0.0
  0
LINE
  5
F81
330
1D
100
AcDbEntity
  8
0
100
AcDbLine
 10
179.243
 20
3.93735150079
 30
0.0
 11
179.243
 21
2.0
 31
0.0
  0
LINE
  5
F82
330
1D
100
AcDbEntity
  8
0
100
AcDbLine
 10
179.243
 20
3.93735150079
 30
0.0
 11
178.944
 21
3.922
 31
0.0
  0
LINE
  5
F83
330
1D
100
AcDbEntity
  8
0
100
AcDbLine
 10
178.6
 20
3.784
 30
0.0
 11
178.507670588235
 21
3.825548235294
 31
0.0
  0
LINE
  5
F84
330
1D
100
AcDbEntity
  8
0
100
AcDbLine
 10
178.6
 20
3.783
 30
0.0
 11
178.507557959815
 21
3.825523338485
 31
0.0
  0
LINE
  5
F85
330
1D
100
AcDbEntity
  8
0
100
AcDbLine
 10
179.243
 20
3.717122655123
 30
0.0
 11
178.6
 21
3.783
 31
0.0
  0
LINE
  5
F86
330
1D
100
AcDbEntity
  8
0
100
AcDbLine
 10
180.21
 20
3.987
 30
0.0
 11
178.944
 21
3.922
 31
0.0
  0
LINE
  5
F87
330
1D
100
AcDbEntity
  8
0
100
AcDbLine
 10
174.398
 20
3.0
 30
0.0
 11
172.998
 21
3.0
 31
0.0
  0
LINE
  5
F88
330
1D
100
AcDbEntity
  8
0
100
AcDbLine
 10
174.398
 20
3.0
 30
0.0
 11
172.998
 21
3.0
 31
0.0
  0
LINE
  5
F89
330
1D
100
AcDbEntity
  8
0
100
AcDbLine
 10
175.692
 20
5.04
 30
0.0
 11
173.14
 21
5.059
 31
0.0
  0
LINE
  5
F8A
330
1D
100
AcDbEntity
  8
0
100
AcDbLine
 10
175.798
 20
3.0
 30
0.0
 11
174.398
 21
3.0
 31
0.0
  0
LINE
  5
F8B
330
1D
100
AcDbEntity
  8
0
100
AcDbLine
 10
175.798
 20
3.0
 30
0.0
 11
174.398
 21
3.0
 31
0.0
  0
LINE
  5
F8C
330
1D
100
AcDbEntity
  8
0
100
AcDbLine
 10
176.398
 20
3.0
 30
0.0
 11
175.798
 21
3.0
 31
0.0
  0
LINE
  5
F8D
330
1D
100
AcDbEntity
  8
0
100
AcDbLine
 10
176.398
 20
3.0
 30
0.0
 11
175.798
 21
3.0
 31
0.0
  0
LINE
  5
F8E
330
1D
100
AcDbEntity
  8
0
100
AcDbLine
 10
176.398
 20
3.0
 30
0.0
 11
176.398
 21
4.979951397327
 31
0.0
  0
LINE
  5
F8F
330
1D
100
AcDbEntity
  8
0
100
AcDbLine
 10
177.05
 20
4.823
 30
0.0
 11
176.757
 21
4.903506542056
 31
0.0
  0
LINE
  5
F90
330
1D
100
AcDbEntity
  8
0
100
AcDbLine
 10
176.515
 20
4.683
 30
0.0
 11
176.398
 21
4.675990014265
 31
0.0
  0
LINE
  5
F91
330
1D
100
AcDbEntity
  8
0
100
AcDbLine
 10
176.398
 20
4.979951397327
 30
0.0
 11
176.398
 21
3.0
 31
0.0
  0
LINE
  5
F92
330
1D
100
AcDbEntity
  8
0
100
AcDbLine
 10
176.515
 20
4.97
 30
0.0
 11
175.692
 21
5.04
 31
0.0
  0
LINE
  5
F93
330
1D
100
AcDbEntity
  8
0
100
AcDbLine
 10
177.05
 20
4.823
 30
0.0
 11
176.515
 21
4.97
 31
0.0
  0
LINE
  5
F94
330
1D
100
AcDbEntity
  8
0
100
AcDbLine
 10
177.05
 20
4.823
 30
0.0
 11
176.515
 21
4.683
 31
0.0
  0
LINE
  5
F95
330
1D
100
AcDbEntity
  8
0
100
AcDbLine
 10
172.398
 20
3.0
 30
0.0
 11
172.398
 21
4.99959430331
 31
0.0
  0
LINE
  5
F96
330
1D
100
AcDbEntity
  8
0
100
AcDbLine
 10
172.398
 20
4.661155279503
 30
0.0
 11
171.665
 21
4.734
 31
0.0
  0
LINE
  5
F97
330
1D
100
AcDbEntity
  8
0
100
AcDbLine
 10
172.398
 20
4.99959430331
 30
0.0
 11
172.398
 21
3.0
 31
0.0
  0
LINE
  5
F98
330
1D
100
AcDbEntity
  8
0
100
AcDbLine
 10
172.323
 20
1.0
 30
0.0
 11
170.923
 21
1.0
 31
0.0
  0
LINE
  5
F99
330
1D
100
AcDbEntity
  8
0
100
AcDbLine
 10
172.323
 20
1.0
 30
0.0
 11
170.923
 21
1.0
 31
0.0
  0
LINE
  5
F9A
330
1D
100
AcDbEntity
  8
0
100
AcDbLine
 10
172.323
 20
1.0
 30
0.0
 11
170.923
 21
1.0
 31
0.0
  0
LINE
  5
F9B
330
1D
100
AcDbEntity
  8
0
100
AcDbLine
 10
172.323
 20
1.0
 30
0.0
 11
170.923
 21
1.0
 31
0.0
  0
LINE
  5
F9C
330
1D
100
AcDbEntity
  8
0
100
AcDbLine
 10
172.259
 20
2.976
 30
0.0
 11
170.928
 21
2.998
 31
0.0
  0
LINE
  5
F9D
330
1D
100
AcDbEntity
  8
0
100
AcDbLine
 10
172.923
 20
1.0
 30
0.0
 11
172.323
 21
1.0
 31
0.0
  0
LINE
  5
F9E
330
1D
100
AcDbEntity
  8
0
100
AcDbLine
 10
172.923
 20
1.0
 30
0.0
 11
172.323
 21
1.0
 31
0.0
  0
LINE
  5
F9F
330
1D
100
AcDbEntity
  8
0
100
AcDbLine
 10
172.923
 20
1.0
 30
0.0
 11
172.923
 21
1.956147755529
 31
0.0
  0
LINE
  5
FA0
330
1D
100
AcDbEntity
  8
0
100
AcDbLine
 10
172.923
 20
1.956147755529
 30
0.0
 11
172.923
 21
1.0
 31
0.0
  0
LINE
  5
FA1
330
1D
100
AcDbEntity
  8
0
100
AcDbLine
 10
172.923
 20
1.0
 30
0.0
 11
172.323
 21
1.0
 31
0.0
  0
LINE
  5
FA2
330
1D
100
AcDbEntity
  8
0
100
AcDbLine
 10
172.923
 20
1.0
 30
0.0
 11
172.323
 21
1.0
 31
0.0
  0
LINE
  5
FA3
330
1D
100
AcDbEntity
  8
0
100
AcDbLine
 10
172.923
 20
1.0
 30
0.0
 11
172.923
 21
2.9261663286
 31
0.0
  0
LINE
  5
FA4
330
1D
100
AcDbEntity
  8
0
100
AcDbLine
 10
173.4
 20
2.849
 30
0.0
 11
173.245
 21
2.902
 31
0.0
  0
LINE
  5
FA5
330
1D
100
AcDbEntity
  8
0
100
AcDbLine
 10
172.923
 20
2.771490316004
 30
0.0
 11
172.923
 21
2.9261663286
 31
0.0
  0
LINE
  5
FA6
330
1D
100
AcDbEntity
  8
0
100
AcDbLine
 10
173.248
 20
2.797
 30
0.0
 11
172.923
 21
2.771490316004
 31
0.0
  0
LINE
  5
FA7
330
1D
100
AcDbEntity
  8
0
100
AcDbLine
 10
173.245
 20
2.902
 30
0.0
 11
172.923
 21
2.9261663286
 31
0.0
  0
LINE
  5
FA8
330
1D
100
AcDbEntity
  8
0
100
AcDbLine
 10
172.923
 20
2.9261663286
 30
0.0
 11
172.923
 21
2.771490316004
 31
0.0
  0
LINE
  5
FA9
330
1D
100
AcDbEntity
  8
0
100
AcDbLine
 10
172.923
 20
2.9261663286
 30
0.0
 11
172.923
 21
1.0
 31
0.0
  0
LINE
  5
FAA
330
1D
100
AcDbEntity
  8
0
100
AcDbLine
 10
172.998
 20
3.0
 30
0.0
 11
172.398
 21
3.0
 31
0.0
  0
LINE
  5
FAB
330
1D
100
AcDbEntity
  8
0
100
AcDbLine
 10
172.998
 20
3.0
 30
0.0
 11
172.398
 21
3.0
 31
0.0
  0
LINE
  5
FAC
330
1D
100
AcDbEntity
  8
0
100
AcDbLine
 10
173.245
 20
2.902
 30
0.0
 11
172.259
 21
2.976
 31
0.0
  0
LINE
  5
FAD
330
1D
100
AcDbEntity
  8
0
100
AcDbLine
 10
173.4
 20
2.849
 30
0.0
 11
173.248
 21
2.797
 31
0.0
  0
LINE
  5
FAE
330
1D
100
AcDbEntity
  8
0
100
AcDbLine
 10
173.4
 20
2.849
 30
0.0
 11
173.245
 21
2.902
 31
0.0
  0
LINE
  5
FAF
330
1D
100
AcDbEntity
  8
0
100
AcDbLine
 10
169.523
 20
1.0
 30
0.0
 11
168.923
 21
1.0
 31
0.0
  0
LINE
  5
FB0
330
1D
100
AcDbEntity
  8
0
100
AcDbLine
 10
170.923
 20
1.0
 30
0.0
 11
169.523
 21
1.0
 31
0.0
  0
LINE
  5
FB1
330
1D
100
AcDbEntity
  8
0
100
AcDbLine
 10
169.523
 20
1.0
 30
0.0
 11
168.923
 21
1.0
 31
0.0
  0
LINE
  5
FB2
330
1D
100
AcDbEntity
  8
0
100
AcDbLine
 10
170.923
 20
1.0
 30
0.0
 11
169.523
 21
1.0
 31
0.0
  0
LINE
  5
FB3
330
1D
100
AcDbEntity
  8
0
100
AcDbLine
 10
170.923
 20
1.0
 30
0.0
 11
169.523
 21
1.0
 31
0.0
  0
LINE
  5
FB4
330
1D
100
AcDbEntity
  8
0
100
AcDbLine
 10
168.923
 20
1.0
 30
0.0
 11
168.923
 21
2.930720207254
 31
0.0
  0
LINE
  5
FB5
330
1D
100
AcDbEntity
  8
0
100
AcDbLine
 10
169.523
 20
1.0
 30
0.0
 11
168.923
 21
1.0
 31
0.0
  0
LINE
  5
FB6
330
1D
100
AcDbEntity
  8
0
100
AcDbLine
 10
169.523
 20
1.0
 30
0.0
 11
168.923
 21
1.0
 31
0.0
  0
LINE
  5
FB7
330
1D
100
AcDbEntity
  8
0
100
AcDbLine
 10
170.923
 20
1.0
 30
0.0
 11
169.523
 21
1.0
 31
0.0
  0
LINE
  5
FB8
330
1D
100
AcDbEntity
  8
0
100
AcDbLine
 10
168.923
 20
2.725544132918
 30
0.0
 11
168.781
 21
2.731
 31
0.0
  0
LINE
  5
FB9
330
1D
100
AcDbEntity
  8
0
100
AcDbLine
 10
170.928
 20
2.998
 30
0.0
 11
169.735
 21
2.977
 31
0.0
  0
LINE
  5
FBA
330
1D
100
AcDbEntity
  8
0
100
AcDbLine
 10
168.923
 20
2.930720207254
 30
0.0
 11
168.923
 21
1.0
 31
0.0
  0
LINE
  5
FBB
330
1D
100
AcDbEntity
  8
0
100
AcDbLine
 10
171.841
 20
4.955
 30
0.0
 11
171.45
 21
4.828
 31
0.0
  0
LINE
  5
FBC
330
1D
100
AcDbEntity
  8
0
100
AcDbLine
 10
171.665
 20
4.734
 30
0.0
 11
171.45
 21
4.828
 31
0.0
  0
LINE
  5
FBD
330
1D
100
AcDbEntity
  8
0
100
AcDbLine
 10
173.14
 20
5.059
 30
0.0
 11
171.841
 21
4.955
 31
0.0
  0
LINE
  5
FBE
330
1D
100
AcDbEntity
  8
0
100
AcDbLine
 10
170.939
 20
44.373
 30
0.0
 11
166.833
 21
44.418
 31
0.0
  0
LINE
  5
FBF
330
1D
100
AcDbEntity
  8
0
100
AcDbLine
 10
178.72
 20
44.254
 30
0.0
 11
170.939
 21
44.373
 31
0.0
  0
LINE
  5
FC0
330
1D
100
AcDbEntity
  8
0
100
AcDbLine
 10
179.783322998975
 20
44.228568704704
 30
0.0
 11
178.783
 21
44.256
 31
0.0
  0
LINE
  5
FC1
330
1D
100
AcDbEntity
  8
0
100
AcDbLine
 10
178.783
 20
44.256
 30
0.0
 11
178.72
 21
44.254
 31
0.0
  0
LINE
  5
FC2
330
1D
100
AcDbEntity
  8
0
100
AcDbLine
 10
152.872
 20
1.66251
 30
0.0
 11
149.596
 21
1.66251
 31
0.0
  0
LINE
  5
FC3
330
1D
100
AcDbEntity
  8
0
100
AcDbLine
 10
152.872
 20
1.66251
 30
0.0
 11
149.596
 21
1.66251
 31
0.0
  0
LINE
  5
FC4
330
1D
100
AcDbEntity
  8
0
100
AcDbLine
 10
152.924
 20
1.96251
 30
0.0
 11
149.596
 21
1.96251
 31
0.0
  0
LINE
  5
FC5
330
1D
100
AcDbEntity
  8
0
100
AcDbLine
 10
151.263
 20
2.0
 30
0.0
 11
149.863
 21
2.0
 31
0.0
  0
LINE
  5
FC6
330
1D
100
AcDbEntity
  8
0
100
AcDbLine
 10
151.263
 20
2.0
 30
0.0
 11
149.863
 21
2.0
 31
0.0
  0
LINE
  5
FC7
330
1D
100
AcDbEntity
  8
0
100
AcDbLine
 10
150.074
 20
3.0
 30
0.0
 11
148.674
 21
3.0
 31
0.0
  0
LINE
  5
FC8
330
1D
100
AcDbEntity
  8
0
100
AcDbLine
 10
150.074
 20
3.0
 30
0.0
 11
148.674
 21
3.0
 31
0.0
  0
LINE
  5
FC9
330
1D
100
AcDbEntity
  8
0
100
AcDbLine
 10
150.0
 20
5.249
 30
0.0
 11
148.471
 21
5.199
 31
0.0
  0
LINE
  5
FCA
330
1D
100
AcDbEntity
  8
0
100
AcDbLine
 10
151.528
 20
5.199
 30
0.0
 11
150.0
 21
5.249
 31
0.0
  0
LINE
  5
FCB
330
1D
100
AcDbEntity
  8
0
100
AcDbLine
 10
160.568
 20
1.66251
 30
0.0
 11
158.54
 21
1.66251
 31
0.0
  0
LINE
  5
FCC
330
1D
100
AcDbEntity
  8
0
100
AcDbLine
 10
160.568
 20
1.66251
 30
0.0
 11
158.54
 21
1.66251
 31
0.0
  0
LINE
  5
FCD
330
1D
100
AcDbEntity
  8
0
100
AcDbLine
 10
160.88
 20
1.96251
 30
0.0
 11
158.8
 21
1.96251
 31
0.0
  0
LINE
  5
FCE
330
1D
100
AcDbEntity
  8
0
100
AcDbLine
 10
159.731
 20
2.239
 30
0.0
 11
153.868
 21
2.306
 31
0.0
  0
LINE
  5
FCF
330
1D
100
AcDbEntity
  8
0
100
AcDbLine
 10
166.955
 20
2.096
 30
0.0
 11
163.438
 21
2.175
 31
0.0
  0
LINE
  5
FD0
330
1D
100
AcDbEntity
  8
0
100
AcDbLine
 10
164.847
 20
3.0
 30
0.0
 11
163.447
 21
3.0
 31
0.0
  0
LINE
  5
FD1
330
1D
100
AcDbEntity
  8
0
100
AcDbLine
 10
165.765
 20
4.378
 30
0.0
 11
163.661
 21
4.472
 31
0.0
  0
LINE
  5
FD2
330
1D
100
AcDbEntity
  8
0
100
AcDbLine
 10
166.955
 20
2.096
 30
0.0
 11
163.438
 21
2.175
 31
0.0
  0
LINE
  5
FD3
330
1D
100
AcDbEntity
  8
0
100
AcDbLine
 10
164.636
 20
5.0
 30
0.0
 11
163.236
 21
5.0
 31
0.0
  0
LINE
  5
FD4
330
1D
100
AcDbEntity
  8
0
100
AcDbLine
 10
164.636
 20
5.0
 30
0.0
 11
163.236
 21
5.0
 31
0.0
  0
LINE
  5
FD5
330
1D
100
AcDbEntity
  8
0
100
AcDbLine
 10
164.198
 20
7.029
 30
0.0
 11
162.589
 21
7.023
 31
0.0
  0
LINE
  5
FD6
330
1D
100
AcDbEntity
  8
0
100
AcDbLine
 10
168.35
 20
2.772
 30
0.0
 11
168.2
 21
2.823
 31
0.0
  0
LINE
  5
FD7
330
1D
100
AcDbEntity
  8
0
100
AcDbLine
 10
168.35
 20
2.772
 30
0.0
 11
168.2
 21
2.823
 31
0.0
  0
LINE
  5
FD8
330
1D
100
AcDbEntity
  8
0
100
AcDbLine
 10
168.726230140432
 20
2.919505344791
 30
0.0
 11
168.503860215619
 21
2.893927583487
 31
0.0
  0
LINE
  5
FD9
330
1D
100
AcDbEntity
  8
0
100
AcDbLine
 10
168.577
 20
2.911
 30
0.0
 11
168.2
 21
2.823
 31
0.0
  0
LINE
  5
FDA
330
1D
100
AcDbEntity
  8
0
100
AcDbLine
 10
165.447
 20
3.0
 30
0.0
 11
164.847
 21
3.0
 31
0.0
  0
LINE
  5
FDB
330
1D
100
AcDbEntity
  8
0
100
AcDbLine
 10
165.447
 20
3.0
 30
0.0
 11
165.447
 21
4.392207224335
 31
0.0
  0
LINE
  5
FDC
330
1D
100
AcDbEntity
  8
0
100
AcDbLine
 10
165.447
 20
4.392207224335
 30
0.0
 11
165.447
 21
3.0
 31
0.0
  0
LINE
  5
FDD
330
1D
100
AcDbEntity
  8
0
100
AcDbLine
 10
166.3
 20
4.254
 30
0.0
 11
165.765
 21
4.133
 31
0.0
  0
LINE
  5
FDE
330
1D
100
AcDbEntity
  8
0
100
AcDbLine
 10
166.3
 20
4.254
 30
0.0
 11
165.765
 21
4.378
 31
0.0
  0
LINE
  5
FDF
330
1D
100
AcDbEntity
  8
0
100
AcDbLine
 10
165.765
 20
4.133
 30
0.0
 11
165.447
 21
4.113804828974
 31
0.0
  0
LINE
  5
FE0
330
1D
100
AcDbEntity
  8
0
100
AcDbLine
 10
166.0
 20
6.567
 30
0.0
 11
165.503
 21
6.848
 31
0.0
  0
LINE
  5
FE1
330
1D
100
AcDbEntity
  8
0
100
AcDbLine
 10
166.0
 20
6.567
 30
0.0
 11
165.502
 21
6.301
 31
0.0
  0
LINE
  5
FE2
330
1D
100
AcDbEntity
  8
0
100
AcDbLine
 10
165.236
 20
5.0
 30
0.0
 11
164.636
 21
5.0
 31
0.0
  0
LINE
  5
FE3
330
1D
100
AcDbEntity
  8
0
100
AcDbLine
 10
165.236
 20
5.0
 30
0.0
 11
164.636
 21
5.0
 31
0.0
  0
LINE
  5
FE4
330
1D
100
AcDbEntity
  8
0
100
AcDbLine
 10
165.236
 20
5.0
 30
0.0
 11
165.236
 21
6.885032183908
 31
0.0
  0
LINE
  5
FE5
330
1D
100
AcDbEntity
  8
0
100
AcDbLine
 10
165.236
 20
6.885032183908
 30
0.0
 11
165.236
 21
5.0
 31
0.0
  0
LINE
  5
FE6
330
1D
100
AcDbEntity
  8
0
100
AcDbLine
 10
165.502
 20
6.301
 30
0.0
 11
165.236
 21
6.26856595092
 31
0.0
  0
LINE
  5
FE7
330
1D
100
AcDbEntity
  8
0
100
AcDbLine
 10
165.503
 20
6.848
 30
0.0
 11
164.198
 21
7.029
 31
0.0
  0
LINE
  5
FE8
330
1D
100
AcDbEntity
  8
0
100
AcDbLine
 10
161.816
 20
1.66251
 30
0.0
 11
160.568
 21
1.66251
 31
0.0
  0
LINE
  5
FE9
330
1D
100
AcDbEntity
  8
0
100
AcDbLine
 10
161.816
 20
1.66251
 30
0.0
 11
160.568
 21
1.66251
 31
0.0
  0
LINE
  5
FEA
330
1D
100
AcDbEntity
  8
0
100
AcDbLine
 10
162.128
 20
1.96251
 30
0.0
 11
160.88
 21
1.96251
 31
0.0
  0
LINE
  5
FEB
330
1D
100
AcDbEntity
  8
0
100
AcDbLine
 10
162.047
 20
3.0
 30
0.0
 11
161.447
 21
3.0
 31
0.0
  0
LINE
  5
FEC
330
1D
100
AcDbEntity
  8
0
100
AcDbLine
 10
163.438
 20
2.175
 30
0.0
 11
159.731
 21
2.239
 31
0.0
  0
LINE
  5
FED
330
1D
100
AcDbEntity
  8
0
100
AcDbLine
 10
161.852
 20
4.422
 30
0.0
 11
161.005
 21
4.343
 31
0.0
  0
LINE
  5
FEE
330
1D
100
AcDbEntity
  8
0
100
AcDbLine
 10
162.284
 20
1.66251
 30
0.0
 11
161.816
 21
1.66251
 31
0.0
  0
LINE
  5
FEF
330
1D
100
AcDbEntity
  8
0
100
AcDbLine
 10
162.284
 20
1.66251
 30
0.0
 11
161.816
 21
1.66251
 31
0.0
  0
LINE
  5
FF0
330
1D
100
AcDbEntity
  8
0
100
AcDbLine
 10
162.596
 20
1.96251
 30
0.0
 11
162.128
 21
1.96251
 31
0.0
  0
LINE
  5
FF1
330
1D
100
AcDbEntity
  8
0
100
AcDbLine
 10
162.596
 20
1.96251
 30
0.0
 11
162.284
 21
1.66251
 31
0.0
  0
LINE
  5
FF2
330
1D
100
AcDbEntity
  8
0
100
AcDbLine
 10
162.596
 20
1.96251
 30
0.0
 11
162.596
 21
2.189536822228
 31
0.0
  0
LINE
  5
FF3
330
1D
100
AcDbEntity
  8
0
100
AcDbLine
 10
163.438
 20
2.175
 30
0.0
 11
162.596
 21
2.189536822228
 31
0.0
  0
LINE
  5
FF4
330
1D
100
AcDbEntity
  8
0
100
AcDbLine
 10
163.447
 20
3.0
 30
0.0
 11
162.047
 21
3.0
 31
0.0
  0
LINE
  5
FF5
330
1D
100
AcDbEntity
  8
0
100
AcDbLine
 10
162.596
 20
2.189536822228
 30
0.0
 11
162.596
 21
1.96251
 31
0.0
  0
LINE
  5
FF6
330
1D
100
AcDbEntity
  8
0
100
AcDbLine
 10
163.661
 20
4.472
 30
0.0
 11
161.852
 21
4.422
 31
0.0
  0
LINE
  5
FF7
330
1D
100
AcDbEntity
  8
0
100
AcDbLine
 10
161.447
 20
3.0
 30
0.0
 11
161.447
 21
4.384225501771
 31
0.0
  0
LINE
  5
FF8
330
1D
100
AcDbEntity
  8
0
100
AcDbLine
 10
161.447
 20
4.116175438596
 30
0.0
 11
160.941
 21
4.165
 31
0.0
  0
LINE
  5
FF9
330
1D
100
AcDbEntity
  8
0
100
AcDbLine
 10
161.447
 20
4.384225501771
 30
0.0
 11
161.447
 21
3.0
 31
0.0
  0
LINE
  5
FFA
330
1D
100
AcDbEntity
  8
0
100
AcDbLine
 10
160.941
 20
4.165
 30
0.0
 11
160.7
 21
4.247
 31
0.0
  0
LINE
  5
FFB
330
1D
100
AcDbEntity
  8
0
100
AcDbLine
 10
161.005
 20
4.343
 30
0.0
 11
160.7
 21
4.247
 31
0.0
  0
LINE
  5
FFC
330
1D
100
AcDbEntity
  8
0
100
AcDbLine
 10
163.236
 20
5.0
 30
0.0
 11
161.836
 21
5.0
 31
0.0
  0
LINE
  5
FFD
330
1D
100
AcDbEntity
  8
0
100
AcDbLine
 10
161.836
 20
5.0
 30
0.0
 11
161.236
 21
5.0
 31
0.0
  0
LINE
  5
FFE
330
1D
100
AcDbEntity
  8
0
100
AcDbLine
 10
161.836
 20
5.0
 30
0.0
 11
161.236
 21
5.0
 31
0.0
  0
LINE
  5
FFF
330
1D
100
AcDbEntity
  8
0
100
AcDbLine
 10
163.236
 20
5.0
 30
0.0
 11
161.836
 21
5.0
 31
0.0
  0
LINE
  5
1000
330
1D
100
AcDbEntity
  8
0
100
AcDbLine
 10
161.236
 20
5.0
 30
0.0
 11
161.236
 21
6.800279918864
 31
0.0
  0
LINE
  5
1001
330
1D
100
AcDbEntity
  8
0
100
AcDbLine
 10
161.236
 20
6.800279918864
 30
0.0
 11
161.236
 21
5.0
 31
0.0
  0
LINE
  5
1002
330
1D
100
AcDbEntity
  8
0
100
AcDbLine
 10
161.236
 20
6.319176470588
 30
0.0
 11
160.8
 21
6.55
 31
0.0
  0
LINE
  5
1003
330
1D
100
AcDbEntity
  8
0
100
AcDbLine
 10
161.293
 20
6.833
 30
0.0
 11
160.8
 21
6.55
 31
0.0
  0
LINE
  5
1004
330
1D
100
AcDbEntity
  8
0
100
AcDbLine
 10
162.589
 20
7.023
 30
0.0
 11
161.293
 21
6.833
 31
0.0
  0
LINE
  5
1005
330
1D
100
AcDbEntity
  8
0
100
AcDbLine
 10
155.888
 20
1.66251
 30
0.0
 11
152.872
 21
1.66251
 31
0.0
  0
LINE
  5
1006
330
1D
100
AcDbEntity
  8
0
100
AcDbLine
 10
155.888
 20
1.66251
 30
0.0
 11
152.872
 21
1.66251
 31
0.0
  0
LINE
  5
1007
330
1D
100
AcDbEntity
  8
0
100
AcDbLine
 10
156.044
 20
1.96251
 30
0.0
 11
152.924
 21
1.96251
 31
0.0
  0
LINE
  5
1008
330
1D
100
AcDbEntity
  8
0
100
AcDbLine
 10
158.54
 20
1.66251
 30
0.0
 11
155.888
 21
1.66251
 31
0.0
  0
LINE
  5
1009
330
1D
100
AcDbEntity
  8
0
100
AcDbLine
 10
158.54
 20
1.66251
 30
0.0
 11
155.888
 21
1.66251
 31
0.0
  0
LINE
  5
100A
330
1D
100
AcDbEntity
  8
0
100
AcDbLine
 10
158.8
 20
1.96251
 30
0.0
 11
156.044
 21
1.96251
 31
0.0
  0
LINE
  5
100B
330
1D
100
AcDbEntity
  8
0
100
AcDbLine
 10
152.074
 20
3.0
 30
0.0
 11
152.074
 21
5.141150943396
 31
0.0
  0
LINE
  5
100C
330
1D
100
AcDbEntity
  8
0
100
AcDbLine
 10
152.074
 20
5.141150943396
 30
0.0
 11
152.074
 21
3.0
 31
0.0
  0
LINE
  5
100D
330
1D
100
AcDbEntity
  8
0
100
AcDbLine
 10
151.863
 20
2.0
 30
0.0
 11
151.263
 21
2.0
 31
0.0
  0
LINE
  5
100E
330
1D
100
AcDbEntity
  8
0
100
AcDbLine
 10
151.863
 20
2.0
 30
0.0
 11
151.263
 21
2.0
 31
0.0
  0
LINE
  5
100F
330
1D
100
AcDbEntity
  8
0
100
AcDbLine
 10
151.863
 20
2.0
 30
0.0
 11
151.863
 21
3.0
 31
0.0
  0
LINE
  5
1010
330
1D
100
AcDbEntity
  8
0
100
AcDbLine
 10
153.868
 20
2.306
 30
0.0
 11
151.863
 21
2.307140933232
 31
0.0
  0
LINE
  5
1011
330
1D
100
AcDbEntity
  8
0
100
AcDbLine
 10
151.863
 20
3.0
 30
0.0
 11
151.863
 21
2.0
 31
0.0
  0
LINE
  5
1012
330
1D
100
AcDbEntity
  8
0
100
AcDbLine
 10
151.474
 20
3.0
 30
0.0
 11
150.074
 21
3.0
 31
0.0
  0
LINE
  5
1013
330
1D
100
AcDbEntity
  8
0
100
AcDbLine
 10
151.474
 20
3.0
 30
0.0
 11
150.074
 21
3.0
 31
0.0
  0
LINE
  5
1014
330
1D
100
AcDbEntity
  8
0
100
AcDbLine
 10
152.074
 20
3.0
 30
0.0
 11
151.474
 21
3.0
 31
0.0
  0
LINE
  5
1015
330
1D
100
AcDbEntity
  8
0
100
AcDbLine
 10
152.074
 20
3.0
 30
0.0
 11
151.474
 21
3.0
 31
0.0
  0
LINE
  5
1016
330
1D
100
AcDbEntity
  8
0
100
AcDbLine
 10
152.265
 20
3.155
 30
0.0
 11
152.074
 21
3.162083443709
 31
0.0
  0
LINE
  5
1017
330
1D
100
AcDbEntity
  8
0
100
AcDbLine
 10
152.8
 20
3.039
 30
0.0
 11
152.265
 21
3.155
 31
0.0
  0
LINE
  5
1018
330
1D
100
AcDbEntity
  8
0
100
AcDbLine
 10
152.8
 20
3.039
 30
0.0
 11
152.265
 21
2.93
 31
0.0
  0
LINE
  5
1019
330
1D
100
AcDbEntity
  8
0
100
AcDbLine
 10
152.265
 20
2.93
 30
0.0
 11
151.863
 21
2.907756539235
 31
0.0
  0
LINE
  5
101A
330
1D
100
AcDbEntity
  8
0
100
AcDbLine
 10
152.217
 20
5.126
 30
0.0
 11
151.528
 21
5.199
 31
0.0
  0
LINE
  5
101B
330
1D
100
AcDbEntity
  8
0
100
AcDbLine
 10
152.6
 20
4.995
 30
0.0
 11
152.103
 21
4.853
 31
0.0
  0
LINE
  5
101C
330
1D
100
AcDbEntity
  8
0
100
AcDbLine
 10
152.6
 20
4.995
 30
0.0
 11
152.217
 21
5.126
 31
0.0
  0
LINE
  5
101D
330
1D
100
AcDbEntity
  8
0
100
AcDbLine
 10
148.074
 20
3.0
 30
0.0
 11
148.074
 21
5.156937590711
 31
0.0
  0
LINE
  5
101E
330
1D
100
AcDbEntity
  8
0
100
AcDbLine
 10
148.074
 20
5.156937590711
 30
0.0
 11
148.074
 21
3.0
 31
0.0
  0
LINE
  5
101F
330
1D
100
AcDbEntity
  8
0
100
AcDbLine
 10
149.863
 20
2.0
 30
0.0
 11
148.463
 21
2.0
 31
0.0
  0
LINE
  5
1020
330
1D
100
AcDbEntity
  8
0
100
AcDbLine
 10
147.863
 20
2.0
 30
0.0
 11
147.863
 21
3.162983903421
 31
0.0
  0
LINE
  5
1021
330
1D
100
AcDbEntity
  8
0
100
AcDbLine
 10
148.463
 20
2.0
 30
0.0
 11
147.863
 21
2.0
 31
0.0
  0
LINE
  5
1022
330
1D
100
AcDbEntity
  8
0
100
AcDbLine
 10
148.463
 20
2.0
 30
0.0
 11
147.863
 21
2.0
 31
0.0
  0
LINE
  5
1023
330
1D
100
AcDbEntity
  8
0
100
AcDbLine
 10
149.863
 20
2.0
 30
0.0
 11
148.463
 21
2.0
 31
0.0
  0
LINE
  5
1024
330
1D
100
AcDbEntity
  8
0
100
AcDbLine
 10
147.735
 20
2.93
 30
0.0
 11
147.2
 21
3.039
 31
0.0
  0
LINE
  5
1025
330
1D
100
AcDbEntity
  8
0
100
AcDbLine
 10
147.863
 20
2.92291750503
 30
0.0
 11
147.735
 21
2.93
 31
0.0
  0
LINE
  5
1026
330
1D
100
AcDbEntity
  8
0
100
AcDbLine
 10
148.674
 20
3.0
 30
0.0
 11
148.074
 21
3.0
 31
0.0
  0
LINE
  5
1027
330
1D
100
AcDbEntity
  8
0
100
AcDbLine
 10
148.674
 20
3.0
 30
0.0
 11
148.074
 21
3.0
 31
0.0
  0
LINE
  5
1028
330
1D
100
AcDbEntity
  8
0
100
AcDbLine
 10
147.735
 20
3.155
 30
0.0
 11
147.2
 21
3.039
 31
0.0
  0
LINE
  5
1029
330
1D
100
AcDbEntity
  8
0
100
AcDbLine
 10
147.863
 20
3.162983903421
 30
0.0
 11
147.863
 21
2.0
 31
0.0
  0
LINE
  5
102A
330
1D
100
AcDbEntity
  8
0
100
AcDbLine
 10
148.074
 20
3.176144869215
 30
0.0
 11
147.735
 21
3.155
 31
0.0
  0
LINE
  5
102B
330
1D
100
AcDbEntity
  8
0
100
AcDbLine
 10
148.074
 20
4.839307692308
 30
0.0
 11
147.896
 21
4.853
 31
0.0
  0
LINE
  5
102C
330
1D
100
AcDbEntity
  8
0
100
AcDbLine
 10
147.896
 20
4.853
 30
0.0
 11
147.4
 21
4.995
 31
0.0
  0
LINE
  5
102D
330
1D
100
AcDbEntity
  8
0
100
AcDbLine
 10
148.471
 20
5.199
 30
0.0
 11
147.782
 21
5.126
 31
0.0
  0
LINE
  5
102E
330
1D
100
AcDbEntity
  8
0
100
AcDbLine
 10
147.782
 20
5.126
 30
0.0
 11
147.4
 21
4.995
 31
0.0
  0
ENDSEC
  0
SECTION
  2
OBJECTS
  0
DICTIONARY
  5
C
330
0
100
AcDbDictionary
281
     1
  3
ACAD_GROUP
350
D
  3
ACAD_LAYOUT
350
1A
  3
ACAD_MLEADERSTYLE
350
1031
  3
ACAD_MLINESTYLE
350
17
  3
ACAD_PLOTSETTINGS
350
19
  3
ACAD_PLOTSTYLENAME
350
E
  3
ACAD_SCALELIST
350
C05
  3
AcDbVariableDictionary
350
102F
  3
DWGPROPS
350
1034
  0
DICTIONARY
  5
D
102
{ACAD_REACTORS
330
C
102
}
330
C
100
AcDbDictionary
281
     1
  0
DICTIONARY
  5
1A
102
{ACAD_REACTORS
330
C
102
}
330
C
100
AcDbDictionary
281
     1
  3
Layout1
350
1C
  3
Model
350
1E
  0
DICTIONARY
  5
1031
102
{ACAD_REACTORS
330
C
102
}
330
C
100
AcDbDictionary
281
     1
  0
DICTIONARY
  5
17
102
{ACAD_REACTORS
330
C
102
}
330
C
100
AcDbDictionary
281
     1
  3
Standard
350
18
  0
DICTIONARY
  5
19
102
{ACAD_REACTORS
330
C
102
}
330
C
100
AcDbDictionary
281
     1
  0
ACDBDICTIONARYWDFLT
  5
E
102
{ACAD_REACTORS
330
C
102
}
330
C
100
AcDbDictionary
281
     1
  3
Normal
350
F
100
AcDbDictionaryWithDefault
340
F
  0
DICTIONARY
  5
C05
102
{ACAD_REACTORS
330
C
102
}
330
C
100
AcDbDictionary
281
     1
  3
A0
350
C06
  3
A1
350
C07
  3
A2
350
C08
  3
A3
350
C09
  3
A4
350
C0A
  3
A5
350
C0B
  3
A6
350
C0C
  3
A7
350
C0D
  3
A8
350
C0E
  3
A9
350
C0F
  3
B0
350
C10
  3
B1
350
C11
  3
B2
350
C12
  3
B3
350
C13
  3
B4
350
C14
  3
B5
350
C15
  3
B6
350
C16
  3
B7
350
C17
  3
B8
350
C18
  3
B9
350
C19
  3
C0
350
C1A
  3
C1
350
C1B
  3
C2
350
C1C
  3
C3
350
C1D
  3
C4
350
C1E
  3
C5
350
C1F
  3
C6
350
C20
  3
C7
350
C21
  3
C8
350
C22
  3
C9
350
C23
  3
D0
350
C24
  3
D1
350
C25
  3
D2
350
C26
  0
DICTIONARY
  5
102F
102
{ACAD_REACTORS
330
C
102
}
330
C
100
AcDbDictionary
281
     1
  3
CANNOSCALE
350
1032
  0
XRECORD
  5
1034
102
{ACAD_REACTORS
330
C
102
}
330
C
100
AcDbXrecord
280
     1
  1
DWGPROPS COOKIE
  2

  3

  4

  6

  7

  8
MARTIN
  9

300
=
301
=
302
=
303
=
304
=
305
=
306
=
307
=
308
=
309
=
 40
0.0
 41
2456213.853132593
 42
2456213.859606296
  1

 90
        0
  0
LAYOUT
  5
1C
102
{ACAD_REACTORS
330
1A
102
}
330
1A
100
AcDbPlotSettings
  1

  2
none_device
  4

  6

 40
0.0
 41
0.0
 42
0.0
 43
0.0
 44
0.0
 45
0.0
 46
0.0
 47
0.0
 48
0.0
 49
0.0
140
0.0
141
0.0
142
1.0
143
1.0
 70
   688
 72
     0
 73
     0
 74
     5
  7

 75
    16
147
1.0
148
0.0
149
0.0
100
AcDbLayout
  1
Layout1
 70
     1
 71
     1
 10
0.0
 20
0.0
 11
12.0
 21
9.0
 12
0.0
 22
0.0
 32
0.0
 14
1.000000000000E+20
 24
1.000000000000E+20
 34
1.000000000000E+20
 15
-1.000000000000E+20
 25
-1.000000000000E+20
 35
-1.000000000000E+20
146
0.0
 13
0.0
 23
0.0
 33
0.0
 16
1.0
 26
0.0
 36
0.0
 17
0.0
 27
1.0
 37
0.0
 76
     0
330
1B
  0
LAYOUT
  5
1E
102
{ACAD_REACTORS
330
1A
102
}
330
1A
100
AcDbPlotSettings
  1

  2
none_device
  4

  6

 40
0.0
 41
0.0
 42
0.0
 43
0.0
 44
0.0
 45
0.0
 46
0.0
 47
0.0
 48
0.0
 49
0.0
140
0.0
141
0.0
142
1.0
143
1.0
 70
  1712
 72
     0
 73
     0
 74
     0
  7

 75
     0
147
1.0
148
0.0
149
0.0
100
AcDbLayout
  1
Model
 70
     1
 71
     0
 10
0.0
 20
0.0
 11
12.0
 21
9.0
 12
0.0
 22
0.0
 32
0.0
 14
0.001
 24
0.0
 34
0.0
 15
299.999
 25
201.0
 35
0.0
146
0.0
 13
0.0
 23
0.0
 33
0.0
 16
1.0
 26
0.0
 36
0.0
 17
0.0
 27
1.0
 37
0.0
 76
     0
330
1D
331
C00
  0
MLINESTYLE
  5
18
102
{ACAD_REACTORS
330
17
102
}
330
17
100
AcDbMlineStyle
  2
Standard
 70
     0
  3

 62
   256
 51
90.0
 52
90.0
 71
     2
 49
0.5
 62
   256
  6
BYLAYER
 49
-0.5
 62
   256
  6
BYLAYER
  0
ACDBPLACEHOLDER
  5
F
102
{ACAD_REACTORS
330
E
102
}
330
E
  0
SCALE
  5
C06
102
{ACAD_REACTORS
330
C05
102
}
330
C05
100
AcDbScale
 70
     0
300
1:1
140
1.0
141
1.0
290
     1
  0
SCALE
  5
C07
102
{ACAD_REACTORS
330
C05
102
}
330
C05
100
AcDbScale
 70
     0
300
1:2
140
1.0
141
2.0
290
     0
  0
SCALE
  5
C08
102
{ACAD_REACTORS
330
C05
102
}
330
C05
100
AcDbScale
 70
     0
300
1:4
140
1.0
141
4.0
290
     0
  0
SCALE
  5
C09
102
{ACAD_REACTORS
330
C05
102
}
330
C05
100
AcDbScale
 70
     0
300
1:5
140
1.0
141
5.0
290
     0
  0
SCALE
  5
C0A
102
{ACAD_REACTORS
330
C05
102
}
330
C05
100
AcDbScale
 70
     0
300
1:8
140
1.0
141
8.0
290
     0
  0
SCALE
  5
C0B
102
{ACAD_REACTORS
330
C05
102
}
330
C05
100
AcDbScale
 70
     0
300
1:10
140
1.0
141
10.0
290
     0
  0
SCALE
  5
C0C
102
{ACAD_REACTORS
330
C05
102
}
330
C05
100
AcDbScale
 70
     0
300
1:16
140
1.0
141
16.0
290
     0
  0
SCALE
  5
C0D
102
{ACAD_REACTORS
330
C05
102
}
330
C05
100
AcDbScale
 70
     0
300
1:20
140
1.0
141
20.0
290
     0
  0
SCALE
  5
C0E
102
{ACAD_REACTORS
330
C05
102
}
330
C05
100
AcDbScale
 70
     0
300
1:30
140
1.0
141
30.0
290
     0
  0
SCALE
  5
C0F
102
{ACAD_REACTORS
330
C05
102
}
330
C05
100
AcDbScale
 70
     0
300
1:40
140
1.0
141
40.0
290
     0
  0
SCALE
  5
C10
102
{ACAD_REACTORS
330
C05
102
}
330
C05
100
AcDbScale
 70
     0
300
1:50
140
1.0
141
50.0
290
     0
  0
SCALE
  5
C11
102
{ACAD_REACTORS
330
C05
102
}
330
C05
100
AcDbScale
 70
     0
300
1:100
140
1.0
141
100.0
290
     0
  0
SCALE
  5
C12
102
{ACAD_REACTORS
330
C05
102
}
330
C05
100
AcDbScale
 70
     0
300
2:1
140
2.0
141
1.0
290
     0
  0
SCALE
  5
C13
102
{ACAD_REACTORS
330
C05
102
}
330
C05
100
AcDbScale
 70
     0
300
4:1
140
4.0
141
1.0
290
     0
  0
SCALE
  5
C14
102
{ACAD_REACTORS
330
C05
102
}
330
C05
100
AcDbScale
 70
     0
300
8:1
140
8.0
141
1.0
290
     0
  0
SCALE
  5
C15
102
{ACAD_REACTORS
330
C05
102
}
330
C05
100
AcDbScale
 70
     0
300
10:1
140
10.0
141
1.0
290
     0
  0
SCALE
  5
C16
102
{ACAD_REACTORS
330
C05
102
}
330
C05
100
AcDbScale
 70
     0
300
100:1
140
100.0
141
1.0
290
     0
  0
SCALE
  5
C17
102
{ACAD_REACTORS
330
C05
102
}
330
C05
100
AcDbScale
 70
     0
300
1/128" = 1'-0"
140
0.0078125
141
12.0
290
     0
  0
SCALE
  5
C18
102
{ACAD_REACTORS
330
C05
102
}
330
C05
100
AcDbScale
 70
     0
300
1/64" = 1'-0"
140
0.015625
141
12.0
290
     0
  0
SCALE
  5
C19
102
{ACAD_REACTORS
330
C05
102
}
330
C05
100
AcDbScale
 70
     0
300
1/32" = 1'-0"
140
0.03125
141
12.0
290
     0
  0
SCALE
  5
C1A
102
{ACAD_REACTORS
330
C05
102
}
330
C05
100
AcDbScale
 70
     0
300
1/16" = 1'-0"
140
0.0625
141
12.0
290
     0
  0
SCALE
  5
C1B
102
{ACAD_REACTORS
330
C05
102
}
330
C05
100
AcDbScale
 70
     0
300
3/32" = 1'-0"
140
0.09375
141
12.0
290
     0
  0
SCALE
  5
C1C
102
{ACAD_REACTORS
330
C05
102
}
330
C05
100
AcDbScale
 70
     0
300
1/8" = 1'-0"
140
0.125
141
12.0
290
     0
  0
SCALE
  5
C1D
102
{ACAD_REACTORS
330
C05
102
}
330
C05
100
AcDbScale
 70
     0
300
3/16" = 1'-0"
140
0.1875
141
12.0
290
     0
  0
SCALE
  5
C1E
102
{ACAD_REACTORS
330
C05
102
}
330
C05
100
AcDbScale
 70
     0
300
1/4" = 1'-0"
140
0.25
141
12.0
290
     0
  0
SCALE
  5
C1F
102
{ACAD_REACTORS
330
C05
102
}
330
C05
100
AcDbScale
 70
     0
300
3/8" = 1'-0"
140
0.375
141
12.0
290
     0
  0
SCALE
  5
C20
102
{ACAD_REACTORS
330
C05
102
}
330
C05
100
AcDbScale
 70
     0
300
1/2" = 1'-0"
140
0.5
141
12.0
290
     0
  0
SCALE
  5
C21
102
{ACAD_REACTORS
330
C05
102
}
330
C05
100
AcDbScale
 70
     0
300
3/4" = 1'-0"
140
0.75
141
12.0
290
     0
  0
SCALE
  5
C22
102
{ACAD_REACTORS
330
C05
102
}
330
C05
100
AcDbScale
 70
     0
300
1" = 1'-0"
140
1.0
141
12.0
290
     0
  0
SCALE
  5
C23
102
{ACAD_REACTORS
330
C05
102
}
330
C05
100
AcDbScale
 70
     0
300
1-1/2" = 1'-0"
140
1.5
141
12.0
290
     0
  0
SCALE
  5
C24
102
{ACAD_REACTORS
330
C05
102
}
330
C05
100
AcDbScale
 70
     0
300
3" = 1'-0"
140
3.0
141
12.0
290
     0
  0
SCALE
  5
C25
102
{ACAD_REACTORS
330
C05
102
}
330
C05
100
AcDbScale
 70
     0
300
6" = 1'-0"
140
6.0
141
12.0
290
     0
  0
SCALE
  5
C26
102
{ACAD_REACTORS
330
C05
102
}
330
C05
100
AcDbScale
 70
     0
300
1'-0" = 1'-0"
140
12.0
141
12.0
290
     0
  0
DICTIONARYVAR
  5
1032
102
{ACAD_REACTORS
330
102F
102
}
330
102F
100
DictionaryVariables
280
     0
  1
1:1
  0
ENDSEC
  0
SECTION
  2
THUMBNAILIMAGE
 90
    16364
310
28000000B40000005500000001000800000000000000000000000000000000000000000000000000FFFFFF000000FF0000FFFF0000FF0000FFFF0000FF000000FF00FF000000000080808000C0C0C0000000FF007F7FFF000000A5005252A50000007F003F3F7F0000004C0026264C000000260013132600003FFF007F9FFF
310
000029A5005267A500001F7F003F4F7F0000134C00262F4C000009260013172600007FFF007FBFFF000052A500527CA500003F7F003F5F7F0000264C0026394C0000132600131C260000BFFF007FDFFF00007CA5005291A500005F7F003F6F7F0000394C0026424C00001C26001321260000FFFF007FFFFF0000A5A50052A5
310
A500007F7F003F7F7F00004C4C00264C4C00002626001326260000FFBF007FFFDF0000A57C0052A59100007F5F003F7F6F00004C3900264C420000261C001326210000FF7F007FFFBF0000A5520052A57C00007F3F003F7F5F00004C2600264C39000026130013261C0000FF3F007FFF9F0000A5290052A56700007F1F003F
310
7F4F00004C1300264C2F00002609001326170000FF00007FFF7F0000A5000052A55200007F00003F7F3F00004C0000264C260000260000132613003FFF00009FFF7F0029A5000067A552001F7F00004F7F3F00134C00002F4C260009260000172613007FFF0000BFFF7F0052A500007CA552003F7F00005F7F3F00264C0000
310
394C2600132600001C261300BFFF0000DFFF7F007CA5000091A552005F7F00006F7F3F00394C0000424C26001C26000021261300FFFF0000FFFF7F00A5A50000A5A552007F7F00007F7F3F004C4C00004C4C26002626000026261300FFBF0000FFDF7F00A57C0000A59152007F5F00007F6F3F004C3900004C422600261C00
310
0026211300FF7F0000FFBF7F00A5520000A57C52007F3F00007F5F3F004C2600004C39260026130000261C1300FF3F0000FF9F7F00A5290000A56752007F1F00007F4F3F004C1300004C2F26002609000026171300FF000000FF7F7F00A5000000A55252007F0000007F3F3F004C0000004C2626002600000026131300FF00
310
3F00FF7F9F00A5002900A55267007F001F007F3F4F004C0013004C262F002600090026131700FF007F00FF7FBF00A5005200A5527C007F003F007F3F5F004C0026004C2639002600130026131C00FF00BF00FF7FDF00A5007C00A55291007F005F007F3F6F004C0039004C26420026001C0026132100FF00FF00FF7FFF00A5
310
00A500A552A5007F007F007F3F7F004C004C004C264C002600260026132600BF00FF00DF7FFF007C00A5009152A5005F007F006F3F7F0039004C0042264C001C002600211326007F00FF00BF7FFF005200A5007C52A5003F007F005F3F7F0026004C0039264C00130026001C1326003F00FF009F7FFF002900A5006752A500
310
1F007F004F3F7F0013004C002F264C000900260017132600000000002D2D2D005B5B5B0089898900B7B7B700B3B3B30000000000000000000000000000000000000000000000000000000000000000000000000000000000000000000000000000000000000000000007070700000007070000000707070000000707070700
310
00070707000000000000000000000000000000070707000007070707000000070707000000070700000007070700000000000000000000000000000000000000000000000000000000000000000000000000000000000000000000000000000000000000000000000000000000000000000000000000000000000000000000
310
00000000000000000000000000000000000000000007070707070707070707070707070707070707070707070707070707070707070707070707070707070707070707070707070707070707070707070707070707070707070707070707070707070707070707070707070700000000000000000000000000000000000000
310
00000000000000000000000000000000000000000000000000000000000000000000000000000000000000000000000000000000000000000000000000000000000000000707070707070707070707070707070707070707070707070707070707000707070707070000070707000707070000000707070000000707070007
310
07070000070707070707000707070707070707070707070707070707070707070707070707070707000000000000000000000000000000000000000000000000000000000000000000000000000000000000000000000000000000000000000000000000000000000000000000000000000007070707070707000007070700
310
07070700000000000707070000000000070707000000000000000007070700000000000007070700000000000000000007070700000000000007070700000000000000000707070000000000070707000000000007070700070707000007070707070707000000000000000000000000000000000000000000000000000000
310
00000000000000000000000000000000000000000000000000000000000000000000000707070707070707070707070707070707070707070707070707070707070707070707070707070707070707070707070707070707070707070707070700070707070707070707070707070707070707070707070707070707070707
310
07070707070707070707070707070707070707070707070707070707070707000000000000000000000000000000000000000000000000000000000000000000000000000000000000000000000000000000000000000007070000000000000000000000000000000000000000000000000000000000000000000000000000
310
00000000000000000000000000000000000000000000000000000000000000000000000000000000000000000000000000000000000000000000000000000000000000000000000000000000000000000000000707000000000000000000000000000000000000000000000000000000000000000000000000000000000000
310
00000000000000000000000000070000000000000000000000000000000000000000000000000000000000000000000000000000000000000000000000000000000000000000000000000000000000000000000000000000000000000000000000000000000000000000000000000000000000000000000000000000000000
310
00000000000000000000070000000000000000000000000000000000000000000000000000000000000000000000000000000000000000000000000000000000000007000000000000000000000000000000000000000000000000000000000000000000000000000000000000000000000000000000000000000000000000
310
00000000000000000000000000000000000000000000000000000000000000000000000000000000000000000000000000000000000000000000000000000007000000000000000000000000000000000000000000000000000000000000000000000000000000000000000000000000000000000000000700000000000000
310
00000000000000000000000000000000000000000000000000000000000000000000000000000000000000000000000000000000000000000000000000000000000000000000000000000000000000000000000000000000000000000000000000000000000000000000000000000000000000000700000000000000000000
310
00000000000000000000000000000000000000000000000000000000000000000000000000000000000000000007000000000000000000000000000000000000000000000000000000000000000000000000000000000000000000000000000000000000000000000000000000000000000000000000000000000000000000
310
00000000000000000000000000000000000000000000000000000000000000000000000000000000000007000000000000000000000000000000000000000000000000000000000000000000000000000000000000000000000000000000000000000700000000000000000000000000000000000000000000000000000000
310
00000000000000000000000000000000000000000000000000000000000000000000000000000000000000000000000000000000000000000000000000000000000000000000000000000000000000000000000000000000000000000000000700000000000000000000000000000000000000000000000000000000000000
310
00000000000000000000000000000000000000000000000007000000000000000000000000000000000000000000000000000000000000000000000000000000000000000000000000000000000000000000000000000000000000000000000000000000000000000000000000000000000000000000000000000000000000
310
00000000000000000000000000000000000000000007000000000000000000000000000000000000000000000000000000000000000000000000000000000000000000000000000000000000000700000000000000000000000000000000000000000000000000000000000000000000000000000000000000000000000000
310
00000000000000000000000000000000000000000000000000000000000000000000000000000000000000000000000000000000000000000000000000000000000000000000000000000700000000000000000000000000000000000000000000000000000000000000000000000000000000000000000000000000000000
310
00000007000000000000000000000000000000000000000000000000000000000000000000000000000000000000000000000000000000000000000000000000000000000000000000000000000000000000000000000000000000000000000000000000000000000000000000000000000000000000000000000000000000
310
07000000000000000000000000000000000000000000000000000000000000000000000000000000000000000000000000000000000000000707070700000000000000000000000000000000000000000000000000000000000000000000000000000000000000000000000000000000000000000000000000000000000000
310
00000000000000000000000000000000000000000000000000000000000000000000000000000000000000000000000000000707070700000000000000000000000000000000000000000000000000000000000000000000000000000000000000000000000000000000000000000000000707070707000000000000000000
310
00000000000000000000000000000000000000000000000000000000000000000000000000000000000000000000000000000000000000000000000000000000000000000000000000000000000000000000000000000000000000000000000000000707070707000000000000000000000000000000000000000000000000
310
00000000000000000000000000000000000000000000000000000000000000000000000000000000000000000707070707070707070700000000000000000000000000000000000000000000000000000000000000000000000000000000000000000000000000000000000000000000000000000000000000000000000000
310
00000000000000000000000000000707070707070707070700000000000000000000000000000000000000000000000000000000000000000000000000000000000000000000000000000000000000000000000000000000000000000000000000000000000000000000000707070707070707070707070707000000000000
310
00000000000000000000000000000000000000000000000000000000000000000000000000000000000000000000000000000000000707070707070707070707070707000000000000000000000000000000000000000000000000000000000000000000000000000000000000000000000000000000000000000000000000
310
00000000000000000000000000000000000000000000000000000000000000000000000000000000000000000000000707070707070707070707070707070707070707070707070707070707070707070707070707070707070707070707070707070707070707070707000000000000000000000000000000000000000000
310
00000000000000000000000000000000000000000000000000000000000000000000000000000000000000000000000000000000000000000000000000000000000000000000000000000000000000000000000000000000000000000000000000000000000000000000000000000000000000000000000000000700000000
310
00000000000000000007000000000000000000000000000000000000000000000000000000000000000000000000000000000000000000000000000000000000000000000000000000000000000000000000000000000000000000000000000000000000000000000000000000000000000000000000000000000000000000
310
00000000000000000000000000000000000000000000000000000000000000000000000000000000000000000000000007000000000000000000000000000700000000000000000000000000000000000000000000000000000000000000000000000000000000000000000000000000000000000000000000000000000000
310
00000000000000000000000000000000000000000000000000000000000000000000000000000000000000000000000000000000000000000000000000000000000000000000000000000000000000000000000000000000000000000000000000000000000700000000000000000000000000070000000000000000000000
310
00000000000000000000000000000000000000000000000000000000000000000000000000000000000000000000000000000000000000000000000000000000000000000000000000000000000000000000000000000000000000000000000000000000000000000000000000000000000000000000000000000000000000
310
00000000000000000000000000000000000000000000000000000007000000000000000000000000000700000000000000000000000000000000000000000000000000000000000000000000000000000000000000000000000000000000000000000000000000000000000000000000000000000000000000000000000000
310
00000000000000000000000000000000000000000000000000000000000000000000000000000000000000000000000000000000000000000000000000000000000000000000000000000000000000000700000000000000000000000000070000000000000000000000000000000000000000000000000000000000000000
310
00000000000000000000000000000000000000000000000000000000000000000000000000000000000000000000000000000000000000000000000000000000000000000000000000000000000000000000000000000000000000000000000000000000000000000000000000000000000000000000000000000000000000
310
00000000000007000000000000000000000000000700000000000000000000000000000000000000000000000000000000000000000000000000000000000000000000000000000000000000000000000000000000000000000000000000000000000000000000000000000000000000000000000000000000000000000000
310
00000000000000000000000000000000000000000000000000000000000000000000000000000000000000000000000000000000000000000000000007000000000000000000000007000000000000000000000000000000000000000000000000000000000000000000000000000000000000000000000000000000000000
310
00000000000000000000000000000000000000000000000000000000000000000000000000000000000000000000000000000000000000000000000000000000000000000000000000000000000000000000000000000000000000000000000000000000000000000000000000000000000700000000000000000000000700
310
00000000000000000000000000000000000000000000000000000000000000000000000000000000000000000000000000000000000000000000000000000000000000000000000000000000000000000000000000000000000000000000000000000000000000000000000000000000000000000000000000000000000000
310
00000000000000000000000000000000000000000000000000000000000000000000000000000007070707070707070707070707000000000000000000000000000000000000000000000000000000000000000000000000000000000000000000000000000000000000000000000000000000000000000000000000000000
310
00000000000000000000000000000000000000000000000000000000000000000000000000000000000000000000000000000000000000000000000000000000000000000000000000000000000000000000000000000000000000000000070700000000000700000000000000000000000000000000000000000000000000
310
00000000000000000000000000000000000000000000000000000000000000000000000000000000000000000000000000000000000000000000000000000000000000000000000000000000000000000000000000000000000000000000000000000000000000000000000000000000000000000000000000000000000000
310
00000000000000000000000000000000000000070700000000000000070700000000000000000000000000000000000000000000000000000000000000000000000000000000000000000000000000000000000000000000000000000000000000000000000000000000000000000000000000000000000000000000000000
310
00000000000000000000000000000000000000000000000000000000000000000000000000000000000000000000000000000000000000000000000000000000000000000000000007000000000000000000070000000000000000000000000000000000000000000000000000000000000000000000000000000000000000
310
00000000000000000000000000000000000000000000000000000000000000000000000000000000000000000000000000000000000000000000000000000000000000000000000000000000000000000000000000000000000000000000000000000000000000000000000000000000000000000000000000000000000700
310
00000000000000000700000000000000000000000000000000000000000000000000000000000000000000000000000000000000000000000000000000000000000000000000000000000000000000000000000000000000000000000000000000000000000000000000000000000000000000000000000000000000000000
310
00000000000000000000000000000000000000000000000000000000000000000000000000000000000000000000000000000007000000000000000000070000000000000000000000000000000000000000000000000000000000000000000000000000000000000000000000000000000000000000000000000000000000
310
00000000000000000000000000000000000000000000000000000000000000000000000000000000000000000000000000000000000000000000000000000000000000000000000000000000000000000000000000000000000000000000000000000000000000000700000000000000000007000000000000000000000000
310
00000000000000000000000000000000000000000000000000000000000000000000000000000000000000000000000000000000000000000000000000000000000000000000000000000000000000000000000000000000000000000000000000000000000000000000000000000000000000000000000000000000000000
310
00000000000000000000000000000000000000000000000000000000000007000000000000000000070000000000000000000000000000000000000000000000000000000000000000000000000000000000000000000000000000000000000000000000000000000000000000000000000000000000000000000000000000
310
00000000000000000000000000000000000000000000000000000000000000000000000000000000000000000000000000000000000000000000000000000000000000000000000000000000000000000000000707070707070707070707000000000000000000000000000000000000000000000000000000000000000000
310
00000000000000000000000000000000000000000000000000000000000000000000000000000000000000000000000000000000000000000000000000000000000000000000000000000000000000000000000000000000000000000000000000000000000000000000000000000000000000000000000000000000000000
310
00000000000000000007000000000000000000070000000000000000000000000000000000000000000000000000000000000000000000000000000000000000000000000000000000000000000000000000000000000000000000000000000000000000000000000000000000000000000000000000000000000000000000
310
00000000000000000000000000000000000000000000000000000000000000000000000000000000000000000000000000000000000000000000000000000700000000000000000007000000000000000000000000000000000000000000000000000000000000000000000000000000000000000000000000000000000000
310
00000000000000000000000000000000000000000000000000000000000000000000000000000000000000000000000000000000000000000000000000000000000000000000000000000000000000000000000000000000000000000000000000000000000000000000000000000000000000070000000000000000000700
310
00000000000000000000000000000000000000000000000000000000000000000000000000000000000000000000000000000000000000000000000000000000000000000000000000000000000000000000000000000000000000000000000000000000000000000000000000000000000000000000000000000000000000
310
00000000000000000000000000000000000000000000000000000000000000000000000000000000000700000000000000000007000000000000000000000000000000000000000000000000000000000000000000000000000000000000000000000000000000000000000000000000000000000000000000000000000000
310
00000000000000000000000000000000000000000000000000000000000000000000000000000000000000000000000000000000000000000000000000000000000000000000000000000000000000000000000000000000000000000000070000000000000000000700000000000000000000000000000000000000000000
310
00000000000000000000000000000000000000000000000000000000000000000000000000000000000000000000000000000000000000000000000000000000000000000000000000000000000000000000000000000000000000000000000000000000000000000000000000000000000000000000000000000000000000
310
00000000000000000000000000000000000000000700000000000000000007000000000000000000000000000000000000000000000000000000000000000000000000000000000000000000000000000000000000000000000000000000000000000000000000000000000000000000000000000000000000000000000000
310
00000000000000000000000000000000000000000000000000000000000000000000000000000000000000000000000000000000000000000000000000000000000000000000000000070000000000000000000700000000000000000000000000000000000000000000000000000000000000000000000000000000000000
310
00000000000000000000000000000000000000000000000000000000000000000000000000000000000000000000000000000000000000000000000000000000000000000000000000000000000000000000000000000000000000000000000000000000000000000000000000000000000000000000000000000000000007
310
00000000000000000007000000000000000000000000000000000000000000000000000000000000000000000000000000000000000000000000000000000000000000000000000000000000000000000000000000000000000000000000000000000000000000000000000000000000000000000000000000000000000000
310
00000000000000000000000000000000000000000000000000000000000000000000000000000000000000000000000000000000070000000000000000000700000000000000000000000000000000000000000000000000000000000000000000000000000000000000000000000000000000000000000000000000000000
310
00000000000000000000000000000000000000000000000000000000000000000000000000000000000000000000000000000000000000000000000000000000000000000000000000000000000000000000000000000000000000000000000000000000000000000007000000000000000000070000000000000000000000
310
00000000000000000000000000000000000000000000000000000000000000000000000000000000000000000000000000000000000000000000000000000000000000000000000000000000000000000000000000000000000000000000000000000000000000000000000000000000000000000000000000000000000000
310
00000000000000000000000000000000000000000000000000000000000000070000000000000000000700000000000000000000000000000000000000000000000000000000000000000000000000000000000000000000000000000000000000000000000000000000000000000000000000000000000000000000000000
310
00000000000000000000000000000000000000000000000000000000000000000000000000000000000000000000000000000000000000000000000000000000000000000000000000000000000000000000000007000000000000000000070000000000000000000000000000000000000000000000000000000000000000
310
00000000000000000000000000000000000000000000000000000000000000000000000000000000000000000000000000000000000000000000000000000000000000000000000000000000000000000000000000000000000000000000000000000000000000000000000000000000000000000000000000000000000000
310
00000000000000000000070000000000000000000700000000000000000000000000000000000000000000000000000000000000000000000000000000000000000000000000000000000000000000000000000000000000000000000000000000000000000000000000000000000000000000000000000000000000000000
310
00000000000000000000000000000000000000000000000000000000000000000000000000000000000000000000000000000000000000000000000000000007000000000000000000070000000000000000000000000000000000000000000000000000000000000000000000000000000000000000000000000000000000
310
00000000000000000000000000000000000000000000000000000000000000000000000000000000000000000000000000000000000000000000000000000000000000000000000000000000000000000000000000000000000000000000000000000000000000000000000000000000000000000700000000000000000007
310
00000000000000000000000000000000000000000000000000000000000000000000000000000000000000000000000000000000000000000000000000000000000000000000000000000000000000000000000000000000000000000000000000000000000000000000000000000000000000000000000000000000000000
310
00000000000000000000000000000000000000000000000000000000000000000000000000000000000007000000000000000000070000000000000000000000000000000000000000000000000000000000000000000000000000000000000000000000000000000000000000000000000000000000000000000000000000
310
00000000000000000000000000000000000000000000000000000000000000000000000000000000000000000000000000000000000000000000000000000000000000000000000000000000000000000000000000000000000000000000000700000000000000000007000000000000000000000000000000000000000000
310
00000000000000000000000000000000000000000000000000000000000000000000000000000000000000000000000000000000000000000000000000000000000000000000000000000000000000000000000000000000000000000000000000000000000000000000000000000000000000000000000000000000000000
310
00000000000000000000000000000000000000000007000000000000000000070000000000000000000000000000000000000000000000000000000000000000000000000000000000000000000000000000000000000000000000000000000000000000000000000000000000000000000000000000000000000000000000
310
00000000000000000000000000000000000000000000000000000000000000000000000000000000000000000000000000000000000000000000000000000000000000000000000000000700000000000000000007000000000000000000000000000000000000000000000000000000000000000000000000000000000000
310
00000000000000000000000000000000000000000000000000000000000000000000000000000000000000000000000000000000000000000000000000000000000000000000000000000000000000000000000000000000000000000000000000000000000000000000000000000000000000000000000000000000000000
310
07000000000000000000070000000000000000000000000000000000000000000000000000000000000000000000000000000000000000000000000000000000000000000000000000000000000000000000000000000000000000000000000000000000000000000000000000000000000000000000000000000000000000
310
00000000000000000000000000000000000000000000000000000000000000000000000000000000000000000000000000000000000700000000000000000007000000000000000000000000000000000000000000000000000000000000000000000000000000000000000000000000000000000000000000000000000000
310
00000000000000000000000000000000000000000000000000000000000000000000000000000000000000000000000000000000000000000000000000000000000000000000000000000000000000000000000000000000000000000000000000000000000000000000070000000000000000000700000000000000000000
310
00000000000000000000000000000000000000000000000000000000000000000000000000000000000000000000000000000000000000000000000000000000000000000000000000000000000000000000000000000000000000000000000000000000000000000000000000000000000000000000000000000000000000
310
00000000000000000000000000000000000000000000000000000000000000000700000000000000000007000000000000000000000000000000000000000000000000000000000000000000000000000000000000000000000000000000000000000000000000000000000000000000000000000000000000000000000000
310
00000000000000000000000000000000000000000000000000000000000000000000000000000000000000000000000000000000000000000000000000000000000000000000000000000000000000000000000000070000000000000000000700000000000000000000000000000000000000000000000000000000000000
310
00000000000000000000000000000000000000000000000000000000000000000000000000000000000000000000000000000000000000000000000000000000000000000000000000000000000000000000000000000000000000000000000000000000000000000000000000000000000000000000000000000000000000
310
00000000000000000000000700000000000000000007000000000000000000000000000000000000000000000000000000000000000000000000000000000000000000000000000000000000000000000000000000000000000000000000000000000000000000000000000000000000000000000000000000000000000000
310
00000000000000000000000000000000000000000000000000000000000000000000000000000000000000000000000000000000000000000000000000000000070000000000000000000700000000000000000000000000000000000000000000000000000000000000000000000000000000000000000000000000000000
310
00000000000000000000000000000000000000000000000000000000000000000000000000000000000000000000000000000000000000000000000000000000000000000000000000000000000000000000000000000000000000000000000000000000000000000000000000000000000000000007000000000000000000
310
07000000000000000000000000000000000000000000000000000000000000000000000000000000000000000000000000000000000000000000000000000000000000000000000000000000000000000000000000000000000000000000000000000000000000000000000000000000000000000000000000000000000000
310
00000000000000000000000000000000000000000000000000000000000000000000000000000000000000070000000000000000000700000000000000000000000000000000000000000000000000000000000000000000000000000000000000000000000000000000000000000000000000000000000000000000000000
310
00000000000000000000000000000000000000000000000000000000000000000000000000000000000000000000000000000000000000000000000000000000000000000000000000000000000000000000000000000000000000000000000007000000000000000000070000000000000000000000000000000000000000
310
00000000000000000000000000000000000000000000000000000000000000000000000000000000000000000000000000000000000000000000000000000000000000000000000000000000000000000000000000000000000000000000000000000000000000000000000000000000000000000000000000000000000000
310
00000000000000000000000000000000000000000000070000000000000000000700000000000000000000000000000000000000000000000000000000000000000000000000000000000000000000000000000000000000000000000000000000000000000000000000000000000000000000000000000000000000000000
310
00000000000000000000000000000000000000000000000000000000000000000000000000000000000000000000000000000000000000000000000000000000000000000000000000000007000000000000000000070000000000000000000000000000000000000000000000000000000000000000000000000000000000
310
00000000000000000000000000000000000000000000000000000000000000000000000000000000000000000000000000000000000000000000000000000000000000000000000000000000000000000000000000000000000000000000000000000000000000000000000000000000000000000000000000000000000000
310
00070000000000000000000700000000000000000000000000000000000000000000000000000000000000000000000000000000000000000000000000000000000000000000000000000000000000000000000000000000000000000000000000000000000000000000000000000000000000000000000000000000000000
310
00000000000000000000000000000000000000000000000000000000000000000000000000000000000000000000000000000000000007000000000000000000070000000000000000000000000000000000000000000000000000000000000000000000000000000000000000000000000000000000000000000000000000
310
00000000000000000000000000000000000000000000000000000000000000000000000000000000000000000000000000000000000000000000000000000000000000000000000000000000000000000000000000000000000000000000000000000000000000000000000700000000000000000007000000000000000000
310
00000000000000000000000000000000000000000000000000000000000000000000000000000000000000000000000000000000000000000000000000000000000000000000000000000000000000000000000000000000000000000000000000000000000000000000000000000000000000000000000000000000000000
310
00000000000000000000000000000000000000000000000000000000000000000007000000000000000000070000000000000000000000000000000000000000000000000000000000000000000000000000000000000000000000000000000000000000000000000000000000000000000000000000000000000000000000
310
00000000000000000000000000000000000000000000000000000000000000000000000000000000000000000000000000000000000000000000000000000000000000000000000000000000000000000000000000000700000000000000000007000000000000000000000000000000000000000000000000000000000000
310
00000000000000000000000000000000000000000000000000000000000000000000000000000000000000000000000000000000000000000000000000000000000000000000000000000000000000000000000000000000000000000000000000000000000000000000000000000000000000000000000000000000000000
310
00000000000000000000000007000000000000000000070000000000000000000000000000000000000000000000000000000000000000000000000000000000000000000000000000000000000000000000000000000000000000000000000000000000000000000000000000000000000000000000000000000000000000
310
00000000000000000000000000000000000000000000000000000000000000000000000000000000000000000000000000000000000000000000000000000000000700000000000000000007000000000000000000000000000000000000000000000000000000000000000000000000000000000000000000000000000000
310
00000000000000000000000000000000000000000000000000000000000000000000000000000000000000000000000000000000000000000000000000000000000000000000000000000000000000000000000000000000000000000000000000000000000000000000000000000000000000000000070000000000000000
310
00070000000000000000000000000000000000000000000000000000000000000000000000000000000000000000000000000000000000000000000000000000000000000000000000000000000000000000000000000000000000000000000000000000000000000000000000000000000000000000000000000000000000
310
00000000000000000000000000000000000000000000000000000000000000000000000000000000000000000700000000000000000007000000000000000000000000000000000000000000000000000000000000000000000000000000000000000000000000000000000000000000000000000000000000000000000000
310
00000000000000000000000000000000000000000000000000000000000000000000000000000000000000000000000000000000000000000000000000000000000000000000000000000000000000000000000000000000000707070707070707070707070707070707070707070707070707070000000000000000000000
310
00000000000000000000000000000000000000000000000000000000000000000000000000000000000000000000000000000000000000000000000000000000000000000000000000000000000000000000000000000000000000000000000000000000000000000000000000000000000000000000000000000000000000
310
00000000000000000000000007070700000000000000000000000000000000000000000000000000000007070700000000000000000000000000000000000000000000000000000000000000000000000000000000000000000000000000000000000000000000000000000000000000000000000000000000000000000000
310
00000000000000000000000000000000000000000000000000000000000000000000000000000000000000000000000000000000000000000000000000000000000000000000000000000000000000000000000000000000000000000000000000070000000000000000000000000000000000000000000000000000000000
310
00000000000000000000000000000000000000000000000000000000000000000000000000000000000000000000000000000000000000000000000000000000000000000000000000000000000000000000000000000000000000000000000000000000000000000000000000000000000000000000070000000000000000
310
00000000000000000000000000000000000000000000000700000000000000000000000000000000000000000000000000000000000000000000000000000000000000000000000000000000000000000000000000000000000000000000000000000000000000000000000000000000000000000000000000000000000000
310
00000000000000000000000000000000000000000000000000000000000000000000000000000000000000000700000000000000000000000000000000000000000000000000000000000000070000000000000000000000000000000000000000000000000000000000000000000000000000000000000000000000000000
310
00000000000000000000000000000000000000000000000000000000000000000000000000000000000000000000000000000000000000000000000000000000000000000000000000000000000000000000000000000000000000000000000007000000000000000000000000000000000000000000000000000000000000
310
00000007000000000000000000000000000000000000000000000000000000000000000000000000000000000000000000000000000000000000000000000000000000000000000000000000000000000000000000000000000000000000000000000000000000000000000000000000000000000000000000000000000000
310
00000000000000000000000000000000000000000000070000000000000000000000000000000000000000000000000000000000000000000700000000000000000000000000000000000000000000000000000000000000000000000000000000000000000000000000000000000000000000000000000000000000000000
310
00000000000000000000000000000000000000000000000000000000000000000000000000000000000000000000000000000000000000000000000000000000000000000000000000000007070707070707070707070707070707070707070707070707070707070707070707070000000000000000000000000000000000
310
00000000000000000000000000000000000000000000000000000000000000000000000000000000000000000000000000000000000000000000000000000000000000000000000000000000000000000000000000000000000000000000000000000000000000000000000000000000000000000000000000000000000000
310
000000000000000000000000000000000000000000000000000000000000000000000000000000000000000000000000000000000000000000000000000000000000000000000000000000000000000000000000000000000000000000000000000000000000000000000000
  0
ENDSEC
  0
EOF
