  0
SECTION
  2
HEADER
  9
$ACADVER
  1
AC1015
  9
$ACADMAINTVER
 70
     6
  9
$DWGCODEPAGE
  3
ANSI_1252
  9
$INSBASE
 10
0.0
 20
0.0
 30
0.0
  9
$EXTMIN
 10
155.0
 20
-37.1719
 30
0.0
  9
$EXTMAX
 10
565.0
 20
231.8281
 30
0.0
  9
$LIMMIN
 10
0.0
 20
0.0
  9
$LIMMAX
 10
12.0
 20
9.0
  9
$ORTHOMODE
 70
     0
  9
$REGENMODE
 70
     1
  9
$FILLMODE
 70
     1
  9
$QTEXTMODE
 70
     0
  9
$MIRRTEXT
 70
     1
  9
$LTSCALE
 40
1.0
  9
$ATTMODE
 70
     1
  9
$TEXTSIZE
 40
0.2
  9
$TRACEWID
 40
0.05
  9
$TEXTSTYLE
  7
Standard
  9
$CLAYER
  8
0
  9
$CELTYPE
  6
Continuous
  9
$CECOLOR
 62
   256
  9
$CELTSCALE
 40
1.0
  9
$DISPSILH
 70
     0
  9
$DIMSCALE
 40
1.0
  9
$DIMASZ
 40
0.18
  9
$DIMEXO
 40
0.0625
  9
$DIMDLI
 40
0.38
  9
$DIMRND
 40
0.0
  9
$DIMDLE
 40
0.0
  9
$DIMEXE
 40
0.18
  9
$DIMTP
 40
0.0
  9
$DIMTM
 40
0.0
  9
$DIMTXT
 40
0.18
  9
$DIMCEN
 40
0.09
  9
$DIMTSZ
 40
0.0
  9
$DIMTOL
 70
     0
  9
$DIMLIM
 70
     0
  9
$DIMTIH
 70
     1
  9
$DIMTOH
 70
     1
  9
$DIMSE1
 70
     0
  9
$DIMSE2
 70
     0
  9
$DIMTAD
 70
     0
  9
$DIMZIN
 70
     0
  9
$DIMBLK
  1

  9
$DIMASO
 70
     1
  9
$DIMSHO
 70
     1
  9
$DIMPOST
  1

  9
$DIMAPOST
  1

  9
$DIMALT
 70
     0
  9
$DIMALTD
 70
     2
  9
$DIMALTF
 40
25.4
  9
$DIMLFAC
 40
1.0
  9
$DIMTOFL
 70
     0
  9
$DIMTVP
 40
0.0
  9
$DIMTIX
 70
     0
  9
$DIMSOXD
 70
     0
  9
$DIMSAH
 70
     0
  9
$DIMBLK1
  1

  9
$DIMBLK2
  1

  9
$DIMSTYLE
  2
Standard
  9
$DIMCLRD
 70
     0
  9
$DIMCLRE
 70
     0
  9
$DIMCLRT
 70
     0
  9
$DIMTFAC
 40
1.0
  9
$DIMGAP
 40
0.09
  9
$DIMJUST
 70
     0
  9
$DIMSD1
 70
     0
  9
$DIMSD2
 70
     0
  9
$DIMTOLJ
 70
     1
  9
$DIMTZIN
 70
     0
  9
$DIMALTZ
 70
     0
  9
$DIMALTTZ
 70
     0
  9
$DIMUPT
 70
     0
  9
$DIMDEC
 70
     4
  9
$DIMTDEC
 70
     4
  9
$DIMALTU
 70
     2
  9
$DIMALTTD
 70
     2
  9
$DIMTXSTY
  7
Standard
  9
$DIMAUNIT
 70
     0
  9
$DIMADEC
 70
     0
  9
$DIMALTRND
 40
0.0
  9
$DIMAZIN
 70
     0
  9
$DIMDSEP
 70
    46
  9
$DIMATFIT
 70
     3
  9
$DIMFRAC
 70
     0
  9
$DIMLDRBLK
  1

  9
$DIMLUNIT
 70
     2
  9
$DIMLWD
 70
    -2
  9
$DIMLWE
 70
    -2
  9
$DIMTMOVE
 70
     0
  9
$LUNITS
 70
     2
  9
$LUPREC
 70
     4
  9
$SKETCHINC
 40
0.1
  9
$FILLETRAD
 40
0.0
  9
$AUNITS
 70
     0
  9
$AUPREC
 70
     0
  9
$MENU
  1
.
  9
$ELEVATION
 40
0.0
  9
$PELEVATION
 40
0.0
  9
$THICKNESS
 40
0.0
  9
$LIMCHECK
 70
     0
  9
$CHAMFERA
 40
0.0
  9
$CHAMFERB
 40
0.0
  9
$CHAMFERC
 40
0.0
  9
$CHAMFERD
 40
0.0
  9
$SKPOLY
 70
     0
  9
$TDCREATE
 40
2455655.862904907
  9
$TDUCREATE
 40
2455655.779571574
  9
$TDUPDATE
 40
2456213.934352569
  9
$TDUUPDATE
 40
2456213.851019236
  9
$TDINDWG
 40
0.017217338
  9
$TDUSRTIMER
 40
0.017217338
  9
$USRTIMER
 70
     1
  9
$ANGBASE
 50
0.0
  9
$ANGDIR
 70
     0
  9
$PDMODE
 70
     0
  9
$PDSIZE
 40
0.0
  9
$PLINEWID
 40
0.0
  9
$SPLFRAME
 70
     0
  9
$SPLINETYPE
 70
     6
  9
$SPLINESEGS
 70
     8
  9
$HANDSEED
  5
6CB
  9
$SURFTAB1
 70
     6
  9
$SURFTAB2
 70
     6
  9
$SURFTYPE
 70
     6
  9
$SURFU
 70
     6
  9
$SURFV
 70
     6
  9
$UCSBASE
  2

  9
$UCSNAME
  2

  9
$UCSORG
 10
0.0
 20
0.0
 30
0.0
  9
$UCSXDIR
 10
1.0
 20
0.0
 30
0.0
  9
$UCSYDIR
 10
0.0
 20
1.0
 30
0.0
  9
$UCSORTHOREF
  2

  9
$UCSORTHOVIEW
 70
     1
  9
$UCSORGTOP
 10
0.0
 20
0.0
 30
0.0
  9
$UCSORGBOTTOM
 10
0.0
 20
0.0
 30
0.0
  9
$UCSORGLEFT
 10
0.0
 20
0.0
 30
0.0
  9
$UCSORGRIGHT
 10
0.0
 20
0.0
 30
0.0
  9
$UCSORGFRONT
 10
0.0
 20
0.0
 30
0.0
  9
$UCSORGBACK
 10
0.0
 20
0.0
 30
0.0
  9
$PUCSBASE
  2

  9
$PUCSNAME
  2

  9
$PUCSORG
 10
0.0
 20
0.0
 30
0.0
  9
$PUCSXDIR
 10
1.0
 20
0.0
 30
0.0
  9
$PUCSYDIR
 10
0.0
 20
1.0
 30
0.0
  9
$PUCSORTHOREF
  2

  9
$PUCSORTHOVIEW
 70
     0
  9
$PUCSORGTOP
 10
0.0
 20
0.0
 30
0.0
  9
$PUCSORGBOTTOM
 10
0.0
 20
0.0
 30
0.0
  9
$PUCSORGLEFT
 10
0.0
 20
0.0
 30
0.0
  9
$PUCSORGRIGHT
 10
0.0
 20
0.0
 30
0.0
  9
$PUCSORGFRONT
 10
0.0
 20
0.0
 30
0.0
  9
$PUCSORGBACK
 10
0.0
 20
0.0
 30
0.0
  9
$USERI1
 70
     0
  9
$USERI2
 70
     0
  9
$USERI3
 70
     0
  9
$USERI4
 70
     0
  9
$USERI5
 70
     0
  9
$USERR1
 40
0.0
  9
$USERR2
 40
0.0
  9
$USERR3
 40
0.0
  9
$USERR4
 40
0.0
  9
$USERR5
 40
0.0
  9
$WORLDVIEW
 70
     1
  9
$SHADEDGE
 70
     3
  9
$SHADEDIF
 70
    70
  9
$TILEMODE
 70
     1
  9
$MAXACTVP
 70
    64
  9
$PINSBASE
 10
0.0
 20
0.0
 30
0.0
  9
$PLIMCHECK
 70
     0
  9
$PEXTMIN
 10
1.000000000000E+20
 20
1.000000000000E+20
 30
1.000000000000E+20
  9
$PEXTMAX
 10
-1.000000000000E+20
 20
-1.000000000000E+20
 30
-1.000000000000E+20
  9
$PLIMMIN
 10
0.0
 20
0.0
  9
$PLIMMAX
 10
12.0
 20
9.0
  9
$UNITMODE
 70
     0
  9
$VISRETAIN
 70
     1
  9
$PLINEGEN
 70
     0
  9
$PSLTSCALE
 70
     1
  9
$TREEDEPTH
 70
  3020
  9
$CMLSTYLE
  2
Standard
  9
$CMLJUST
 70
     0
  9
$CMLSCALE
 40
1.0
  9
$PROXYGRAPHICS
 70
     1
  9
$MEASUREMENT
 70
     0
  9
$CELWEIGHT
370
    -1
  9
$ENDCAPS
280
     0
  9
$JOINSTYLE
280
     0
  9
$LWDISPLAY
290
     0
  9
$INSUNITS
 70
     0
  9
$HYPERLINKBASE
  1

  9
$STYLESHEET
  1

  9
$XEDIT
290
     1
  9
$CEPSNTYPE
380
     0
  9
$PSTYLEMODE
290
     1
  9
$FINGERPRINTGUID
  2
{9737ED0C-0C21-4DDA-8767-28F4554D682E}
  9
$VERSIONGUID
  2
{AA6653E3-876A-46EA-B6F7-F488B52AD16E}
  9
$EXTNAMES
290
     1
  9
$PSVPSCALE
 40
0.0
  9
$OLESTARTUP
290
     0
  0
ENDSEC
  0
SECTION
  2
CLASSES
  0
CLASS
  1
ACDBDICTIONARYWDFLT
  2
AcDbDictionaryWithDefault
  3
ObjectDBX Classes
 90
        0
280
     0
281
     0
  0
CLASS
  1
ACDBPLACEHOLDER
  2
AcDbPlaceHolder
  3
ObjectDBX Classes
 90
        0
280
     0
281
     0
  0
CLASS
  1
LAYOUT
  2
AcDbLayout
  3
ObjectDBX Classes
 90
        0
280
     0
281
     0
  0
CLASS
  1
DICTIONARYVAR
  2
AcDbDictionaryVar
  3
ObjectDBX Classes
 90
        0
280
     0
281
     0
  0
CLASS
  1
SCALE
  2
AcDbScale
  3
ObjectDBX Classes
 90
     1153
280
     0
281
     0
  0
ENDSEC
  0
SECTION
  2
TABLES
  0
TABLE
  2
VPORT
  5
8
330
0
100
AcDbSymbolTable
 70
     1
  0
VPORT
  5
60A
330
8
100
AcDbSymbolTableRecord
100
AcDbViewportTableRecord
  2
*Active
 70
     0
 10
0.0
 20
0.0
 11
1.0
 21
1.0
 12
282.5
 22
97.3281
 13
0.0
 23
0.0
 14
1.0
 24
1.0
 15
0.0
 25
0.0
 16
0.0
 26
0.0
 36
1.0
 17
0.0
 27
0.0
 37
0.0
 40
309.265358993338
 41
1.863448275862
 42
50.0
 43
0.0
 44
0.0
 50
0.0
 51
0.0
 71
    16
 72
   100
 73
     1
 74
     3
 75
     0
 76
     0
 77
     0
 78
     0
281
     0
 65
     1
110
0.0
120
0.0
130
0.0
111
1.0
121
0.0
131
0.0
112
0.0
122
1.0
132
0.0
 79
     1
146
0.0
  0
ENDTAB
  0
TABLE
  2
LTYPE
  5
5
330
0
100
AcDbSymbolTable
 70
     1
  0
LTYPE
  5
13
330
5
100
AcDbSymbolTableRecord
100
AcDbLinetypeTableRecord
  2
ByBlock
 70
     0
  3

 72
    65
 73
     0
 40
0.0
  0
LTYPE
  5
14
330
5
100
AcDbSymbolTableRecord
100
AcDbLinetypeTableRecord
  2
ByLayer
 70
     0
  3

 72
    65
 73
     0
 40
0.0
  0
LTYPE
  5
15
330
5
100
AcDbSymbolTableRecord
100
AcDbLinetypeTableRecord
  2
Continuous
 70
     0
  3
Solid line
 72
    65
 73
     0
 40
0.0
  0
ENDTAB
  0
TABLE
  2
LAYER
  5
2
330
0
100
AcDbSymbolTable
 70
     1
  0
LAYER
  5
10
330
2
100
AcDbSymbolTableRecord
100
AcDbLayerTableRecord
  2
0
 70
     0
 62
     7
  6
Continuous
370
    -3
390
F
  0
ENDTAB
  0
TABLE
  2
STYLE
  5
3
330
0
100
AcDbSymbolTable
 70
     1
  0
STYLE
  5
11
330
3
100
AcDbSymbolTableRecord
100
AcDbTextStyleTableRecord
  2
Standard
 70
     0
 40
0.0
 41
1.0
 50
0.0
 71
     0
 42
0.2
  3
txt
  4

  0
ENDTAB
  0
TABLE
  2
VIEW
  5
6
330
0
100
AcDbSymbolTable
 70
     0
  0
ENDTAB
  0
TABLE
  2
UCS
  5
7
330
0
100
AcDbSymbolTable
 70
     0
  0
ENDTAB
  0
TABLE
  2
APPID
  5
9
330
0
100
AcDbSymbolTable
 70
     1
  0
APPID
  5
12
330
9
100
AcDbSymbolTableRecord
100
AcDbRegAppTableRecord
  2
ACAD
 70
     0
  0
ENDTAB
  0
TABLE
  2
DIMSTYLE
  5
A
330
0
100
AcDbSymbolTable
 70
     1
100
AcDbDimStyleTable
  0
DIMSTYLE
105
5C5
330
A
100
AcDbSymbolTableRecord
100
AcDbDimStyleTableRecord
  2
Standard
 70
     0
340
11
  0
ENDTAB
  0
TABLE
  2
BLOCK_RECORD
  5
1
330
0
100
AcDbSymbolTable
 70
     1
  0
BLOCK_RECORD
  5
1E
330
1
100
AcDbSymbolTableRecord
100
AcDbBlockTableRecord
  2
*Model_Space
340
21
  0
BLOCK_RECORD
  5
1A
330
1
100
AcDbSymbolTableRecord
100
AcDbBlockTableRecord
  2
*Paper_Space
340
1D
  0
ENDTAB
  0
ENDSEC
  0
SECTION
  2
BLOCKS
  0
BLOCK
  5
1F
330
1E
100
AcDbEntity
  8
0
100
AcDbBlockBegin
  2
*Model_Space
 70
     0
 10
0.0
 20
0.0
 30
0.0
  3
*Model_Space
  1
*Model_Space
  0
ENDBLK
  5
20
330
1E
100
AcDbEntity
  8
0
100
AcDbBlockEnd
  0
BLOCK
  5
1B
330
1A
100
AcDbEntity
 67
     1
  8
0
100
AcDbBlockBegin
  2
*Paper_Space
 70
     0
 10
0.0
 20
0.0
 30
0.0
  3
*Paper_Space
  1
*Paper_Space
  0
ENDBLK
  5
1C
330
1A
100
AcDbEntity
 67
     1
  8
0
100
AcDbBlockEnd
  0
ENDSEC
  0
SECTION
  2
ENTITIES
  0
LINE
  5
BD
330
1E
100
AcDbEntity
  8
0
100
AcDbLine
 10
170.12
 20
170.7881
 30
0.0
 11
177.32
 21
167.9081
 31
0.0
  0
LINE
  5
BE
330
1E
100
AcDbEntity
  8
0
100
AcDbLine
 10
177.32
 20
167.9081
 30
0.0
 11
185.0
 21
166.8281
 31
0.0
  0
LINE
  5
C7
330
1E
100
AcDbEntity
  8
0
100
AcDbLine
 10
199.88
 20
170.7881
 30
0.0
 11
206.24
 21
175.5881
 31
0.0
  0
LINE
  5
C8
330
1E
100
AcDbEntity
  8
0
100
AcDbLine
 10
192.68
 20
167.9081
 30
0.0
 11
199.88
 21
170.7881
 31
0.0
  0
LINE
  5
C9
330
1E
100
AcDbEntity
  8
0
100
AcDbLine
 10
185.0
 20
166.8281
 30
0.0
 11
192.68
 21
167.9081
 31
0.0
  0
LINE
  5
DA
330
1E
100
AcDbEntity
  8
0
100
AcDbLine
 10
312.5
 20
147.6011
 30
0.0
 11
312.5
 21
152.9531
 31
0.0
  0
LINE
  5
DB
330
1E
100
AcDbEntity
  8
0
100
AcDbLine
 10
312.5
 20
147.6011
 30
0.0
 11
312.5
 21
147.5401
 31
0.0
  0
LINE
  5
DC
330
1E
100
AcDbEntity
  8
0
100
AcDbLine
 10
312.5
 20
152.9531
 30
0.0
 11
312.5
 21
155.6121
 31
0.0
  0
LINE
  5
DD
330
1E
100
AcDbEntity
  8
0
100
AcDbLine
 10
312.5
 20
152.9531
 30
0.0
 11
312.5
 21
147.6011
 31
0.0
  0
LINE
  5
DE
330
1E
100
AcDbEntity
  8
0
100
AcDbLine
 10
312.492
 20
203.2921
 30
0.0
 11
312.5
 21
159.5901
 31
0.0
  0
LINE
  5
E0
330
1E
100
AcDbEntity
  8
0
100
AcDbLine
 10
312.5
 20
159.5901
 30
0.0
 11
312.5
 21
155.6121
 31
0.0
  0
LINE
  5
E1
330
1E
100
AcDbEntity
  8
0
100
AcDbLine
 10
312.5
 20
159.5901
 30
0.0
 11
312.492
 21
203.2921
 31
0.0
  0
LINE
  5
E6
330
1E
100
AcDbEntity
  8
0
100
AcDbLine
 10
312.5
 20
155.6121
 30
0.0
 11
312.5
 21
159.5901
 31
0.0
  0
LINE
  5
E7
330
1E
100
AcDbEntity
  8
0
100
AcDbLine
 10
312.5
 20
155.6121
 30
0.0
 11
312.5
 21
152.9531
 31
0.0
  0
LINE
  5
E9
330
1E
100
AcDbEntity
  8
0
100
AcDbLine
 10
312.5
 20
147.5401
 30
0.0
 11
312.5
 21
147.6011
 31
0.0
  0
LINE
  5
EB
330
1E
100
AcDbEntity
  8
0
100
AcDbLine
 10
312.5
 20
166.553760377359
 30
0.0
 11
319.78
 21
172.0481
 31
0.0
  0
LINE
  5
ED
330
1E
100
AcDbEntity
  8
0
100
AcDbLine
 10
163.76
 20
175.5881
 30
0.0
 11
170.12
 21
170.7881
 31
0.0
  0
LINE
  5
EE
330
1E
100
AcDbEntity
  8
0
100
AcDbLine
 10
175.08
 20
179.4681
 30
0.0
 11
179.88
 21
177.5481
 31
0.0
  0
LINE
  5
EF
330
1E
100
AcDbEntity
  8
0
100
AcDbLine
 10
179.96
 20
178.0281
 30
0.0
 11
185.0
 21
177.3081
 31
0.0
  0
LINE
  5
F0
330
1E
100
AcDbEntity
  8
0
100
AcDbLine
 10
179.88
 20
177.5481
 30
0.0
 11
185.0
 21
176.8281
 31
0.0
  0
LINE
  5
F1
330
1E
100
AcDbEntity
  8
0
100
AcDbLine
 10
185.0
 20
177.3081
 30
0.0
 11
190.04
 21
178.0281
 31
0.0
  0
LINE
  5
F5
330
1E
100
AcDbEntity
  8
0
100
AcDbLine
 10
206.24
 20
175.5881
 30
0.0
 11
211.04
 21
181.9481
 31
0.0
  0
LINE
  5
F6
330
1E
100
AcDbEntity
  8
0
100
AcDbLine
 10
190.04
 20
178.0281
 30
0.0
 11
194.68
 21
179.9481
 31
0.0
  0
LINE
  5
10A
330
1E
100
AcDbEntity
  8
0
100
AcDbLine
 10
194.92
 20
179.4681
 30
0.0
 11
199.16
 21
182.6681
 31
0.0
  0
LINE
  5
10B
330
1E
100
AcDbEntity
  8
0
100
AcDbLine
 10
190.12
 20
177.5481
 30
0.0
 11
194.92
 21
179.4681
 31
0.0
  0
LINE
  5
10C
330
1E
100
AcDbEntity
  8
0
100
AcDbLine
 10
185.0
 20
176.8281
 30
0.0
 11
190.12
 21
177.5481
 31
0.0
  0
LINE
  5
10D
330
1E
100
AcDbEntity
  8
0
100
AcDbLine
 10
158.96
 20
181.9481
 30
0.0
 11
163.76
 21
175.5881
 31
0.0
  0
LINE
  5
10E
330
1E
100
AcDbEntity
  8
0
100
AcDbLine
 10
175.32
 20
179.9481
 30
0.0
 11
179.96
 21
178.0281
 31
0.0
  0
LINE
  5
127
330
1E
100
AcDbEntity
  8
0
100
AcDbLine
 10
211.04
 20
181.9481
 30
0.0
 11
213.92
 21
189.1481
 31
0.0
  0
LINE
  5
128
330
1E
100
AcDbEntity
  8
0
100
AcDbLine
 10
194.68
 20
179.9481
 30
0.0
 11
198.76
 21
183.0681
 31
0.0
  0
LINE
  5
129
330
1E
100
AcDbEntity
  8
0
100
AcDbLine
 10
264.62
 20
179.4681
 30
0.0
 11
270.22
 21
172.0481
 31
0.0
  0
LINE
  5
151
330
1E
100
AcDbEntity
  8
0
100
AcDbLine
 10
312.5
 20
180.5092
 30
0.0
 11
315.832
 21
184.9241
 31
0.0
  0
LINE
  5
152
330
1E
100
AcDbEntity
  8
0
100
AcDbLine
 10
325.38
 20
179.4681
 30
0.0
 11
328.74
 21
187.8681
 31
0.0
  0
LINE
  5
153
330
1E
100
AcDbEntity
  8
0
100
AcDbLine
 10
319.78
 20
172.0481
 30
0.0
 11
325.38
 21
179.4681
 31
0.0
  0
LINE
  5
154
330
1E
100
AcDbEntity
  8
0
100
AcDbLine
 10
270.22
 20
172.0481
 30
0.0
 11
277.5
 21
166.553760377359
 31
0.0
  0
LINE
  5
155
330
1E
100
AcDbEntity
  8
0
100
AcDbLine
 10
156.08
 20
189.1481
 30
0.0
 11
158.96
 21
181.9481
 31
0.0
  0
LINE
  5
156
330
1E
100
AcDbEntity
  8
0
100
AcDbLine
 10
155.0
 20
196.8281
 30
0.0
 11
156.08
 21
204.5081
 31
0.0
  0
LINE
  5
157
330
1E
100
AcDbEntity
  8
0
100
AcDbLine
 10
155.0
 20
196.8281
 30
0.0
 11
156.08
 21
189.1481
 31
0.0
  0
LINE
  5
15A
330
1E
100
AcDbEntity
  8
0
100
AcDbLine
 10
170.84
 20
182.6681
 30
0.0
 11
175.08
 21
179.4681
 31
0.0
  0
LINE
  5
15B
330
1E
100
AcDbEntity
  8
0
100
AcDbLine
 10
171.24
 20
183.0681
 30
0.0
 11
175.32
 21
179.9481
 31
0.0
  0
LINE
  5
15C
330
1E
100
AcDbEntity
  8
0
100
AcDbLine
 10
165.168
 20
196.8281
 30
0.0
 11
165.42
 21
195.0641
 31
0.0
  0
LINE
  5
15D
330
1E
100
AcDbEntity
  8
0
100
AcDbLine
 10
165.168
 20
196.8281
 30
0.0
 11
165.42
 21
198.5921
 31
0.0
  0
LINE
  5
15E
330
1E
100
AcDbEntity
  8
0
100
AcDbLine
 10
165.42
 20
195.0641
 30
0.0
 11
166.092
 21
193.4401
 31
0.0
  0
LINE
  5
15F
330
1E
100
AcDbEntity
  8
0
100
AcDbLine
 10
165.252
 20
195.0361
 30
0.0
 11
165.924
 21
193.3561
 31
0.0
  0
LINE
  5
160
330
1E
100
AcDbEntity
  8
0
100
AcDbLine
 10
165.252
 20
195.0361
 30
0.0
 11
165.42
 21
195.0641
 31
0.0
  0
LINE
  5
161
330
1E
100
AcDbEntity
  8
0
100
AcDbLine
 10
166.092
 20
193.4401
 30
0.0
 11
167.184
 21
192.0121
 31
0.0
  0
LINE
  5
162
330
1E
100
AcDbEntity
  8
0
100
AcDbLine
 10
165.988140969163
 20
193.271113215859
 30
0.0
 11
166.2
 21
191.7881
 31
0.0
  0
LINE
  5
163
330
1E
100
AcDbEntity
  8
0
100
AcDbLine
 10
198.0
 20
189.9961
 30
0.0
 11
199.764
 21
190.2481
 31
0.0
  0
LINE
  5
164
330
1E
100
AcDbEntity
  8
0
100
AcDbLine
 10
167.184
 20
192.0121
 30
0.0
 11
168.612
 21
190.9201
 31
0.0
  0
LINE
  5
165
330
1E
100
AcDbEntity
  8
0
100
AcDbLine
 10
168.612
 20
190.9201
 30
0.0
 11
170.236
 21
190.2481
 31
0.0
  0
LINE
  5
166
330
1E
100
AcDbEntity
  8
0
100
AcDbLine
 10
201.388
 20
190.9201
 30
0.0
 11
202.816
 21
192.0121
 31
0.0
  0
LINE
  5
167
330
1E
100
AcDbEntity
  8
0
100
AcDbLine
 10
199.764
 20
190.2481
 30
0.0
 11
201.388
 21
190.9201
 31
0.0
  0
LINE
  5
168
330
1E
100
AcDbEntity
  8
0
100
AcDbLine
 10
170.236
 20
190.2481
 30
0.0
 11
172.0
 21
189.9961
 31
0.0
  0
LINE
  5
169
330
1E
100
AcDbEntity
  8
0
100
AcDbLine
 10
172.0
 20
189.9961
 30
0.0
 11
198.0
 21
189.9961
 31
0.0
  0
LINE
  5
16A
330
1E
100
AcDbEntity
  8
0
100
AcDbLine
 10
166.2
 20
191.7881
 30
0.0
 11
168.12
 21
187.1481
 31
0.0
  0
LINE
  5
16B
330
1E
100
AcDbEntity
  8
0
100
AcDbLine
 10
168.12
 20
187.1481
 30
0.0
 11
171.24
 21
183.0681
 31
0.0
  0
LINE
  5
16C
330
1E
100
AcDbEntity
  8
0
100
AcDbLine
 10
165.72
 20
191.7081
 30
0.0
 11
167.64
 21
186.9081
 31
0.0
  0
LINE
  5
16D
330
1E
100
AcDbEntity
  8
0
100
AcDbLine
 10
167.64
 20
186.9081
 30
0.0
 11
170.84
 21
182.6681
 31
0.0
  0
LINE
  5
16E
330
1E
100
AcDbEntity
  8
0
100
AcDbLine
 10
201.88
 20
187.1481
 30
0.0
 11
203.8
 21
191.7881
 31
0.0
  0
LINE
  5
16F
330
1E
100
AcDbEntity
  8
0
100
AcDbLine
 10
198.76
 20
183.0681
 30
0.0
 11
201.88
 21
187.1481
 31
0.0
  0
LINE
  5
190
330
1E
100
AcDbEntity
  8
0
100
AcDbLine
 10
213.92
 20
189.1481
 30
0.0
 11
215.0
 21
196.8281
 31
0.0
  0
LINE
  5
191
330
1E
100
AcDbEntity
  8
0
100
AcDbLine
 10
202.816
 20
192.0121
 30
0.0
 11
203.908
 21
193.4401
 31
0.0
  0
LINE
  5
19B
330
1E
100
AcDbEntity
  8
0
100
AcDbLine
 10
204.58
 20
195.0641
 30
0.0
 11
204.748
 21
195.0361
 31
0.0
  0
LINE
  5
19C
330
1E
100
AcDbEntity
  8
0
100
AcDbLine
 10
204.58
 20
195.0641
 30
0.0
 11
204.832
 21
196.8281
 31
0.0
  0
LINE
  5
19D
330
1E
100
AcDbEntity
  8
0
100
AcDbLine
 10
203.908
 20
193.4401
 30
0.0
 11
204.58
 21
195.0641
 31
0.0
  0
LINE
  5
1B3
330
1E
100
AcDbEntity
  8
0
100
AcDbLine
 10
204.832
 20
196.8281
 30
0.0
 11
205.0
 21
196.8281
 31
0.0
  0
LINE
  5
1B4
330
1E
100
AcDbEntity
  8
0
100
AcDbLine
 10
204.748
 20
195.0361
 30
0.0
 11
205.0
 21
196.8281
 31
0.0
  0
LINE
  5
1B5
330
1E
100
AcDbEntity
  8
0
100
AcDbLine
 10
204.076
 20
193.3561
 30
0.0
 11
204.748
 21
195.0361
 31
0.0
  0
LINE
  5
1B6
330
1E
100
AcDbEntity
  8
0
100
AcDbLine
 10
203.8
 20
191.7881
 30
0.0
 11
204.011859030837
 21
193.271113215859
 31
0.0
  0
LINE
  5
1B7
330
1E
100
AcDbEntity
  8
0
100
AcDbLine
 10
204.28
 20
191.7081
 30
0.0
 11
205.0
 21
196.8281
 31
0.0
  0
LINE
  5
1B8
330
1E
100
AcDbEntity
  8
0
100
AcDbLine
 10
202.36
 20
186.9081
 30
0.0
 11
204.28
 21
191.7081
 31
0.0
  0
LINE
  5
1B9
330
1E
100
AcDbEntity
  8
0
100
AcDbLine
 10
199.16
 20
182.6681
 30
0.0
 11
202.36
 21
186.9081
 31
0.0
  0
LINE
  5
1BA
330
1E
100
AcDbEntity
  8
0
100
AcDbLine
 10
165.0
 20
196.8281
 30
0.0
 11
165.72
 21
201.9481
 31
0.0
  0
LINE
  5
1BB
330
1E
100
AcDbEntity
  8
0
100
AcDbLine
 10
165.0
 20
196.8281
 30
0.0
 11
165.72
 21
191.7081
 31
0.0
  0
LINE
  5
1BC
330
1E
100
AcDbEntity
  8
0
100
AcDbLine
 10
165.0
 20
196.8281
 30
0.0
 11
165.252
 21
195.0361
 31
0.0
  0
LINE
  5
1BD
330
1E
100
AcDbEntity
  8
0
100
AcDbLine
 10
165.0
 20
196.8281
 30
0.0
 11
165.168
 21
196.8281
 31
0.0
  0
LINE
  5
1BE
330
1E
100
AcDbEntity
  8
0
100
AcDbLine
 10
165.0
 20
196.8281
 30
0.0
 11
165.252
 21
198.6201
 31
0.0
  0
LINE
  5
1C0
330
1E
100
AcDbEntity
  8
0
100
AcDbLine
 10
260.0
 20
196.8281
 30
0.0
 11
261.26
 21
205.7881
 31
0.0
  0
LINE
  5
1DB
330
1E
100
AcDbEntity
  8
0
100
AcDbLine
 10
315.832
 20
184.9241
 30
0.0
 11
318.136
 21
190.6841
 31
0.0
  0
LINE
  5
1DC
330
1E
100
AcDbEntity
  8
0
100
AcDbLine
 10
274.168
 20
184.9241
 30
0.0
 11
277.5
 21
180.5092
 31
0.0
  0
LINE
  5
1DF
330
1E
100
AcDbEntity
  8
0
100
AcDbLine
 10
271.0
 20
196.8281
 30
0.0
 11
271.864
 21
190.6841
 31
0.0
  0
LINE
  5
1E0
330
1E
100
AcDbEntity
  8
0
100
AcDbLine
 10
271.0
 20
196.8281
 30
0.0
 11
271.864
 21
202.9721
 31
0.0
  0
LINE
  5
1EC
330
1E
100
AcDbEntity
  8
0
100
AcDbLine
 10
318.136
 20
190.6841
 30
0.0
 11
319.0
 21
196.8281
 31
0.0
  0
LINE
  5
23F
330
1E
100
AcDbEntity
  8
0
100
AcDbLine
 10
271.864
 20
190.6841
 30
0.0
 11
274.168
 21
184.9241
 31
0.0
  0
LINE
  5
240
330
1E
100
AcDbEntity
  8
0
100
AcDbLine
 10
328.74
 20
187.8681
 30
0.0
 11
330.0
 21
196.8281
 31
0.0
  0
LINE
  5
241
330
1E
100
AcDbEntity
  8
0
100
AcDbLine
 10
261.26
 20
187.8681
 30
0.0
 11
264.62
 21
179.4681
 31
0.0
  0
LINE
  5
245
330
1E
100
AcDbEntity
  8
0
100
AcDbLine
 10
204.58
 20
198.5921
 30
0.0
 11
204.748
 21
198.6201
 31
0.0
  0
LINE
  5
246
330
1E
100
AcDbEntity
  8
0
100
AcDbLine
 10
204.58
 20
198.5921
 30
0.0
 11
204.832
 21
196.8281
 31
0.0
  0
LINE
  5
247
330
1E
100
AcDbEntity
  8
0
100
AcDbLine
 10
204.748
 20
198.6201
 30
0.0
 11
205.0
 21
196.8281
 31
0.0
  0
LINE
  5
248
330
1E
100
AcDbEntity
  8
0
100
AcDbLine
 10
165.42
 20
198.5921
 30
0.0
 11
166.092
 21
200.2161
 31
0.0
  0
LINE
  5
249
330
1E
100
AcDbEntity
  8
0
100
AcDbLine
 10
165.252
 20
198.6201
 30
0.0
 11
165.924
 21
200.3001
 31
0.0
  0
LINE
  5
24A
330
1E
100
AcDbEntity
  8
0
100
AcDbLine
 10
165.252
 20
198.6201
 30
0.0
 11
165.42
 21
198.5921
 31
0.0
  0
LINE
  5
24C
330
1E
100
AcDbEntity
  8
0
100
AcDbLine
 10
165.924
 20
200.3001
 30
0.0
 11
167.044
 21
201.7841
 31
0.0
  0
LINE
  5
25C
330
1E
100
AcDbEntity
  8
0
100
AcDbLine
 10
203.908
 20
200.2161
 30
0.0
 11
204.58
 21
198.5921
 31
0.0
  0
LINE
  5
261
330
1E
100
AcDbEntity
  8
0
100
AcDbLine
 10
204.076
 20
200.3001
 30
0.0
 11
204.748
 21
198.6201
 31
0.0
  0
LINE
  5
262
330
1E
100
AcDbEntity
  8
0
100
AcDbLine
 10
166.092
 20
200.2161
 30
0.0
 11
167.184
 21
201.6441
 31
0.0
  0
LINE
  5
263
330
1E
100
AcDbEntity
  8
0
100
AcDbLine
 10
165.988140969163
 20
200.385086784141
 30
0.0
 11
166.2
 21
201.8681
 31
0.0
  0
LINE
  5
269
330
1E
100
AcDbEntity
  8
0
100
AcDbLine
 10
202.816
 20
201.6441
 30
0.0
 11
203.908
 21
200.2161
 31
0.0
  0
LINE
  5
26A
330
1E
100
AcDbEntity
  8
0
100
AcDbLine
 10
202.956
 20
201.7841
 30
0.0
 11
204.076
 21
200.3001
 31
0.0
  0
LINE
  5
26B
330
1E
100
AcDbEntity
  8
0
100
AcDbLine
 10
167.184
 20
201.6441
 30
0.0
 11
168.612
 21
202.7361
 31
0.0
  0
LINE
  5
26C
330
1E
100
AcDbEntity
  8
0
100
AcDbLine
 10
167.044
 20
201.7841
 30
0.0
 11
168.528
 21
202.9041
 31
0.0
  0
LINE
  5
26D
330
1E
100
AcDbEntity
  8
0
100
AcDbLine
 10
166.2
 20
201.8681
 30
0.0
 11
168.12
 21
206.5081
 31
0.0
  0
LINE
  5
26E
330
1E
100
AcDbEntity
  8
0
100
AcDbLine
 10
165.72
 20
201.9481
 30
0.0
 11
167.64
 21
206.7481
 31
0.0
  0
LINE
  5
27E
330
1E
100
AcDbEntity
  8
0
100
AcDbLine
 10
203.8
 20
201.8681
 30
0.0
 11
204.011859030837
 21
200.385086784141
 31
0.0
  0
LINE
  5
286
330
1E
100
AcDbEntity
  8
0
100
AcDbLine
 10
204.28
 20
201.9481
 30
0.0
 11
205.0
 21
196.8281
 31
0.0
  0
LINE
  5
295
330
1E
100
AcDbEntity
  8
0
100
AcDbLine
 10
201.388
 20
202.7361
 30
0.0
 11
202.816
 21
201.6441
 31
0.0
  0
LINE
  5
296
330
1E
100
AcDbEntity
  8
0
100
AcDbLine
 10
201.472
 20
202.9041
 30
0.0
 11
202.956
 21
201.7841
 31
0.0
  0
LINE
  5
297
330
1E
100
AcDbEntity
  8
0
100
AcDbLine
 10
168.612
 20
202.7361
 30
0.0
 11
170.236
 21
203.4081
 31
0.0
  0
LINE
  5
299
330
1E
100
AcDbEntity
  8
0
100
AcDbLine
 10
168.528
 20
202.9041
 30
0.0
 11
170.208
 21
203.5761
 31
0.0
  0
LINE
  5
29B
330
1E
100
AcDbEntity
  8
0
100
AcDbLine
 10
271.864
 20
202.9721
 30
0.0
 11
274.168
 21
208.7321
 31
0.0
  0
LINE
  5
2DB
330
1E
100
AcDbEntity
  8
0
100
AcDbLine
 10
318.136
 20
202.9721
 30
0.0
 11
319.0
 21
196.8281
 31
0.0
  0
LINE
  5
2E2
330
1E
100
AcDbEntity
  8
0
100
AcDbLine
 10
156.08
 20
204.5081
 30
0.0
 11
158.96
 21
211.7081
 31
0.0
  0
LINE
  5
2E3
330
1E
100
AcDbEntity
  8
0
100
AcDbLine
 10
198.0
 20
203.6601
 30
0.0
 11
199.764
 21
203.4081
 31
0.0
  0
LINE
  5
2E4
330
1E
100
AcDbEntity
  8
0
100
AcDbLine
 10
170.236
 20
203.4081
 30
0.0
 11
172.0
 21
203.6601
 31
0.0
  0
LINE
  5
2E5
330
1E
100
AcDbEntity
  8
0
100
AcDbLine
 10
170.208
 20
203.5761
 30
0.0
 11
172.0
 21
203.8281
 31
0.0
  0
LINE
  5
2E6
330
1E
100
AcDbEntity
  8
0
100
AcDbLine
 10
198.0
 20
203.8281
 30
0.0
 11
199.792
 21
203.5761
 31
0.0
  0
LINE
  5
2E7
330
1E
100
AcDbEntity
  8
0
100
AcDbLine
 10
172.0
 20
203.8281
 30
0.0
 11
198.0
 21
203.8281
 31
0.0
  0
LINE
  5
2E8
330
1E
100
AcDbEntity
  8
0
100
AcDbLine
 10
172.0
 20
203.6601
 30
0.0
 11
198.0
 21
203.6601
 31
0.0
  0
LINE
  5
2E9
330
1E
100
AcDbEntity
  8
0
100
AcDbLine
 10
168.12
 20
206.5081
 30
0.0
 11
171.24
 21
210.5881
 31
0.0
  0
LINE
  5
2EA
330
1E
100
AcDbEntity
  8
0
100
AcDbLine
 10
171.24
 20
210.5881
 30
0.0
 11
175.32
 21
213.7081
 31
0.0
  0
LINE
  5
2EB
330
1E
100
AcDbEntity
  8
0
100
AcDbLine
 10
167.64
 20
206.7481
 30
0.0
 11
170.84
 21
210.9881
 31
0.0
  0
LINE
  5
2EC
330
1E
100
AcDbEntity
  8
0
100
AcDbLine
 10
158.96
 20
211.7081
 30
0.0
 11
163.76
 21
218.0681
 31
0.0
  0
LINE
  5
2ED
330
1E
100
AcDbEntity
  8
0
100
AcDbLine
 10
175.32
 20
213.7081
 30
0.0
 11
179.96
 21
215.6281
 31
0.0
  0
LINE
  5
2EE
330
1E
100
AcDbEntity
  8
0
100
AcDbLine
 10
170.84
 20
210.9881
 30
0.0
 11
175.08
 21
214.1881
 31
0.0
  0
LINE
  5
2EF
330
1E
100
AcDbEntity
  8
0
100
AcDbLine
 10
198.76
 20
210.5881
 30
0.0
 11
201.88
 21
206.5081
 31
0.0
  0
LINE
  5
2F0
330
1E
100
AcDbEntity
  8
0
100
AcDbLine
 10
175.08
 20
214.1881
 30
0.0
 11
179.88
 21
216.1081
 31
0.0
  0
LINE
  5
2F1
330
1E
100
AcDbEntity
  8
0
100
AcDbLine
 10
194.68
 20
213.7081
 30
0.0
 11
198.76
 21
210.5881
 31
0.0
  0
LINE
  5
2F2
330
1E
100
AcDbEntity
  8
0
100
AcDbLine
 10
199.764
 20
203.4081
 30
0.0
 11
201.388
 21
202.7361
 31
0.0
  0
LINE
  5
2F3
330
1E
100
AcDbEntity
  8
0
100
AcDbLine
 10
199.792
 20
203.5761
 30
0.0
 11
201.472
 21
202.9041
 31
0.0
  0
LINE
  5
2F4
330
1E
100
AcDbEntity
  8
0
100
AcDbLine
 10
213.92
 20
204.5081
 30
0.0
 11
215.0
 21
196.8281
 31
0.0
  0
LINE
  5
2F5
330
1E
100
AcDbEntity
  8
0
100
AcDbLine
 10
201.88
 20
206.5081
 30
0.0
 11
203.8
 21
201.8681
 31
0.0
  0
LINE
  5
2F6
330
1E
100
AcDbEntity
  8
0
100
AcDbLine
 10
211.04
 20
211.7081
 30
0.0
 11
213.92
 21
204.5081
 31
0.0
  0
LINE
  5
2F7
330
1E
100
AcDbEntity
  8
0
100
AcDbLine
 10
202.36
 20
206.7481
 30
0.0
 11
204.28
 21
201.9481
 31
0.0
  0
LINE
  5
2F8
330
1E
100
AcDbEntity
  8
0
100
AcDbLine
 10
199.16
 20
210.9881
 30
0.0
 11
202.36
 21
206.7481
 31
0.0
  0
LINE
  5
2F9
330
1E
100
AcDbEntity
  8
0
100
AcDbLine
 10
194.92
 20
214.1881
 30
0.0
 11
199.16
 21
210.9881
 31
0.0
  0
LINE
  5
2FA
330
1E
100
AcDbEntity
  8
0
100
AcDbLine
 10
261.26
 20
205.7881
 30
0.0
 11
264.62
 21
214.1881
 31
0.0
  0
LINE
  5
2FB
330
1E
100
AcDbEntity
  8
0
100
AcDbLine
 10
179.96
 20
215.6281
 30
0.0
 11
185.0
 21
216.3481
 31
0.0
  0
LINE
  5
2FC
330
1E
100
AcDbEntity
  8
0
100
AcDbLine
 10
179.88
 20
216.1081
 30
0.0
 11
185.0
 21
216.8281
 31
0.0
  0
LINE
  5
2FD
330
1E
100
AcDbEntity
  8
0
100
AcDbLine
 10
190.04
 20
215.6281
 30
0.0
 11
194.68
 21
213.7081
 31
0.0
  0
LINE
  5
2FE
330
1E
100
AcDbEntity
  8
0
100
AcDbLine
 10
185.0
 20
216.3481
 30
0.0
 11
190.04
 21
215.6281
 31
0.0
  0
LINE
  5
2FF
330
1E
100
AcDbEntity
  8
0
100
AcDbLine
 10
190.12
 20
216.1081
 30
0.0
 11
194.92
 21
214.1881
 31
0.0
  0
LINE
  5
300
330
1E
100
AcDbEntity
  8
0
100
AcDbLine
 10
163.76
 20
218.0681
 30
0.0
 11
170.12
 21
222.8681
 31
0.0
  0
LINE
  5
301
330
1E
100
AcDbEntity
  8
0
100
AcDbLine
 10
170.12
 20
222.8681
 30
0.0
 11
177.32
 21
225.7481
 31
0.0
  0
LINE
  5
308
330
1E
100
AcDbEntity
  8
0
100
AcDbLine
 10
177.32
 20
225.7481
 30
0.0
 11
185.0
 21
226.8281
 31
0.0
  0
LINE
  5
309
330
1E
100
AcDbEntity
  8
0
100
AcDbLine
 10
206.24
 20
218.0681
 30
0.0
 11
211.04
 21
211.7081
 31
0.0
  0
LINE
  5
30A
330
1E
100
AcDbEntity
  8
0
100
AcDbLine
 10
192.68
 20
225.7481
 30
0.0
 11
199.88
 21
222.8681
 31
0.0
  0
LINE
  5
30B
330
1E
100
AcDbEntity
  8
0
100
AcDbLine
 10
199.88
 20
222.8681
 30
0.0
 11
206.24
 21
218.0681
 31
0.0
  0
LINE
  5
30C
330
1E
100
AcDbEntity
  8
0
100
AcDbLine
 10
185.0
 20
226.8281
 30
0.0
 11
192.68
 21
225.7481
 31
0.0
  0
LINE
  5
30D
330
1E
100
AcDbEntity
  8
0
100
AcDbLine
 10
185.0
 20
216.8281
 30
0.0
 11
190.12
 21
216.1081
 31
0.0
  0
LINE
  5
30E
330
1E
100
AcDbEntity
  8
0
100
AcDbLine
 10
270.22
 20
221.6081
 30
0.0
 11
277.64
 21
227.2081
 31
0.0
  0
LINE
  5
30F
330
1E
100
AcDbEntity
  8
0
100
AcDbLine
 10
264.62
 20
214.1881
 30
0.0
 11
270.22
 21
221.6081
 31
0.0
  0
LINE
  5
310
330
1E
100
AcDbEntity
  8
0
100
AcDbLine
 10
274.168
 20
208.7321
 30
0.0
 11
278.008
 21
213.8201
 31
0.0
  0
LINE
  5
32F
330
1E
100
AcDbEntity
  8
0
100
AcDbLine
 10
277.64
 20
227.2081
 30
0.0
 11
286.04
 21
230.5681
 31
0.0
  0
LINE
  5
330
330
1E
100
AcDbEntity
  8
0
100
AcDbLine
 10
278.008
 20
213.8201
 30
0.0
 11
283.096
 21
217.6601
 31
0.0
  0
LINE
  5
339
330
1E
100
AcDbEntity
  8
0
100
AcDbLine
 10
305.446
 20
206.4031
 30
0.0
 11
307.115
 21
205.8911
 31
0.0
  0
LINE
  5
33A
330
1E
100
AcDbEntity
  8
0
100
AcDbLine
 10
302.179
 20
207.1861
 30
0.0
 11
305.446
 21
206.4031
 31
0.0
  0
LINE
  5
33B
330
1E
100
AcDbEntity
  8
0
100
AcDbLine
 10
301.854
 20
207.2471
 30
0.0
 11
302.179
 21
207.1861
 31
0.0
  0
LINE
  5
33D
330
1E
100
AcDbEntity
  8
0
100
AcDbLine
 10
298.428
 20
207.7291
 30
0.0
 11
301.854
 21
207.2471
 31
0.0
  0
LINE
  5
342
330
1E
100
AcDbEntity
  8
0
100
AcDbLine
 10
312.375
 20
203.6341
 30
0.0
 11
312.492
 21
203.2921
 31
0.0
  0
LINE
  5
343
330
1E
100
AcDbEntity
  8
0
100
AcDbLine
 10
312.029
 20
203.9201
 30
0.0
 11
312.279
 21
203.7281
 31
0.0
  0
LINE
  5
347
330
1E
100
AcDbEntity
  8
0
100
AcDbLine
 10
312.279
 20
203.7281
 30
0.0
 11
312.326
 21
203.6881
 31
0.0
  0
LINE
  5
348
330
1E
100
AcDbEntity
  8
0
100
AcDbLine
 10
312.326
 20
203.6881
 30
0.0
 11
312.375
 21
203.6341
 31
0.0
  0
LINE
  5
34D
330
1E
100
AcDbEntity
  8
0
100
AcDbLine
 10
310.712
 20
204.5201
 30
0.0
 11
312.029
 21
203.9201
 31
0.0
  0
LINE
  5
34E
330
1E
100
AcDbEntity
  8
0
100
AcDbLine
 10
310.423
 20
204.6361
 30
0.0
 11
310.712
 21
204.5201
 31
0.0
  0
LINE
  5
35B
330
1E
100
AcDbEntity
  8
0
100
AcDbLine
 10
308.903
 20
205.2541
 30
0.0
 11
310.423
 21
204.6361
 31
0.0
  0
LINE
  5
364
330
1E
100
AcDbEntity
  8
0
100
AcDbLine
 10
308.835
 20
205.2821
 30
0.0
 11
308.903
 21
205.2541
 31
0.0
  0
LINE
  5
366
330
1E
100
AcDbEntity
  8
0
100
AcDbLine
 10
308.71
 20
205.3191
 30
0.0
 11
308.835
 21
205.2821
 31
0.0
  0
LINE
  5
36A
330
1E
100
AcDbEntity
  8
0
100
AcDbLine
 10
307.115
 20
205.8911
 30
0.0
 11
308.71
 21
205.3191
 31
0.0
  0
LINE
  5
36B
330
1E
100
AcDbEntity
  8
0
100
AcDbLine
 10
296.431
 20
207.7831
 30
0.0
 11
298.428
 21
207.7291
 31
0.0
  0
LINE
  5
370
330
1E
100
AcDbEntity
  8
0
100
AcDbLine
 10
283.096
 20
217.6601
 30
0.0
 11
288.856
 21
219.9641
 31
0.0
  0
LINE
  5
371
330
1E
100
AcDbEntity
  8
0
100
AcDbLine
 10
295.0
 20
231.8281
 30
0.0
 11
303.96
 21
230.5681
 31
0.0
  0
LINE
  5
372
330
1E
100
AcDbEntity
  8
0
100
AcDbLine
 10
286.04
 20
230.5681
 30
0.0
 11
295.0
 21
231.8281
 31
0.0
  0
LINE
  5
374
330
1E
100
AcDbEntity
  8
0
100
AcDbLine
 10
295.0
 20
220.8281
 30
0.0
 11
301.144
 21
219.9641
 31
0.0
  0
LINE
  5
375
330
1E
100
AcDbEntity
  8
0
100
AcDbLine
 10
288.856
 20
219.9641
 30
0.0
 11
295.0
 21
220.8281
 31
0.0
  0
LINE
  5
399
330
1E
100
AcDbEntity
  8
0
100
AcDbLine
 10
315.832
 20
208.7321
 30
0.0
 11
318.136
 21
202.9721
 31
0.0
  0
LINE
  5
3BE
330
1E
100
AcDbEntity
  8
0
100
AcDbLine
 10
325.38
 20
214.1881
 30
0.0
 11
328.74
 21
205.7881
 31
0.0
  0
LINE
  5
3BF
330
1E
100
AcDbEntity
  8
0
100
AcDbLine
 10
311.992
 20
213.8201
 30
0.0
 11
315.832
 21
208.7321
 31
0.0
  0
LINE
  5
3C0
330
1E
100
AcDbEntity
  8
0
100
AcDbLine
 10
306.904
 20
217.6601
 30
0.0
 11
311.992
 21
213.8201
 31
0.0
  0
LINE
  5
3C1
330
1E
100
AcDbEntity
  8
0
100
AcDbLine
 10
319.78
 20
221.6081
 30
0.0
 11
325.38
 21
214.1881
 31
0.0
  0
LINE
  5
3C4
330
1E
100
AcDbEntity
  8
0
100
AcDbLine
 10
312.36
 20
227.2081
 30
0.0
 11
319.78
 21
221.6081
 31
0.0
  0
LINE
  5
3C5
330
1E
100
AcDbEntity
  8
0
100
AcDbLine
 10
303.96
 20
230.5681
 30
0.0
 11
312.36
 21
227.2081
 31
0.0
  0
LINE
  5
3C6
330
1E
100
AcDbEntity
  8
0
100
AcDbLine
 10
301.144
 20
219.9641
 30
0.0
 11
306.904
 21
217.6601
 31
0.0
  0
LINE
  5
3C7
330
1E
100
AcDbEntity
  8
0
100
AcDbLine
 10
295.0
 20
207.8281
 30
0.0
 11
296.431
 21
207.7831
 31
0.0
  0
LINE
  5
3D3
330
1E
100
AcDbEntity
  8
0
100
AcDbLine
 10
376.08
 20
204.5081
 30
0.0
 11
378.96
 21
211.7081
 31
0.0
  0
LINE
  5
3D4
330
1E
100
AcDbEntity
  8
0
100
AcDbLine
 10
375.0
 20
196.8281
 30
0.0
 11
376.08
 21
189.1481
 31
0.0
  0
LINE
  5
3D5
330
1E
100
AcDbEntity
  8
0
100
AcDbLine
 10
375.0
 20
196.8281
 30
0.0
 11
376.08
 21
204.5081
 31
0.0
  0
LINE
  5
3D6
330
1E
100
AcDbEntity
  8
0
100
AcDbLine
 10
378.96
 20
211.7081
 30
0.0
 11
383.76
 21
218.0681
 31
0.0
  0
LINE
  5
3D8
330
1E
100
AcDbEntity
  8
0
100
AcDbLine
 10
383.76
 20
218.0681
 30
0.0
 11
390.12
 21
222.8681
 31
0.0
  0
LINE
  5
3D9
330
1E
100
AcDbEntity
  8
0
100
AcDbLine
 10
376.08
 20
189.1481
 30
0.0
 11
378.96
 21
181.9481
 31
0.0
  0
LINE
  5
3DA
330
1E
100
AcDbEntity
  8
0
100
AcDbLine
 10
378.96
 20
181.9481
 30
0.0
 11
383.76
 21
175.5881
 31
0.0
  0
LINE
  5
3DB
330
1E
100
AcDbEntity
  8
0
100
AcDbLine
 10
385.168
 20
196.8281
 30
0.0
 11
385.42
 21
195.0641
 31
0.0
  0
LINE
  5
3DC
330
1E
100
AcDbEntity
  8
0
100
AcDbLine
 10
385.168
 20
196.8281
 30
0.0
 11
385.42
 21
198.5921
 31
0.0
  0
LINE
  5
3DD
330
1E
100
AcDbEntity
  8
0
100
AcDbLine
 10
385.252
 20
195.0361
 30
0.0
 11
385.924
 21
193.3561
 31
0.0
  0
LINE
  5
3DF
330
1E
100
AcDbEntity
  8
0
100
AcDbLine
 10
385.42
 20
195.0641
 30
0.0
 11
386.092
 21
193.4401
 31
0.0
  0
LINE
  5
3E0
330
1E
100
AcDbEntity
  8
0
100
AcDbLine
 10
385.252
 20
195.0361
 30
0.0
 11
385.72
 21
191.7081
 31
0.0
  0
LINE
  5
3E1
330
1E
100
AcDbEntity
  8
0
100
AcDbLine
 10
385.42
 20
198.5921
 30
0.0
 11
386.092
 21
200.2161
 31
0.0
  0
LINE
  5
3E2
330
1E
100
AcDbEntity
  8
0
100
AcDbLine
 10
385.252
 20
198.6201
 30
0.0
 11
385.924
 21
200.3001
 31
0.0
  0
LINE
  5
3E4
330
1E
100
AcDbEntity
  8
0
100
AcDbLine
 10
385.252
 20
198.6201
 30
0.0
 11
385.72
 21
201.9481
 31
0.0
  0
LINE
  5
3E5
330
1E
100
AcDbEntity
  8
0
100
AcDbLine
 10
385.72
 20
201.9481
 30
0.0
 11
387.64
 21
206.7481
 31
0.0
  0
LINE
  5
3E6
330
1E
100
AcDbEntity
  8
0
100
AcDbLine
 10
385.0
 20
196.8281
 30
0.0
 11
385.252
 21
195.0361
 31
0.0
  0
LINE
  5
3E7
330
1E
100
AcDbEntity
  8
0
100
AcDbLine
 10
385.0
 20
196.8281
 30
0.0
 11
385.252
 21
195.0361
 31
0.0
  0
LINE
  5
3E9
330
1E
100
AcDbEntity
  8
0
100
AcDbLine
 10
385.0
 20
196.8281
 30
0.0
 11
385.252
 21
198.6201
 31
0.0
  0
LINE
  5
3EA
330
1E
100
AcDbEntity
  8
0
100
AcDbLine
 10
385.0
 20
196.8281
 30
0.0
 11
385.252
 21
198.6201
 31
0.0
  0
LINE
  5
3EB
330
1E
100
AcDbEntity
  8
0
100
AcDbLine
 10
386.092
 20
200.2161
 30
0.0
 11
387.184
 21
201.6441
 31
0.0
  0
LINE
  5
3EC
330
1E
100
AcDbEntity
  8
0
100
AcDbLine
 10
385.924
 20
200.3001
 30
0.0
 11
387.044
 21
201.7841
 31
0.0
  0
LINE
  5
3ED
330
1E
100
AcDbEntity
  8
0
100
AcDbLine
 10
385.988140969163
 20
200.385086784141
 30
0.0
 11
386.2
 21
201.8681
 31
0.0
  0
LINE
  5
3EE
330
1E
100
AcDbEntity
  8
0
100
AcDbLine
 10
386.2
 20
201.8681
 30
0.0
 11
388.12
 21
206.5081
 31
0.0
  0
LINE
  5
3EF
330
1E
100
AcDbEntity
  8
0
100
AcDbLine
 10
386.092
 20
193.4401
 30
0.0
 11
387.184
 21
192.0121
 31
0.0
  0
LINE
  5
3F0
330
1E
100
AcDbEntity
  8
0
100
AcDbLine
 10
385.988140969163
 20
193.271113215859
 30
0.0
 11
386.2
 21
191.7881
 31
0.0
  0
LINE
  5
3F1
330
1E
100
AcDbEntity
  8
0
100
AcDbLine
 10
388.612
 20
190.9201
 30
0.0
 11
390.236
 21
190.2481
 31
0.0
  0
LINE
  5
3F2
330
1E
100
AcDbEntity
  8
0
100
AcDbLine
 10
390.236
 20
190.2481
 30
0.0
 11
392.0
 21
189.9961
 31
0.0
  0
LINE
  5
3F3
330
1E
100
AcDbEntity
  8
0
100
AcDbLine
 10
387.184
 20
201.6441
 30
0.0
 11
388.612
 21
202.7361
 31
0.0
  0
LINE
  5
3F4
330
1E
100
AcDbEntity
  8
0
100
AcDbLine
 10
387.044
 20
201.7841
 30
0.0
 11
388.528
 21
202.9041
 31
0.0
  0
LINE
  5
3F5
330
1E
100
AcDbEntity
  8
0
100
AcDbLine
 10
388.612
 20
202.7361
 30
0.0
 11
390.236
 21
203.4081
 31
0.0
  0
LINE
  5
3F6
330
1E
100
AcDbEntity
  8
0
100
AcDbLine
 10
388.528
 20
202.9041
 30
0.0
 11
390.208
 21
203.5761
 31
0.0
  0
LINE
  5
3F7
330
1E
100
AcDbEntity
  8
0
100
AcDbLine
 10
390.236
 20
203.4081
 30
0.0
 11
392.0
 21
203.6601
 31
0.0
  0
LINE
  5
3F8
330
1E
100
AcDbEntity
  8
0
100
AcDbLine
 10
390.208
 20
203.5761
 30
0.0
 11
392.0
 21
203.8281
 31
0.0
  0
LINE
  5
3F9
330
1E
100
AcDbEntity
  8
0
100
AcDbLine
 10
388.12
 20
206.5081
 30
0.0
 11
391.24
 21
210.5881
 31
0.0
  0
LINE
  5
3FA
330
1E
100
AcDbEntity
  8
0
100
AcDbLine
 10
387.64
 20
206.7481
 30
0.0
 11
390.84
 21
210.9881
 31
0.0
  0
LINE
  5
3FB
330
1E
100
AcDbEntity
  8
0
100
AcDbLine
 10
390.12
 20
222.8681
 30
0.0
 11
397.32
 21
225.7481
 31
0.0
  0
LINE
  5
3FC
330
1E
100
AcDbEntity
  8
0
100
AcDbLine
 10
390.84
 20
210.9881
 30
0.0
 11
395.08
 21
214.1881
 31
0.0
  0
LINE
  5
3FD
330
1E
100
AcDbEntity
  8
0
100
AcDbLine
 10
387.184
 20
192.0121
 30
0.0
 11
388.612
 21
190.9201
 31
0.0
  0
LINE
  5
3FE
330
1E
100
AcDbEntity
  8
0
100
AcDbLine
 10
386.2
 20
191.7881
 30
0.0
 11
388.12
 21
187.1481
 31
0.0
  0
LINE
  5
3FF
330
1E
100
AcDbEntity
  8
0
100
AcDbLine
 10
388.12
 20
187.1481
 30
0.0
 11
391.24
 21
183.0681
 31
0.0
  0
LINE
  5
400
330
1E
100
AcDbEntity
  8
0
100
AcDbLine
 10
385.72
 20
191.7081
 30
0.0
 11
387.64
 21
186.9081
 31
0.0
  0
LINE
  5
401
330
1E
100
AcDbEntity
  8
0
100
AcDbLine
 10
387.64
 20
186.9081
 30
0.0
 11
390.84
 21
182.6681
 31
0.0
  0
LINE
  5
402
330
1E
100
AcDbEntity
  8
0
100
AcDbLine
 10
391.24
 20
210.5881
 30
0.0
 11
395.32
 21
213.7081
 31
0.0
  0
LINE
  5
403
330
1E
100
AcDbEntity
  8
0
100
AcDbLine
 10
392.0
 20
203.8281
 30
0.0
 11
418.0
 21
203.8281
 31
0.0
  0
LINE
  5
404
330
1E
100
AcDbEntity
  8
0
100
AcDbLine
 10
392.0
 20
203.6601
 30
0.0
 11
418.0
 21
203.6601
 31
0.0
  0
LINE
  5
405
330
1E
100
AcDbEntity
  8
0
100
AcDbLine
 10
397.32
 20
225.7481
 30
0.0
 11
405.0
 21
226.8281
 31
0.0
  0
LINE
  5
406
330
1E
100
AcDbEntity
  8
0
100
AcDbLine
 10
395.32
 20
213.7081
 30
0.0
 11
399.96
 21
215.6281
 31
0.0
  0
LINE
  5
407
330
1E
100
AcDbEntity
  8
0
100
AcDbLine
 10
395.08
 20
214.1881
 30
0.0
 11
399.88
 21
216.1081
 31
0.0
  0
LINE
  5
408
330
1E
100
AcDbEntity
  8
0
100
AcDbLine
 10
392.0
 20
189.9961
 30
0.0
 11
418.0
 21
189.9961
 31
0.0
  0
LINE
  5
409
330
1E
100
AcDbEntity
  8
0
100
AcDbLine
 10
391.24
 20
183.0681
 30
0.0
 11
395.32
 21
179.9481
 31
0.0
  0
LINE
  5
40A
330
1E
100
AcDbEntity
  8
0
100
AcDbLine
 10
395.32
 20
179.9481
 30
0.0
 11
399.96
 21
178.0281
 31
0.0
  0
LINE
  5
40B
330
1E
100
AcDbEntity
  8
0
100
AcDbLine
 10
390.84
 20
182.6681
 30
0.0
 11
395.08
 21
179.4681
 31
0.0
  0
LINE
  5
40C
330
1E
100
AcDbEntity
  8
0
100
AcDbLine
 10
395.08
 20
179.4681
 30
0.0
 11
399.88
 21
177.5481
 31
0.0
  0
LINE
  5
40D
330
1E
100
AcDbEntity
  8
0
100
AcDbLine
 10
383.76
 20
175.5881
 30
0.0
 11
390.12
 21
170.7881
 31
0.0
  0
LINE
  5
40E
330
1E
100
AcDbEntity
  8
0
100
AcDbLine
 10
390.12
 20
170.7881
 30
0.0
 11
397.32
 21
167.9081
 31
0.0
  0
LINE
  5
40F
330
1E
100
AcDbEntity
  8
0
100
AcDbLine
 10
465.511
 20
39.6658
 30
0.0
 11
466.825
 21
33.7782
 31
0.0
  0
LINE
  5
410
330
1E
100
AcDbEntity
  8
0
100
AcDbLine
 10
465.511
 20
48.5408
 30
0.0
 11
466.825
 21
42.6531
 31
0.0
  0
LINE
  5
411
330
1E
100
AcDbEntity
  8
0
100
AcDbLine
 10
465.0
 20
45.4873
 30
0.0
 11
465.0
 21
54.3624
 31
0.0
  0
LINE
  5
412
330
1E
100
AcDbEntity
  8
0
100
AcDbLine
 10
465.0
 20
45.4873
 30
0.0
 11
465.511
 21
39.6658
 31
0.0
  0
LINE
  5
413
330
1E
100
AcDbEntity
  8
0
100
AcDbLine
 10
465.511
 20
60.1839
 30
0.0
 11
466.825
 21
66.0716
 31
0.0
  0
LINE
  5
414
330
1E
100
AcDbEntity
  8
0
100
AcDbLine
 10
465.0
 20
54.3624
 30
0.0
 11
465.511
 21
60.1839
 31
0.0
  0
LINE
  5
415
330
1E
100
AcDbEntity
  8
0
100
AcDbLine
 10
465.0
 20
54.3624
 30
0.0
 11
465.511
 21
48.5408
 31
0.0
  0
LINE
  5
416
330
1E
100
AcDbEntity
  8
0
100
AcDbLine
 10
465.0
 20
54.3624
 30
0.0
 11
465.0
 21
45.4873
 31
0.0
  0
LINE
  5
417
330
1E
100
AcDbEntity
  8
0
100
AcDbLine
 10
468.869
 20
28.155
 30
0.0
 11
471.715
 21
22.9289
 31
0.0
  0
LINE
  5
418
330
1E
100
AcDbEntity
  8
0
100
AcDbLine
 10
466.825
 20
33.7782
 30
0.0
 11
468.869
 21
28.155
 31
0.0
  0
LINE
  5
419
330
1E
100
AcDbEntity
  8
0
100
AcDbLine
 10
468.869
 20
37.03
 30
0.0
 11
471.715
 21
31.804
 31
0.0
  0
LINE
  5
41A
330
1E
100
AcDbEntity
  8
0
100
AcDbLine
 10
466.825
 20
42.6531
 30
0.0
 11
468.869
 21
37.03
 31
0.0
  0
LINE
  5
41B
330
1E
100
AcDbEntity
  8
0
100
AcDbLine
 10
475.365
 20
17.9673
 30
0.0
 11
479.672
 21
13.4688
 31
0.0
  0
LINE
  5
41C
330
1E
100
AcDbEntity
  8
0
100
AcDbLine
 10
471.715
 20
22.9289
 30
0.0
 11
475.365
 21
17.9673
 31
0.0
  0
LINE
  5
41D
330
1E
100
AcDbEntity
  8
0
100
AcDbLine
 10
475.365
 20
26.8423
 30
0.0
 11
479.672
 21
22.3439
 31
0.0
  0
LINE
  5
41E
330
1E
100
AcDbEntity
  8
0
100
AcDbLine
 10
471.715
 20
31.804
 30
0.0
 11
475.365
 21
26.8423
 31
0.0
  0
LINE
  5
41F
330
1E
100
AcDbEntity
  8
0
100
AcDbLine
 10
479.672
 20
13.4688
 30
0.0
 11
484.635
 21
9.5659
 31
0.0
  0
LINE
  5
420
330
1E
100
AcDbEntity
  8
0
100
AcDbLine
 10
479.672
 20
22.3439
 30
0.0
 11
484.635
 21
18.4409
 31
0.0
  0
LINE
  5
421
330
1E
100
AcDbEntity
  8
0
100
AcDbLine
 10
480.183
 20
23.2297
 30
0.0
 11
485.073
 21
19.3926
 31
0.0
  0
LINE
  5
422
330
1E
100
AcDbEntity
  8
0
100
AcDbLine
 10
475.949
 20
27.6619
 30
0.0
 11
480.183
 21
23.2297
 31
0.0
  0
LINE
  5
423
330
1E
100
AcDbEntity
  8
0
100
AcDbLine
 10
472.299
 20
32.5573
 30
0.0
 11
475.949
 21
27.6619
 31
0.0
  0
LINE
  5
424
330
1E
100
AcDbEntity
  8
0
100
AcDbLine
 10
469.599
 20
37.7173
 30
0.0
 11
472.299
 21
32.5573
 31
0.0
  0
LINE
  5
425
330
1E
100
AcDbEntity
  8
0
100
AcDbLine
 10
467.482
 20
43.5388
 30
0.0
 11
469.599
 21
37.7173
 31
0.0
  0
LINE
  5
426
330
1E
100
AcDbEntity
  8
0
100
AcDbLine
 10
466.241
 20
49.0296
 30
0.0
 11
467.482
 21
43.5388
 31
0.0
  0
LINE
  5
427
330
1E
100
AcDbEntity
  8
0
100
AcDbLine
 10
466.825
 20
66.0716
 30
0.0
 11
468.869
 21
71.6947
 31
0.0
  0
LINE
  5
428
330
1E
100
AcDbEntity
  8
0
100
AcDbLine
 10
468.869
 20
71.6947
 30
0.0
 11
471.715
 21
76.9208
 31
0.0
  0
LINE
  5
429
330
1E
100
AcDbEntity
  8
0
100
AcDbLine
 10
471.715
 20
76.9208
 30
0.0
 11
475.365
 21
81.8824
 31
0.0
  0
LINE
  5
42A
330
1E
100
AcDbEntity
  8
0
100
AcDbLine
 10
475.365
 20
81.8824
 30
0.0
 11
479.672
 21
86.3809
 31
0.0
  0
LINE
  5
42B
330
1E
100
AcDbEntity
  8
0
100
AcDbLine
 10
475.949
 20
81.908
 30
0.0
 11
480.183
 21
86.3403
 31
0.0
  0
LINE
  5
42C
330
1E
100
AcDbEntity
  8
0
100
AcDbLine
 10
472.299
 20
77.0126
 30
0.0
 11
475.949
 21
81.908
 31
0.0
  0
LINE
  5
42D
330
1E
100
AcDbEntity
  8
0
100
AcDbLine
 10
469.599
 20
71.8527
 30
0.0
 11
472.299
 21
77.0126
 31
0.0
  0
LINE
  5
42E
330
1E
100
AcDbEntity
  8
0
100
AcDbLine
 10
467.482
 20
66.0311
 30
0.0
 11
469.599
 21
71.8527
 31
0.0
  0
LINE
  5
42F
330
1E
100
AcDbEntity
  8
0
100
AcDbLine
 10
466.241
 20
60.5404
 30
0.0
 11
467.482
 21
66.0311
 31
0.0
  0
LINE
  5
430
330
1E
100
AcDbEntity
  8
0
100
AcDbLine
 10
465.73
 20
54.785
 30
0.0
 11
466.241
 21
60.5404
 31
0.0
  0
LINE
  5
431
330
1E
100
AcDbEntity
  8
0
100
AcDbLine
 10
465.73
 20
54.785
 30
0.0
 11
466.241
 21
49.0296
 31
0.0
  0
LINE
  5
432
330
1E
100
AcDbEntity
  8
0
100
AcDbLine
 10
479.672
 20
86.3809
 30
0.0
 11
484.635
 21
90.2841
 31
0.0
  0
LINE
  5
433
330
1E
100
AcDbEntity
  8
0
100
AcDbLine
 10
484.635
 20
9.5659
 30
0.0
 11
490.109
 21
6.2581
 31
0.0
  0
LINE
  5
434
330
1E
100
AcDbEntity
  8
0
100
AcDbLine
 10
490.109
 20
6.2581
 30
0.0
 11
495.876
 21
3.6781
 31
0.0
  0
LINE
  5
435
330
1E
100
AcDbEntity
  8
0
100
AcDbLine
 10
484.635
 20
18.4409
 30
0.0
 11
490.109
 21
15.133
 31
0.0
  0
LINE
  5
436
330
1E
100
AcDbEntity
  8
0
100
AcDbLine
 10
490.109
 20
15.133
 30
0.0
 11
495.876
 21
12.5531
 31
0.0
  0
LINE
  5
437
330
1E
100
AcDbEntity
  8
0
100
AcDbLine
 10
485.073
 20
19.3926
 30
0.0
 11
490.475
 21
16.085
 31
0.0
  0
LINE
  5
438
330
1E
100
AcDbEntity
  8
0
100
AcDbLine
 10
490.475
 20
16.085
 30
0.0
 11
496.168
 21
13.6372
 31
0.0
  0
LINE
  5
439
330
1E
100
AcDbEntity
  8
0
100
AcDbLine
 10
480.183
 20
86.3403
 30
0.0
 11
485.073
 21
90.1771
 31
0.0
  0
LINE
  5
43A
330
1E
100
AcDbEntity
  8
0
100
AcDbLine
 10
484.635
 20
90.2841
 30
0.0
 11
490.109
 21
93.5911
 31
0.0
  0
LINE
  5
43B
330
1E
100
AcDbEntity
  8
0
100
AcDbLine
 10
490.109
 20
93.5911
 30
0.0
 11
495.876
 21
96.1721
 31
0.0
  0
LINE
  5
43C
330
1E
100
AcDbEntity
  8
0
100
AcDbLine
 10
485.073
 20
90.1771
 30
0.0
 11
490.475
 21
93.4851
 31
0.0
  0
LINE
  5
43D
330
1E
100
AcDbEntity
  8
0
100
AcDbLine
 10
495.876
 20
3.6781
 30
0.0
 11
502.08
 21
1.8258
 31
0.0
  0
LINE
  5
43E
330
1E
100
AcDbEntity
  8
0
100
AcDbLine
 10
495.876
 20
12.5531
 30
0.0
 11
502.08
 21
10.7007
 31
0.0
  0
LINE
  5
43F
330
1E
100
AcDbEntity
  8
0
100
AcDbLine
 10
496.168
 20
13.6372
 30
0.0
 11
502.591
 21
11.7188
 31
0.0
  0
LINE
  5
440
330
1E
100
AcDbEntity
  8
0
100
AcDbLine
 10
490.475
 20
93.4851
 30
0.0
 11
496.168
 21
95.9331
 31
0.0
  0
LINE
  5
441
330
1E
100
AcDbEntity
  8
0
100
AcDbLine
 10
495.876
 20
96.1721
 30
0.0
 11
502.08
 21
98.0241
 31
0.0
  0
LINE
  5
442
330
1E
100
AcDbEntity
  8
0
100
AcDbLine
 10
496.168
 20
95.9331
 30
0.0
 11
502.591
 21
97.8511
 31
0.0
  0
LINE
  5
443
330
1E
100
AcDbEntity
  8
0
100
AcDbLine
 10
502.08
 20
1.8258
 30
0.0
 11
508.577
 21
0.635
 31
0.0
  0
LINE
  5
444
330
1E
100
AcDbEntity
  8
0
100
AcDbLine
 10
508.577
 20
0.635
 30
0.0
 11
515.0
 21
0.1719
 31
0.0
  0
LINE
  5
445
330
1E
100
AcDbEntity
  8
0
100
AcDbLine
 10
508.577
 20
9.51
 30
0.0
 11
515.0
 21
9.0469
 31
0.0
  0
LINE
  5
446
330
1E
100
AcDbEntity
  8
0
100
AcDbLine
 10
515.0
 20
0.1719
 30
0.0
 11
521.423
 21
0.635
 31
0.0
  0
LINE
  5
447
330
1E
100
AcDbEntity
  8
0
100
AcDbLine
 10
521.423
 20
0.635
 30
0.0
 11
527.92
 21
1.8258
 31
0.0
  0
LINE
  5
448
330
1E
100
AcDbEntity
  8
0
100
AcDbLine
 10
521.423
 20
9.51
 30
0.0
 11
527.92
 21
10.7007
 31
0.0
  0
LINE
  5
449
330
1E
100
AcDbEntity
  8
0
100
AcDbLine
 10
515.0
 20
9.0469
 30
0.0
 11
521.423
 21
9.51
 31
0.0
  0
LINE
  5
44A
330
1E
100
AcDbEntity
  8
0
100
AcDbLine
 10
502.08
 20
10.7007
 30
0.0
 11
508.577
 21
9.51
 31
0.0
  0
LINE
  5
44B
330
1E
100
AcDbEntity
  8
0
100
AcDbLine
 10
502.591
 20
11.7188
 30
0.0
 11
508.65
 21
10.5942
 31
0.0
  0
LINE
  5
44C
330
1E
100
AcDbEntity
  8
0
100
AcDbLine
 10
502.08
 20
98.0241
 30
0.0
 11
508.577
 21
99.2151
 31
0.0
  0
LINE
  5
44D
330
1E
100
AcDbEntity
  8
0
100
AcDbLine
 10
506.36
 20
98.808689810682
 30
0.0
 11
506.36
 21
108.3181
 31
0.0
  0
LINE
  5
44E
330
1E
100
AcDbEntity
  8
0
100
AcDbLine
 10
508.65
 20
10.5942
 30
0.0
 11
515.0
 21
10.1311
 31
0.0
  0
LINE
  5
44F
330
1E
100
AcDbEntity
  8
0
100
AcDbLine
 10
502.591
 20
97.8511
 30
0.0
 11
508.65
 21
98.9761
 31
0.0
  0
LINE
  5
450
330
1E
100
AcDbEntity
  8
0
100
AcDbLine
 10
508.577
 20
99.2151
 30
0.0
 11
515.0
 21
99.6781
 31
0.0
  0
LINE
  5
451
330
1E
100
AcDbEntity
  8
0
100
AcDbLine
 10
508.65
 20
98.9761
 30
0.0
 11
515.0
 21
99.4391
 31
0.0
  0
LINE
  5
452
330
1E
100
AcDbEntity
  8
0
100
AcDbLine
 10
521.35
 20
98.9761
 30
0.0
 11
527.409
 21
97.8511
 31
0.0
  0
LINE
  5
453
330
1E
100
AcDbEntity
  8
0
100
AcDbLine
 10
503.384
 20
106.9381
 30
0.0
 11
504.632
 21
105.6351
 31
0.0
  0
LINE
  5
454
330
1E
100
AcDbEntity
  8
0
100
AcDbLine
 10
503.0
 20
108.3181
 30
0.0
 11
503.384
 21
109.7371
 31
0.0
  0
LINE
  5
455
330
1E
100
AcDbEntity
  8
0
100
AcDbLine
 10
503.0
 20
108.3181
 30
0.0
 11
503.384
 21
106.9381
 31
0.0
  0
LINE
  5
456
330
1E
100
AcDbEntity
  8
0
100
AcDbLine
 10
503.0
 20
108.3181
 30
0.0
 11
503.0
 21
168.7991
 31
0.0
  0
LINE
  5
457
330
1E
100
AcDbEntity
  8
0
100
AcDbLine
 10
504.632
 20
105.6351
 30
0.0
 11
506.36
 21
104.6064
 31
0.0
  0
LINE
  5
458
330
1E
100
AcDbEntity
  8
0
100
AcDbLine
 10
503.384
 20
109.7371
 30
0.0
 11
504.632
 21
111.0391
 31
0.0
  0
LINE
  5
459
330
1E
100
AcDbEntity
  8
0
100
AcDbLine
 10
504.632
 20
111.0391
 30
0.0
 11
506.552
 21
112.1821
 31
0.0
  0
LINE
  5
45A
330
1E
100
AcDbEntity
  8
0
100
AcDbLine
 10
506.552
 20
112.1821
 30
0.0
 11
509.048
 21
113.0511
 31
0.0
  0
LINE
  5
45B
330
1E
100
AcDbEntity
  8
0
100
AcDbLine
 10
512.792
 20
112.1041
 30
0.0
 11
515.0
 21
112.2611
 31
0.0
  0
LINE
  5
45C
330
1E
100
AcDbEntity
  8
0
100
AcDbLine
 10
510.68
 20
111.7091
 30
0.0
 11
512.792
 21
112.1041
 31
0.0
  0
LINE
  5
45D
330
1E
100
AcDbEntity
  8
0
100
AcDbLine
 10
508.856
 20
111.0791
 30
0.0
 11
510.68
 21
111.7091
 31
0.0
  0
LINE
  5
45E
330
1E
100
AcDbEntity
  8
0
100
AcDbLine
 10
507.512
 20
110.2891
 30
0.0
 11
508.856
 21
111.0791
 31
0.0
  0
LINE
  5
45F
330
1E
100
AcDbEntity
  8
0
100
AcDbLine
 10
506.648
 20
109.3421
 30
0.0
 11
507.512
 21
110.2891
 31
0.0
  0
LINE
  5
460
330
1E
100
AcDbEntity
  8
0
100
AcDbLine
 10
506.36
 20
108.3181
 30
0.0
 11
506.36
 21
98.808689810682
 31
0.0
  0
LINE
  5
461
330
1E
100
AcDbEntity
  8
0
100
AcDbLine
 10
506.36
 20
108.3181
 30
0.0
 11
506.648
 21
109.3421
 31
0.0
  0
LINE
  5
462
330
1E
100
AcDbEntity
  8
0
100
AcDbLine
 10
509.048
 20
113.0511
 30
0.0
 11
511.928
 21
113.5621
 31
0.0
  0
LINE
  5
463
330
1E
100
AcDbEntity
  8
0
100
AcDbLine
 10
511.928
 20
113.5621
 30
0.0
 11
515.0
 21
113.7601
 31
0.0
  0
LINE
  5
464
330
1E
100
AcDbEntity
  8
0
100
AcDbLine
 10
515.0
 20
113.7601
 30
0.0
 11
518.072
 21
113.5621
 31
0.0
  0
LINE
  5
465
330
1E
100
AcDbEntity
  8
0
100
AcDbLine
 10
515.0
 20
112.2611
 30
0.0
 11
517.208
 21
112.1041
 31
0.0
  0
LINE
  5
466
330
1E
100
AcDbEntity
  8
0
100
AcDbLine
 10
521.144
 20
111.0791
 30
0.0
 11
522.488
 21
110.2891
 31
0.0
  0
LINE
  5
467
330
1E
100
AcDbEntity
  8
0
100
AcDbLine
 10
519.32
 20
111.7091
 30
0.0
 11
521.144
 21
111.0791
 31
0.0
  0
LINE
  5
468
330
1E
100
AcDbEntity
  8
0
100
AcDbLine
 10
520.952
 20
113.0511
 30
0.0
 11
523.448
 21
112.1821
 31
0.0
  0
LINE
  5
469
330
1E
100
AcDbEntity
  8
0
100
AcDbLine
 10
518.072
 20
113.5621
 30
0.0
 11
520.952
 21
113.0511
 31
0.0
  0
LINE
  5
46A
330
1E
100
AcDbEntity
  8
0
100
AcDbLine
 10
517.208
 20
112.1041
 30
0.0
 11
519.32
 21
111.7091
 31
0.0
  0
LINE
  5
46B
330
1E
100
AcDbEntity
  8
0
100
AcDbLine
 10
515.0
 20
99.6781
 30
0.0
 11
521.423
 21
99.2151
 31
0.0
  0
LINE
  5
46C
330
1E
100
AcDbEntity
  8
0
100
AcDbLine
 10
515.0
 20
99.4391
 30
0.0
 11
521.35
 21
98.9761
 31
0.0
  0
LINE
  5
46D
330
1E
100
AcDbEntity
  8
0
100
AcDbLine
 10
523.64
 20
98.808689810682
 30
0.0
 11
523.64
 21
108.3181
 31
0.0
  0
LINE
  5
46E
330
1E
100
AcDbEntity
  8
0
100
AcDbLine
 10
523.64
 20
104.6064
 30
0.0
 11
525.368
 21
105.6351
 31
0.0
  0
LINE
  5
46F
330
1E
100
AcDbEntity
  8
0
100
AcDbLine
 10
525.368
 20
105.6351
 30
0.0
 11
526.616
 21
106.9381
 31
0.0
  0
LINE
  5
470
330
1E
100
AcDbEntity
  8
0
100
AcDbLine
 10
527.0
 20
108.3181
 30
0.0
 11
527.0
 21
168.7991
 31
0.0
  0
LINE
  5
471
330
1E
100
AcDbEntity
  8
0
100
AcDbLine
 10
526.616
 20
106.9381
 30
0.0
 11
527.0
 21
108.3181
 31
0.0
  0
LINE
  5
472
330
1E
100
AcDbEntity
  8
0
100
AcDbLine
 10
523.64
 20
108.3181
 30
0.0
 11
523.64
 21
98.808689810682
 31
0.0
  0
LINE
  5
473
330
1E
100
AcDbEntity
  8
0
100
AcDbLine
 10
526.616
 20
109.7371
 30
0.0
 11
527.0
 21
108.3181
 31
0.0
  0
LINE
  5
475
330
1E
100
AcDbEntity
  8
0
100
AcDbLine
 10
525.368
 20
111.0391
 30
0.0
 11
526.616
 21
109.7371
 31
0.0
  0
LINE
  5
476
330
1E
100
AcDbEntity
  8
0
100
AcDbLine
 10
523.448
 20
112.1821
 30
0.0
 11
525.368
 21
111.0391
 31
0.0
  0
LINE
  5
477
330
1E
100
AcDbEntity
  8
0
100
AcDbLine
 10
523.352
 20
109.3421
 30
0.0
 11
523.64
 21
108.3181
 31
0.0
  0
LINE
  5
478
330
1E
100
AcDbEntity
  8
0
100
AcDbLine
 10
522.488
 20
110.2891
 30
0.0
 11
523.352
 21
109.3421
 31
0.0
  0
LINE
  5
479
330
1E
100
AcDbEntity
  8
0
100
AcDbLine
 10
521.423
 20
99.2151
 30
0.0
 11
527.92
 21
98.0241
 31
0.0
  0
LINE
  5
47A
330
1E
100
AcDbEntity
  8
0
100
AcDbLine
 10
521.35
 20
10.5942
 30
0.0
 11
527.409
 21
11.7188
 31
0.0
  0
LINE
  5
47B
330
1E
100
AcDbEntity
  8
0
100
AcDbLine
 10
515.0
 20
10.1311
 30
0.0
 11
521.35
 21
10.5942
 31
0.0
  0
LINE
  5
47C
330
1E
100
AcDbEntity
  8
0
100
AcDbLine
 10
527.92
 20
1.8258
 30
0.0
 11
534.124
 21
3.6781
 31
0.0
  0
LINE
  5
47D
330
1E
100
AcDbEntity
  8
0
100
AcDbLine
 10
545.365
 20
9.5659
 30
0.0
 11
550.329
 21
13.4688
 31
0.0
  0
LINE
  5
47E
330
1E
100
AcDbEntity
  8
0
100
AcDbLine
 10
539.891
 20
6.2581
 30
0.0
 11
545.365
 21
9.5659
 31
0.0
  0
LINE
  5
47F
330
1E
100
AcDbEntity
  8
0
100
AcDbLine
 10
534.124
 20
3.6781
 30
0.0
 11
539.891
 21
6.2581
 31
0.0
  0
LINE
  5
480
330
1E
100
AcDbEntity
  8
0
100
AcDbLine
 10
527.92
 20
10.7007
 30
0.0
 11
534.124
 21
12.5531
 31
0.0
  0
LINE
  5
481
330
1E
100
AcDbEntity
  8
0
100
AcDbLine
 10
533.832
 20
95.9331
 30
0.0
 11
539.525
 21
93.4851
 31
0.0
  0
LINE
  5
482
330
1E
100
AcDbEntity
  8
0
100
AcDbLine
 10
527.92
 20
98.0241
 30
0.0
 11
534.124
 21
96.1721
 31
0.0
  0
LINE
  5
483
330
1E
100
AcDbEntity
  8
0
100
AcDbLine
 10
527.409
 20
97.8511
 30
0.0
 11
533.832
 21
95.9331
 31
0.0
  0
LINE
  5
484
330
1E
100
AcDbEntity
  8
0
100
AcDbLine
 10
550.329
 20
13.4688
 30
0.0
 11
554.635
 21
17.9673
 31
0.0
  0
LINE
  5
485
330
1E
100
AcDbEntity
  8
0
100
AcDbLine
 10
539.891
 20
15.133
 30
0.0
 11
545.365
 21
18.4409
 31
0.0
  0
LINE
  5
486
330
1E
100
AcDbEntity
  8
0
100
AcDbLine
 10
534.124
 20
12.5531
 30
0.0
 11
539.891
 21
15.133
 31
0.0
  0
LINE
  5
487
330
1E
100
AcDbEntity
  8
0
100
AcDbLine
 10
544.927
 20
90.1771
 30
0.0
 11
549.818
 21
86.3403
 31
0.0
  0
LINE
  5
488
330
1E
100
AcDbEntity
  8
0
100
AcDbLine
 10
539.891
 20
93.5911
 30
0.0
 11
545.365
 21
90.2841
 31
0.0
  0
LINE
  5
489
330
1E
100
AcDbEntity
  8
0
100
AcDbLine
 10
534.124
 20
96.1721
 30
0.0
 11
539.891
 21
93.5911
 31
0.0
  0
LINE
  5
48A
330
1E
100
AcDbEntity
  8
0
100
AcDbLine
 10
539.525
 20
93.4851
 30
0.0
 11
544.927
 21
90.1771
 31
0.0
  0
LINE
  5
48B
330
1E
100
AcDbEntity
  8
0
100
AcDbLine
 10
554.635
 20
17.9673
 30
0.0
 11
558.285
 21
22.9289
 31
0.0
  0
LINE
  5
48C
330
1E
100
AcDbEntity
  8
0
100
AcDbLine
 10
550.329
 20
22.3439
 30
0.0
 11
554.635
 21
26.8423
 31
0.0
  0
LINE
  5
48D
330
1E
100
AcDbEntity
  8
0
100
AcDbLine
 10
549.818
 20
23.2297
 30
0.0
 11
554.051
 21
27.6619
 31
0.0
  0
LINE
  5
48E
330
1E
100
AcDbEntity
  8
0
100
AcDbLine
 10
558.285
 20
22.9289
 30
0.0
 11
561.131
 21
28.155
 31
0.0
  0
LINE
  5
48F
330
1E
100
AcDbEntity
  8
0
100
AcDbLine
 10
554.635
 20
26.8423
 30
0.0
 11
558.285
 21
31.804
 31
0.0
  0
LINE
  5
490
330
1E
100
AcDbEntity
  8
0
100
AcDbLine
 10
558.285
 20
31.804
 30
0.0
 11
561.131
 21
37.03
 31
0.0
  0
LINE
  5
491
330
1E
100
AcDbEntity
  8
0
100
AcDbLine
 10
554.051
 20
27.6619
 30
0.0
 11
557.701
 21
32.5573
 31
0.0
  0
LINE
  5
492
330
1E
100
AcDbEntity
  8
0
100
AcDbLine
 10
557.701
 20
32.5573
 30
0.0
 11
560.401
 21
37.7173
 31
0.0
  0
LINE
  5
493
330
1E
100
AcDbEntity
  8
0
100
AcDbLine
 10
561.131
 20
28.155
 30
0.0
 11
563.175
 21
33.7782
 31
0.0
  0
LINE
  5
494
330
1E
100
AcDbEntity
  8
0
100
AcDbLine
 10
563.175
 20
33.7782
 30
0.0
 11
564.489
 21
39.6658
 31
0.0
  0
LINE
  5
495
330
1E
100
AcDbEntity
  8
0
100
AcDbLine
 10
561.131
 20
37.03
 30
0.0
 11
563.175
 21
42.6531
 31
0.0
  0
LINE
  5
496
330
1E
100
AcDbEntity
  8
0
100
AcDbLine
 10
563.175
 20
42.6531
 30
0.0
 11
564.489
 21
48.5408
 31
0.0
  0
LINE
  5
497
330
1E
100
AcDbEntity
  8
0
100
AcDbLine
 10
560.401
 20
37.7173
 30
0.0
 11
562.518
 21
43.5388
 31
0.0
  0
LINE
  5
498
330
1E
100
AcDbEntity
  8
0
100
AcDbLine
 10
558.285
 20
76.9208
 30
0.0
 11
561.131
 21
71.6947
 31
0.0
  0
LINE
  5
499
330
1E
100
AcDbEntity
  8
0
100
AcDbLine
 10
545.365
 20
90.2841
 30
0.0
 11
550.329
 21
86.3809
 31
0.0
  0
LINE
  5
49C
330
1E
100
AcDbEntity
  8
0
100
AcDbLine
 10
550.329
 20
86.3809
 30
0.0
 11
554.635
 21
81.8824
 31
0.0
  0
LINE
  5
49D
330
1E
100
AcDbEntity
  8
0
100
AcDbLine
 10
549.818
 20
86.3403
 30
0.0
 11
554.051
 21
81.908
 31
0.0
  0
LINE
  5
49F
330
1E
100
AcDbEntity
  8
0
100
AcDbLine
 10
554.635
 20
81.8824
 30
0.0
 11
558.285
 21
76.9208
 31
0.0
  0
LINE
  5
4A0
330
1E
100
AcDbEntity
  8
0
100
AcDbLine
 10
554.051
 20
81.908
 30
0.0
 11
557.701
 21
77.0126
 31
0.0
  0
LINE
  5
4A1
330
1E
100
AcDbEntity
  8
0
100
AcDbLine
 10
557.701
 20
77.0126
 30
0.0
 11
560.401
 21
71.8527
 31
0.0
  0
LINE
  5
4A2
330
1E
100
AcDbEntity
  8
0
100
AcDbLine
 10
561.131
 20
71.6947
 30
0.0
 11
563.175
 21
66.0716
 31
0.0
  0
LINE
  5
4A3
330
1E
100
AcDbEntity
  8
0
100
AcDbLine
 10
563.175
 20
66.0716
 30
0.0
 11
564.489
 21
60.1839
 31
0.0
  0
LINE
  5
4A4
330
1E
100
AcDbEntity
  8
0
100
AcDbLine
 10
560.401
 20
71.8527
 30
0.0
 11
562.518
 21
66.0311
 31
0.0
  0
LINE
  5
4A5
330
1E
100
AcDbEntity
  8
0
100
AcDbLine
 10
562.518
 20
66.0311
 30
0.0
 11
563.759
 21
60.5404
 31
0.0
  0
LINE
  5
4A6
330
1E
100
AcDbEntity
  8
0
100
AcDbLine
 10
563.759
 20
60.5404
 30
0.0
 11
564.27
 21
54.785
 31
0.0
  0
LINE
  5
4A7
330
1E
100
AcDbEntity
  8
0
100
AcDbLine
 10
562.518
 20
43.5388
 30
0.0
 11
563.759
 21
49.0296
 31
0.0
  0
LINE
  5
4A8
330
1E
100
AcDbEntity
  8
0
100
AcDbLine
 10
565.0
 20
45.4873
 30
0.0
 11
565.0
 21
54.3624
 31
0.0
  0
LINE
  5
4A9
330
1E
100
AcDbEntity
  8
0
100
AcDbLine
 10
564.489
 20
39.6658
 30
0.0
 11
565.0
 21
45.4873
 31
0.0
  0
LINE
  5
4AB
330
1E
100
AcDbEntity
  8
0
100
AcDbLine
 10
565.0
 20
54.3624
 30
0.0
 11
565.0
 21
45.4873
 31
0.0
  0
LINE
  5
4AC
330
1E
100
AcDbEntity
  8
0
100
AcDbLine
 10
564.489
 20
60.1839
 30
0.0
 11
565.0
 21
54.3624
 31
0.0
  0
LINE
  5
4AD
330
1E
100
AcDbEntity
  8
0
100
AcDbLine
 10
564.489
 20
48.5408
 30
0.0
 11
565.0
 21
54.3624
 31
0.0
  0
LINE
  5
4AE
330
1E
100
AcDbEntity
  8
0
100
AcDbLine
 10
563.759
 20
49.0296
 30
0.0
 11
564.27
 21
54.785
 31
0.0
  0
LINE
  5
4AF
330
1E
100
AcDbEntity
  8
0
100
AcDbLine
 10
545.365
 20
18.4409
 30
0.0
 11
550.329
 21
22.3439
 31
0.0
  0
LINE
  5
4B0
330
1E
100
AcDbEntity
  8
0
100
AcDbLine
 10
544.927
 20
19.3926
 30
0.0
 11
549.818
 21
23.2297
 31
0.0
  0
LINE
  5
4B1
330
1E
100
AcDbEntity
  8
0
100
AcDbLine
 10
539.525
 20
16.085
 30
0.0
 11
544.927
 21
19.3926
 31
0.0
  0
LINE
  5
4B2
330
1E
100
AcDbEntity
  8
0
100
AcDbLine
 10
533.832
 20
13.6372
 30
0.0
 11
539.525
 21
16.085
 31
0.0
  0
LINE
  5
4B3
330
1E
100
AcDbEntity
  8
0
100
AcDbLine
 10
527.409
 20
11.7188
 30
0.0
 11
533.832
 21
13.6372
 31
0.0
  0
LINE
  5
4B4
330
1E
100
AcDbEntity
  8
0
100
AcDbLine
 10
527.0
 20
164.342385714286
 30
0.0
 11
532.4
 21
166.5281
 31
0.0
  0
LINE
  5
4B5
330
1E
100
AcDbEntity
  8
0
100
AcDbLine
 10
532.4
 20
166.5281
 30
0.0
 11
539.7
 21
172.1281
 31
0.0
  0
LINE
  5
4B6
330
1E
100
AcDbEntity
  8
0
100
AcDbLine
 10
527.0
 20
165.396392682927
 30
0.0
 11
531.9
 21
167.4281
 31
0.0
  0
LINE
  5
4B7
330
1E
100
AcDbEntity
  8
0
100
AcDbLine
 10
497.6
 20
166.5281
 30
0.0
 11
503.0
 21
164.342385714286
 31
0.0
  0
LINE
  5
4B8
330
1E
100
AcDbEntity
  8
0
100
AcDbLine
 10
405.0
 20
177.3081
 30
0.0
 11
410.04
 21
178.0281
 31
0.0
  0
LINE
  5
4B9
330
1E
100
AcDbEntity
  8
0
100
AcDbLine
 10
410.12
 20
177.5481
 30
0.0
 11
414.92
 21
179.4681
 31
0.0
  0
LINE
  5
4BA
330
1E
100
AcDbEntity
  8
0
100
AcDbLine
 10
405.0
 20
176.8281
 30
0.0
 11
410.12
 21
177.5481
 31
0.0
  0
LINE
  5
4BB
330
1E
100
AcDbEntity
  8
0
100
AcDbLine
 10
399.96
 20
215.6281
 30
0.0
 11
405.0
 21
216.3481
 31
0.0
  0
LINE
  5
4BC
330
1E
100
AcDbEntity
  8
0
100
AcDbLine
 10
399.88
 20
216.1081
 30
0.0
 11
405.0
 21
216.8281
 31
0.0
  0
LINE
  5
4BD
330
1E
100
AcDbEntity
  8
0
100
AcDbLine
 10
410.04
 20
178.0281
 30
0.0
 11
414.68
 21
179.9481
 31
0.0
  0
LINE
  5
4BE
330
1E
100
AcDbEntity
  8
0
100
AcDbLine
 10
405.0
 20
226.8281
 30
0.0
 11
412.68
 21
225.7481
 31
0.0
  0
LINE
  5
4BF
330
1E
100
AcDbEntity
  8
0
100
AcDbLine
 10
405.0
 20
216.3481
 30
0.0
 11
410.04
 21
215.6281
 31
0.0
  0
LINE
  5
4C0
330
1E
100
AcDbEntity
  8
0
100
AcDbLine
 10
414.68
 20
213.7081
 30
0.0
 11
418.76
 21
210.5881
 31
0.0
  0
LINE
  5
4C1
330
1E
100
AcDbEntity
  8
0
100
AcDbLine
 10
410.04
 20
215.6281
 30
0.0
 11
414.68
 21
213.7081
 31
0.0
  0
LINE
  5
4C2
330
1E
100
AcDbEntity
  8
0
100
AcDbLine
 10
418.0
 20
203.6601
 30
0.0
 11
419.764
 21
203.4081
 31
0.0
  0
LINE
  5
4C3
330
1E
100
AcDbEntity
  8
0
100
AcDbLine
 10
418.0
 20
203.8281
 30
0.0
 11
419.792
 21
203.5761
 31
0.0
  0
LINE
  5
4C4
330
1E
100
AcDbEntity
  8
0
100
AcDbLine
 10
418.76
 20
210.5881
 30
0.0
 11
421.88
 21
206.5081
 31
0.0
  0
LINE
  5
4C5
330
1E
100
AcDbEntity
  8
0
100
AcDbLine
 10
414.92
 20
214.1881
 30
0.0
 11
419.16
 21
210.9881
 31
0.0
  0
LINE
  5
4C6
330
1E
100
AcDbEntity
  8
0
100
AcDbLine
 10
412.68
 20
225.7481
 30
0.0
 11
419.88
 21
222.8681
 31
0.0
  0
LINE
  5
4C7
330
1E
100
AcDbEntity
  8
0
100
AcDbLine
 10
410.12
 20
216.1081
 30
0.0
 11
414.92
 21
214.1881
 31
0.0
  0
LINE
  5
4C8
330
1E
100
AcDbEntity
  8
0
100
AcDbLine
 10
405.0
 20
216.8281
 30
0.0
 11
410.12
 21
216.1081
 31
0.0
  0
LINE
  5
4C9
330
1E
100
AcDbEntity
  8
0
100
AcDbLine
 10
418.0
 20
189.9961
 30
0.0
 11
419.764
 21
190.2481
 31
0.0
  0
LINE
  5
4CA
330
1E
100
AcDbEntity
  8
0
100
AcDbLine
 10
419.16
 20
210.9881
 30
0.0
 11
422.36
 21
206.7481
 31
0.0
  0
LINE
  5
4CB
330
1E
100
AcDbEntity
  8
0
100
AcDbLine
 10
418.76
 20
183.0681
 30
0.0
 11
421.88
 21
187.1481
 31
0.0
  0
LINE
  5
4CC
330
1E
100
AcDbEntity
  8
0
100
AcDbLine
 10
414.68
 20
179.9481
 30
0.0
 11
418.76
 21
183.0681
 31
0.0
  0
LINE
  5
4CD
330
1E
100
AcDbEntity
  8
0
100
AcDbLine
 10
419.764
 20
203.4081
 30
0.0
 11
421.388
 21
202.7361
 31
0.0
  0
LINE
  5
4CE
330
1E
100
AcDbEntity
  8
0
100
AcDbLine
 10
419.792
 20
203.5761
 30
0.0
 11
421.472
 21
202.9041
 31
0.0
  0
LINE
  5
4CF
330
1E
100
AcDbEntity
  8
0
100
AcDbLine
 10
419.88
 20
222.8681
 30
0.0
 11
426.24
 21
218.0681
 31
0.0
  0
LINE
  5
4D0
330
1E
100
AcDbEntity
  8
0
100
AcDbLine
 10
419.764
 20
190.2481
 30
0.0
 11
421.388
 21
190.9201
 31
0.0
  0
LINE
  5
4D1
330
1E
100
AcDbEntity
  8
0
100
AcDbLine
 10
419.16
 20
182.6681
 30
0.0
 11
422.36
 21
186.9081
 31
0.0
  0
LINE
  5
4D2
330
1E
100
AcDbEntity
  8
0
100
AcDbLine
 10
414.92
 20
179.4681
 30
0.0
 11
419.16
 21
182.6681
 31
0.0
  0
LINE
  5
4D3
330
1E
100
AcDbEntity
  8
0
100
AcDbLine
 10
399.96
 20
178.0281
 30
0.0
 11
405.0
 21
177.3081
 31
0.0
  0
LINE
  5
4D4
330
1E
100
AcDbEntity
  8
0
100
AcDbLine
 10
399.88
 20
177.5481
 30
0.0
 11
405.0
 21
176.8281
 31
0.0
  0
LINE
  5
4D5
330
1E
100
AcDbEntity
  8
0
100
AcDbLine
 10
421.388
 20
202.7361
 30
0.0
 11
422.816
 21
201.6441
 31
0.0
  0
LINE
  5
4D6
330
1E
100
AcDbEntity
  8
0
100
AcDbLine
 10
421.472
 20
202.9041
 30
0.0
 11
422.956
 21
201.7841
 31
0.0
  0
LINE
  5
4D7
330
1E
100
AcDbEntity
  8
0
100
AcDbLine
 10
422.816
 20
201.6441
 30
0.0
 11
423.908
 21
200.2161
 31
0.0
  0
LINE
  5
4D8
330
1E
100
AcDbEntity
  8
0
100
AcDbLine
 10
421.88
 20
206.5081
 30
0.0
 11
423.8
 21
201.8681
 31
0.0
  0
LINE
  5
4D9
330
1E
100
AcDbEntity
  8
0
100
AcDbLine
 10
422.36
 20
206.7481
 30
0.0
 11
424.28
 21
201.9481
 31
0.0
  0
LINE
  5
4DA
330
1E
100
AcDbEntity
  8
0
100
AcDbLine
 10
422.956
 20
201.7841
 30
0.0
 11
424.076
 21
200.3001
 31
0.0
  0
LINE
  5
4DB
330
1E
100
AcDbEntity
  8
0
100
AcDbLine
 10
423.8
 20
201.8681
 30
0.0
 11
424.011859030837
 21
200.385086784141
 31
0.0
  0
LINE
  5
4DC
330
1E
100
AcDbEntity
  8
0
100
AcDbLine
 10
422.816
 20
192.0121
 30
0.0
 11
423.908
 21
193.4401
 31
0.0
  0
LINE
  5
4DD
330
1E
100
AcDbEntity
  8
0
100
AcDbLine
 10
421.388
 20
190.9201
 30
0.0
 11
422.816
 21
192.0121
 31
0.0
  0
LINE
  5
4DE
330
1E
100
AcDbEntity
  8
0
100
AcDbLine
 10
423.908
 20
200.2161
 30
0.0
 11
424.58
 21
198.5921
 31
0.0
  0
LINE
  5
4DF
330
1E
100
AcDbEntity
  8
0
100
AcDbLine
 10
424.076
 20
200.3001
 30
0.0
 11
424.748
 21
198.6201
 31
0.0
  0
LINE
  5
4E0
330
1E
100
AcDbEntity
  8
0
100
AcDbLine
 10
424.28
 20
201.9481
 30
0.0
 11
425.0
 21
196.8281
 31
0.0
  0
LINE
  5
4E1
330
1E
100
AcDbEntity
  8
0
100
AcDbLine
 10
423.908
 20
193.4401
 30
0.0
 11
424.58
 21
195.0641
 31
0.0
  0
LINE
  5
4E2
330
1E
100
AcDbEntity
  8
0
100
AcDbLine
 10
424.076
 20
193.3561
 30
0.0
 11
424.748
 21
195.0361
 31
0.0
  0
LINE
  5
4E3
330
1E
100
AcDbEntity
  8
0
100
AcDbLine
 10
423.8
 20
191.7881
 30
0.0
 11
424.011859030837
 21
193.271113215859
 31
0.0
  0
LINE
  5
4E4
330
1E
100
AcDbEntity
  8
0
100
AcDbLine
 10
421.88
 20
187.1481
 30
0.0
 11
423.8
 21
191.7881
 31
0.0
  0
LINE
  5
4E6
330
1E
100
AcDbEntity
  8
0
100
AcDbLine
 10
424.58
 20
198.5921
 30
0.0
 11
424.832
 21
196.8281
 31
0.0
  0
LINE
  5
4E7
330
1E
100
AcDbEntity
  8
0
100
AcDbLine
 10
424.748
 20
198.6201
 30
0.0
 11
425.0
 21
196.8281
 31
0.0
  0
LINE
  5
4E8
330
1E
100
AcDbEntity
  8
0
100
AcDbLine
 10
426.24
 20
218.0681
 30
0.0
 11
431.04
 21
211.7081
 31
0.0
  0
LINE
  5
4EB
330
1E
100
AcDbEntity
  8
0
100
AcDbLine
 10
424.58
 20
195.0641
 30
0.0
 11
424.832
 21
196.8281
 31
0.0
  0
LINE
  5
4EC
330
1E
100
AcDbEntity
  8
0
100
AcDbLine
 10
424.748
 20
195.0361
 30
0.0
 11
425.0
 21
196.8281
 31
0.0
  0
LINE
  5
4ED
330
1E
100
AcDbEntity
  8
0
100
AcDbLine
 10
424.28
 20
191.7081
 30
0.0
 11
425.0
 21
196.8281
 31
0.0
  0
LINE
  5
4EE
330
1E
100
AcDbEntity
  8
0
100
AcDbLine
 10
422.36
 20
186.9081
 30
0.0
 11
424.28
 21
191.7081
 31
0.0
  0
LINE
  5
4EF
330
1E
100
AcDbEntity
  8
0
100
AcDbLine
 10
419.88
 20
170.7881
 30
0.0
 11
426.24
 21
175.5881
 31
0.0
  0
LINE
  5
4F0
330
1E
100
AcDbEntity
  8
0
100
AcDbLine
 10
412.68
 20
167.9081
 30
0.0
 11
419.88
 21
170.7881
 31
0.0
  0
LINE
  5
4F1
330
1E
100
AcDbEntity
  8
0
100
AcDbLine
 10
490.3
 20
172.1281
 30
0.0
 11
497.6
 21
166.5281
 31
0.0
  0
LINE
  5
4F2
330
1E
100
AcDbEntity
  8
0
100
AcDbLine
 10
503.0
 20
168.7991
 30
0.0
 11
503.0
 21
108.3181
 31
0.0
  0
LINE
  5
4F3
330
1E
100
AcDbEntity
  8
0
100
AcDbLine
 10
503.0
 20
168.7991
 30
0.0
 11
503.384
 21
171.1931
 31
0.0
  0
LINE
  5
4F4
330
1E
100
AcDbEntity
  8
0
100
AcDbLine
 10
503.0
 20
169.9611
 30
0.0
 11
503.098936858655
 21
169.415909478179
 31
0.0
  0
LINE
  5
4F5
330
1E
100
AcDbEntity
  8
0
100
AcDbLine
 10
503.0
 20
169.9611
 30
0.0
 11
503.0
 21
175.6751
 31
0.0
  0
LINE
  5
4F6
330
1E
100
AcDbEntity
  8
0
100
AcDbLine
 10
498.1
 20
167.4281
 30
0.0
 11
503.0
 21
165.396392682927
 31
0.0
  0
LINE
  5
4F7
330
1E
100
AcDbEntity
  8
0
100
AcDbLine
 10
491.0
 20
172.8281
 30
0.0
 11
498.1
 21
167.4281
 31
0.0
  0
LINE
  5
4F8
330
1E
100
AcDbEntity
  8
0
100
AcDbLine
 10
484.7
 20
179.4281
 30
0.0
 11
490.3
 21
172.1281
 31
0.0
  0
LINE
  5
4F9
330
1E
100
AcDbEntity
  8
0
100
AcDbLine
 10
485.6
 20
179.9281
 30
0.0
 11
491.0
 21
172.8281
 31
0.0
  0
LINE
  5
4FA
330
1E
100
AcDbEntity
  8
0
100
AcDbLine
 10
495.9
 20
177.7281
 30
0.0
 11
501.5
 21
173.4281
 31
0.0
  0
LINE
  5
4FB
330
1E
100
AcDbEntity
  8
0
100
AcDbLine
 10
501.5
 20
173.4281
 30
0.0
 11
503.0
 21
172.8281
 31
0.0
  0
LINE
  5
4FC
330
1E
100
AcDbEntity
  8
0
100
AcDbLine
 10
503.384
 20
171.1931
 30
0.0
 11
504.632
 21
173.4191
 31
0.0
  0
LINE
  5
4FD
330
1E
100
AcDbEntity
  8
0
100
AcDbLine
 10
526.616
 20
171.1931
 30
0.0
 11
527.0
 21
168.7991
 31
0.0
  0
LINE
  5
4FE
330
1E
100
AcDbEntity
  8
0
100
AcDbLine
 10
527.0
 20
168.7991
 30
0.0
 11
527.0
 21
108.3181
 31
0.0
  0
LINE
  5
4FF
330
1E
100
AcDbEntity
  8
0
100
AcDbLine
 10
527.0
 20
169.9611
 30
0.0
 11
527.0
 21
175.6751
 31
0.0
  0
LINE
  5
500
330
1E
100
AcDbEntity
  8
0
100
AcDbLine
 10
526.901063141345
 20
169.415909478179
 30
0.0
 11
527.0
 21
169.9611
 31
0.0
  0
LINE
  5
501
330
1E
100
AcDbEntity
  8
0
100
AcDbLine
 10
504.632
 20
173.4191
 30
0.0
 11
506.552
 21
175.3481
 31
0.0
  0
LINE
  5
502
330
1E
100
AcDbEntity
  8
0
100
AcDbLine
 10
525.368
 20
173.4191
 30
0.0
 11
526.616
 21
171.1931
 31
0.0
  0
LINE
  5
503
330
1E
100
AcDbEntity
  8
0
100
AcDbLine
 10
526.357
 20
171.7571
 30
0.0
 11
526.384955095198
 21
171.605204133084
 31
0.0
  0
LINE
  5
504
330
1E
100
AcDbEntity
  8
0
100
AcDbLine
 10
503.643
 20
171.7571
 30
0.0
 11
504.8
 21
173.9231
 31
0.0
  0
LINE
  5
505
330
1E
100
AcDbEntity
  8
0
100
AcDbLine
 10
503.615044904802
 20
171.605204133084
 30
0.0
 11
503.643
 21
171.7571
 31
0.0
  0
LINE
  5
506
330
1E
100
AcDbEntity
  8
0
100
AcDbLine
 10
539.7
 20
172.1281
 30
0.0
 11
545.3
 21
179.4281
 31
0.0
  0
LINE
  5
507
330
1E
100
AcDbEntity
  8
0
100
AcDbLine
 10
531.9
 20
167.4281
 30
0.0
 11
539.0
 21
172.8281
 31
0.0
  0
LINE
  5
508
330
1E
100
AcDbEntity
  8
0
100
AcDbLine
 10
539.0
 20
172.8281
 30
0.0
 11
544.4
 21
179.9281
 31
0.0
  0
LINE
  5
509
330
1E
100
AcDbEntity
  8
0
100
AcDbLine
 10
527.0
 20
172.8281
 30
0.0
 11
528.5
 21
173.4281
 31
0.0
  0
LINE
  5
50A
330
1E
100
AcDbEntity
  8
0
100
AcDbLine
 10
506.552
 20
175.3481
 30
0.0
 11
509.048
 21
176.7721
 31
0.0
  0
LINE
  5
50B
330
1E
100
AcDbEntity
  8
0
100
AcDbLine
 10
523.448
 20
175.3481
 30
0.0
 11
525.368
 21
173.4191
 31
0.0
  0
LINE
  5
50C
330
1E
100
AcDbEntity
  8
0
100
AcDbLine
 10
525.2
 20
173.9231
 30
0.0
 11
526.357
 21
171.7571
 31
0.0
  0
LINE
  5
50D
330
1E
100
AcDbEntity
  8
0
100
AcDbLine
 10
504.8
 20
173.9231
 30
0.0
 11
506.686
 21
175.7951
 31
0.0
  0
LINE
  5
50E
330
1E
100
AcDbEntity
  8
0
100
AcDbLine
 10
509.048
 20
176.7721
 30
0.0
 11
511.928
 21
177.6531
 31
0.0
  0
LINE
  5
50F
330
1E
100
AcDbEntity
  8
0
100
AcDbLine
 10
506.686
 20
175.7951
 30
0.0
 11
509.129
 21
177.2391
 31
0.0
  0
LINE
  5
510
330
1E
100
AcDbEntity
  8
0
100
AcDbLine
 10
511.928
 20
177.6531
 30
0.0
 11
515.0
 21
177.9891
 31
0.0
  0
LINE
  5
511
330
1E
100
AcDbEntity
  8
0
100
AcDbLine
 10
509.129
 20
177.2391
 30
0.0
 11
511.957
 21
178.1261
 31
0.0
  0
LINE
  5
512
330
1E
100
AcDbEntity
  8
0
100
AcDbLine
 10
515.0
 20
177.9891
 30
0.0
 11
518.072
 21
177.6531
 31
0.0
  0
LINE
  5
513
330
1E
100
AcDbEntity
  8
0
100
AcDbLine
 10
520.952
 20
176.7721
 30
0.0
 11
523.448
 21
175.3481
 31
0.0
  0
LINE
  5
514
330
1E
100
AcDbEntity
  8
0
100
AcDbLine
 10
523.314
 20
175.7951
 30
0.0
 11
525.2
 21
173.9231
 31
0.0
  0
LINE
  5
515
330
1E
100
AcDbEntity
  8
0
100
AcDbLine
 10
518.072
 20
177.6531
 30
0.0
 11
520.952
 21
176.7721
 31
0.0
  0
LINE
  5
516
330
1E
100
AcDbEntity
  8
0
100
AcDbLine
 10
520.871
 20
177.2391
 30
0.0
 11
523.314
 21
175.7951
 31
0.0
  0
LINE
  5
517
330
1E
100
AcDbEntity
  8
0
100
AcDbLine
 10
518.043
 20
178.1261
 30
0.0
 11
520.871
 21
177.2391
 31
0.0
  0
LINE
  5
518
330
1E
100
AcDbEntity
  8
0
100
AcDbLine
 10
515.0
 20
178.4541
 30
0.0
 11
518.043
 21
178.1261
 31
0.0
  0
LINE
  5
519
330
1E
100
AcDbEntity
  8
0
100
AcDbLine
 10
511.957
 20
178.1261
 30
0.0
 11
515.0
 21
178.4541
 31
0.0
  0
LINE
  5
51A
330
1E
100
AcDbEntity
  8
0
100
AcDbLine
 10
527.0
 20
175.6751
 30
0.0
 11
527.0
 21
182.9281
 31
0.0
  0
LINE
  5
51B
330
1E
100
AcDbEntity
  8
0
100
AcDbLine
 10
527.0
 20
175.6751
 30
0.0
 11
527.0
 21
169.9611
 31
0.0
  0
LINE
  5
51C
330
1E
100
AcDbEntity
  8
0
100
AcDbLine
 10
545.3
 20
179.4281
 30
0.0
 11
548.7
 21
187.8281
 31
0.0
  0
LINE
  5
51D
330
1E
100
AcDbEntity
  8
0
100
AcDbLine
 10
544.4
 20
179.9281
 30
0.0
 11
547.8
 21
188.1281
 31
0.0
  0
LINE
  5
51E
330
1E
100
AcDbEntity
  8
0
100
AcDbLine
 10
534.1
 20
177.7281
 30
0.0
 11
538.4
 21
183.3281
 31
0.0
  0
LINE
  5
51F
330
1E
100
AcDbEntity
  8
0
100
AcDbLine
 10
528.5
 20
173.4281
 30
0.0
 11
534.1
 21
177.7281
 31
0.0
  0
LINE
  5
520
330
1E
100
AcDbEntity
  8
0
100
AcDbLine
 10
503.0
 20
175.6751
 30
0.0
 11
503.0
 21
182.9281
 31
0.0
  0
LINE
  5
521
330
1E
100
AcDbEntity
  8
0
100
AcDbLine
 10
503.0
 20
175.6751
 30
0.0
 11
503.0
 21
169.9611
 31
0.0
  0
LINE
  5
522
330
1E
100
AcDbEntity
  8
0
100
AcDbLine
 10
433.92
 20
204.5081
 30
0.0
 11
435.0
 21
196.8281
 31
0.0
  0
LINE
  5
526
330
1E
100
AcDbEntity
  8
0
100
AcDbLine
 10
431.04
 20
211.7081
 30
0.0
 11
433.92
 21
204.5081
 31
0.0
  0
LINE
  5
53A
330
1E
100
AcDbEntity
  8
0
100
AcDbLine
 10
481.3
 20
187.8281
 30
0.0
 11
484.7
 21
179.4281
 31
0.0
  0
LINE
  5
53B
330
1E
100
AcDbEntity
  8
0
100
AcDbLine
 10
480.0
 20
196.8281
 30
0.0
 11
481.3
 21
187.8281
 31
0.0
  0
LINE
  5
53C
330
1E
100
AcDbEntity
  8
0
100
AcDbLine
 10
480.0
 20
196.8281
 30
0.0
 11
481.3
 21
205.8281
 31
0.0
  0
LINE
  5
53D
330
1E
100
AcDbEntity
  8
0
100
AcDbLine
 10
482.2
 20
188.1281
 30
0.0
 11
485.6
 21
179.9281
 31
0.0
  0
LINE
  5
53E
330
1E
100
AcDbEntity
  8
0
100
AcDbLine
 10
481.0
 20
196.8281
 30
0.0
 11
482.2
 21
188.1281
 31
0.0
  0
LINE
  5
53F
330
1E
100
AcDbEntity
  8
0
100
AcDbLine
 10
481.0
 20
196.8281
 30
0.0
 11
482.2
 21
205.5281
 31
0.0
  0
LINE
  5
540
330
1E
100
AcDbEntity
  8
0
100
AcDbLine
 10
489.0
 20
189.8281
 30
0.0
 11
491.6
 21
183.3281
 31
0.0
  0
LINE
  5
541
330
1E
100
AcDbEntity
  8
0
100
AcDbLine
 10
491.6
 20
183.3281
 30
0.0
 11
495.9
 21
177.7281
 31
0.0
  0
LINE
  5
542
330
1E
100
AcDbEntity
  8
0
100
AcDbLine
 10
527.0
 20
182.9281
 30
0.0
 11
527.0
 21
175.6751
 31
0.0
  0
LINE
  5
543
330
1E
100
AcDbEntity
  8
0
100
AcDbLine
 10
538.4
 20
183.3281
 30
0.0
 11
541.0
 21
189.8281
 31
0.0
  0
LINE
  5
544
330
1E
100
AcDbEntity
  8
0
100
AcDbLine
 10
526.6
 20
185.7281
 30
0.0
 11
527.0
 21
182.9281
 31
0.0
  0
LINE
  5
545
330
1E
100
AcDbEntity
  8
0
100
AcDbLine
 10
523.5
 20
190.5281
 30
0.0
 11
525.4
 21
188.2281
 31
0.0
  0
LINE
  5
546
330
1E
100
AcDbEntity
  8
0
100
AcDbLine
 10
548.7
 20
187.8281
 30
0.0
 11
550.0
 21
196.8281
 31
0.0
  0
LINE
  5
547
330
1E
100
AcDbEntity
  8
0
100
AcDbLine
 10
547.8
 20
188.1281
 30
0.0
 11
549.0
 21
196.8281
 31
0.0
  0
LINE
  5
548
330
1E
100
AcDbEntity
  8
0
100
AcDbLine
 10
541.0
 20
189.8281
 30
0.0
 11
542.0
 21
196.8281
 31
0.0
  0
LINE
  5
549
330
1E
100
AcDbEntity
  8
0
100
AcDbLine
 10
525.4
 20
188.2281
 30
0.0
 11
526.6
 21
185.7281
 31
0.0
  0
LINE
  5
54A
330
1E
100
AcDbEntity
  8
0
100
AcDbLine
 10
518.1
 20
193.3281
 30
0.0
 11
521.0
 21
192.2281
 31
0.0
  0
LINE
  5
54B
330
1E
100
AcDbEntity
  8
0
100
AcDbLine
 10
521.0
 20
192.2281
 30
0.0
 11
523.5
 21
190.5281
 31
0.0
  0
LINE
  5
54C
330
1E
100
AcDbEntity
  8
0
100
AcDbLine
 10
515.0
 20
193.7281
 30
0.0
 11
518.1
 21
193.3281
 31
0.0
  0
LINE
  5
54D
330
1E
100
AcDbEntity
  8
0
100
AcDbLine
 10
511.9
 20
193.3281
 30
0.0
 11
515.0
 21
193.7281
 31
0.0
  0
LINE
  5
54E
330
1E
100
AcDbEntity
  8
0
100
AcDbLine
 10
509.0
 20
192.2281
 30
0.0
 11
511.9
 21
193.3281
 31
0.0
  0
LINE
  5
54F
330
1E
100
AcDbEntity
  8
0
100
AcDbLine
 10
506.5
 20
190.5281
 30
0.0
 11
509.0
 21
192.2281
 31
0.0
  0
LINE
  5
550
330
1E
100
AcDbEntity
  8
0
100
AcDbLine
 10
504.6
 20
188.2281
 30
0.0
 11
506.5
 21
190.5281
 31
0.0
  0
LINE
  5
551
330
1E
100
AcDbEntity
  8
0
100
AcDbLine
 10
503.4
 20
185.7281
 30
0.0
 11
504.6
 21
188.2281
 31
0.0
  0
LINE
  5
552
330
1E
100
AcDbEntity
  8
0
100
AcDbLine
 10
503.0
 20
182.9281
 30
0.0
 11
503.0
 21
175.6751
 31
0.0
  0
LINE
  5
553
330
1E
100
AcDbEntity
  8
0
100
AcDbLine
 10
503.0
 20
182.9281
 30
0.0
 11
503.4
 21
185.7281
 31
0.0
  0
LINE
  5
598
330
1E
100
AcDbEntity
  8
0
100
AcDbLine
 10
484.7
 20
214.2281
 30
0.0
 11
490.3
 21
221.5281
 31
0.0
  0
LINE
  5
599
330
1E
100
AcDbEntity
  8
0
100
AcDbLine
 10
481.3
 20
205.8281
 30
0.0
 11
484.7
 21
214.2281
 31
0.0
  0
LINE
  5
59A
330
1E
100
AcDbEntity
  8
0
100
AcDbLine
 10
485.6
 20
213.7281
 30
0.0
 11
491.0
 21
220.8281
 31
0.0
  0
LINE
  5
59B
330
1E
100
AcDbEntity
  8
0
100
AcDbLine
 10
482.2
 20
205.5281
 30
0.0
 11
485.6
 21
213.7281
 31
0.0
  0
LINE
  5
59C
330
1E
100
AcDbEntity
  8
0
100
AcDbLine
 10
538.4
 20
210.3281
 30
0.0
 11
541.0
 21
203.8281
 31
0.0
  0
LINE
  5
59D
330
1E
100
AcDbEntity
  8
0
100
AcDbLine
 10
548.7
 20
205.8281
 30
0.0
 11
550.0
 21
196.8281
 31
0.0
  0
LINE
  5
59E
330
1E
100
AcDbEntity
  8
0
100
AcDbLine
 10
547.8
 20
205.5281
 30
0.0
 11
549.0
 21
196.8281
 31
0.0
  0
LINE
  5
59F
330
1E
100
AcDbEntity
  8
0
100
AcDbLine
 10
541.0
 20
203.8281
 30
0.0
 11
542.0
 21
196.8281
 31
0.0
  0
LINE
  5
5A0
330
1E
100
AcDbEntity
  8
0
100
AcDbLine
 10
490.3
 20
221.5281
 30
0.0
 11
497.6
 21
227.1281
 31
0.0
  0
LINE
  5
5A1
330
1E
100
AcDbEntity
  8
0
100
AcDbLine
 10
491.0
 20
220.8281
 30
0.0
 11
498.1
 21
226.2281
 31
0.0
  0
LINE
  5
5A2
330
1E
100
AcDbEntity
  8
0
100
AcDbLine
 10
528.5
 20
220.2281
 30
0.0
 11
534.1
 21
215.9281
 31
0.0
  0
LINE
  5
5A3
330
1E
100
AcDbEntity
  8
0
100
AcDbLine
 10
545.3
 20
214.2281
 30
0.0
 11
548.7
 21
205.8281
 31
0.0
  0
LINE
  5
5A4
330
1E
100
AcDbEntity
  8
0
100
AcDbLine
 10
544.4
 20
213.7281
 30
0.0
 11
547.8
 21
205.5281
 31
0.0
  0
LINE
  5
5A5
330
1E
100
AcDbEntity
  8
0
100
AcDbLine
 10
534.1
 20
215.9281
 30
0.0
 11
538.4
 21
210.3281
 31
0.0
  0
LINE
  5
5A6
330
1E
100
AcDbEntity
  8
0
100
AcDbLine
 10
506.0
 20
230.5281
 30
0.0
 11
515.0
 21
231.8281
 31
0.0
  0
LINE
  5
5A7
330
1E
100
AcDbEntity
  8
0
100
AcDbLine
 10
497.6
 20
227.1281
 30
0.0
 11
506.0
 21
230.5281
 31
0.0
  0
LINE
  5
5A8
330
1E
100
AcDbEntity
  8
0
100
AcDbLine
 10
506.3
 20
229.6281
 30
0.0
 11
515.0
 21
230.8281
 31
0.0
  0
LINE
  5
5A9
330
1E
100
AcDbEntity
  8
0
100
AcDbLine
 10
498.1
 20
226.2281
 30
0.0
 11
506.3
 21
229.6281
 31
0.0
  0
LINE
  5
5AA
330
1E
100
AcDbEntity
  8
0
100
AcDbLine
 10
539.7
 20
221.5281
 30
0.0
 11
545.3
 21
214.2281
 31
0.0
  0
LINE
  5
5AB
330
1E
100
AcDbEntity
  8
0
100
AcDbLine
 10
539.0
 20
220.8281
 30
0.0
 11
544.4
 21
213.7281
 31
0.0
  0
LINE
  5
5AC
330
1E
100
AcDbEntity
  8
0
100
AcDbLine
 10
515.0
 20
231.8281
 30
0.0
 11
524.0
 21
230.5281
 31
0.0
  0
LINE
  5
5AD
330
1E
100
AcDbEntity
  8
0
100
AcDbLine
 10
515.0
 20
230.8281
 30
0.0
 11
523.7
 21
229.6281
 31
0.0
  0
LINE
  5
5B3
330
1E
100
AcDbEntity
  8
0
100
AcDbLine
 10
524.0
 20
230.5281
 30
0.0
 11
532.4
 21
227.1281
 31
0.0
  0
LINE
  5
5B4
330
1E
100
AcDbEntity
  8
0
100
AcDbLine
 10
532.4
 20
227.1281
 30
0.0
 11
539.7
 21
221.5281
 31
0.0
  0
LINE
  5
5B5
330
1E
100
AcDbEntity
  8
0
100
AcDbLine
 10
523.7
 20
229.6281
 30
0.0
 11
531.9
 21
226.2281
 31
0.0
  0
LINE
  5
5B6
330
1E
100
AcDbEntity
  8
0
100
AcDbLine
 10
531.9
 20
226.2281
 30
0.0
 11
539.0
 21
220.8281
 31
0.0
  0
LINE
  5
5B7
330
1E
100
AcDbEntity
  8
0
100
AcDbLine
 10
515.0
 20
223.8281
 30
0.0
 11
522.0
 21
222.8281
 31
0.0
  0
LINE
  5
5B8
330
1E
100
AcDbEntity
  8
0
100
AcDbLine
 10
522.0
 20
222.8281
 30
0.0
 11
528.5
 21
220.2281
 31
0.0
  0
LINE
  5
5B9
330
1E
100
AcDbEntity
  8
0
100
AcDbLine
 10
508.0
 20
222.8281
 30
0.0
 11
515.0
 21
223.8281
 31
0.0
  0
LINE
  5
5BA
330
1E
100
AcDbEntity
  8
0
100
AcDbLine
 10
501.5
 20
220.2281
 30
0.0
 11
508.0
 21
222.8281
 31
0.0
  0
LINE
  5
5BB
330
1E
100
AcDbEntity
  8
0
100
AcDbLine
 10
495.9
 20
215.9281
 30
0.0
 11
501.5
 21
220.2281
 31
0.0
  0
LINE
  5
5BC
330
1E
100
AcDbEntity
  8
0
100
AcDbLine
 10
491.6
 20
210.3281
 30
0.0
 11
495.9
 21
215.9281
 31
0.0
  0
LINE
  5
5BD
330
1E
100
AcDbEntity
  8
0
100
AcDbLine
 10
489.0
 20
203.8281
 30
0.0
 11
491.6
 21
210.3281
 31
0.0
  0
LINE
  5
5BE
330
1E
100
AcDbEntity
  8
0
100
AcDbLine
 10
488.0
 20
196.8281
 30
0.0
 11
489.0
 21
203.8281
 31
0.0
  0
LINE
  5
5BF
330
1E
100
AcDbEntity
  8
0
100
AcDbLine
 10
488.0
 20
196.8281
 30
0.0
 11
489.0
 21
189.8281
 31
0.0
  0
LINE
  5
5C0
330
1E
100
AcDbEntity
  8
0
100
AcDbLine
 10
433.92
 20
189.1481
 30
0.0
 11
435.0
 21
196.8281
 31
0.0
  0
LINE
  5
5C1
330
1E
100
AcDbEntity
  8
0
100
AcDbLine
 10
431.04
 20
181.9481
 30
0.0
 11
433.92
 21
189.1481
 31
0.0
  0
LINE
  5
5C2
330
1E
100
AcDbEntity
  8
0
100
AcDbLine
 10
426.24
 20
175.5881
 30
0.0
 11
431.04
 21
181.9481
 31
0.0
  0
LINE
  5
5C3
330
1E
100
AcDbEntity
  8
0
100
AcDbLine
 10
405.0
 20
166.8281
 30
0.0
 11
412.68
 21
167.9081
 31
0.0
  0
LINE
  5
5C4
330
1E
100
AcDbEntity
  8
0
100
AcDbLine
 10
397.32
 20
167.9081
 30
0.0
 11
405.0
 21
166.8281
 31
0.0
  0
LINE
  5
5CA
330
1E
100
AcDbEntity
  8
0
100
AcDbLine
 10
328.74
 20
205.7881
 30
0.0
 11
329.531467133125
 21
202.398618851614
 31
0.0
  0
LINE
  5
5CB
330
1E
100
AcDbEntity
  8
0
100
AcDbLine
 10
329.531467133125
 20
202.398618851614
 30
0.0
 11
330.0
 21
196.8281
 31
0.0
  0
LINE
  5
5D0
330
1E
100
AcDbEntity
  8
0
100
AcDbLine
 10
277.5
 20
159.5901
 30
0.0
 11
277.508
 21
203.2921
 31
0.0
  0
LINE
  5
5D1
330
1E
100
AcDbEntity
  8
0
100
AcDbLine
 10
277.508
 20
203.2921
 30
0.0
 11
277.5
 21
159.5901
 31
0.0
  0
LINE
  5
5D2
330
1E
100
AcDbEntity
  8
0
100
AcDbLine
 10
295.0
 20
207.8281
 30
0.0
 11
293.569
 21
207.7831
 31
0.0
  0
LINE
  5
5D3
330
1E
100
AcDbEntity
  8
0
100
AcDbLine
 10
279.288
 20
204.5201
 30
0.0
 11
277.971
 21
203.9201
 31
0.0
  0
LINE
  5
5D4
330
1E
100
AcDbEntity
  8
0
100
AcDbLine
 10
277.674
 20
203.6881
 30
0.0
 11
277.625
 21
203.6341
 31
0.0
  0
LINE
  5
5D5
330
1E
100
AcDbEntity
  8
0
100
AcDbLine
 10
277.721
 20
203.7281
 30
0.0
 11
277.674
 21
203.6881
 31
0.0
  0
LINE
  5
5D6
330
1E
100
AcDbEntity
  8
0
100
AcDbLine
 10
277.971
 20
203.9201
 30
0.0
 11
277.721
 21
203.7281
 31
0.0
  0
LINE
  5
5D7
330
1E
100
AcDbEntity
  8
0
100
AcDbLine
 10
277.625
 20
203.6341
 30
0.0
 11
277.508
 21
203.2921
 31
0.0
  0
LINE
  5
5D8
330
1E
100
AcDbEntity
  8
0
100
AcDbLine
 10
281.097
 20
205.2541
 30
0.0
 11
279.577
 21
204.6361
 31
0.0
  0
LINE
  5
5D9
330
1E
100
AcDbEntity
  8
0
100
AcDbLine
 10
288.146
 20
207.2471
 30
0.0
 11
287.821
 21
207.1861
 31
0.0
  0
LINE
  5
5DA
330
1E
100
AcDbEntity
  8
0
100
AcDbLine
 10
293.569
 20
207.7831
 30
0.0
 11
291.572
 21
207.7291
 31
0.0
  0
LINE
  5
5DB
330
1E
100
AcDbEntity
  8
0
100
AcDbLine
 10
291.572
 20
207.7291
 30
0.0
 11
288.146
 21
207.2471
 31
0.0
  0
LINE
  5
5DC
330
1E
100
AcDbEntity
  8
0
100
AcDbLine
 10
282.885
 20
205.8911
 30
0.0
 11
281.29
 21
205.3191
 31
0.0
  0
LINE
  5
5DD
330
1E
100
AcDbEntity
  8
0
100
AcDbLine
 10
281.29
 20
205.3191
 30
0.0
 11
281.165
 21
205.2821
 31
0.0
  0
LINE
  5
5DE
330
1E
100
AcDbEntity
  8
0
100
AcDbLine
 10
281.165
 20
205.2821
 30
0.0
 11
281.097
 21
205.2541
 31
0.0
  0
LINE
  5
5DF
330
1E
100
AcDbEntity
  8
0
100
AcDbLine
 10
287.821
 20
207.1861
 30
0.0
 11
284.554
 21
206.4031
 31
0.0
  0
LINE
  5
5E0
330
1E
100
AcDbEntity
  8
0
100
AcDbLine
 10
284.554
 20
206.4031
 30
0.0
 11
282.885
 21
205.8911
 31
0.0
  0
LINE
  5
5E1
330
1E
100
AcDbEntity
  8
0
100
AcDbLine
 10
279.577
 20
204.6361
 30
0.0
 11
279.288
 21
204.5201
 31
0.0
  0
LINE
  5
5E4
330
1E
100
AcDbEntity
  8
0
100
AcDbLine
 10
277.5
 20
152.9531
 30
0.0
 11
277.5
 21
147.6011
 31
0.0
  0
LINE
  5
5E5
330
1E
100
AcDbEntity
  8
0
100
AcDbLine
 10
277.5
 20
147.6011
 30
0.0
 11
277.5
 21
152.9531
 31
0.0
  0
LINE
  5
5E6
330
1E
100
AcDbEntity
  8
0
100
AcDbLine
 10
277.5
 20
147.5401
 30
0.0
 11
277.5
 21
147.6011
 31
0.0
  0
LINE
  5
5E7
330
1E
100
AcDbEntity
  8
0
100
AcDbLine
 10
277.5
 20
147.6011
 30
0.0
 11
277.5
 21
147.5401
 31
0.0
  0
LINE
  5
5E8
330
1E
100
AcDbEntity
  8
0
100
AcDbLine
 10
277.5
 20
155.6121
 30
0.0
 11
277.5
 21
152.9531
 31
0.0
  0
LINE
  5
5E9
330
1E
100
AcDbEntity
  8
0
100
AcDbLine
 10
277.5
 20
152.9531
 30
0.0
 11
277.5
 21
155.6121
 31
0.0
  0
LINE
  5
5EA
330
1E
100
AcDbEntity
  8
0
100
AcDbLine
 10
277.5
 20
155.6121
 30
0.0
 11
277.5
 21
159.5901
 31
0.0
  0
LINE
  5
5EB
330
1E
100
AcDbEntity
  8
0
100
AcDbLine
 10
277.5
 20
159.5901
 30
0.0
 11
277.5
 21
155.6121
 31
0.0
  0
LINE
  5
606
330
1E
100
AcDbEntity
  8
0
100
AcDbLine
 10
260.0
 20
196.8281
 30
0.0
 11
261.26
 21
187.8681
 31
0.0
  0
LINE
  5
678
330
1E
100
AcDbEntity
  8
0
100
AcDbLine
 10
277.5
 20
-20.743
 30
0.0
 11
277.5
 21
147.5401
 31
0.0
  0
LINE
  5
679
330
1E
100
AcDbEntity
  8
0
100
AcDbLine
 10
312.5
 20
-20.743
 30
0.0
 11
312.5
 21
147.5401
 31
0.0
  0
LINE
  5
67A
330
1E
100
AcDbEntity
  8
0
100
AcDbLine
 10
312.5
 20
147.5401
 30
0.0
 11
312.5
 21
-20.743
 31
0.0
  0
LINE
  5
67B
330
1E
100
AcDbEntity
  8
0
100
AcDbLine
 10
277.5
 20
147.5401
 30
0.0
 11
277.5
 21
-20.743
 31
0.0
  0
LINE
  5
67D
330
1E
100
AcDbEntity
  8
0
100
AcDbLine
 10
305.096
 20
-34.7852
 30
0.0
 11
306.785442726715
 21
-33.678713237416
 31
0.0
  0
LINE
  5
67E
330
1E
100
AcDbEntity
  8
0
100
AcDbLine
 10
305.096
 20
-34.7852
 30
0.0
 11
306.785442726715
 21
-33.678713237416
 31
0.0
  0
LINE
  5
67F
330
1E
100
AcDbEntity
  8
0
100
AcDbLine
 10
283.215607147214
 20
-33.679543757742
 30
0.0
 11
284.9037
 21
-34.7852
 31
0.0
  0
LINE
  5
681
330
1E
100
AcDbEntity
  8
0
100
AcDbLine
 10
283.215607147214
 20
-33.679543757742
 30
0.0
 11
284.9037
 21
-34.7852
 31
0.0
  0
LINE
  5
682
330
1E
100
AcDbEntity
  8
0
100
AcDbLine
 10
277.5455
 20
-23.2698
 30
0.0
 11
277.6447
 21
-24.455
 31
0.0
  0
LINE
  5
683
330
1E
100
AcDbEntity
  8
0
100
AcDbLine
 10
277.6447
 20
-24.455
 30
0.0
 11
277.731
 21
-25.0983
 31
0.0
  0
LINE
  5
685
330
1E
100
AcDbEntity
  8
0
100
AcDbLine
 10
277.731
 20
-25.0983
 30
0.0
 11
278.065085511464
 21
-26.520063236025
 31
0.0
  0
LINE
  5
686
330
1E
100
AcDbEntity
  8
0
100
AcDbLine
 10
277.731
 20
-25.0983
 30
0.0
 11
278.065085511464
 21
-26.520063236025
 31
0.0
  0
LINE
  5
687
330
1E
100
AcDbEntity
  8
0
100
AcDbLine
 10
279.1718
 20
-29.3193
 30
0.0
 11
279.5382
 21
-29.9228
 31
0.0
  0
LINE
  5
688
330
1E
100
AcDbEntity
  8
0
100
AcDbLine
 10
278.7775
 20
-28.5587
 30
0.0
 11
279.1718
 21
-29.3193
 31
0.0
  0
LINE
  5
68A
330
1E
100
AcDbEntity
  8
0
100
AcDbLine
 10
279.5382
 20
-29.9228
 30
0.0
 11
280.416023126133
 21
-31.035065047155
 31
0.0
  0
LINE
  5
68B
330
1E
100
AcDbEntity
  8
0
100
AcDbLine
 10
279.5382
 20
-29.9228
 30
0.0
 11
280.416023126133
 21
-31.035065047155
 31
0.0
  0
LINE
  5
68D
330
1E
100
AcDbEntity
  8
0
100
AcDbLine
 10
281.0187
 20
-31.7987
 30
0.0
 11
282.8398
 21
-33.4334
 31
0.0
  0
LINE
  5
68E
330
1E
100
AcDbEntity
  8
0
100
AcDbLine
 10
280.912860896779
 20
-31.664594242666
 30
0.0
 11
281.0187
 21
-31.7987
 31
0.0
  0
LINE
  5
690
330
1E
100
AcDbEntity
  8
0
100
AcDbLine
 10
278.2058
 20
-27.1189
 30
0.0
 11
278.7775
 21
-28.5587
 31
0.0
  0
LINE
  5
691
330
1E
100
AcDbEntity
  8
0
100
AcDbLine
 10
278.183269331305
 20
-27.023016535037
 30
0.0
 11
278.2058
 21
-27.1189
 31
0.0
  0
LINE
  5
692
330
1E
100
AcDbEntity
  8
0
100
AcDbLine
 10
277.5
 20
-20.743
 30
0.0
 11
277.5455
 21
-23.2698
 31
0.0
  0
LINE
  5
693
330
1E
100
AcDbEntity
  8
0
100
AcDbLine
 10
295.0
 20
-37.1719
 30
0.0
 11
297.063
 21
-37.1265
 31
0.0
  0
LINE
  5
695
330
1E
100
AcDbEntity
  8
0
100
AcDbLine
 10
284.9037
 20
-34.7852
 30
0.0
 11
285.136043594507
 21
-34.896039791916
 31
0.0
  0
LINE
  5
696
330
1E
100
AcDbEntity
  8
0
100
AcDbLine
 10
292.38
 20
-37.0858
 30
0.0
 11
292.937
 21
-37.1265
 31
0.0
  0
LINE
  5
697
330
1E
100
AcDbEntity
  8
0
100
AcDbLine
 10
292.937
 20
-37.1265
 30
0.0
 11
295.0
 21
-37.1719
 31
0.0
  0
LINE
  5
698
330
1E
100
AcDbEntity
  8
0
100
AcDbLine
 10
290.596
 20
-36.8446
 30
0.0
 11
292.38
 21
-37.0858
 31
0.0
  0
LINE
  5
699
330
1E
100
AcDbEntity
  8
0
100
AcDbLine
 10
287.089
 20
-35.8277
 30
0.0
 11
287.942
 21
-36.1446
 31
0.0
  0
LINE
  5
69A
330
1E
100
AcDbEntity
  8
0
100
AcDbLine
 10
287.942
 20
-36.1446
 30
0.0
 11
290.596
 21
-36.8446
 31
0.0
  0
LINE
  5
69D
330
1E
100
AcDbEntity
  8
0
100
AcDbLine
 10
285.958374261995
 20
-35.288333628394
 30
0.0
 11
287.089
 21
-35.8277
 31
0.0
  0
LINE
  5
69E
330
1E
100
AcDbEntity
  8
0
100
AcDbLine
 10
297.063
 20
-37.1265
 30
0.0
 11
297.62
 21
-37.0858
 31
0.0
  0
LINE
  5
69F
330
1E
100
AcDbEntity
  8
0
100
AcDbLine
 10
297.62
 20
-37.0858
 30
0.0
 11
299.404
 21
-36.8446
 31
0.0
  0
LINE
  5
6A0
330
1E
100
AcDbEntity
  8
0
100
AcDbLine
 10
299.404
 20
-36.8446
 30
0.0
 11
302.058
 21
-36.1446
 31
0.0
  0
LINE
  5
6A3
330
1E
100
AcDbEntity
  8
0
100
AcDbLine
 10
302.058
 20
-36.1446
 30
0.0
 11
302.911
 21
-35.8277
 31
0.0
  0
LINE
  5
6A5
330
1E
100
AcDbEntity
  8
0
100
AcDbLine
 10
302.911
 20
-35.8277
 30
0.0
 11
304.039996346292
 21
-35.28903698352
 31
0.0
  0
LINE
  5
6A6
330
1E
100
AcDbEntity
  8
0
100
AcDbLine
 10
302.911
 20
-35.8277
 30
0.0
 11
304.039996346292
 21
-35.28903698352
 31
0.0
  0
LINE
  5
6A7
330
1E
100
AcDbEntity
  8
0
100
AcDbLine
 10
304.864681340381
 20
-34.895565996637
 30
0.0
 11
305.096
 21
-34.7852
 31
0.0
  0
LINE
  5
6A9
330
1E
100
AcDbEntity
  8
0
100
AcDbLine
 10
307.16
 20
-33.4334
 30
0.0
 11
308.981
 21
-31.7987
 31
0.0
  0
LINE
  5
6AB
330
1E
100
AcDbEntity
  8
0
100
AcDbLine
 10
308.981
 20
-31.7987
 30
0.0
 11
309.087454768187
 21
-31.663859689641
 31
0.0
  0
LINE
  5
6AC
330
1E
100
AcDbEntity
  8
0
100
AcDbLine
 10
308.981
 20
-31.7987
 30
0.0
 11
309.087454768187
 21
-31.663859689641
 31
0.0
  0
LINE
  5
6AD
330
1E
100
AcDbEntity
  8
0
100
AcDbLine
 10
310.462
 20
-29.9228
 30
0.0
 11
310.828
 21
-29.3193
 31
0.0
  0
LINE
  5
6AE
330
1E
100
AcDbEntity
  8
0
100
AcDbLine
 10
310.828
 20
-29.3193
 30
0.0
 11
311.223
 21
-28.5587
 31
0.0
  0
LINE
  5
6B0
330
1E
100
AcDbEntity
  8
0
100
AcDbLine
 10
309.579775576275
 20
-31.040264413548
 30
0.0
 11
310.462
 21
-29.9228
 31
0.0
  0
LINE
  5
6B1
330
1E
100
AcDbEntity
  8
0
100
AcDbLine
 10
311.223
 20
-28.5587
 30
0.0
 11
311.794
 21
-27.1189
 31
0.0
  0
LINE
  5
6B2
330
1E
100
AcDbEntity
  8
0
100
AcDbLine
 10
311.937266519087
 20
-26.509459308489
 30
0.0
 11
312.269
 21
-25.0983
 31
0.0
  0
LINE
  5
6B4
330
1E
100
AcDbEntity
  8
0
100
AcDbLine
 10
311.794
 20
-27.1189
 30
0.0
 11
311.81596840125
 21
-27.025448733545
 31
0.0
  0
LINE
  5
6B5
330
1E
100
AcDbEntity
  8
0
100
AcDbLine
 10
311.794
 20
-27.1189
 30
0.0
 11
311.81596840125
 21
-27.025448733545
 31
0.0
  0
LINE
  5
6B6
330
1E
100
AcDbEntity
  8
0
100
AcDbLine
 10
312.454
 20
-23.2698
 30
0.0
 11
312.5
 21
-20.743
 31
0.0
  0
LINE
  5
6B7
330
1E
100
AcDbEntity
  8
0
100
AcDbLine
 10
312.355
 20
-24.455
 30
0.0
 11
312.454
 21
-23.2698
 31
0.0
  0
LINE
  5
6B8
330
1E
100
AcDbEntity
  8
0
100
AcDbLine
 10
312.269
 20
-25.0983
 30
0.0
 11
312.355
 21
-24.455
 31
0.0
  0
LINE
  5
6B9
330
1E
100
AcDbEntity
  8
0
100
AcDbLine
 10
311.937266519087
 20
-26.509459308489
 30
0.0
 11
312.269
 21
-25.0983
 31
0.0
  0
LINE
  5
6BA
330
1E
100
AcDbEntity
  8
0
100
AcDbLine
 10
278.065085511464
 20
-26.520063236025
 30
0.0
 11
278.183269331305
 21
-27.023016535037
 31
0.0
  0
LINE
  5
6BB
330
1E
100
AcDbEntity
  8
0
100
AcDbLine
 10
280.416023126133
 20
-31.035065047155
 30
0.0
 11
280.912860896779
 21
-31.664594242666
 31
0.0
  0
LINE
  5
6BC
330
1E
100
AcDbEntity
  8
0
100
AcDbLine
 10
282.8398
 20
-33.4334
 30
0.0
 11
283.215607147214
 21
-33.679543757742
 31
0.0
  0
LINE
  5
6BD
330
1E
100
AcDbEntity
  8
0
100
AcDbLine
 10
285.958374261995
 20
-35.288333628394
 30
0.0
 11
285.136043594507
 21
-34.896039791916
 31
0.0
  0
LINE
  5
6BE
330
1E
100
AcDbEntity
  8
0
100
AcDbLine
 10
304.039996346292
 20
-35.28903698352
 30
0.0
 11
304.864681340381
 21
-34.895565996637
 31
0.0
  0
LINE
  5
6BF
330
1E
100
AcDbEntity
  8
0
100
AcDbLine
 10
306.785442726715
 20
-33.678713237416
 30
0.0
 11
307.16
 21
-33.4334
 31
0.0
  0
LINE
  5
6C0
330
1E
100
AcDbEntity
  8
0
100
AcDbLine
 10
308.981
 20
-31.7987
 30
0.0
 11
309.579775576275
 21
-31.040264413548
 31
0.0
  0
LINE
  5
6C1
330
1E
100
AcDbEntity
  8
0
100
AcDbLine
 10
311.794
 20
-27.1189
 30
0.0
 11
311.937266519087
 21
-26.509459308489
 31
0.0
  0
ENDSEC
  0
SECTION
  2
OBJECTS
  0
DICTIONARY
  5
C
330
0
100
AcDbDictionary
281
     1
  3
ACAD_GROUP
350
D
  3
ACAD_LAYOUT
350
19
  3
ACAD_MLEADERSTYLE
350
6C4
  3
ACAD_MLINESTYLE
350
16
  3
ACAD_PLOTSETTINGS
350
18
  3
ACAD_PLOTSTYLENAME
350
E
  3
ACAD_SCALELIST
350
60B
  3
AcDbVariableDictionary
350
608
  3
DWGPROPS
350
6CA
  0
DICTIONARY
  5
D
102
{ACAD_REACTORS
330
C
102
}
330
C
100
AcDbDictionary
281
     1
  0
DICTIONARY
  5
19
102
{ACAD_REACTORS
330
C
102
}
330
C
100
AcDbDictionary
281
     1
  3
Layout1
350
1D
  3
Model
350
21
  0
DICTIONARY
  5
6C4
102
{ACAD_REACTORS
330
C
102
}
330
C
100
AcDbDictionary
281
     1
  0
DICTIONARY
  5
16
102
{ACAD_REACTORS
330
C
102
}
330
C
100
AcDbDictionary
281
     1
  3
Standard
350
17
  0
DICTIONARY
  5
18
102
{ACAD_REACTORS
330
C
102
}
330
C
100
AcDbDictionary
281
     1
  0
ACDBDICTIONARYWDFLT
  5
E
102
{ACAD_REACTORS
330
C
102
}
330
C
100
AcDbDictionary
281
     1
  3
Normal
350
F
100
AcDbDictionaryWithDefault
340
F
  0
DICTIONARY
  5
60B
102
{ACAD_REACTORS
330
C
102
}
330
C
100
AcDbDictionary
281
     1
  3
A0
350
60C
  3
A1
350
60D
  3
A2
350
60E
  3
A3
350
60F
  3
A4
350
610
  3
A5
350
611
  3
A6
350
612
  3
A7
350
613
  3
A8
350
614
  3
A9
350
615
  3
B0
350
616
  3
B1
350
617
  3
B2
350
618
  3
B3
350
619
  3
B4
350
61A
  3
B5
350
61B
  3
B6
350
61C
  3
B7
350
61D
  3
B8
350
61E
  3
B9
350
61F
  3
C0
350
620
  3
C1
350
621
  3
C2
350
622
  3
C3
350
623
  3
C4
350
624
  3
C5
350
625
  3
C6
350
626
  3
C7
350
627
  3
C8
350
628
  3
C9
350
629
  3
D0
350
62A
  3
D1
350
62B
  3
D2
350
62C
  0
DICTIONARY
  5
608
102
{ACAD_REACTORS
330
C
102
}
330
C
100
AcDbDictionary
281
     1
  3
CANNOSCALE
350
6C5
  3
DIMASSOC
350
609
  0
XRECORD
  5
6CA
102
{ACAD_REACTORS
330
C
102
}
330
C
100
AcDbXrecord
280
     1
  1
DWGPROPS COOKIE
  2

  3

  4

  6

  7

  8
MARTIN
  9

300
=
301
=
302
=
303
=
304
=
305
=
306
=
307
=
308
=
309
=
 40
0.0
 41
2455655.779571574
 42
2456213.851019236
  1

 90
        0
  0
LAYOUT
  5
1D
102
{ACAD_REACTORS
330
19
102
}
330
19
100
AcDbPlotSettings
  1

  2
C:\Programme\AutoCAD LT 2002 Deu\plotters\DWF ePlot (optimized for plotting).pc3
  4

  6

 40
0.0
 41
0.0
 42
0.0
 43
0.0
 44
0.0
 45
0.0
 46
0.0
 47
0.0
 48
0.0
 49
0.0
140
0.0
141
0.0
142
1.0
143
1.0
 70
   688
 72
     0
 73
     0
 74
     5
  7

 75
    16
147
1.0
148
0.0
149
0.0
100
AcDbLayout
  1
Layout1
 70
     1
 71
     1
 10
0.0
 20
0.0
 11
12.0
 21
9.0
 12
0.0
 22
0.0
 32
0.0
 14
1.000000000000E+20
 24
1.000000000000E+20
 34
1.000000000000E+20
 15
-1.000000000000E+20
 25
-1.000000000000E+20
 35
-1.000000000000E+20
146
0.0
 13
0.0
 23
0.0
 33
0.0
 16
1.0
 26
0.0
 36
0.0
 17
0.0
 27
1.0
 37
0.0
 76
     0
330
1A
  0
LAYOUT
  5
21
102
{ACAD_REACTORS
330
19
102
}
330
19
100
AcDbPlotSettings
  1

  2
C:\Programme\AutoCAD LT 2002 Deu\plotters\DWF ePlot (optimized for plotting).pc3
  4

  6

 40
0.0
 41
0.0
 42
0.0
 43
0.0
 44
0.0
 45
0.0
 46
0.0
 47
0.0
 48
0.0
 49
0.0
140
0.0
141
0.0
142
1.0
143
1.0
 70
  1712
 72
     0
 73
     0
 74
     0
  7

 75
     0
147
1.0
148
0.0
149
0.0
100
AcDbLayout
  1
Model
 70
     1
 71
     0
 10
0.0
 20
0.0
 11
12.0
 21
9.0
 12
0.0
 22
0.0
 32
0.0
 14
155.0
 24
-37.1719
 34
0.0
 15
565.0
 25
231.8281
 35
0.0
146
0.0
 13
0.0
 23
0.0
 33
0.0
 16
1.0
 26
0.0
 36
0.0
 17
0.0
 27
1.0
 37
0.0
 76
     0
330
1E
331
60A
  0
MLINESTYLE
  5
17
102
{ACAD_REACTORS
330
16
102
}
330
16
100
AcDbMlineStyle
  2
STANDARD
 70
     0
  3

 62
   256
 51
90.0
 52
90.0
 71
     2
 49
0.5
 62
   256
  6
BYLAYER
 49
-0.5
 62
   256
  6
BYLAYER
  0
ACDBPLACEHOLDER
  5
F
102
{ACAD_REACTORS
330
E
102
}
330
E
  0
SCALE
  5
60C
102
{ACAD_REACTORS
330
60B
102
}
330
60B
100
AcDbScale
 70
     0
300
1:1
140
1.0
141
1.0
290
     1
  0
SCALE
  5
60D
102
{ACAD_REACTORS
330
60B
102
}
330
60B
100
AcDbScale
 70
     0
300
1:2
140
1.0
141
2.0
290
     0
  0
SCALE
  5
60E
102
{ACAD_REACTORS
330
60B
102
}
330
60B
100
AcDbScale
 70
     0
300
1:4
140
1.0
141
4.0
290
     0
  0
SCALE
  5
60F
102
{ACAD_REACTORS
330
60B
102
}
330
60B
100
AcDbScale
 70
     0
300
1:5
140
1.0
141
5.0
290
     0
  0
SCALE
  5
610
102
{ACAD_REACTORS
330
60B
102
}
330
60B
100
AcDbScale
 70
     0
300
1:8
140
1.0
141
8.0
290
     0
  0
SCALE
  5
611
102
{ACAD_REACTORS
330
60B
102
}
330
60B
100
AcDbScale
 70
     0
300
1:10
140
1.0
141
10.0
290
     0
  0
SCALE
  5
612
102
{ACAD_REACTORS
330
60B
102
}
330
60B
100
AcDbScale
 70
     0
300
1:16
140
1.0
141
16.0
290
     0
  0
SCALE
  5
613
102
{ACAD_REACTORS
330
60B
102
}
330
60B
100
AcDbScale
 70
     0
300
1:20
140
1.0
141
20.0
290
     0
  0
SCALE
  5
614
102
{ACAD_REACTORS
330
60B
102
}
330
60B
100
AcDbScale
 70
     0
300
1:30
140
1.0
141
30.0
290
     0
  0
SCALE
  5
615
102
{ACAD_REACTORS
330
60B
102
}
330
60B
100
AcDbScale
 70
     0
300
1:40
140
1.0
141
40.0
290
     0
  0
SCALE
  5
616
102
{ACAD_REACTORS
330
60B
102
}
330
60B
100
AcDbScale
 70
     0
300
1:50
140
1.0
141
50.0
290
     0
  0
SCALE
  5
617
102
{ACAD_REACTORS
330
60B
102
}
330
60B
100
AcDbScale
 70
     0
300
1:100
140
1.0
141
100.0
290
     0
  0
SCALE
  5
618
102
{ACAD_REACTORS
330
60B
102
}
330
60B
100
AcDbScale
 70
     0
300
2:1
140
2.0
141
1.0
290
     0
  0
SCALE
  5
619
102
{ACAD_REACTORS
330
60B
102
}
330
60B
100
AcDbScale
 70
     0
300
4:1
140
4.0
141
1.0
290
     0
  0
SCALE
  5
61A
102
{ACAD_REACTORS
330
60B
102
}
330
60B
100
AcDbScale
 70
     0
300
8:1
140
8.0
141
1.0
290
     0
  0
SCALE
  5
61B
102
{ACAD_REACTORS
330
60B
102
}
330
60B
100
AcDbScale
 70
     0
300
10:1
140
10.0
141
1.0
290
     0
  0
SCALE
  5
61C
102
{ACAD_REACTORS
330
60B
102
}
330
60B
100
AcDbScale
 70
     0
300
100:1
140
100.0
141
1.0
290
     0
  0
SCALE
  5
61D
102
{ACAD_REACTORS
330
60B
102
}
330
60B
100
AcDbScale
 70
     0
300
1/128" = 1'-0"
140
0.0078125
141
12.0
290
     0
  0
SCALE
  5
61E
102
{ACAD_REACTORS
330
60B
102
}
330
60B
100
AcDbScale
 70
     0
300
1/64" = 1'-0"
140
0.015625
141
12.0
290
     0
  0
SCALE
  5
61F
102
{ACAD_REACTORS
330
60B
102
}
330
60B
100
AcDbScale
 70
     0
300
1/32" = 1'-0"
140
0.03125
141
12.0
290
     0
  0
SCALE
  5
620
102
{ACAD_REACTORS
330
60B
102
}
330
60B
100
AcDbScale
 70
     0
300
1/16" = 1'-0"
140
0.0625
141
12.0
290
     0
  0
SCALE
  5
621
102
{ACAD_REACTORS
330
60B
102
}
330
60B
100
AcDbScale
 70
     0
300
3/32" = 1'-0"
140
0.09375
141
12.0
290
     0
  0
SCALE
  5
622
102
{ACAD_REACTORS
330
60B
102
}
330
60B
100
AcDbScale
 70
     0
300
1/8" = 1'-0"
140
0.125
141
12.0
290
     0
  0
SCALE
  5
623
102
{ACAD_REACTORS
330
60B
102
}
330
60B
100
AcDbScale
 70
     0
300
3/16" = 1'-0"
140
0.1875
141
12.0
290
     0
  0
SCALE
  5
624
102
{ACAD_REACTORS
330
60B
102
}
330
60B
100
AcDbScale
 70
     0
300
1/4" = 1'-0"
140
0.25
141
12.0
290
     0
  0
SCALE
  5
625
102
{ACAD_REACTORS
330
60B
102
}
330
60B
100
AcDbScale
 70
     0
300
3/8" = 1'-0"
140
0.375
141
12.0
290
     0
  0
SCALE
  5
626
102
{ACAD_REACTORS
330
60B
102
}
330
60B
100
AcDbScale
 70
     0
300
1/2" = 1'-0"
140
0.5
141
12.0
290
     0
  0
SCALE
  5
627
102
{ACAD_REACTORS
330
60B
102
}
330
60B
100
AcDbScale
 70
     0
300
3/4" = 1'-0"
140
0.75
141
12.0
290
     0
  0
SCALE
  5
628
102
{ACAD_REACTORS
330
60B
102
}
330
60B
100
AcDbScale
 70
     0
300
1" = 1'-0"
140
1.0
141
12.0
290
     0
  0
SCALE
  5
629
102
{ACAD_REACTORS
330
60B
102
}
330
60B
100
AcDbScale
 70
     0
300
1-1/2" = 1'-0"
140
1.5
141
12.0
290
     0
  0
SCALE
  5
62A
102
{ACAD_REACTORS
330
60B
102
}
330
60B
100
AcDbScale
 70
     0
300
3" = 1'-0"
140
3.0
141
12.0
290
     0
  0
SCALE
  5
62B
102
{ACAD_REACTORS
330
60B
102
}
330
60B
100
AcDbScale
 70
     0
300
6" = 1'-0"
140
6.0
141
12.0
290
     0
  0
SCALE
  5
62C
102
{ACAD_REACTORS
330
60B
102
}
330
60B
100
AcDbScale
 70
     0
300
1'-0" = 1'-0"
140
12.0
141
12.0
290
     0
  0
DICTIONARYVAR
  5
6C5
102
{ACAD_REACTORS
330
608
102
}
330
608
100
DictionaryVariables
280
     0
  1
1:1
  0
DICTIONARYVAR
  5
609
102
{ACAD_REACTORS
330
608
102
}
330
608
100
DictionaryVariables
280
     0
  1
1
  0
ENDSEC
  0
SECTION
  2
THUMBNAILIMAGE
 90
    16364
310
28000000B40000005500000001000800000000000000000000000000000000000000000000000000FFFFFF000000FF0000FFFF0000FF0000FFFF0000FF000000FF00FF000000000080808000C0C0C0000000FF007F7FFF000000A5005252A50000007F003F3F7F0000004C0026264C000000260013132600003FFF007F9FFF
310
000029A5005267A500001F7F003F4F7F0000134C00262F4C000009260013172600007FFF007FBFFF000052A500527CA500003F7F003F5F7F0000264C0026394C0000132600131C260000BFFF007FDFFF00007CA5005291A500005F7F003F6F7F0000394C0026424C00001C26001321260000FFFF007FFFFF0000A5A50052A5
310
A500007F7F003F7F7F00004C4C00264C4C00002626001326260000FFBF007FFFDF0000A57C0052A59100007F5F003F7F6F00004C3900264C420000261C001326210000FF7F007FFFBF0000A5520052A57C00007F3F003F7F5F00004C2600264C39000026130013261C0000FF3F007FFF9F0000A5290052A56700007F1F003F
310
7F4F00004C1300264C2F00002609001326170000FF00007FFF7F0000A5000052A55200007F00003F7F3F00004C0000264C260000260000132613003FFF00009FFF7F0029A5000067A552001F7F00004F7F3F00134C00002F4C260009260000172613007FFF0000BFFF7F0052A500007CA552003F7F00005F7F3F00264C0000
310
394C2600132600001C261300BFFF0000DFFF7F007CA5000091A552005F7F00006F7F3F00394C0000424C26001C26000021261300FFFF0000FFFF7F00A5A50000A5A552007F7F00007F7F3F004C4C00004C4C26002626000026261300FFBF0000FFDF7F00A57C0000A59152007F5F00007F6F3F004C3900004C422600261C00
310
0026211300FF7F0000FFBF7F00A5520000A57C52007F3F00007F5F3F004C2600004C39260026130000261C1300FF3F0000FF9F7F00A5290000A56752007F1F00007F4F3F004C1300004C2F26002609000026171300FF000000FF7F7F00A5000000A55252007F0000007F3F3F004C0000004C2626002600000026131300FF00
310
3F00FF7F9F00A5002900A55267007F001F007F3F4F004C0013004C262F002600090026131700FF007F00FF7FBF00A5005200A5527C007F003F007F3F5F004C0026004C2639002600130026131C00FF00BF00FF7FDF00A5007C00A55291007F005F007F3F6F004C0039004C26420026001C0026132100FF00FF00FF7FFF00A5
310
00A500A552A5007F007F007F3F7F004C004C004C264C002600260026132600BF00FF00DF7FFF007C00A5009152A5005F007F006F3F7F0039004C0042264C001C002600211326007F00FF00BF7FFF005200A5007C52A5003F007F005F3F7F0026004C0039264C00130026001C1326003F00FF009F7FFF002900A5006752A500
310
1F007F004F3F7F0013004C002F264C000900260017132600000000002D2D2D005B5B5B0089898900B7B7B700B3B3B30000000000000000000000000000000000000000000000000000000000000000000000000000000000000000000000000000000000000000000000000000000000000000000000000000000000000000
310
00000000000000000000000000000000000000000000000000000000000000000000000000000000000000000000000000000000000000000000000000000000000000000000000000000000000000000000000000000000000000000000000000000000000000000000000000000000000000000000000000000000000000
310
00000000000000000000000000000000000000000000000000000000000000000000000000000000000000000000000000000000000000000000000000000000000000000000000000000000000000000000000000000000000000000000000000000000000000000000000000000000000000000000000000000000000000
310
00000000000000000000000000000000000000000000000000000000000000000000000000000000000000000000000000000000000000000000000000000000000000000000000000000000000000000000000000000000000000000000000000000000000000000000000000000000000000000000000000000000000000
310
00000000000000000000000000000000000000000000000000000000000000000000000000000000000000000000000000000000000000000000000000000000000000000000000000000000000000000000000000000000000000000000000000000000000000000000000000000000000000000000000000000000000000
310
00000000000000000000000000000000000000000000000000000000000000000000000000000000000000000000000000000000000000000000000000000000000000000000000000000000000000000000000000000000000000000000000000000000000000000000000000000000000000000000000000000000000000
310
00000000000000000000000000000000000000000000000000000000000000000000000000000000000000000000000000000000000000000000000000000000000000000000000000000000000000000000000000000000000000000000000000000000000000000000000000000000000000000000000000000000000000
310
00000000000000000000000000000000000000000000000000000000000000000000000000000000000000000000000000000000000000000000000000000000000000000000000000000000000000000000000000000000000000000000000000000000000000000000000000000000000000000000000000000000000000
310
00000000000000000000000000000000000000000000000000000000000000000000000000000000000000000000000000000000000000000000000000000000000000000000000000000000000000000000000000000000000000000000000000000000000000000000000000000000000000000000000000000000000000
310
00000000000000000000000000000000000000000000000000000000000000000000000000000000000000000000000000000000000000000000000000000000000000000000000000000000000000000000000000000000000000000000000000000000000000000000000000000000000000000000000000000000000000
310
00000000000000000000000000000000000000000000000000000000000000000000000000000000000000000000000000000000000000000000000000000000000000000000000000000000000000000000000000000000000000000000000000000000000000000000000000000000000707070707070000000000000000
310
00000000000000000000000000000000000000000000000000000000000000000000000000000000000000000000000000000000000000000000000000000000000000000000000000000000000000000000000000000000000000000000000000000000000000000000000000000000000000000000000000000000000000
310
00000000000000000000000000000000000000000000000000000000000000000000000000000707000000000007000000000000000000000000000000000000000000000000000000000000000000000000000000000000000000000000000000000000000000000000000000000000000000000000000000000000000000
310
00000000000000000000000000000000000000000000000000000000000000000000000000000000000000000000000000000000000000000000000000000000000000000000000000000000000000000000000000000000000000070000000000000007000000000000000000000000000000000000000000000000000000
310
00000000000000000000000000000000000000000000000000000000000000000000000000000000000000000000000000000000000000000000000000000000000000000000000000000000000000000000000000000000000000000000000000000000000000000000000000000000000000000000000000000000000000
310
00000000000000000000000000000000000700000000000000070000000000000000000000000000000000000000000000000000000000000000000000000000000000000000000000000000000000000000000000000000000000000000000000000000000000000000000000000000000000000000000000000000000000
310
00000000000000000000000000000000000000000000000000000000000000000000000000000000000000000000000000000000000000000000000000000000000000000000070000000000000007000000000000000000000000000000000000000000000000000000000000000000000000000000000000000000000000
310
00000000000000000000000000000000000000000000000000000000000000000000000000000000000000000000000000000000000000000000000000000000000000000000000000000000000000000000000000000000000000000000000000000000000000000000000000000000000000000000000000000007000000
310
00000000070000000000000000000000000000000000000000000000000000000000000000000000000000000000000000000000000000000000000000000000000000000000000000000000000000000000000000000000000000000000000000000000000000000000000000000000000000000000000000000000000000
310
00000000000000000000000000000000000000000000000000000000000000000000000000000000000000000000000000070000000000000007000000000000000000000000000000000000000000000000000000000000000000000000000000000000000000000000000000000000000000000000000000000000000000
310
00000000000000000000000000000000000000000000000000000000000000000000000000000000000000000000000000000000000000000000000000000000000000000000000000000000000000000000000000000000000000000000000000000000000007000000000000000700000000000000000000000000000000
310
00000000000000000000000000000000000000000000000000000000000000000000000000000000000000000000000000000000000000000000000000000000000000000000000000000000000000000000000000000000000000000000000000000000000000000000000000000000000000000000000000000000000000
310
00000000000000000000000000000000000000000000000000000000070000000000000007000000000000000000000000000000000000000000000000000000000000000000000000000000000007070707070700000000000000000000000000000000000000000000000000000000000000000000000000000000000000
310
00000000000000000000000000000000000000000000000000000000000000000000000000000000000000000000000000000000000000000000000000000000000000000000000000000000000000000007000000000000000700000000000000000000000000000000000000000000000000000000000000000000000000
310
00070707000000000000070707000000000000000000000000000000000000000000000000000000000000000000000000000000000000000000000000000000000000000000000000000000000000000000000000000000000000000000000000000000000000000000000000000000000000000000000000000000000000
310
00000000000000070000000000000007000000000000000000000000000000000000000000000000000000000000000000000000000700000007070707070700000007000000000000000000000000000000000000000000000000000000000000000000000000000000000000000000000000000000000000000000000000
310
00000000000000000000000000000000000000000000000000000000000000000000000000000000000000000000000000000000000000000000000007000000000000000700000000000000000000000000000000000000000000000000000000000000000000000007000707070000000000000707070007000000000000
310
00000000000000000000000000000000000000000000000000000000000000000000000000000000000000000000000000000000000000000000000000000000000000000000000000000000000000000000000000000000000000000000000000000000000000000000000000000000000700000000000000070000000000
310
00000000000000000000000000000000000000000000000000000000000007000700000000000000000000000007000700000000000000000000000000000000000000000000000000000000000000000000000000000000000000000000000000000000000000000000000000000000000000000000000000000000000000
310
00000000000000000000000000000000000000000000000000000000000000000000000000000007000000000000000700000000000000000000000000000000000000000000000000000000000000000000070007000000000000000000000000000007000700000000000000000000000000000000000000000000000000
310
00000000000000000000000000000000000000000000000000000000000000000000000000000000000000000000000000000000000000000000000000000000000000000000000000000000000000000000000000000000000000000700000000000000070000000000000000000000000000000000000000000000000000
310
00000000000000070007000000000000000000000000000000000700070000000000000000000000000000000000000000000000000000000000000000000000000000000000000000000000000000000000000000000000000000000000000000000000000000000000000000000000000000000000000000000000000000
310
00000000000000000000000000000000000007000000000000000700000000000000000000000000000000000000000000000000000000000000000007070000000000000000000000000000000000000707000000000000000000000000000000000000000000000000000000000000000000000000000000000000000000
310
00000000000000000000000000000000000000000000000000000000000000000000000000000000000000000000000000000000000000000000000000000000000000000000000700000000000000070000000000000000000000000000000000000000000000000000000000000000000707000000000000000000000000
310
00000000000000070000000000000000000000000000000000000000000000000000000000000000000000000000000000000000000000000000000000000000000000000000000000000000000000000000000000000000000000000000000000000000000000000000000000000000000000000000000000000000070000
310
00000000000700000000000000000000000000000000000000000000000000000000000000000007000000000000000000000000000000000000000007070000000000000000000000000000000000000000000000000000000000000000000000000000000000000000000000000000000000000000000000000000000000
310
00000000000000000000000000000000000000000000000000000000000000000000000000000000000000000000000000000700000000000000070000000000000000000000000000000000000000000000000000000000000000000700000000000000000000000000000000000000000707000000000000000000000000
310
00000000000000000000000000000000000000000000000000000000000000000000000000000000000000000000000000000000000000000000000000000000000000000000000000000000000000000000000000000000000000000000000000000000000000070000000000000007000000000000000000000000000000
310
00000000000000000000000000000000000007000000000000000000000000000000000000000007070000000000000000000000000000000000000000000000000000000000000000000000000000000000000000000000000000000000000000000000000000000000000000000000000000000000000000000000000000
310
00000000000000000000000000000000000000000000000000000000000700000000000000070000000000000000000000000000000000000000000000000000000000000000000700000000000000000000000000000000000000000007000000000000000000000000000000000000000000000000000000000000000000
310
00000000000000000000000000000000000000000000000000000000000000000000000000000000000000000000000000000000000000000000000000000000000000000000000000000000000000000000070000000000000007000000000000000000000000000000000000000000000000000000000000000000070000
310
00000000000000000000000000000000000007070000000000000000000000000000000000000000000000000000000000000000000000000000000000000000000000000000000000000000000000000000000000000000000000000000000000000000000000000000000000000000000000000000000000000000000000
310
00000000000000000700000000000000070000000000000000000000000000000000000000000000000000000000000000000700000000000000000000000000000000000000000700000000000000000000000000000000000000000000000000000000000000000000000000000000000000000000000000000000000000
310
00000000000000000000000000000000000000000000000000000000000000000000000000000000000000000000000000000000000000000000000000070000000000000007000000000000000000000000000000000000000000000000000000000000000000070000000000000000000000000000000000000000070000
310
00000000000000000000000000000000000000000000000000000000000000000000000000000000000000000000000000000000000000000000000000000000000000000000000000000000000000000000000000000000000000000000000000000000000000000000000000000000000007000000000000000700000000
310
00000000000000000000000000000000000000000000000000000000000707000000000000000000000000000000000000000700000000000000000000000000000000000000000000000000000000000000000000000000000000000000000000000000000000000007070707070707070707070707070707070707070707
310
07070707070707070707070707070707070707070707070707070707070707070707070707070707070000000000000007070707070707070707070707070707070707070707070707070707070707070707070700000000000000000000000000000000000007070707070707070707070707070707070707070707070707
310
07070707070707070000000000000000000000000000000000000000000000070007070700000000000000000000000000000000000000000000000000000000000000000000000000000000000000000000000000000000000000000007000000000000000700000000000000000000000000000000000000000000000000
310
00000000000000000000070000000000000000000000000000000007000000000000000000000000000000000000000000000000000000000707070007000000000000000000000000000000000000000000000007000000000707070000000000000000000000000000000000000000000000000000000000000000000000
310
00000000000000000000000000000000000000070000000000000007000000000000000000000000000000000000000000000000000000000000000000000000070000000000000000000000000000070000000000000000000000000000000000000000000000000000070707000000000700000000000000000000000000
310
00000000000000000000070000000000000007070700000000000000000000000000000000000000000000000000000000000000000000000000000000000000000000000000000007000000000000000700000000000000000000000000000000000000000000000000000000000000000000000000070000000000000000
310
00000000070000000000000000000000000000000000000000000000000707070000000000000007000000000000000000000000000000000000000000000007000000000000000000000707070000000000000000000000000000000000000000000000000000000000000000000000000000000000000000000000000700
310
00000000000007000000000000000000000000000000000000000000000000000000000000000000000000000007070000000000000000070700000000000000000000000000000000000000000000070707000000000000000000000700000000000000000000000000000000000000000000000700000000000000000000
310
00000007070700000000000000000000000000000000000000000000000000000000000000000000000000000000000000000007000000000000000700000000000000000000000000000000000000000000000000000000000000000000000000000000070707070707070700000000000000000000000000000000000000
310
00000707070000000000000000000000000007000000000000000000000000000000000000000000000007000000000000000000000000000000000707070000000000000000000000000000000000000000000000000000000000000000000000000000000000000700000000000000070000000000000000000000000000
310
00000000000000000000000000000000000000000000000000000007070000000700000000000000000000000000000000000000070707000000000000000000000000000000000700000000000000000000000000000000000000000000000700000000000000000000000000000000000000070707000000000000000000
310
00000000000000000000000000000000000000000000000000000000000007000000000000000700000000000000000000000000000000000000000000000000000000000000000000000000000000000707000007070000000000000000000000000000000007070700000000000000000000000000000000000000070000
310
00000000000000000000000000000000000000000007000000000000000000000000000000000000000000000707070000000000000000000000000000000000000000000000000000000000000000000000000700000000000000070000000000000000000000000000000000000000000000000000000000000000000000
310
00000000000007070707070700000000000000000000000000070707000000000000000000000000000000000000000000000700000000000000000000000000000000000000000000000700000000000000000000000000000000000000000000000000070707000000000000000000000000000000000000000000000000
310
00000000000000000007000000000000000700000000000000000000000000000000000000000000000000000000000000000000000000000000000700000000070000000000000000000007070700000000000000000000000000000000000000000000000000070000000000000000000000000000000000000000000000
310
07000000000000000000000000000000000000000000000000000000000707070000000000000000000000000000000000000000000000000000000000000700000000000000070000000000000000000000000000000000000000000000000000000000000000000000000000000000070000000007000000000000000707
310
07000000000000000000000000000000000000000000000000000000000700000000000000000000000000000000000000000000000700000000000000000000000000000000000000000000000000000000000000070707070707070707070707070707070707070707070707070707070707070000000000000007070707
310
07070707070707070707070707070707070707070707070707070707070707070707070707070700000000070707070707070700000000000000000000000000000000000000000000000000000000000000070000000000000000000000000000000000000000000000070000000000000000000000000000000000000000
310
00000000000000000000000007000000000000000000000000000000000000000000000000000000000700000000000000070000000000000000000000000000000000000000000000000000000000000000000000000000000000070000000007000000000007000000000000000000000000000000000000000000000000
310
00000000000000000700000000000000000000000000000000000000000000000700000000000000000000000000000000000000000000000000000000000000000700000000000000000000000000000000000000000000000000000000070000000000000007000000000000000000000000000000000000000000000000
310
00000000000000000000000000000000000700000000070000000000070000000000000000000000000000000000000000000000000000000000000000070000000000000000000000000000000000000000000000070000000000000000000000000000000000000000000000000000000000000000070000000000000000
310
00000000000000000000000000000000000000000700000000000000070000000000000000000000000000000000000000000000000000000000000000000000000000000000070000000007000000000007000000000000000000000000000000000000000000000000000000000000000007000000000000000000000000
310
00000000000000000000000700000000000000000000000000000000000000000000000000000000000000000700000000070707070000000000000000000000000000000000000000070000000000000007000000000000000000000000000000000000000000000000000000000000000000000000000000000007000000
310
00070000000000070000000000000000000000000000000000000000000000000000000000000000070000000000000000000000000000000000000000000000070000000000000000000000000000000000000000000000000000000000000000070000000700000007000000000000000000000000000000000000000007
310
00000000000000070000000000000000000000000000000000000000000000000000000000000000000000000000000000070000000007000000000007000000000000000000000000000000000000000000000000000000000000000007000000000000000000000000000000000000000000000007000000000000000000
310
00000000000000000000000000000000000000000000000700000700000000070707070000000000000000000000000000000000070000000000000007000000000000000000000000000000000000000000000000000000000000000000000000000000000007000000000700000000000700000000000000000000000000
310
00000000000000000000000000000000000000070000000000000000000000000000000000000000000000070000000000000000000000000000000000000000000000000000000000000000070000070000000000070000070707070700000000000000000000000007000000000000000700000000000000000000000000
310
00000000000000000000000000000000000000000000000000000000070000000007000000000007000000000000000000000000000000000000000000000000000000000000000007000000000000000000000000000000000000000000000007000000000000000000000000000000000000000000000000000000000000
310
00000700000700000000000700000000000000070707070000000000000000070000000000000007000000000000000000000000000000000000000000000000000000000000000000000000000000000007000000000700000000000700000000000000000000000000000000000000000000000000000000000000000700
310
00000000000000000000000000000000000000000000070000000000000000000000000000000000000000000000000000000000000000070000000700000707070707070000000000000000070707070000000007000000000000000700000000000000000000000000000000000707070707000000000000000000000000
310
00000000000007070000000007070000000007000000000000000000000000000000000000000000000000000000000000000007000000000000000000000000000000000000000000000007000000000000000000000000000000000000000000000000000000000000000007000000070707000000000707070707070000
310
00000000000007070707070000000000000007070000000000000000000000000000000700000000000707000000000000000000000000000007070007000000000707070700000700000000000000000000000000000000000000000000000000000000000000000700000000000000000000000000000000000000000000
310
00070000000000000000000000000000000000000000000000000000000000000000070000000700000707070700000700000007070700000707000707000007000000000000000700070000000000000000000000000707000007070700000007000000000000000000000000070007070707070707070007070000070000
310
00000000000000000000000000000000000000000000000000000000000007000000000000000000000000000000000000000000000007000000000000000000000000000000000000000000000000000000000000000007000007000707000000000707000700000000000707070007070700000700000000000000070000
310
07000000000000000000000700000707000000070700000700000000000000000000000707000007000000000700000707000700000000000000000000000000000000000000000000000000000000000000000700000000000000000000000000000000000000000000000700000000000000000000000000000000000000
310
00000000000000000000000000070007000007000000000000070007070700000000070000000700000707000000000000000700000707070707070000000000070007000000000000000700070000000000000000000007000700000700000000070000070707070000000000000000000000000000000000000000000000
310
00000000000000000007000000000000000000000000000000000000000000000007000000000000000000000000000000000000000000000000000000000000000007000700070707070707070707070007000707000007000007070000070700000000000000070700070707000000070707070707000707070707070707
310
07000007000000000000000000070007000007070000070700000700070700000000000000000000000000000000000000000000000000000000000000000700000000000000000000000000000000000000000000000700000000000000000000000000000000000000000000000000000000000000000700070007000000
310
00000000000700000000000707070700070700070007000000000000000700000007070707070700000000070007000000000000000707000707070700000000000007000700000000070700000000000000070000000000000000000000000000000000000000000000000000000000000000070000000000000000000000
310
00000000000000000000000007000000000000000000000000000000000000000000000000000000000000000007000700070000000000000000070007000000000000000707070007000700000000000000070700070700070707070707000007000700000000000000070700070000070700000000000700070000000000
310
00000000000700070700000000000000000000000000000000000000000000000000000000000000000700000000000000000000000000000000000000000000000700000000000000000000000000000000000000000000000000000000000000000700070007070707070707070707000700000000000000000707000007
310
07070000000007070707000707000007070007070707070007070707070707070700000700000000070000000007000700000000000000000000070007070000000000000000000000000000000000000000000000000000000000000000070000000000000000000000000000000000000000000000070000000000000000
310
00000000000000000000000000000000000000000000000007000700000700000000000007000700000000000000000000070000070007070707070700070000070700000700000000000007000700000000000000070007000000000000000000000700070000000000000000000007070007000000000000000000000000
310
00000000000000000000000000000000000000000700000000000000000000000000000000000000000000000700000000000000000000000000000000000000000000000000000000000000000700000700070700000000070700070000000000000000000000070000070000000000000007000007070707070700000000
310
00070000070700000007070007070000000000070000000000070700000000000000000007000700070000000000000000000000000000000000000000000000000000000000000000070000000000000000000000000000000000000000000000070000000000000000000000000000000000000000000000000000000000
310
00000007000000070000070707070000070000000000000000000000000700000007000000000707000007070700000000070707070707070000000707070000000700070707070700000000000007000700000000000000000707000007000000000000000000000000000000000000000000000000000000000000000007
310
00000000000000000000000000000000000000000000000700000000000000000000000000000000000000000000000000000000000000000700000000070000000000000700000000000000000000000000000700000007070707000000070000000000000000000000000000070700000000000007000000000000000000
310
00000000000700070707070707070700070000070000000000000000000000000000000000000000000000000000000000000000070000000000000000000000000000000000000000000000070000000000000000000000000000000000000000000000000000000000000007070707070707070707070707070707070707
310
07070707070707070707070700000000000007070707070707070707070707070707070707070707070707070707070707070707070707070707070707000000000000070707070707070000000000000000000000000000000000000000000000000000000000000007000000000000000000000000000000000000000000
310
00000700000000000000000000000000000000000000000000000000000000070707000000000000000000000000000000000000000000000000000000000000000707070707070700000000000000000000000000000000000000000000000000000000000000000000000000000000000007070707070700000000000000
310
07070700000000000000000000000000000000000000000000000000000000070000000000000000000000000000000000000000000000070000000000000000000000000000000000000000000000000007070700000000000000000000000000000000000000000000000000000000000000000000000000000000000000
310
00000000000000000000000000000000000000000000000000000000000000000000000000000000000000000000000000000000000000000707070000000000000000000000000000000000000000000000000007000000000000000000000000000000000000000000000007000000000000000000000000000000000000
310
00000000070707000000000000000000000000000000000000000000000000000000000000000000000000000000000000000000000000000000000000000000000000000000000000000000000000000000000000000000000000000000000000000000000000000000000000000000070707000000000000000000000000
310
00000000000000000000070000000000000000000000000000000000000000000000070000000000000000000000000000000000000007070700000000000000000000000000000000000000000000000000000000000000000000000000000000000000000000000000000000000000000000000000000000000000000000
310
00000000000000000000000000000000000000000000000000000000000000000000000000000000000707070000000000000000000000000000000000000007000000000000000000000000000000000000000000000007000000000000000000000000000000000707070000000000000000000000000000000000000000
310
00000000000000000000000000000000000000000000000000000000000000000000000000000000000000000000000000000000000000000000000000000000000000000000000000000000000000000000000000000000000000000000000000070707000000000000000000000000000000000700000000000000000000
310
00000000000000000000000000070000000000000000000000000007070700000000000000000000000000000000000000000000000000000000000000000000000000000000000000000000000000000000000000000000000000000000000000000000000000000000000000000000000000000000000000000000000000
310
00000000000000000000000000000000000000000000000000000707070000000000000000000000000007000000000000000000000000000000000000000000000007000000000000000000000707070000000000000000000000000000000000000000000000000000000000000000000000000000000000000000000000
310
00000000000000000000000000000000000000000000000000000000000000000000000000000000000000000000000000000000000000000000000000000000000000000000000000000000000000000000070707000000000000000000000700000000000000000000000000000000000000000000000700000000000000
310
07070700000000000000000000000000000000000000000000000000000000000000000000000000000000000000000000000000000000000000000000000000000000000000000000000000000000000000000000000000000000000000000000000000000000000000000000000000000000000000000000000000000000
310
00000000000000000000000707070000000000000007000000000000000000000000000000000000000000000007000000000707070000000000000000000000000000000000000000000000000000000000000000000000000000000000000000000000000000000000000000000000000000000000000000000000000000
310
00000000000000000000000000000000000000000000000000000000000000000000000000000000000000000000000000000000000000000000000000000000000000070707000000000700000000000000000000000000000000000000000000000700070707000000000000000000000000000000000000000000000000
310
00000000000000000000000000000000000000000000000000000000000000000000000000000000000000000000000000000000000000000000000000000000000000000000000000000000000000000000000000000000000000000000000000000000000000000000000000000000000000000000000000000007070700
310
07000000000000000000000000000000000000000000000007070707070707070707070707070707070707070707070707070707070707070707070707070707070707070707070707070707070707070707070707070707070707070707070707070707070707070707070707070707070707070707070707070707070707
310
07070707070707070707070707070707070707070707070707070707070707070707070707070707070707070707070707070707070700000000000000000000000000000000000000000000000000000000000000000000000000000000000000000000000000000000000000000000000000000000000000000000000000
310
00000000000000000000000000000000000000000000000000000000000000000000000000000000000000000000000000000000000000000000000000000000000000000000000000000000000000000000000000000000000000000000000000000000000000000000000000000000000000000000000000000000000000
310
00000000000000000000000000000000000000000000000000000000000000000000000000000000000000000000000000000000000000000000000000000000000000000000000000000000000000000000000000000000000000000000000000000000000000000000000000000000000000000000000000000000000000
310
00000000000000000000000000000000000000000000000000000000000000000000000000000000000000000000000000000000000000000000000000000000000000000000000000000000000000000000000000000000000000000000000000000000000000000000000000000000000000000000000000000000000000
310
00000000000000000000000000000000000000000000000000000000000000000000000000000000000000000000000000000000000000000000000000000000000000000000000000000000000000000000000000000000000000000000000000000000000000000000000000000000000000000000000000000000000000
310
00000000000000000000000000000000000000000000000000000000000000000000000000000000000000000000000000000000000000000000000000000000000000000000000000000000000000000000000000000000000000000000000000000000000000000000000000000000000000000000000000000000000000
310
00000000000000000000000000000000000000000000000000000000000000000000000000000000000000000000000000000000000000000000000000000000000000000000000000000000000000000000000000000000000000000000000000000000000000000000000000000000000000000000000000000000000000
310
00000000000000000000000000000000000000000000000000000000000000000000000000000000000000000000000000000000000000000000000000000000000000000000000000000000000000000000000000000000000000000000000000000000000000000000000000000000000000000000000000000000000000
310
00000000000000000000000000000000000000000000000000000000000000000000000000000000000000000000000000000000000000000000000000000000000000000000000000000000000000000000000000000000000000000000000000000000000000000000000000000000000000000000000000000000000000
310
00000000000000000000000000000000000000000000000000000000000000000000000000000000000000000000000000000000000000000000000000000000000000000000000000000000000000000000000000000000000000000000000000000000000000000000000000000000000000000000000000000000000000
310
00000000000000000000000000000000000000000000000000000000000000000000000000000000000000000000000000000000000000000000000000000000000000000000000000000000000000000000000000000000000000000000000000000000000000000000000000000000000000000000000000000000000000
310
000000000000000000000000000000000000000000000000000000000000000000000000000000000000000000000000000000000000000000000000000000000000000000000000000000000000000000000000000000000000000000000000000000000000000000000000
  0
ENDSEC
  0
EOF
