  0
SECTION
  2
HEADER
  9
$ACADVER
  1
AC1015
  9
$ACADMAINTVER
 70
     6
  9
$DWGCODEPAGE
  3
ANSI_1252
  9
$INSBASE
 10
0.0
 20
0.0
 30
0.0
  9
$EXTMIN
 10
0.0
 20
-0.074919
 30
0.0
  9
$EXTMAX
 10
289.861
 20
237.009795
 30
0.0
  9
$LIMMIN
 10
0.0
 20
0.0
  9
$LIMMAX
 10
12.0
 20
9.0
  9
$ORTHOMODE
 70
     0
  9
$REGENMODE
 70
     1
  9
$FILLMODE
 70
     1
  9
$QTEXTMODE
 70
     0
  9
$MIRRTEXT
 70
     1
  9
$LTSCALE
 40
1.0
  9
$ATTMODE
 70
     1
  9
$TEXTSIZE
 40
0.2
  9
$TRACEWID
 40
0.05
  9
$TEXTSTYLE
  7
Standard
  9
$CLAYER
  8
0
  9
$CELTYPE
  6
Continuous
  9
$CECOLOR
 62
   256
  9
$CELTSCALE
 40
1.0
  9
$DISPSILH
 70
     0
  9
$DIMSCALE
 40
1.0
  9
$DIMASZ
 40
0.18
  9
$DIMEXO
 40
0.0625
  9
$DIMDLI
 40
0.38
  9
$DIMRND
 40
0.0
  9
$DIMDLE
 40
0.0
  9
$DIMEXE
 40
0.18
  9
$DIMTP
 40
0.0
  9
$DIMTM
 40
0.0
  9
$DIMTXT
 40
0.18
  9
$DIMCEN
 40
0.09
  9
$DIMTSZ
 40
0.0
  9
$DIMTOL
 70
     0
  9
$DIMLIM
 70
     0
  9
$DIMTIH
 70
     1
  9
$DIMTOH
 70
     1
  9
$DIMSE1
 70
     0
  9
$DIMSE2
 70
     0
  9
$DIMTAD
 70
     0
  9
$DIMZIN
 70
     0
  9
$DIMBLK
  1

  9
$DIMASO
 70
     1
  9
$DIMSHO
 70
     1
  9
$DIMPOST
  1

  9
$DIMAPOST
  1

  9
$DIMALT
 70
     0
  9
$DIMALTD
 70
     2
  9
$DIMALTF
 40
25.4
  9
$DIMLFAC
 40
1.0
  9
$DIMTOFL
 70
     0
  9
$DIMTVP
 40
0.0
  9
$DIMTIX
 70
     0
  9
$DIMSOXD
 70
     0
  9
$DIMSAH
 70
     0
  9
$DIMBLK1
  1

  9
$DIMBLK2
  1

  9
$DIMSTYLE
  2
Standard
  9
$DIMCLRD
 70
     0
  9
$DIMCLRE
 70
     0
  9
$DIMCLRT
 70
     0
  9
$DIMTFAC
 40
1.0
  9
$DIMGAP
 40
0.09
  9
$DIMJUST
 70
     0
  9
$DIMSD1
 70
     0
  9
$DIMSD2
 70
     0
  9
$DIMTOLJ
 70
     1
  9
$DIMTZIN
 70
     0
  9
$DIMALTZ
 70
     0
  9
$DIMALTTZ
 70
     0
  9
$DIMUPT
 70
     0
  9
$DIMDEC
 70
     4
  9
$DIMTDEC
 70
     4
  9
$DIMALTU
 70
     2
  9
$DIMALTTD
 70
     2
  9
$DIMTXSTY
  7
Standard
  9
$DIMAUNIT
 70
     0
  9
$DIMADEC
 70
     0
  9
$DIMALTRND
 40
0.0
  9
$DIMAZIN
 70
     0
  9
$DIMDSEP
 70
    46
  9
$DIMATFIT
 70
     3
  9
$DIMFRAC
 70
     0
  9
$DIMLDRBLK
  1

  9
$DIMLUNIT
 70
     2
  9
$DIMLWD
 70
    -2
  9
$DIMLWE
 70
    -2
  9
$DIMTMOVE
 70
     0
  9
$LUNITS
 70
     2
  9
$LUPREC
 70
     4
  9
$SKETCHINC
 40
0.1
  9
$FILLETRAD
 40
0.0
  9
$AUNITS
 70
     0
  9
$AUPREC
 70
     0
  9
$MENU
  1
.
  9
$ELEVATION
 40
0.0
  9
$PELEVATION
 40
0.0
  9
$THICKNESS
 40
0.0
  9
$LIMCHECK
 70
     0
  9
$CHAMFERA
 40
0.0
  9
$CHAMFERB
 40
0.0
  9
$CHAMFERC
 40
0.0
  9
$CHAMFERD
 40
0.0
  9
$SKPOLY
 70
     0
  9
$TDCREATE
 40
2455654.944182396
  9
$TDUCREATE
 40
2455654.860849062
  9
$TDUPDATE
 40
2456213.898049583
  9
$TDUUPDATE
 40
2456213.81471625
  9
$TDINDWG
 40
0.0219468056
  9
$TDUSRTIMER
 40
0.0219468056
  9
$USRTIMER
 70
     1
  9
$ANGBASE
 50
0.0
  9
$ANGDIR
 70
     0
  9
$PDMODE
 70
     0
  9
$PDSIZE
 40
0.0
  9
$PLINEWID
 40
0.0
  9
$SPLFRAME
 70
     0
  9
$SPLINETYPE
 70
     6
  9
$SPLINESEGS
 70
     8
  9
$HANDSEED
  5
23E7
  9
$SURFTAB1
 70
     6
  9
$SURFTAB2
 70
     6
  9
$SURFTYPE
 70
     6
  9
$SURFU
 70
     6
  9
$SURFV
 70
     6
  9
$UCSBASE
  2

  9
$UCSNAME
  2

  9
$UCSORG
 10
0.0
 20
0.0
 30
0.0
  9
$UCSXDIR
 10
1.0
 20
0.0
 30
0.0
  9
$UCSYDIR
 10
0.0
 20
1.0
 30
0.0
  9
$UCSORTHOREF
  2

  9
$UCSORTHOVIEW
 70
     1
  9
$UCSORGTOP
 10
0.0
 20
0.0
 30
0.0
  9
$UCSORGBOTTOM
 10
0.0
 20
0.0
 30
0.0
  9
$UCSORGLEFT
 10
0.0
 20
0.0
 30
0.0
  9
$UCSORGRIGHT
 10
0.0
 20
0.0
 30
0.0
  9
$UCSORGFRONT
 10
0.0
 20
0.0
 30
0.0
  9
$UCSORGBACK
 10
0.0
 20
0.0
 30
0.0
  9
$PUCSBASE
  2

  9
$PUCSNAME
  2

  9
$PUCSORG
 10
0.0
 20
0.0
 30
0.0
  9
$PUCSXDIR
 10
1.0
 20
0.0
 30
0.0
  9
$PUCSYDIR
 10
0.0
 20
1.0
 30
0.0
  9
$PUCSORTHOREF
  2

  9
$PUCSORTHOVIEW
 70
     0
  9
$PUCSORGTOP
 10
0.0
 20
0.0
 30
0.0
  9
$PUCSORGBOTTOM
 10
0.0
 20
0.0
 30
0.0
  9
$PUCSORGLEFT
 10
0.0
 20
0.0
 30
0.0
  9
$PUCSORGRIGHT
 10
0.0
 20
0.0
 30
0.0
  9
$PUCSORGFRONT
 10
0.0
 20
0.0
 30
0.0
  9
$PUCSORGBACK
 10
0.0
 20
0.0
 30
0.0
  9
$USERI1
 70
     0
  9
$USERI2
 70
     0
  9
$USERI3
 70
     0
  9
$USERI4
 70
     0
  9
$USERI5
 70
     0
  9
$USERR1
 40
0.0
  9
$USERR2
 40
0.0
  9
$USERR3
 40
0.0
  9
$USERR4
 40
0.0
  9
$USERR5
 40
0.0
  9
$WORLDVIEW
 70
     1
  9
$SHADEDGE
 70
     3
  9
$SHADEDIF
 70
    70
  9
$TILEMODE
 70
     1
  9
$MAXACTVP
 70
    64
  9
$PINSBASE
 10
0.0
 20
0.0
 30
0.0
  9
$PLIMCHECK
 70
     0
  9
$PEXTMIN
 10
1.000000000000E+20
 20
1.000000000000E+20
 30
1.000000000000E+20
  9
$PEXTMAX
 10
-1.000000000000E+20
 20
-1.000000000000E+20
 30
-1.000000000000E+20
  9
$PLIMMIN
 10
0.0
 20
0.0
  9
$PLIMMAX
 10
12.0
 20
9.0
  9
$UNITMODE
 70
     0
  9
$VISRETAIN
 70
     1
  9
$PLINEGEN
 70
     0
  9
$PSLTSCALE
 70
     1
  9
$TREEDEPTH
 70
  3020
  9
$CMLSTYLE
  2
Standard
  9
$CMLJUST
 70
     0
  9
$CMLSCALE
 40
1.0
  9
$PROXYGRAPHICS
 70
     1
  9
$MEASUREMENT
 70
     0
  9
$CELWEIGHT
370
    -1
  9
$ENDCAPS
280
     0
  9
$JOINSTYLE
280
     0
  9
$LWDISPLAY
290
     0
  9
$INSUNITS
 70
     0
  9
$HYPERLINKBASE
  1

  9
$STYLESHEET
  1

  9
$XEDIT
290
     1
  9
$CEPSNTYPE
380
     0
  9
$PSTYLEMODE
290
     1
  9
$FINGERPRINTGUID
  2
{4E9EA77D-A330-447F-B54C-17CA470AAB76}
  9
$VERSIONGUID
  2
{EA582FFB-962A-4C60-9F55-CA1821151697}
  9
$EXTNAMES
290
     1
  9
$PSVPSCALE
 40
0.0
  9
$OLESTARTUP
290
     0
  0
ENDSEC
  0
SECTION
  2
CLASSES
  0
CLASS
  1
ACDBDICTIONARYWDFLT
  2
AcDbDictionaryWithDefault
  3
ObjectDBX Classes
 90
        0
280
     0
281
     0
  0
CLASS
  1
ACDBPLACEHOLDER
  2
AcDbPlaceHolder
  3
ObjectDBX Classes
 90
        0
280
     0
281
     0
  0
CLASS
  1
LAYOUT
  2
AcDbLayout
  3
ObjectDBX Classes
 90
        0
280
     0
281
     0
  0
CLASS
  1
DICTIONARYVAR
  2
AcDbDictionaryVar
  3
ObjectDBX Classes
 90
        0
280
     0
281
     0
  0
CLASS
  1
SCALE
  2
AcDbScale
  3
ObjectDBX Classes
 90
     1153
280
     0
281
     0
  0
ENDSEC
  0
SECTION
  2
TABLES
  0
TABLE
  2
VPORT
  5
8
330
0
100
AcDbSymbolTable
 70
     1
  0
VPORT
  5
E3B
330
8
100
AcDbSymbolTableRecord
100
AcDbViewportTableRecord
  2
*Active
 70
     0
 10
0.0
 20
0.0
 11
1.0
 21
1.0
 12
144.9305
 22
118.467438
 13
0.0
 23
0.0
 14
1.0
 24
1.0
 15
0.0
 25
0.0
 16
0.0
 26
0.0
 36
1.0
 17
0.0
 27
0.0
 37
0.0
 40
241.82640828
 41
1.863448275862
 42
50.0
 43
0.0
 44
0.0
 50
0.0
 51
0.0
 71
    16
 72
   100
 73
     1
 74
     3
 75
     0
 76
     0
 77
     0
 78
     0
281
     0
 65
     1
110
0.0
120
0.0
130
0.0
111
1.0
121
0.0
131
0.0
112
0.0
122
1.0
132
0.0
 79
     1
146
0.0
  0
ENDTAB
  0
TABLE
  2
LTYPE
  5
5
330
0
100
AcDbSymbolTable
 70
     1
  0
LTYPE
  5
13
330
5
100
AcDbSymbolTableRecord
100
AcDbLinetypeTableRecord
  2
ByBlock
 70
     0
  3

 72
    65
 73
     0
 40
0.0
  0
LTYPE
  5
14
330
5
100
AcDbSymbolTableRecord
100
AcDbLinetypeTableRecord
  2
ByLayer
 70
     0
  3

 72
    65
 73
     0
 40
0.0
  0
LTYPE
  5
15
330
5
100
AcDbSymbolTableRecord
100
AcDbLinetypeTableRecord
  2
Continuous
 70
     0
  3
Solid line
 72
    65
 73
     0
 40
0.0
  0
ENDTAB
  0
TABLE
  2
LAYER
  5
2
330
0
100
AcDbSymbolTable
 70
     1
  0
LAYER
  5
10
330
2
100
AcDbSymbolTableRecord
100
AcDbLayerTableRecord
  2
0
 70
     0
 62
     7
  6
Continuous
370
    -3
390
F
  0
ENDTAB
  0
TABLE
  2
STYLE
  5
3
330
0
100
AcDbSymbolTable
 70
     1
  0
STYLE
  5
11
330
3
100
AcDbSymbolTableRecord
100
AcDbTextStyleTableRecord
  2
Standard
 70
     0
 40
0.0
 41
1.0
 50
0.0
 71
     0
 42
0.2
  3
txt
  4

  0
ENDTAB
  0
TABLE
  2
VIEW
  5
6
330
0
100
AcDbSymbolTable
 70
     0
  0
ENDTAB
  0
TABLE
  2
UCS
  5
7
330
0
100
AcDbSymbolTable
 70
     0
  0
ENDTAB
  0
TABLE
  2
APPID
  5
9
330
0
100
AcDbSymbolTable
 70
     1
  0
APPID
  5
12
330
9
100
AcDbSymbolTableRecord
100
AcDbRegAppTableRecord
  2
ACAD
 70
     0
  0
ENDTAB
  0
TABLE
  2
DIMSTYLE
  5
A
330
0
100
AcDbSymbolTable
 70
     1
100
AcDbDimStyleTable
  0
DIMSTYLE
105
E32
330
A
100
AcDbSymbolTableRecord
100
AcDbDimStyleTableRecord
  2
Standard
 70
     0
340
11
  0
ENDTAB
  0
TABLE
  2
BLOCK_RECORD
  5
1
330
0
100
AcDbSymbolTable
 70
     1
  0
BLOCK_RECORD
  5
1E
330
1
100
AcDbSymbolTableRecord
100
AcDbBlockTableRecord
  2
*Model_Space
340
21
  0
BLOCK_RECORD
  5
1A
330
1
100
AcDbSymbolTableRecord
100
AcDbBlockTableRecord
  2
*Paper_Space
340
1D
  0
ENDTAB
  0
ENDSEC
  0
SECTION
  2
BLOCKS
  0
BLOCK
  5
1F
330
1E
100
AcDbEntity
  8
0
100
AcDbBlockBegin
  2
*Model_Space
 70
     0
 10
0.0
 20
0.0
 30
0.0
  3
*Model_Space
  1
*Model_Space
  0
ENDBLK
  5
20
330
1E
100
AcDbEntity
  8
0
100
AcDbBlockEnd
  0
BLOCK
  5
1B
330
1A
100
AcDbEntity
 67
     1
  8
0
100
AcDbBlockBegin
  2
*Paper_Space
 70
     0
 10
0.0
 20
0.0
 30
0.0
  3
*Paper_Space
  1
*Paper_Space
  0
ENDBLK
  5
1C
330
1A
100
AcDbEntity
 67
     1
  8
0
100
AcDbBlockEnd
  0
ENDSEC
  0
SECTION
  2
ENTITIES
  0
LINE
  5
180
330
1E
100
AcDbEntity
  8
0
100
AcDbLine
 10
15.0
 20
0.0
 30
0.0
 11
15.72
 21
0.0
 31
0.0
  0
LINE
  5
191
330
1E
100
AcDbEntity
  8
0
100
AcDbLine
 10
15.72
 20
0.0
 30
0.0
 11
17.64
 21
0.0
 31
0.0
  0
LINE
  5
19C
330
1E
100
AcDbEntity
  8
0
100
AcDbLine
 10
20.84
 20
0.0
 30
0.0
 11
25.08
 21
0.0
 31
0.0
  0
LINE
  5
19D
330
1E
100
AcDbEntity
  8
0
100
AcDbLine
 10
17.64
 20
0.0
 30
0.0
 11
20.84
 21
0.0
 31
0.0
  0
LINE
  5
1A2
330
1E
100
AcDbEntity
  8
0
100
AcDbLine
 10
25.08
 20
0.0
 30
0.0
 11
29.88
 21
0.0
 31
0.0
  0
LINE
  5
1AC
330
1E
100
AcDbEntity
  8
0
100
AcDbLine
 10
10.294
 20
0.0
 30
0.0
 11
17.603
 21
0.0
 31
0.0
  0
LINE
  5
1AD
330
1E
100
AcDbEntity
  8
0
100
AcDbLine
 10
10.294
 20
0.0
 30
0.0
 11
15.0
 21
0.0
 31
0.0
  0
LINE
  5
1AE
330
1E
100
AcDbEntity
  8
0
100
AcDbLine
 10
17.603
 20
0.0
 30
0.0
 11
26.044
 21
0.0
 31
0.0
  0
LINE
  5
1D7
330
1E
100
AcDbEntity
  8
0
100
AcDbLine
 10
29.88
 20
0.0
 30
0.0
 11
35.0
 21
0.0
 31
0.0
  0
LINE
  5
1DA
330
1E
100
AcDbEntity
  8
0
100
AcDbLine
 10
40.12
 20
0.0
 30
0.0
 11
44.92
 21
0.0
 31
0.0
  0
LINE
  5
224
330
1E
100
AcDbEntity
  8
0
100
AcDbLine
 10
44.92
 20
0.0
 30
0.0
 11
49.16
 21
0.0
 31
0.0
  0
LINE
  5
22A
330
1E
100
AcDbEntity
  8
0
100
AcDbLine
 10
49.16
 20
0.0
 30
0.0
 11
52.36
 21
0.0
 31
0.0
  0
LINE
  5
22B
330
1E
100
AcDbEntity
  8
0
100
AcDbLine
 10
52.36
 20
0.0
 30
0.0
 11
54.28
 21
0.0
 31
0.0
  0
LINE
  5
242
330
1E
100
AcDbEntity
  8
0
100
AcDbLine
 10
54.28
 20
0.0
 30
0.0
 11
55.0
 21
0.0
 31
0.0
  0
LINE
  5
24B
330
1E
100
AcDbEntity
  8
0
100
AcDbLine
 10
55.0
 20
0.0
 30
0.0
 11
59.706
 21
0.0
 31
0.0
  0
LINE
  5
2B2
330
1E
100
AcDbEntity
  8
0
100
AcDbLine
 10
59.706
 20
0.0
 30
0.0
 11
65.265
 21
0.0
 31
0.0
  0
LINE
  5
2B3
330
1E
100
AcDbEntity
  8
0
100
AcDbLine
 10
65.265
 20
0.0
 30
0.0
 11
68.765
 21
0.0
 31
0.0
  0
LINE
  5
33A
330
1E
100
AcDbEntity
  8
0
100
AcDbLine
 10
114.838
 20
0.0
 30
0.0
 11
115.89
 21
0.0
 31
0.0
  0
LINE
  5
564
330
1E
100
AcDbEntity
  8
0
100
AcDbLine
 10
115.89
 20
0.0
 30
0.0
 11
118.871
 21
0.0
 31
0.0
  0
LINE
  5
583
330
1E
100
AcDbEntity
  8
0
100
AcDbLine
 10
129.919
 20
0.0
 30
0.0
 11
137.109
 21
0.0
 31
0.0
  0
LINE
  5
584
330
1E
100
AcDbEntity
  8
0
100
AcDbLine
 10
137.109
 20
0.0
 30
0.0
 11
145.0
 21
0.0
 31
0.0
  0
LINE
  5
585
330
1E
100
AcDbEntity
  8
0
100
AcDbLine
 10
145.0
 20
0.0
 30
0.0
 11
152.891
 21
0.0
 31
0.0
  0
LINE
  5
586
330
1E
100
AcDbEntity
  8
0
100
AcDbLine
 10
160.081
 20
0.0
 30
0.0
 11
166.394
 21
0.0
 31
0.0
  0
LINE
  5
58A
330
1E
100
AcDbEntity
  8
0
100
AcDbLine
 10
123.606
 20
0.0
 30
0.0
 11
174.11
 21
0.0
 31
0.0
  0
LINE
  5
58D
330
1E
100
AcDbEntity
  8
0
100
AcDbLine
 10
174.11
 20
0.0
 30
0.0
 11
175.162
 21
0.0
 31
0.0
  0
LINE
  5
592
330
1E
100
AcDbEntity
  8
0
100
AcDbLine
 10
118.871
 20
0.0
 30
0.0
 11
123.606
 21
0.0
 31
0.0
  0
LINE
  5
59A
330
1E
100
AcDbEntity
  8
0
100
AcDbLine
 10
175.0
 20
0.0
 30
0.0
 11
175.0
 21
5.65385
 31
0.0
  0
LINE
  5
59B
330
1E
100
AcDbEntity
  8
0
100
AcDbLine
 10
115.0
 20
0.0
 30
0.0
 11
115.0
 21
5.65385
 31
0.0
  0
LINE
  5
59C
330
1E
100
AcDbEntity
  8
0
100
AcDbLine
 10
70.0
 20
0.0
 30
0.0
 11
70.0
 21
5.65385
 31
0.0
  0
LINE
  5
59D
330
1E
100
AcDbEntity
  8
0
100
AcDbLine
 10
68.765
 20
0.0
 30
0.0
 11
70.0
 21
0.0
 31
0.0
  0
LINE
  5
59E
330
1E
100
AcDbEntity
  8
0
100
AcDbLine
 10
52.397
 20
0.0
 30
0.0
 11
59.706
 21
0.0
 31
0.0
  0
LINE
  5
59F
330
1E
100
AcDbEntity
  8
0
100
AcDbLine
 10
43.956
 20
0.0
 30
0.0
 11
52.397
 21
0.0
 31
0.0
  0
LINE
  5
5A0
330
1E
100
AcDbEntity
  8
0
100
AcDbLine
 10
35.0
 20
0.0
 30
0.0
 11
43.956
 21
0.0
 31
0.0
  0
LINE
  5
5A1
330
1E
100
AcDbEntity
  8
0
100
AcDbLine
 10
35.0
 20
0.0
 30
0.0
 11
40.12
 21
0.0
 31
0.0
  0
LINE
  5
5A2
330
1E
100
AcDbEntity
  8
0
100
AcDbLine
 10
26.044
 20
0.0
 30
0.0
 11
35.0
 21
0.0
 31
0.0
  0
LINE
  5
5A3
330
1E
100
AcDbEntity
  8
0
100
AcDbLine
 10
4.735
 20
0.0
 30
0.0
 11
10.294
 21
0.0
 31
0.0
  0
LINE
  5
5A4
330
1E
100
AcDbEntity
  8
0
100
AcDbLine
 10
1.235
 20
0.0
 30
0.0
 11
4.735
 21
0.0
 31
0.0
  0
LINE
  5
5A5
330
1E
100
AcDbEntity
  8
0
100
AcDbLine
 10
0.0
 20
0.0
 30
0.0
 11
1.235
 21
0.0
 31
0.0
  0
LINE
  5
5A6
330
1E
100
AcDbEntity
  8
0
100
AcDbLine
 10
0.0
 20
0.0
 30
0.0
 11
0.0
 21
5.65385
 31
0.0
  0
LINE
  5
5A7
330
1E
100
AcDbEntity
  8
0
100
AcDbLine
 10
221.3
 20
0.0
 30
0.0
 11
224.7
 21
0.0
 31
0.0
  0
LINE
  5
5A8
330
1E
100
AcDbEntity
  8
0
100
AcDbLine
 10
10.294
 20
5.65385
 30
0.0
 11
17.603
 21
5.65385
 31
0.0
  0
LINE
  5
5A9
330
1E
100
AcDbEntity
  8
0
100
AcDbLine
 10
4.735
 20
5.65385
 30
0.0
 11
10.294
 21
5.65385
 31
0.0
  0
LINE
  5
5AA
330
1E
100
AcDbEntity
  8
0
100
AcDbLine
 10
1.235
 20
5.65385
 30
0.0
 11
4.735
 21
5.65385
 31
0.0
  0
LINE
  5
5AB
330
1E
100
AcDbEntity
  8
0
100
AcDbLine
 10
6.074
 20
6.0
 30
0.0
 11
11.323
 21
6.0
 31
0.0
  0
LINE
  5
5AC
330
1E
100
AcDbEntity
  8
0
100
AcDbLine
 10
2.779
 20
6.0
 30
0.0
 11
6.074
 21
6.0
 31
0.0
  0
LINE
  5
5AD
330
1E
100
AcDbEntity
  8
0
100
AcDbLine
 10
1.544
 20
6.0
 30
0.0
 11
2.779
 21
6.0
 31
0.0
  0
LINE
  5
5AE
330
1E
100
AcDbEntity
  8
0
100
AcDbLine
 10
0.515
 20
5.88461
 30
0.0
 11
1.544
 21
6.0
 31
0.0
  0
LINE
  5
5AF
330
1E
100
AcDbEntity
  8
0
100
AcDbLine
 10
0.0
 20
5.65385
 30
0.0
 11
0.0
 21
0.0
 31
0.0
  0
LINE
  5
5B0
330
1E
100
AcDbEntity
  8
0
100
AcDbLine
 10
0.0
 20
5.65385
 30
0.0
 11
1.235
 21
5.65385
 31
0.0
  0
LINE
  5
5B1
330
1E
100
AcDbEntity
  8
0
100
AcDbLine
 10
0.0
 20
5.65385
 30
0.0
 11
0.515
 21
5.88461
 31
0.0
  0
LINE
  5
5B2
330
1E
100
AcDbEntity
  8
0
100
AcDbLine
 10
11.323
 20
6.0
 30
0.0
 11
18.324
 21
6.0
 31
0.0
  0
LINE
  5
5B3
330
1E
100
AcDbEntity
  8
0
100
AcDbLine
 10
18.324
 20
6.0
 30
0.0
 11
26.353
 21
6.0
 31
0.0
  0
LINE
  5
5B4
330
1E
100
AcDbEntity
  8
0
100
AcDbLine
 10
17.603
 20
5.65385
 30
0.0
 11
26.044
 21
5.65385
 31
0.0
  0
LINE
  5
5B5
330
1E
100
AcDbEntity
  8
0
100
AcDbLine
 10
35.0
 20
6.0
 30
0.0
 11
43.647
 21
6.0
 31
0.0
  0
LINE
  5
5B6
330
1E
100
AcDbEntity
  8
0
100
AcDbLine
 10
59.706
 20
5.65385
 30
0.0
 11
65.265
 21
5.65385
 31
0.0
  0
LINE
  5
5B7
330
1E
100
AcDbEntity
  8
0
100
AcDbLine
 10
119.059
 20
5.65385
 30
0.0
 11
123.824
 21
5.65385
 31
0.0
  0
LINE
  5
5B8
330
1E
100
AcDbEntity
  8
0
100
AcDbLine
 10
116.059
 20
5.65385
 30
0.0
 11
119.059
 21
5.65385
 31
0.0
  0
LINE
  5
5B9
330
1E
100
AcDbEntity
  8
0
100
AcDbLine
 10
115.0
 20
5.65385
 30
0.0
 11
116.059
 21
5.65385
 31
0.0
  0
LINE
  5
5BA
330
1E
100
AcDbEntity
  8
0
100
AcDbLine
 10
115.0
 20
5.65385
 30
0.0
 11
115.441
 21
5.88461
 31
0.0
  0
LINE
  5
5BB
330
1E
100
AcDbEntity
  8
0
100
AcDbLine
 10
115.0
 20
5.65385
 30
0.0
 11
115.0
 21
0.0
 31
0.0
  0
LINE
  5
5BC
330
1E
100
AcDbEntity
  8
0
100
AcDbLine
 10
123.824
 20
5.65385
 30
0.0
 11
130.088
 21
5.65385
 31
0.0
  0
LINE
  5
5BD
330
1E
100
AcDbEntity
  8
0
100
AcDbLine
 10
130.088
 20
5.65385
 30
0.0
 11
137.324
 21
5.65385
 31
0.0
  0
LINE
  5
5BE
330
1E
100
AcDbEntity
  8
0
100
AcDbLine
 10
137.324
 20
5.65385
 30
0.0
 11
145.0
 21
5.65385
 31
0.0
  0
LINE
  5
5BF
330
1E
100
AcDbEntity
  8
0
100
AcDbLine
 10
159.912
 20
5.65385
 30
0.0
 11
166.176
 21
5.65385
 31
0.0
  0
LINE
  5
5C0
330
1E
100
AcDbEntity
  8
0
100
AcDbLine
 10
152.676
 20
5.65385
 30
0.0
 11
159.912
 21
5.65385
 31
0.0
  0
LINE
  5
5C1
330
1E
100
AcDbEntity
  8
0
100
AcDbLine
 10
145.0
 20
5.65385
 30
0.0
 11
152.676
 21
5.65385
 31
0.0
  0
LINE
  5
5C2
330
1E
100
AcDbEntity
  8
0
100
AcDbLine
 10
166.176
 20
5.65385
 30
0.0
 11
170.941
 21
5.65385
 31
0.0
  0
LINE
  5
5C3
330
1E
100
AcDbEntity
  8
0
100
AcDbLine
 10
170.941
 20
5.65385
 30
0.0
 11
173.941
 21
5.65385
 31
0.0
  0
LINE
  5
5C4
330
1E
100
AcDbEntity
  8
0
100
AcDbLine
 10
173.941
 20
5.65385
 30
0.0
 11
175.0
 21
5.65385
 31
0.0
  0
LINE
  5
5C5
330
1E
100
AcDbEntity
  8
0
100
AcDbLine
 10
175.0
 20
5.65385
 30
0.0
 11
175.0
 21
0.0
 31
0.0
  0
LINE
  5
5C6
330
1E
100
AcDbEntity
  8
0
100
AcDbLine
 10
70.0
 20
5.65385
 30
0.0
 11
70.0
 21
0.0
 31
0.0
  0
LINE
  5
5C7
330
1E
100
AcDbEntity
  8
0
100
AcDbLine
 10
65.265
 20
5.65385
 30
0.0
 11
68.765
 21
5.65385
 31
0.0
  0
LINE
  5
5C8
330
1E
100
AcDbEntity
  8
0
100
AcDbLine
 10
68.765
 20
5.65385
 30
0.0
 11
70.0
 21
5.65385
 31
0.0
  0
LINE
  5
5C9
330
1E
100
AcDbEntity
  8
0
100
AcDbLine
 10
52.397
 20
5.65385
 30
0.0
 11
59.706
 21
5.65385
 31
0.0
  0
LINE
  5
5CA
330
1E
100
AcDbEntity
  8
0
100
AcDbLine
 10
58.676
 20
6.0
 30
0.0
 11
63.926
 21
6.0
 31
0.0
  0
LINE
  5
5CB
330
1E
100
AcDbEntity
  8
0
100
AcDbLine
 10
63.926
 20
6.0
 30
0.0
 11
67.221
 21
6.0
 31
0.0
  0
LINE
  5
5CC
330
1E
100
AcDbEntity
  8
0
100
AcDbLine
 10
68.456
 20
6.0
 30
0.0
 11
69.485
 21
5.88461
 31
0.0
  0
LINE
  5
5CD
330
1E
100
AcDbEntity
  8
0
100
AcDbLine
 10
67.221
 20
6.0
 30
0.0
 11
68.456
 21
6.0
 31
0.0
  0
LINE
  5
5CE
330
1E
100
AcDbEntity
  8
0
100
AcDbLine
 10
115.441
 20
5.88461
 30
0.0
 11
116.324
 21
6.0
 31
0.0
  0
LINE
  5
5CF
330
1E
100
AcDbEntity
  8
0
100
AcDbLine
 10
123.0
 20
6.0
 30
0.0
 11
123.0
 21
22.7
 31
0.0
  0
LINE
  5
5D0
330
1E
100
AcDbEntity
  8
0
100
AcDbLine
 10
120.206
 20
6.0
 30
0.0
 11
124.706
 21
6.0
 31
0.0
  0
LINE
  5
5D1
330
1E
100
AcDbEntity
  8
0
100
AcDbLine
 10
117.382
 20
6.0
 30
0.0
 11
120.206
 21
6.0
 31
0.0
  0
LINE
  5
5D2
330
1E
100
AcDbEntity
  8
0
100
AcDbLine
 10
116.324
 20
6.0
 30
0.0
 11
117.382
 21
6.0
 31
0.0
  0
LINE
  5
5D3
330
1E
100
AcDbEntity
  8
0
100
AcDbLine
 10
124.706
 20
6.0
 30
0.0
 11
130.706
 21
6.0
 31
0.0
  0
LINE
  5
5D4
330
1E
100
AcDbEntity
  8
0
100
AcDbLine
 10
130.706
 20
6.0
 30
0.0
 11
137.588
 21
6.0
 31
0.0
  0
LINE
  5
5D5
330
1E
100
AcDbEntity
  8
0
100
AcDbLine
 10
137.588
 20
6.0
 30
0.0
 11
145.0
 21
6.0
 31
0.0
  0
LINE
  5
5D6
330
1E
100
AcDbEntity
  8
0
100
AcDbLine
 10
167.0
 20
6.0
 30
0.0
 11
167.0
 21
22.7
 31
0.0
  0
LINE
  5
5D7
330
1E
100
AcDbEntity
  8
0
100
AcDbLine
 10
159.294
 20
6.0
 30
0.0
 11
165.294
 21
6.0
 31
0.0
  0
LINE
  5
5D8
330
1E
100
AcDbEntity
  8
0
100
AcDbLine
 10
152.412
 20
6.0
 30
0.0
 11
159.294
 21
6.0
 31
0.0
  0
LINE
  5
5D9
330
1E
100
AcDbEntity
  8
0
100
AcDbLine
 10
145.0
 20
6.0
 30
0.0
 11
152.412
 21
6.0
 31
0.0
  0
LINE
  5
5DA
330
1E
100
AcDbEntity
  8
0
100
AcDbLine
 10
165.294
 20
6.0
 30
0.0
 11
169.794
 21
6.0
 31
0.0
  0
LINE
  5
5DB
330
1E
100
AcDbEntity
  8
0
100
AcDbLine
 10
169.794
 20
6.0
 30
0.0
 11
172.618
 21
6.0
 31
0.0
  0
LINE
  5
5DC
330
1E
100
AcDbEntity
  8
0
100
AcDbLine
 10
172.618
 20
6.0
 30
0.0
 11
173.676
 21
6.0
 31
0.0
  0
LINE
  5
5DD
330
1E
100
AcDbEntity
  8
0
100
AcDbLine
 10
173.676
 20
6.0
 30
0.0
 11
174.559
 21
5.88461
 31
0.0
  0
LINE
  5
5DE
330
1E
100
AcDbEntity
  8
0
100
AcDbLine
 10
174.559
 20
5.88461
 30
0.0
 11
175.0
 21
5.65385
 31
0.0
  0
LINE
  5
5DF
330
1E
100
AcDbEntity
  8
0
100
AcDbLine
 10
69.485
 20
5.88461
 30
0.0
 11
70.0
 21
5.65385
 31
0.0
  0
LINE
  5
5E0
330
1E
100
AcDbEntity
  8
0
100
AcDbLine
 10
51.676
 20
6.0
 30
0.0
 11
58.676
 21
6.0
 31
0.0
  0
LINE
  5
5E1
330
1E
100
AcDbEntity
  8
0
100
AcDbLine
 10
43.647
 20
6.0
 30
0.0
 11
51.676
 21
6.0
 31
0.0
  0
LINE
  5
5E2
330
1E
100
AcDbEntity
  8
0
100
AcDbLine
 10
43.956
 20
5.65385
 30
0.0
 11
52.397
 21
5.65385
 31
0.0
  0
LINE
  5
5E3
330
1E
100
AcDbEntity
  8
0
100
AcDbLine
 10
35.0
 20
5.65385
 30
0.0
 11
43.956
 21
5.65385
 31
0.0
  0
LINE
  5
5E4
330
1E
100
AcDbEntity
  8
0
100
AcDbLine
 10
26.353
 20
6.0
 30
0.0
 11
35.0
 21
6.0
 31
0.0
  0
LINE
  5
5E5
330
1E
100
AcDbEntity
  8
0
100
AcDbLine
 10
26.044
 20
5.65385
 30
0.0
 11
35.0
 21
5.65385
 31
0.0
  0
LINE
  5
5E6
330
1E
100
AcDbEntity
  8
0
100
AcDbLine
 10
11.00660520843
 20
6.0
 30
0.0
 11
11.532
 21
85.5425
 31
0.0
  0
LINE
  5
5E7
330
1E
100
AcDbEntity
  8
0
100
AcDbLine
 10
220.0
 20
0.0
 30
0.0
 11
221.3
 21
0.0
 31
0.0
  0
LINE
  5
5ED
330
1E
100
AcDbEntity
  8
0
100
AcDbLine
 10
224.7
 20
0.0
 30
0.0
 11
230.3
 21
0.0
 31
0.0
  0
LINE
  5
5EE
330
1E
100
AcDbEntity
  8
0
100
AcDbLine
 10
224.7
 20
0.0
 30
0.0
 11
230.0
 21
0.0
 31
0.0
  0
LINE
  5
5F2
330
1E
100
AcDbEntity
  8
0
100
AcDbLine
 10
11.532
 20
85.5425
 30
0.0
 11
11.601761488434
 21
89.393915507296
 31
0.0
  0
LINE
  5
5F3
330
1E
100
AcDbEntity
  8
0
100
AcDbLine
 10
11.601761488434
 20
89.393915507296
 30
0.0
 11
11.619
 21
92.1552
 31
0.0
  0
LINE
  5
5F4
330
1E
100
AcDbEntity
  8
0
100
AcDbLine
 10
11.634
 20
96.762
 30
0.0
 11
11.637
 21
100.497
 31
0.0
  0
LINE
  5
5F5
330
1E
100
AcDbEntity
  8
0
100
AcDbLine
 10
11.641
 20
103.717
 30
0.0
 11
11.657
 21
106.551
 31
0.0
  0
LINE
  5
5F6
330
1E
100
AcDbEntity
  8
0
100
AcDbLine
 10
11.886
 20
133.183
 30
0.0
 11
11.973
 21
133.417
 31
0.0
  0
LINE
  5
5F7
330
1E
100
AcDbEntity
  8
0
100
AcDbLine
 10
11.973
 20
133.417
 30
0.0
 11
12.21
 21
133.701
 31
0.0
  0
LINE
  5
5F8
330
1E
100
AcDbEntity
  8
0
100
AcDbLine
 10
11.835
 20
132.616
 30
0.0
 11
11.886
 21
133.183
 31
0.0
  0
LINE
  5
5F9
330
1E
100
AcDbEntity
  8
0
100
AcDbLine
 10
11.657
 20
106.551
 30
0.0
 11
11.835
 21
132.616
 31
0.0
  0
LINE
  5
5FA
330
1E
100
AcDbEntity
  8
0
100
AcDbLine
 10
11.637
 20
100.497
 30
0.0
 11
11.641
 21
103.717
 31
0.0
  0
LINE
  5
5FB
330
1E
100
AcDbEntity
  8
0
100
AcDbLine
 10
11.619
 20
92.1552
 30
0.0
 11
11.634
 21
96.762
 31
0.0
  0
LINE
  5
600
330
1E
100
AcDbEntity
  8
0
100
AcDbLine
 10
12.762
 20
118.688
 30
0.0
 11
12.778
 21
117.135
 31
0.0
  0
LINE
  5
601
330
1E
100
AcDbEntity
  8
0
100
AcDbLine
 10
12.792
 20
115.15
 30
0.0
 11
12.813
 21
114.46
 31
0.0
  0
LINE
  5
602
330
1E
100
AcDbEntity
  8
0
100
AcDbLine
 10
12.849
 20
114.184
 30
0.0
 11
12.898
 21
113.927
 31
0.0
  0
LINE
  5
603
330
1E
100
AcDbEntity
  8
0
100
AcDbLine
 10
12.898
 20
113.927
 30
0.0
 11
12.985
 21
113.487
 31
0.0
  0
LINE
  5
604
330
1E
100
AcDbEntity
  8
0
100
AcDbLine
 10
12.985
 20
113.487
 30
0.0
 11
13.201
 21
112.753
 31
0.0
  0
LINE
  5
605
330
1E
100
AcDbEntity
  8
0
100
AcDbLine
 10
13.201
 20
112.753
 30
0.0
 11
13.507
 21
111.944
 31
0.0
  0
LINE
  5
606
330
1E
100
AcDbEntity
  8
0
100
AcDbLine
 10
12.813
 20
114.46
 30
0.0
 11
12.849
 21
114.184
 31
0.0
  0
LINE
  5
607
330
1E
100
AcDbEntity
  8
0
100
AcDbLine
 10
12.79
 20
115.35
 30
0.0
 11
12.792
 21
115.15
 31
0.0
  0
LINE
  5
608
330
1E
100
AcDbEntity
  8
0
100
AcDbLine
 10
12.778
 20
117.135
 30
0.0
 11
12.79
 21
115.35
 31
0.0
  0
LINE
  5
609
330
1E
100
AcDbEntity
  8
0
100
AcDbLine
 10
12.723
 20
121.204
 30
0.0
 11
12.745
 21
120.053
 31
0.0
  0
LINE
  5
60A
330
1E
100
AcDbEntity
  8
0
100
AcDbLine
 10
12.745
 20
120.053
 30
0.0
 11
12.762
 21
118.688
 31
0.0
  0
LINE
  5
60B
330
1E
100
AcDbEntity
  8
0
100
AcDbLine
 10
13.893
 20
111.055
 30
0.0
 11
14.36
 21
110.142
 31
0.0
  0
LINE
  5
60C
330
1E
100
AcDbEntity
  8
0
100
AcDbLine
 10
13.52
 20
111.909
 30
0.0
 11
13.893
 21
111.055
 31
0.0
  0
LINE
  5
60E
330
1E
100
AcDbEntity
  8
0
100
AcDbLine
 10
12.7
 20
122.15
 30
0.0
 11
12.723
 21
121.204
 31
0.0
  0
LINE
  5
614
330
1E
100
AcDbEntity
  8
0
100
AcDbLine
 10
12.566
 20
133.888
 30
0.0
 11
12.86
 21
133.957
 31
0.0
  0
LINE
  5
615
330
1E
100
AcDbEntity
  8
0
100
AcDbLine
 10
12.21
 20
133.701
 30
0.0
 11
12.566
 21
133.888
 31
0.0
  0
LINE
  5
61E
330
1E
100
AcDbEntity
  8
0
100
AcDbLine
 10
13.569
 20
133.992
 30
0.0
 11
13.715
 21
133.992
 31
0.0
  0
LINE
  5
620
330
1E
100
AcDbEntity
  8
0
100
AcDbLine
 10
13.715
 20
133.992
 30
0.0
 11
14.164
 21
133.993
 31
0.0
  0
LINE
  5
623
330
1E
100
AcDbEntity
  8
0
100
AcDbLine
 10
12.901
 20
133.957
 30
0.0
 11
13.614
 21
133.992
 31
0.0
  0
LINE
  5
624
330
1E
100
AcDbEntity
  8
0
100
AcDbLine
 10
12.901
 20
133.957
 30
0.0
 11
13.61
 21
133.992
 31
0.0
  0
LINE
  5
62B
330
1E
100
AcDbEntity
  8
0
100
AcDbLine
 10
14.36
 20
110.142
 30
0.0
 11
15.206
 21
108.742
 31
0.0
  0
LINE
  5
62C
330
1E
100
AcDbEntity
  8
0
100
AcDbLine
 10
16.206
 20
107.409
 30
0.0
 11
17.266
 21
106.282
 31
0.0
  0
LINE
  5
62D
330
1E
100
AcDbEntity
  8
0
100
AcDbLine
 10
17.266
 20
106.282
 30
0.0
 11
18.297
 21
105.391
 31
0.0
  0
LINE
  5
62E
330
1E
100
AcDbEntity
  8
0
100
AcDbLine
 10
18.297
 20
105.391
 30
0.0
 11
20.317
 21
103.998
 31
0.0
  0
LINE
  5
62F
330
1E
100
AcDbEntity
  8
0
100
AcDbLine
 10
15.214
 20
108.724
 30
0.0
 11
16.206
 21
107.409
 31
0.0
  0
LINE
  5
630
330
1E
100
AcDbEntity
  8
0
100
AcDbLine
 10
18.472
 20
110.15
 30
0.0
 11
18.533
 21
109.315
 31
0.0
  0
LINE
  5
631
330
1E
100
AcDbEntity
  8
0
100
AcDbLine
 10
18.472
 20
110.15
 30
0.0
 11
18.633
 21
110.968
 31
0.0
  0
LINE
  5
632
330
1E
100
AcDbEntity
  8
0
100
AcDbLine
 10
18.633
 20
110.968
 30
0.0
 11
19.011
 21
111.762
 31
0.0
  0
LINE
  5
633
330
1E
100
AcDbEntity
  8
0
100
AcDbLine
 10
18.533
 20
109.315
 30
0.0
 11
18.81
 21
108.478
 31
0.0
  0
LINE
  5
63F
330
1E
100
AcDbEntity
  8
0
100
AcDbLine
 10
20.317
 20
103.998
 30
0.0
 11
22.613
 21
102.803
 31
0.0
  0
LINE
  5
640
330
1E
100
AcDbEntity
  8
0
100
AcDbLine
 10
20.603
 20
106.303
 30
0.0
 11
22.025
 21
105.314
 31
0.0
  0
LINE
  5
641
330
1E
100
AcDbEntity
  8
0
100
AcDbLine
 10
19.522
 20
107.368
 30
0.0
 11
20.603
 21
106.303
 31
0.0
  0
LINE
  5
642
330
1E
100
AcDbEntity
  8
0
100
AcDbLine
 10
20.49
 20
109.015
 30
0.0
 11
22.618
 21
107.626
 31
0.0
  0
LINE
  5
643
330
1E
100
AcDbEntity
  8
0
100
AcDbLine
 10
19.945
 20
112.855
 30
0.0
 11
21.306
 21
113.845
 31
0.0
  0
LINE
  5
644
330
1E
100
AcDbEntity
  8
0
100
AcDbLine
 10
19.011
 20
111.762
 30
0.0
 11
19.945
 21
112.855
 31
0.0
  0
LINE
  5
645
330
1E
100
AcDbEntity
  8
0
100
AcDbLine
 10
19.091
 20
110.587
 30
0.0
 11
20.49
 21
109.015
 31
0.0
  0
LINE
  5
646
330
1E
100
AcDbEntity
  8
0
100
AcDbLine
 10
18.81559726653
 20
111.351550872022
 30
0.0
 11
19.091
 21
110.587
 31
0.0
  0
LINE
  5
647
330
1E
100
AcDbEntity
  8
0
100
AcDbLine
 10
18.81
 20
108.478
 30
0.0
 11
19.522
 21
107.368
 31
0.0
  0
LINE
  5
660
330
1E
100
AcDbEntity
  8
0
100
AcDbLine
 10
31.453
 20
100.624
 30
0.0
 11
33.196
 21
100.5
 31
0.0
  0
LINE
  5
661
330
1E
100
AcDbEntity
  8
0
100
AcDbLine
 10
25.221
 20
101.828
 30
0.0
 11
27.322
 21
101.299
 31
0.0
  0
LINE
  5
663
330
1E
100
AcDbEntity
  8
0
100
AcDbLine
 10
29.344
 20
102.075
 30
0.0
 11
30.354
 21
101.842
 31
0.0
  0
LINE
  5
664
330
1E
100
AcDbEntity
  8
0
100
AcDbLine
 10
28.385
 20
102.352
 30
0.0
 11
29.344
 21
102.075
 31
0.0
  0
LINE
  5
665
330
1E
100
AcDbEntity
  8
0
100
AcDbLine
 10
27.486
 20
102.671
 30
0.0
 11
28.385
 21
102.352
 31
0.0
  0
LINE
  5
666
330
1E
100
AcDbEntity
  8
0
100
AcDbLine
 10
30.094
 20
102.723
 30
0.0
 11
31.044
 21
102.506
 31
0.0
  0
LINE
  5
667
330
1E
100
AcDbEntity
  8
0
100
AcDbLine
 10
30.094
 20
102.677
 30
0.0
 11
31.028
 21
102.464
 31
0.0
  0
LINE
  5
668
330
1E
100
AcDbEntity
  8
0
100
AcDbLine
 10
32.036
 20
102.336
 30
0.0
 11
33.059
 21
102.217
 31
0.0
  0
LINE
  5
669
330
1E
100
AcDbEntity
  8
0
100
AcDbLine
 10
31.044
 20
102.506
 30
0.0
 11
32.036
 21
102.336
 31
0.0
  0
LINE
  5
66A
330
1E
100
AcDbEntity
  8
0
100
AcDbLine
 10
31.028
 20
102.464
 30
0.0
 11
32.004
 21
102.296
 31
0.0
  0
LINE
  5
66B
330
1E
100
AcDbEntity
  8
0
100
AcDbLine
 10
32.004
 20
102.296
 30
0.0
 11
33.009
 21
102.176
 31
0.0
  0
LINE
  5
66C
330
1E
100
AcDbEntity
  8
0
100
AcDbLine
 10
30.354
 20
101.842
 30
0.0
 11
31.406
 21
101.656
 31
0.0
  0
LINE
  5
66D
330
1E
100
AcDbEntity
  8
0
100
AcDbLine
 10
31.406
 20
101.656
 30
0.0
 11
32.492
 21
101.519
 31
0.0
  0
LINE
  5
670
330
1E
100
AcDbEntity
  8
0
100
AcDbLine
 10
28.166
 20
101.095
 30
0.0
 11
29.685
 21
100.855
 31
0.0
  0
LINE
  5
671
330
1E
100
AcDbEntity
  8
0
100
AcDbLine
 10
27.322
 20
101.299
 30
0.0
 11
28.166
 21
101.095
 31
0.0
  0
LINE
  5
673
330
1E
100
AcDbEntity
  8
0
100
AcDbLine
 10
29.685
 20
100.855
 30
0.0
 11
31.453
 21
100.624
 31
0.0
  0
LINE
  5
67A
330
1E
100
AcDbEntity
  8
0
100
AcDbLine
 10
23.082
 20
106.62
 30
0.0
 11
23.135
 21
106.444
 31
0.0
  0
LINE
  5
67B
330
1E
100
AcDbEntity
  8
0
100
AcDbLine
 10
23.135
 20
106.444
 30
0.0
 11
23.324
 21
105.911
 31
0.0
  0
LINE
  5
67D
330
1E
100
AcDbEntity
  8
0
100
AcDbLine
 10
23.324
 20
105.911
 30
0.0
 11
23.617
 21
105.391
 31
0.0
  0
LINE
  5
67E
330
1E
100
AcDbEntity
  8
0
100
AcDbLine
 10
23.617
 20
105.391
 30
0.0
 11
24.015
 21
104.886
 31
0.0
  0
LINE
  5
686
330
1E
100
AcDbEntity
  8
0
100
AcDbLine
 10
23.007
 20
107.446511111111
 30
0.0
 11
23.007
 21
107.294
 31
0.0
  0
LINE
  5
687
330
1E
100
AcDbEntity
  8
0
100
AcDbLine
 10
23.0
 20
107.428
 30
0.0
 11
23.007
 21
107.294
 31
0.0
  0
LINE
  5
688
330
1E
100
AcDbEntity
  8
0
100
AcDbLine
 10
23.0
 20
107.428
 30
0.0
 11
23.0
 21
112.815
 31
0.0
  0
LINE
  5
689
330
1E
100
AcDbEntity
  8
0
100
AcDbLine
 10
23.007
 20
107.474097560976
 30
0.0
 11
23.007
 21
112.681
 31
0.0
  0
LINE
  5
68B
330
1E
100
AcDbEntity
  8
0
100
AcDbLine
 10
23.007
 20
107.294
 30
0.0
 11
23.007
 21
107.446511111111
 31
0.0
  0
LINE
  5
68C
330
1E
100
AcDbEntity
  8
0
100
AcDbLine
 10
23.0
 20
107.16
 30
0.0
 11
23.082
 21
106.62
 31
0.0
  0
LINE
  5
68D
330
1E
100
AcDbEntity
  8
0
100
AcDbLine
 10
23.0
 20
107.16
 30
0.0
 11
23.0
 21
112.548
 31
0.0
  0
LINE
  5
68E
330
1E
100
AcDbEntity
  8
0
100
AcDbLine
 10
25.104
 20
103.942
 30
0.0
 11
25.226
 21
103.85
 31
0.0
  0
LINE
  5
68F
330
1E
100
AcDbEntity
  8
0
100
AcDbLine
 10
25.226
 20
103.85
 30
0.0
 11
25.899
 21
103.423
 31
0.0
  0
LINE
  5
690
330
1E
100
AcDbEntity
  8
0
100
AcDbLine
 10
25.899
 20
103.423
 30
0.0
 11
26.654
 21
103.03
 31
0.0
  0
LINE
  5
691
330
1E
100
AcDbEntity
  8
0
100
AcDbLine
 10
28.307
 20
103.309
 30
0.0
 11
29.168
 21
102.993
 31
0.0
  0
LINE
  5
692
330
1E
100
AcDbEntity
  8
0
100
AcDbLine
 10
26.822
 20
104.062
 30
0.0
 11
27.522
 21
103.667
 31
0.0
  0
LINE
  5
693
330
1E
100
AcDbEntity
  8
0
100
AcDbLine
 10
27.522
 20
103.667
 30
0.0
 11
28.307
 21
103.309
 31
0.0
  0
LINE
  5
694
330
1E
100
AcDbEntity
  8
0
100
AcDbLine
 10
26.948
 20
103.94
 30
0.0
 11
27.628
 21
103.568
 31
0.0
  0
LINE
  5
695
330
1E
100
AcDbEntity
  8
0
100
AcDbLine
 10
27.628
 20
103.568
 30
0.0
 11
28.385
 21
103.232
 31
0.0
  0
LINE
  5
696
330
1E
100
AcDbEntity
  8
0
100
AcDbLine
 10
29.168
 20
102.993
 30
0.0
 11
30.094
 21
102.723
 31
0.0
  0
LINE
  5
697
330
1E
100
AcDbEntity
  8
0
100
AcDbLine
 10
29.258
 20
103.804
 30
0.0
 11
29.987
 21
103.538
 31
0.0
  0
LINE
  5
698
330
1E
100
AcDbEntity
  8
0
100
AcDbLine
 10
28.591
 20
104.105
 30
0.0
 11
29.258
 21
103.804
 31
0.0
  0
LINE
  5
699
330
1E
100
AcDbEntity
  8
0
100
AcDbLine
 10
29.987
 20
103.538
 30
0.0
 11
30.771
 21
103.309
 31
0.0
  0
LINE
  5
69A
330
1E
100
AcDbEntity
  8
0
100
AcDbLine
 10
30.771
 20
103.309
 30
0.0
 11
31.68
 21
103.105
 31
0.0
  0
LINE
  5
69B
330
1E
100
AcDbEntity
  8
0
100
AcDbLine
 10
31.68
 20
103.105
 30
0.0
 11
32.632
 21
102.951
 31
0.0
  0
LINE
  5
69C
330
1E
100
AcDbEntity
  8
0
100
AcDbLine
 10
28.385
 20
103.232
 30
0.0
 11
29.21
 21
102.934
 31
0.0
  0
LINE
  5
69D
330
1E
100
AcDbEntity
  8
0
100
AcDbLine
 10
29.21
 20
102.934
 30
0.0
 11
30.094
 21
102.677
 31
0.0
  0
LINE
  5
69E
330
1E
100
AcDbEntity
  8
0
100
AcDbLine
 10
26.654
 20
103.03
 30
0.0
 11
27.486
 21
102.671
 31
0.0
  0
LINE
  5
69F
330
1E
100
AcDbEntity
  8
0
100
AcDbLine
 10
25.706
 20
104.946
 30
0.0
 11
26.215
 21
104.49
 31
0.0
  0
LINE
  5
6A0
330
1E
100
AcDbEntity
  8
0
100
AcDbLine
 10
25.01
 20
105.922
 30
0.0
 11
25.302
 21
105.425
 31
0.0
  0
LINE
  5
6A1
330
1E
100
AcDbEntity
  8
0
100
AcDbLine
 10
24.78
 20
107.214
 30
0.0
 11
24.892
 21
107.702
 31
0.0
  0
LINE
  5
6A2
330
1E
100
AcDbEntity
  8
0
100
AcDbLine
 10
24.776
 20
106.935
 30
0.0
 11
24.78
 21
106.658
 31
0.0
  0
LINE
  5
6A3
330
1E
100
AcDbEntity
  8
0
100
AcDbLine
 10
24.776
 20
106.935
 30
0.0
 11
24.78
 21
107.214
 31
0.0
  0
LINE
  5
6A4
330
1E
100
AcDbEntity
  8
0
100
AcDbLine
 10
24.828
 20
107.53
 30
0.0
 11
26.252
 21
107.53
 31
0.0
  0
LINE
  5
6A5
330
1E
100
AcDbEntity
  8
0
100
AcDbLine
 10
24.828
 20
107.53
 30
0.0
 11
25.01
 21
108.038
 31
0.0
  0
LINE
  5
6A6
330
1E
100
AcDbEntity
  8
0
100
AcDbLine
 10
24.828
 20
107.423142857143
 30
0.0
 11
24.828
 21
106.43
 31
0.0
  0
LINE
  5
6A7
330
1E
100
AcDbEntity
  8
0
100
AcDbLine
 10
24.828
 20
106.43
 30
0.0
 11
26.252
 21
106.43
 31
0.0
  0
LINE
  5
6A8
330
1E
100
AcDbEntity
  8
0
100
AcDbLine
 10
24.828
 20
106.43
 30
0.0
 11
25.01
 21
105.922
 31
0.0
  0
LINE
  5
6A9
330
1E
100
AcDbEntity
  8
0
100
AcDbLine
 10
24.828
 20
106.43
 30
0.0
 11
24.828
 21
107.423142857143
 31
0.0
  0
LINE
  5
6AA
330
1E
100
AcDbEntity
  8
0
100
AcDbLine
 10
24.78
 20
106.658
 30
0.0
 11
24.892
 21
106.169
 31
0.0
  0
LINE
  5
6AB
330
1E
100
AcDbEntity
  8
0
100
AcDbLine
 10
24.892
 20
106.169
 30
0.0
 11
25.107
 21
105.687
 31
0.0
  0
LINE
  5
6AC
330
1E
100
AcDbEntity
  8
0
100
AcDbLine
 10
25.302
 20
105.425
 30
0.0
 11
25.706
 21
104.946
 31
0.0
  0
LINE
  5
6AD
330
1E
100
AcDbEntity
  8
0
100
AcDbLine
 10
25.107
 20
105.687
 30
0.0
 11
25.424
 21
105.22
 31
0.0
  0
LINE
  5
6AE
330
1E
100
AcDbEntity
  8
0
100
AcDbLine
 10
25.424
 20
105.22
 30
0.0
 11
25.839
 21
104.769
 31
0.0
  0
LINE
  5
6AF
330
1E
100
AcDbEntity
  8
0
100
AcDbLine
 10
24.015
 20
104.886
 30
0.0
 11
24.511
 21
104.402
 31
0.0
  0
LINE
  5
6B0
330
1E
100
AcDbEntity
  8
0
100
AcDbLine
 10
24.511
 20
104.402
 30
0.0
 11
25.104
 21
103.942
 31
0.0
  0
LINE
  5
6B1
330
1E
100
AcDbEntity
  8
0
100
AcDbLine
 10
27.474
 20
104.797
 30
0.0
 11
27.994
 21
104.437
 31
0.0
  0
LINE
  5
6B2
330
1E
100
AcDbEntity
  8
0
100
AcDbLine
 10
27.034
 20
105.18
 30
0.0
 11
27.474
 21
104.797
 31
0.0
  0
LINE
  5
6B3
330
1E
100
AcDbEntity
  8
0
100
AcDbLine
 10
26.682
 20
105.583
 30
0.0
 11
27.034
 21
105.18
 31
0.0
  0
LINE
  5
6B4
330
1E
100
AcDbEntity
  8
0
100
AcDbLine
 10
27.994
 20
104.437
 30
0.0
 11
28.591
 21
104.105
 31
0.0
  0
LINE
  5
6B5
330
1E
100
AcDbEntity
  8
0
100
AcDbLine
 10
26.215
 20
104.49
 30
0.0
 11
26.822
 21
104.062
 31
0.0
  0
LINE
  5
6B6
330
1E
100
AcDbEntity
  8
0
100
AcDbLine
 10
26.42
 20
106.001
 30
0.0
 11
26.682
 21
105.583
 31
0.0
  0
LINE
  5
6B7
330
1E
100
AcDbEntity
  8
0
100
AcDbLine
 10
29.93
 20
106.16
 30
0.0
 11
30.771
 21
105.912
 31
0.0
  0
LINE
  5
6B8
330
1E
100
AcDbEntity
  8
0
100
AcDbLine
 10
26.252
 20
107.53
 30
0.0
 11
26.252
 21
106.43
 31
0.0
  0
LINE
  5
6B9
330
1E
100
AcDbEntity
  8
0
100
AcDbLine
 10
26.252
 20
107.53
 30
0.0
 11
26.42
 21
107.959
 31
0.0
  0
LINE
  5
6BA
330
1E
100
AcDbEntity
  8
0
100
AcDbLine
 10
27.298
 20
107.543
 30
0.0
 11
27.829
 21
107.147
 31
0.0
  0
LINE
  5
6BB
330
1E
100
AcDbEntity
  8
0
100
AcDbLine
 10
27.829
 20
107.147
 30
0.0
 11
28.449
 21
106.782
 31
0.0
  0
LINE
  5
6BC
330
1E
100
AcDbEntity
  8
0
100
AcDbLine
 10
29.152
 20
106.451
 30
0.0
 11
29.93
 21
106.16
 31
0.0
  0
LINE
  5
6BD
330
1E
100
AcDbEntity
  8
0
100
AcDbLine
 10
28.449
 20
106.782
 30
0.0
 11
29.152
 21
106.451
 31
0.0
  0
LINE
  5
6BE
330
1E
100
AcDbEntity
  8
0
100
AcDbLine
 10
26.252
 20
106.43
 30
0.0
 11
26.252
 21
107.53
 31
0.0
  0
LINE
  5
6BF
330
1E
100
AcDbEntity
  8
0
100
AcDbLine
 10
26.252
 20
106.43
 30
0.0
 11
26.42
 21
106.001
 31
0.0
  0
LINE
  5
6C0
330
1E
100
AcDbEntity
  8
0
100
AcDbLine
 10
30.771
 20
105.912
 30
0.0
 11
31.665
 21
105.711
 31
0.0
  0
LINE
  5
6C1
330
1E
100
AcDbEntity
  8
0
100
AcDbLine
 10
31.665
 20
105.711
 30
0.0
 11
32.601
 21
105.559
 31
0.0
  0
LINE
  5
6C2
330
1E
100
AcDbEntity
  8
0
100
AcDbLine
 10
25.839
 20
104.769
 30
0.0
 11
26.349
 21
104.342
 31
0.0
  0
LINE
  5
6C3
330
1E
100
AcDbEntity
  8
0
100
AcDbLine
 10
26.349
 20
104.342
 30
0.0
 11
26.948
 21
103.94
 31
0.0
  0
LINE
  5
6C4
330
1E
100
AcDbEntity
  8
0
100
AcDbLine
 10
23.866
 20
104.376
 30
0.0
 11
25.170130704316
 21
103.892130944287
 31
0.0
  0
LINE
  5
6C5
330
1E
100
AcDbEntity
  8
0
100
AcDbLine
 10
22.613
 20
102.803
 30
0.0
 11
25.221
 21
101.828
 31
0.0
  0
LINE
  5
6C6
330
1E
100
AcDbEntity
  8
0
100
AcDbLine
 10
22.025
 20
105.314
 30
0.0
 11
23.866
 21
104.376
 31
0.0
  0
LINE
  5
6C7
330
1E
100
AcDbEntity
  8
0
100
AcDbLine
 10
23.0
 20
112.815
 30
0.0
 11
23.082
 21
113.356
 31
0.0
  0
LINE
  5
6C8
330
1E
100
AcDbEntity
  8
0
100
AcDbLine
 10
23.0
 20
112.815
 30
0.0
 11
23.0
 21
107.428
 31
0.0
  0
LINE
  5
6C9
330
1E
100
AcDbEntity
  8
0
100
AcDbLine
 10
23.007
 20
112.681
 30
0.0
 11
23.007
 21
107.474097560976
 31
0.0
  0
LINE
  5
6CA
330
1E
100
AcDbEntity
  8
0
100
AcDbLine
 10
23.135
 20
113.532
 30
0.0
 11
23.324
 21
114.062
 31
0.0
  0
LINE
  5
6CB
330
1E
100
AcDbEntity
  8
0
100
AcDbLine
 10
23.082
 20
113.356
 30
0.0
 11
23.135
 21
113.532
 31
0.0
  0
LINE
  5
6CC
330
1E
100
AcDbEntity
  8
0
100
AcDbLine
 10
23.324
 20
114.062
 30
0.0
 11
23.617
 21
114.584
 31
0.0
  0
LINE
  5
6CD
330
1E
100
AcDbEntity
  8
0
100
AcDbLine
 10
23.0
 20
112.548
 30
0.0
 11
23.007
 21
112.681
 31
0.0
  0
LINE
  5
6CE
330
1E
100
AcDbEntity
  8
0
100
AcDbLine
 10
23.0
 20
112.548
 30
0.0
 11
23.0
 21
107.16
 31
0.0
  0
LINE
  5
6CF
330
1E
100
AcDbEntity
  8
0
100
AcDbLine
 10
23.056
 20
114.712
 30
0.0
 11
24.948
 21
115.376
 31
0.0
  0
LINE
  5
6D0
330
1E
100
AcDbEntity
  8
0
100
AcDbLine
 10
24.892
 20
107.702
 30
0.0
 11
25.107
 21
108.182
 31
0.0
  0
LINE
  5
6D1
330
1E
100
AcDbEntity
  8
0
100
AcDbLine
 10
23.617
 20
114.584
 30
0.0
 11
23.970945149511
 21
115.033101257545
 31
0.0
  0
LINE
  5
6D2
330
1E
100
AcDbEntity
  8
0
100
AcDbLine
 10
25.01
 20
108.038
 30
0.0
 11
25.302
 21
108.536
 31
0.0
  0
LINE
  5
6D3
330
1E
100
AcDbEntity
  8
0
100
AcDbLine
 10
26.42
 20
107.959
 30
0.0
 11
26.682
 21
108.377
 31
0.0
  0
LINE
  5
6D4
330
1E
100
AcDbEntity
  8
0
100
AcDbLine
 10
25.107
 20
108.182
 30
0.0
 11
25.424
 21
108.651
 31
0.0
  0
LINE
  5
6D5
330
1E
100
AcDbEntity
  8
0
100
AcDbLine
 10
25.302
 20
108.536
 30
0.0
 11
25.706
 21
109.014
 31
0.0
  0
LINE
  5
6D6
330
1E
100
AcDbEntity
  8
0
100
AcDbLine
 10
25.706
 20
109.014
 30
0.0
 11
26.215
 21
109.47
 31
0.0
  0
LINE
  5
6D7
330
1E
100
AcDbEntity
  8
0
100
AcDbLine
 10
25.424
 20
108.651
 30
0.0
 11
25.839
 21
109.102
 31
0.0
  0
LINE
  5
6D8
330
1E
100
AcDbEntity
  8
0
100
AcDbLine
 10
26.215
 20
109.47
 30
0.0
 11
26.822
 21
109.899
 31
0.0
  0
LINE
  5
6D9
330
1E
100
AcDbEntity
  8
0
100
AcDbLine
 10
25.839
 20
109.102
 30
0.0
 11
26.349
 21
109.529
 31
0.0
  0
LINE
  5
6DA
330
1E
100
AcDbEntity
  8
0
100
AcDbLine
 10
26.682
 20
108.377
 30
0.0
 11
27.034
 21
108.78
 31
0.0
  0
LINE
  5
6DB
330
1E
100
AcDbEntity
  8
0
100
AcDbLine
 10
26.822
 20
109.899
 30
0.0
 11
27.522
 21
110.294
 31
0.0
  0
LINE
  5
6DC
330
1E
100
AcDbEntity
  8
0
100
AcDbLine
 10
26.349
 20
109.529
 30
0.0
 11
26.948
 21
109.931
 31
0.0
  0
LINE
  5
6DD
330
1E
100
AcDbEntity
  8
0
100
AcDbLine
 10
26.623923309345
 20
108.284343295061
 30
0.0
 11
26.864
 21
107.964
 31
0.0
  0
LINE
  5
6DE
330
1E
100
AcDbEntity
  8
0
100
AcDbLine
 10
24.948
 20
115.376
 30
0.0
 11
27.073
 21
115.913
 31
0.0
  0
LINE
  5
6E9
330
1E
100
AcDbEntity
  8
0
100
AcDbLine
 10
27.474
 20
109.163
 30
0.0
 11
27.994
 21
109.522
 31
0.0
  0
LINE
  5
6EA
330
1E
100
AcDbEntity
  8
0
100
AcDbLine
 10
27.034
 20
108.78
 30
0.0
 11
27.474
 21
109.163
 31
0.0
  0
LINE
  5
6EB
330
1E
100
AcDbEntity
  8
0
100
AcDbLine
 10
27.994
 20
109.522
 30
0.0
 11
28.591
 21
109.856
 31
0.0
  0
LINE
  5
6EC
330
1E
100
AcDbEntity
  8
0
100
AcDbLine
 10
27.522
 20
110.294
 30
0.0
 11
28.307
 21
110.65
 31
0.0
  0
LINE
  5
6ED
330
1E
100
AcDbEntity
  8
0
100
AcDbLine
 10
26.948
 20
109.931
 30
0.0
 11
27.628
 21
110.301
 31
0.0
  0
LINE
  5
6EE
330
1E
100
AcDbEntity
  8
0
100
AcDbLine
 10
28.307
 20
110.65
 30
0.0
 11
29.168
 21
110.967
 31
0.0
  0
LINE
  5
6EF
330
1E
100
AcDbEntity
  8
0
100
AcDbLine
 10
27.628
 20
110.301
 30
0.0
 11
28.385
 21
110.638
 31
0.0
  0
LINE
  5
6F0
330
1E
100
AcDbEntity
  8
0
100
AcDbLine
 10
29.258
 20
110.155
 30
0.0
 11
29.987
 21
110.422
 31
0.0
  0
LINE
  5
6F1
330
1E
100
AcDbEntity
  8
0
100
AcDbLine
 10
28.591
 20
109.856
 30
0.0
 11
29.258
 21
110.155
 31
0.0
  0
LINE
  5
6F2
330
1E
100
AcDbEntity
  8
0
100
AcDbLine
 10
28.385
 20
110.638
 30
0.0
 11
29.21
 21
110.935
 31
0.0
  0
LINE
  5
6F3
330
1E
100
AcDbEntity
  8
0
100
AcDbLine
 10
29.168
 20
110.967
 30
0.0
 11
30.094
 21
111.238
 31
0.0
  0
LINE
  5
6F4
330
1E
100
AcDbEntity
  8
0
100
AcDbLine
 10
29.21
 20
110.935
 30
0.0
 11
30.094
 21
111.193
 31
0.0
  0
LINE
  5
6F5
330
1E
100
AcDbEntity
  8
0
100
AcDbLine
 10
26.864
 20
107.964
 30
0.0
 11
27.298
 21
107.543
 31
0.0
  0
LINE
  5
6F6
330
1E
100
AcDbEntity
  8
0
100
AcDbLine
 10
27.073
 20
115.913
 30
0.0
 11
29.594
 21
116.34
 31
0.0
  0
LINE
  5
6F7
330
1E
100
AcDbEntity
  8
0
100
AcDbLine
 10
29.987
 20
110.422
 30
0.0
 11
30.771
 21
110.65
 31
0.0
  0
LINE
  5
6F8
330
1E
100
AcDbEntity
  8
0
100
AcDbLine
 10
30.094
 20
111.238
 30
0.0
 11
31.044
 21
111.455
 31
0.0
  0
LINE
  5
6F9
330
1E
100
AcDbEntity
  8
0
100
AcDbLine
 10
30.771
 20
110.65
 30
0.0
 11
31.68
 21
110.856
 31
0.0
  0
LINE
  5
6FA
330
1E
100
AcDbEntity
  8
0
100
AcDbLine
 10
30.094
 20
111.193
 30
0.0
 11
31.028
 21
111.407
 31
0.0
  0
LINE
  5
6FB
330
1E
100
AcDbEntity
  8
0
100
AcDbLine
 10
31.044
 20
111.455
 30
0.0
 11
32.036
 21
111.624
 31
0.0
  0
LINE
  5
6FC
330
1E
100
AcDbEntity
  8
0
100
AcDbLine
 10
31.028
 20
111.407
 30
0.0
 11
32.004
 21
111.574
 31
0.0
  0
LINE
  5
6FD
330
1E
100
AcDbEntity
  8
0
100
AcDbLine
 10
31.68
 20
110.856
 30
0.0
 11
32.632
 21
111.009
 31
0.0
  0
LINE
  5
6FE
330
1E
100
AcDbEntity
  8
0
100
AcDbLine
 10
32.036
 20
111.624
 30
0.0
 11
33.059
 21
111.744
 31
0.0
  0
LINE
  5
6FF
330
1E
100
AcDbEntity
  8
0
100
AcDbLine
 10
32.004
 20
111.574
 30
0.0
 11
33.009
 21
111.695
 31
0.0
  0
LINE
  5
701
330
1E
100
AcDbEntity
  8
0
100
AcDbLine
 10
29.594
 20
116.34
 30
0.0
 11
32.261
 21
116.598
 31
0.0
  0
LINE
  5
70C
330
1E
100
AcDbEntity
  8
0
100
AcDbLine
 10
23.429896439246
 20
114.843219469165
 30
0.0
 11
23.743310618688
 21
114.744268498586
 31
0.0
  0
LINE
  5
70D
330
1E
100
AcDbEntity
  8
0
100
AcDbLine
 10
22.618
 20
107.626
 30
0.0
 11
23.0
 21
107.468002910149
 31
0.0
  0
LINE
  5
70E
330
1E
100
AcDbEntity
  8
0
100
AcDbLine
 10
21.306
 20
113.845
 30
0.0
 11
23.056
 21
114.712
 31
0.0
  0
LINE
  5
710
330
1E
100
AcDbEntity
  8
0
100
AcDbLine
 10
35.0
 20
100.457
 30
0.0
 11
36.804
 21
100.5
 31
0.0
  0
LINE
  5
713
330
1E
100
AcDbEntity
  8
0
100
AcDbLine
 10
34.72
 20
101.392
 30
0.0
 11
35.0
 21
101.395
 31
0.0
  0
LINE
  5
714
330
1E
100
AcDbEntity
  8
0
100
AcDbLine
 10
34.036
 20
102.105
 30
0.0
 11
35.0
 21
102.085
 31
0.0
  0
LINE
  5
716
330
1E
100
AcDbEntity
  8
0
100
AcDbLine
 10
32.492
 20
101.519
 30
0.0
 11
33.6
 21
101.43
 31
0.0
  0
LINE
  5
717
330
1E
100
AcDbEntity
  8
0
100
AcDbLine
 10
33.6
 20
101.43
 30
0.0
 11
34.72
 21
101.392
 31
0.0
  0
LINE
  5
71A
330
1E
100
AcDbEntity
  8
0
100
AcDbLine
 10
34.104
 20
102.147
 30
0.0
 11
35.0
 21
102.131
 31
0.0
  0
LINE
  5
71B
330
1E
100
AcDbEntity
  8
0
100
AcDbLine
 10
32.632
 20
102.951
 30
0.0
 11
33.616
 21
102.849
 31
0.0
  0
LINE
  5
71C
330
1E
100
AcDbEntity
  8
0
100
AcDbLine
 10
33.616
 20
102.849
 30
0.0
 11
34.617
 21
102.801
 31
0.0
  0
LINE
  5
71E
330
1E
100
AcDbEntity
  8
0
100
AcDbLine
 10
34.551
 20
105.406
 30
0.0
 11
35.0
 21
105.407
 31
0.0
  0
LINE
  5
71F
330
1E
100
AcDbEntity
  8
0
100
AcDbLine
 10
34.617
 20
102.801
 30
0.0
 11
35.0
 21
102.804
 31
0.0
  0
LINE
  5
721
330
1E
100
AcDbEntity
  8
0
100
AcDbLine
 10
33.059
 20
102.217
 30
0.0
 11
34.104
 21
102.147
 31
0.0
  0
LINE
  5
722
330
1E
100
AcDbEntity
  8
0
100
AcDbLine
 10
33.009
 20
102.176
 30
0.0
 11
34.036
 21
102.105
 31
0.0
  0
LINE
  5
725
330
1E
100
AcDbEntity
  8
0
100
AcDbLine
 10
32.632
 20
111.009
 30
0.0
 11
33.616
 21
111.111
 31
0.0
  0
LINE
  5
726
330
1E
100
AcDbEntity
  8
0
100
AcDbLine
 10
32.601
 20
105.559
 30
0.0
 11
33.568
 21
105.456
 31
0.0
  0
LINE
  5
727
330
1E
100
AcDbEntity
  8
0
100
AcDbLine
 10
33.616
 20
111.111
 30
0.0
 11
34.617
 21
111.159
 31
0.0
  0
LINE
  5
729
330
1E
100
AcDbEntity
  8
0
100
AcDbLine
 10
34.617
 20
111.159
 30
0.0
 11
35.0
 21
111.156
 31
0.0
  0
LINE
  5
72B
330
1E
100
AcDbEntity
  8
0
100
AcDbLine
 10
33.568
 20
105.456
 30
0.0
 11
34.551
 21
105.406
 31
0.0
  0
LINE
  5
72C
330
1E
100
AcDbEntity
  8
0
100
AcDbLine
 10
33.059
 20
111.744
 30
0.0
 11
34.104
 21
111.813
 31
0.0
  0
LINE
  5
72D
330
1E
100
AcDbEntity
  8
0
100
AcDbLine
 10
33.009
 20
111.695
 30
0.0
 11
34.036
 21
111.766
 31
0.0
  0
LINE
  5
72E
330
1E
100
AcDbEntity
  8
0
100
AcDbLine
 10
34.104
 20
111.813
 30
0.0
 11
35.0
 21
111.828
 31
0.0
  0
LINE
  5
72F
330
1E
100
AcDbEntity
  8
0
100
AcDbLine
 10
34.036
 20
111.766
 30
0.0
 11
35.0
 21
111.785
 31
0.0
  0
LINE
  5
733
330
1E
100
AcDbEntity
  8
0
100
AcDbLine
 10
35.0
 20
111.156
 30
0.0
 11
35.383
 21
111.159
 31
0.0
  0
LINE
  5
736
330
1E
100
AcDbEntity
  8
0
100
AcDbLine
 10
35.0
 20
111.828
 30
0.0
 11
35.896
 21
111.813
 31
0.0
  0
LINE
  5
737
330
1E
100
AcDbEntity
  8
0
100
AcDbLine
 10
35.0
 20
111.785
 30
0.0
 11
35.964
 21
111.766
 31
0.0
  0
LINE
  5
739
330
1E
100
AcDbEntity
  8
0
100
AcDbLine
 10
35.0
 20
105.407
 30
0.0
 11
35.449
 21
105.406
 31
0.0
  0
LINE
  5
73A
330
1E
100
AcDbEntity
  8
0
100
AcDbLine
 10
35.0
 20
102.804
 30
0.0
 11
35.383
 21
102.801
 31
0.0
  0
LINE
  5
73B
330
1E
100
AcDbEntity
  8
0
100
AcDbLine
 10
35.0
 20
102.131
 30
0.0
 11
35.896
 21
102.147
 31
0.0
  0
LINE
  5
73C
330
1E
100
AcDbEntity
  8
0
100
AcDbLine
 10
35.0
 20
102.085
 30
0.0
 11
35.964
 21
102.105
 31
0.0
  0
LINE
  5
73E
330
1E
100
AcDbEntity
  8
0
100
AcDbLine
 10
35.0
 20
101.395
 30
0.0
 11
35.28
 21
101.392
 31
0.0
  0
LINE
  5
73F
330
1E
100
AcDbEntity
  8
0
100
AcDbLine
 10
35.0
 20
116.684
 30
0.0
 11
37.739
 21
116.598
 31
0.0
  0
LINE
  5
75F
330
1E
100
AcDbEntity
  8
0
100
AcDbLine
 10
32.261
 20
116.598
 30
0.0
 11
35.0
 21
116.684
 31
0.0
  0
LINE
  5
760
330
1E
100
AcDbEntity
  8
0
100
AcDbLine
 10
33.196
 20
100.5
 30
0.0
 11
35.0
 21
100.457
 31
0.0
  0
LINE
  5
762
330
1E
100
AcDbEntity
  8
0
100
AcDbLine
 10
36.804
 20
100.5
 30
0.0
 11
38.547
 21
100.624
 31
0.0
  0
LINE
  5
763
330
1E
100
AcDbEntity
  8
0
100
AcDbLine
 10
38.547
 20
100.624
 30
0.0
 11
40.315
 21
100.855
 31
0.0
  0
LINE
  5
764
330
1E
100
AcDbEntity
  8
0
100
AcDbLine
 10
36.4
 20
101.43
 30
0.0
 11
37.508
 21
101.519
 31
0.0
  0
LINE
  5
765
330
1E
100
AcDbEntity
  8
0
100
AcDbLine
 10
35.28
 20
101.392
 30
0.0
 11
36.4
 21
101.43
 31
0.0
  0
LINE
  5
766
330
1E
100
AcDbEntity
  8
0
100
AcDbLine
 10
35.896
 20
102.147
 30
0.0
 11
36.941
 21
102.217
 31
0.0
  0
LINE
  5
767
330
1E
100
AcDbEntity
  8
0
100
AcDbLine
 10
36.384
 20
102.849
 30
0.0
 11
37.368
 21
102.951
 31
0.0
  0
LINE
  5
768
330
1E
100
AcDbEntity
  8
0
100
AcDbLine
 10
35.383
 20
102.801
 30
0.0
 11
36.384
 21
102.849
 31
0.0
  0
LINE
  5
769
330
1E
100
AcDbEntity
  8
0
100
AcDbLine
 10
36.941
 20
102.217
 30
0.0
 11
37.964
 21
102.336
 31
0.0
  0
LINE
  5
76A
330
1E
100
AcDbEntity
  8
0
100
AcDbLine
 10
37.368
 20
102.951
 30
0.0
 11
38.32
 21
103.105
 31
0.0
  0
LINE
  5
76B
330
1E
100
AcDbEntity
  8
0
100
AcDbLine
 10
36.991
 20
102.176
 30
0.0
 11
37.996
 21
102.296
 31
0.0
  0
LINE
  5
76C
330
1E
100
AcDbEntity
  8
0
100
AcDbLine
 10
35.964
 20
102.105
 30
0.0
 11
36.991
 21
102.176
 31
0.0
  0
LINE
  5
76D
330
1E
100
AcDbEntity
  8
0
100
AcDbLine
 10
37.508
 20
101.519
 30
0.0
 11
38.594
 21
101.656
 31
0.0
  0
LINE
  5
76F
330
1E
100
AcDbEntity
  8
0
100
AcDbLine
 10
39.646
 20
101.842
 30
0.0
 11
40.656
 21
102.075
 31
0.0
  0
LINE
  5
770
330
1E
100
AcDbEntity
  8
0
100
AcDbLine
 10
38.594
 20
101.656
 30
0.0
 11
39.646
 21
101.842
 31
0.0
  0
LINE
  5
771
330
1E
100
AcDbEntity
  8
0
100
AcDbLine
 10
37.964
 20
102.336
 30
0.0
 11
38.956
 21
102.506
 31
0.0
  0
LINE
  5
772
330
1E
100
AcDbEntity
  8
0
100
AcDbLine
 10
38.32
 20
103.105
 30
0.0
 11
39.229
 21
103.309
 31
0.0
  0
LINE
  5
773
330
1E
100
AcDbEntity
  8
0
100
AcDbLine
 10
38.956
 20
102.506
 30
0.0
 11
39.906
 21
102.723
 31
0.0
  0
LINE
  5
774
330
1E
100
AcDbEntity
  8
0
100
AcDbLine
 10
39.229
 20
103.309
 30
0.0
 11
40.013
 21
103.538
 31
0.0
  0
LINE
  5
775
330
1E
100
AcDbEntity
  8
0
100
AcDbLine
 10
39.906
 20
102.723
 30
0.0
 11
40.832
 21
102.993
 31
0.0
  0
LINE
  5
776
330
1E
100
AcDbEntity
  8
0
100
AcDbLine
 10
38.972
 20
102.464
 30
0.0
 11
39.906
 21
102.677
 31
0.0
  0
LINE
  5
777
330
1E
100
AcDbEntity
  8
0
100
AcDbLine
 10
37.996
 20
102.296
 30
0.0
 11
38.972
 21
102.464
 31
0.0
  0
LINE
  5
778
330
1E
100
AcDbEntity
  8
0
100
AcDbLine
 10
40.013
 20
103.538
 30
0.0
 11
40.742
 21
103.804
 31
0.0
  0
LINE
  5
779
330
1E
100
AcDbEntity
  8
0
100
AcDbLine
 10
41.409
 20
104.105
 30
0.0
 11
42.006
 21
104.437
 31
0.0
  0
LINE
  5
77A
330
1E
100
AcDbEntity
  8
0
100
AcDbLine
 10
40.742
 20
103.804
 30
0.0
 11
41.409
 21
104.105
 31
0.0
  0
LINE
  5
77B
330
1E
100
AcDbEntity
  8
0
100
AcDbLine
 10
40.832
 20
102.993
 30
0.0
 11
41.693
 21
103.309
 31
0.0
  0
LINE
  5
77C
330
1E
100
AcDbEntity
  8
0
100
AcDbLine
 10
41.615
 20
103.232
 30
0.0
 11
42.372
 21
103.568
 31
0.0
  0
LINE
  5
77D
330
1E
100
AcDbEntity
  8
0
100
AcDbLine
 10
40.79
 20
102.934
 30
0.0
 11
41.615
 21
103.232
 31
0.0
  0
LINE
  5
77E
330
1E
100
AcDbEntity
  8
0
100
AcDbLine
 10
39.906
 20
102.677
 30
0.0
 11
40.79
 21
102.934
 31
0.0
  0
LINE
  5
77F
330
1E
100
AcDbEntity
  8
0
100
AcDbLine
 10
40.656
 20
102.075
 30
0.0
 11
41.615
 21
102.352
 31
0.0
  0
LINE
  5
780
330
1E
100
AcDbEntity
  8
0
100
AcDbLine
 10
41.693
 20
103.309
 30
0.0
 11
42.478
 21
103.667
 31
0.0
  0
LINE
  5
781
330
1E
100
AcDbEntity
  8
0
100
AcDbLine
 10
41.615
 20
102.352
 30
0.0
 11
42.514
 21
102.671
 31
0.0
  0
LINE
  5
784
330
1E
100
AcDbEntity
  8
0
100
AcDbLine
 10
40.315
 20
100.855
 30
0.0
 11
41.834
 21
101.095
 31
0.0
  0
LINE
  5
785
330
1E
100
AcDbEntity
  8
0
100
AcDbLine
 10
42.478
 20
103.667
 30
0.0
 11
43.178
 21
104.062
 31
0.0
  0
LINE
  5
786
330
1E
100
AcDbEntity
  8
0
100
AcDbLine
 10
42.372
 20
103.568
 30
0.0
 11
43.052
 21
103.94
 31
0.0
  0
LINE
  5
787
330
1E
100
AcDbEntity
  8
0
100
AcDbLine
 10
42.514
 20
102.671
 30
0.0
 11
43.346
 21
103.03
 31
0.0
  0
LINE
  5
788
330
1E
100
AcDbEntity
  8
0
100
AcDbLine
 10
43.178
 20
104.062
 30
0.0
 11
43.785
 21
104.49
 31
0.0
  0
LINE
  5
789
330
1E
100
AcDbEntity
  8
0
100
AcDbLine
 10
44.774
 20
103.85
 30
0.0
 11
44.896
 21
103.942
 31
0.0
  0
LINE
  5
78A
330
1E
100
AcDbEntity
  8
0
100
AcDbLine
 10
44.101
 20
103.423
 30
0.0
 11
44.774
 21
103.85
 31
0.0
  0
LINE
  5
78B
330
1E
100
AcDbEntity
  8
0
100
AcDbLine
 10
43.346
 20
103.03
 30
0.0
 11
44.101
 21
103.423
 31
0.0
  0
LINE
  5
78C
330
1E
100
AcDbEntity
  8
0
100
AcDbLine
 10
43.651
 20
104.342
 30
0.0
 11
44.161
 21
104.769
 31
0.0
  0
LINE
  5
78D
330
1E
100
AcDbEntity
  8
0
100
AcDbLine
 10
43.052
 20
103.94
 30
0.0
 11
43.651
 21
104.342
 31
0.0
  0
LINE
  5
78E
330
1E
100
AcDbEntity
  8
0
100
AcDbLine
 10
42.678
 20
101.299
 30
0.0
 11
44.779
 21
101.828
 31
0.0
  0
LINE
  5
78F
330
1E
100
AcDbEntity
  8
0
100
AcDbLine
 10
41.834
 20
101.095
 30
0.0
 11
42.678
 21
101.299
 31
0.0
  0
LINE
  5
793
330
1E
100
AcDbEntity
  8
0
100
AcDbLine
 10
44.896
 20
103.942
 30
0.0
 11
45.489
 21
104.402
 31
0.0
  0
LINE
  5
794
330
1E
100
AcDbEntity
  8
0
100
AcDbLine
 10
44.829869295684
 20
103.892130944287
 30
0.0
 11
46.134
 21
104.376
 31
0.0
  0
LINE
  5
795
330
1E
100
AcDbEntity
  8
0
100
AcDbLine
 10
44.779
 20
101.828
 30
0.0
 11
47.387
 21
102.803
 31
0.0
  0
LINE
  5
796
330
1E
100
AcDbEntity
  8
0
100
AcDbLine
 10
37.399
 20
105.559
 30
0.0
 11
38.335
 21
105.711
 31
0.0
  0
LINE
  5
797
330
1E
100
AcDbEntity
  8
0
100
AcDbLine
 10
36.432
 20
105.456
 30
0.0
 11
37.399
 21
105.559
 31
0.0
  0
LINE
  5
798
330
1E
100
AcDbEntity
  8
0
100
AcDbLine
 10
35.449
 20
105.406
 30
0.0
 11
36.432
 21
105.456
 31
0.0
  0
LINE
  5
799
330
1E
100
AcDbEntity
  8
0
100
AcDbLine
 10
36.384
 20
111.111
 30
0.0
 11
37.368
 21
111.009
 31
0.0
  0
LINE
  5
79A
330
1E
100
AcDbEntity
  8
0
100
AcDbLine
 10
35.383
 20
111.159
 30
0.0
 11
36.384
 21
111.111
 31
0.0
  0
LINE
  5
79B
330
1E
100
AcDbEntity
  8
0
100
AcDbLine
 10
36.941
 20
111.744
 30
0.0
 11
37.964
 21
111.624
 31
0.0
  0
LINE
  5
79C
330
1E
100
AcDbEntity
  8
0
100
AcDbLine
 10
37.368
 20
111.009
 30
0.0
 11
38.32
 21
110.856
 31
0.0
  0
LINE
  5
79D
330
1E
100
AcDbEntity
  8
0
100
AcDbLine
 10
36.991
 20
111.695
 30
0.0
 11
37.996
 21
111.574
 31
0.0
  0
LINE
  5
79E
330
1E
100
AcDbEntity
  8
0
100
AcDbLine
 10
35.896
 20
111.813
 30
0.0
 11
36.941
 21
111.744
 31
0.0
  0
LINE
  5
79F
330
1E
100
AcDbEntity
  8
0
100
AcDbLine
 10
35.964
 20
111.766
 30
0.0
 11
36.991
 21
111.695
 31
0.0
  0
LINE
  5
7A0
330
1E
100
AcDbEntity
  8
0
100
AcDbLine
 10
42.006
 20
104.437
 30
0.0
 11
42.526
 21
104.797
 31
0.0
  0
LINE
  5
7A1
330
1E
100
AcDbEntity
  8
0
100
AcDbLine
 10
42.526
 20
104.797
 30
0.0
 11
42.966
 21
105.18
 31
0.0
  0
LINE
  5
7A2
330
1E
100
AcDbEntity
  8
0
100
AcDbLine
 10
40.07
 20
106.16
 30
0.0
 11
40.848
 21
106.451
 31
0.0
  0
LINE
  5
7A3
330
1E
100
AcDbEntity
  8
0
100
AcDbLine
 10
42.702
 20
107.543
 30
0.0
 11
43.136
 21
107.964
 31
0.0
  0
LINE
  5
7A4
330
1E
100
AcDbEntity
  8
0
100
AcDbLine
 10
42.171
 20
107.147
 30
0.0
 11
42.702
 21
107.543
 31
0.0
  0
LINE
  5
7A5
330
1E
100
AcDbEntity
  8
0
100
AcDbLine
 10
41.551
 20
106.782
 30
0.0
 11
42.171
 21
107.147
 31
0.0
  0
LINE
  5
7A6
330
1E
100
AcDbEntity
  8
0
100
AcDbLine
 10
40.848
 20
106.451
 30
0.0
 11
41.551
 21
106.782
 31
0.0
  0
LINE
  5
7A7
330
1E
100
AcDbEntity
  8
0
100
AcDbLine
 10
39.229
 20
105.912
 30
0.0
 11
40.07
 21
106.16
 31
0.0
  0
LINE
  5
7A8
330
1E
100
AcDbEntity
  8
0
100
AcDbLine
 10
38.335
 20
105.711
 30
0.0
 11
39.229
 21
105.912
 31
0.0
  0
LINE
  5
7A9
330
1E
100
AcDbEntity
  8
0
100
AcDbLine
 10
38.32
 20
110.856
 30
0.0
 11
39.229
 21
110.65
 31
0.0
  0
LINE
  5
7AA
330
1E
100
AcDbEntity
  8
0
100
AcDbLine
 10
38.956
 20
111.455
 30
0.0
 11
39.906
 21
111.238
 31
0.0
  0
LINE
  5
7AB
330
1E
100
AcDbEntity
  8
0
100
AcDbLine
 10
39.229
 20
110.65
 30
0.0
 11
40.013
 21
110.422
 31
0.0
  0
LINE
  5
7AC
330
1E
100
AcDbEntity
  8
0
100
AcDbLine
 10
38.972
 20
111.407
 30
0.0
 11
39.906
 21
111.193
 31
0.0
  0
LINE
  5
7AD
330
1E
100
AcDbEntity
  8
0
100
AcDbLine
 10
37.964
 20
111.624
 30
0.0
 11
38.956
 21
111.455
 31
0.0
  0
LINE
  5
7AE
330
1E
100
AcDbEntity
  8
0
100
AcDbLine
 10
37.996
 20
111.574
 30
0.0
 11
38.972
 21
111.407
 31
0.0
  0
LINE
  5
7AF
330
1E
100
AcDbEntity
  8
0
100
AcDbLine
 10
40.013
 20
110.422
 30
0.0
 11
40.742
 21
110.155
 31
0.0
  0
LINE
  5
7B0
330
1E
100
AcDbEntity
  8
0
100
AcDbLine
 10
40.742
 20
110.155
 30
0.0
 11
41.409
 21
109.856
 31
0.0
  0
LINE
  5
7B1
330
1E
100
AcDbEntity
  8
0
100
AcDbLine
 10
42.006
 20
109.522
 30
0.0
 11
42.526
 21
109.163
 31
0.0
  0
LINE
  5
7B2
330
1E
100
AcDbEntity
  8
0
100
AcDbLine
 10
41.409
 20
109.856
 30
0.0
 11
42.006
 21
109.522
 31
0.0
  0
LINE
  5
7B3
330
1E
100
AcDbEntity
  8
0
100
AcDbLine
 10
42.526
 20
109.163
 30
0.0
 11
42.966
 21
108.78
 31
0.0
  0
LINE
  5
7B4
330
1E
100
AcDbEntity
  8
0
100
AcDbLine
 10
42.478
 20
110.294
 30
0.0
 11
43.178
 21
109.899
 31
0.0
  0
LINE
  5
7B5
330
1E
100
AcDbEntity
  8
0
100
AcDbLine
 10
42.372
 20
110.301
 30
0.0
 11
43.052
 21
109.931
 31
0.0
  0
LINE
  5
7B6
330
1E
100
AcDbEntity
  8
0
100
AcDbLine
 10
41.693
 20
110.65
 30
0.0
 11
42.478
 21
110.294
 31
0.0
  0
LINE
  5
7B7
330
1E
100
AcDbEntity
  8
0
100
AcDbLine
 10
40.832
 20
110.967
 30
0.0
 11
41.693
 21
110.65
 31
0.0
  0
LINE
  5
7B8
330
1E
100
AcDbEntity
  8
0
100
AcDbLine
 10
41.615
 20
110.638
 30
0.0
 11
42.372
 21
110.301
 31
0.0
  0
LINE
  5
7B9
330
1E
100
AcDbEntity
  8
0
100
AcDbLine
 10
40.79
 20
110.935
 30
0.0
 11
41.615
 21
110.638
 31
0.0
  0
LINE
  5
7BA
330
1E
100
AcDbEntity
  8
0
100
AcDbLine
 10
39.906
 20
111.238
 30
0.0
 11
40.832
 21
110.967
 31
0.0
  0
LINE
  5
7BB
330
1E
100
AcDbEntity
  8
0
100
AcDbLine
 10
39.906
 20
111.193
 30
0.0
 11
40.79
 21
110.935
 31
0.0
  0
LINE
  5
7BC
330
1E
100
AcDbEntity
  8
0
100
AcDbLine
 10
42.966
 20
108.78
 30
0.0
 11
43.318
 21
108.377
 31
0.0
  0
LINE
  5
7BD
330
1E
100
AcDbEntity
  8
0
100
AcDbLine
 10
43.052
 20
109.931
 30
0.0
 11
43.651
 21
109.529
 31
0.0
  0
LINE
  5
7BE
330
1E
100
AcDbEntity
  8
0
100
AcDbLine
 10
43.136
 20
107.964
 30
0.0
 11
43.376076690655
 21
108.284343295061
 31
0.0
  0
LINE
  5
7BF
330
1E
100
AcDbEntity
  8
0
100
AcDbLine
 10
42.966
 20
105.18
 30
0.0
 11
43.318
 21
105.583
 31
0.0
  0
LINE
  5
7C0
330
1E
100
AcDbEntity
  8
0
100
AcDbLine
 10
42.927
 20
115.913
 30
0.0
 11
45.052
 21
115.376
 31
0.0
  0
LINE
  5
7C1
330
1E
100
AcDbEntity
  8
0
100
AcDbLine
 10
40.406
 20
116.34
 30
0.0
 11
42.927
 21
115.913
 31
0.0
  0
LINE
  5
7C2
330
1E
100
AcDbEntity
  8
0
100
AcDbLine
 10
37.739
 20
116.598
 30
0.0
 11
40.406
 21
116.34
 31
0.0
  0
LINE
  5
7C5
330
1E
100
AcDbEntity
  8
0
100
AcDbLine
 10
43.785
 20
104.49
 30
0.0
 11
44.294
 21
104.946
 31
0.0
  0
LINE
  5
7C6
330
1E
100
AcDbEntity
  8
0
100
AcDbLine
 10
43.318
 20
105.583
 30
0.0
 11
43.58
 21
106.001
 31
0.0
  0
LINE
  5
7C7
330
1E
100
AcDbEntity
  8
0
100
AcDbLine
 10
43.58
 20
106.001
 30
0.0
 11
43.748
 21
106.43
 31
0.0
  0
LINE
  5
7C8
330
1E
100
AcDbEntity
  8
0
100
AcDbLine
 10
44.294
 20
104.946
 30
0.0
 11
44.698
 21
105.425
 31
0.0
  0
LINE
  5
7C9
330
1E
100
AcDbEntity
  8
0
100
AcDbLine
 10
43.318
 20
108.377
 30
0.0
 11
43.58
 21
107.959
 31
0.0
  0
LINE
  5
7CA
330
1E
100
AcDbEntity
  8
0
100
AcDbLine
 10
43.58
 20
107.959
 30
0.0
 11
43.748
 21
107.53
 31
0.0
  0
LINE
  5
7CB
330
1E
100
AcDbEntity
  8
0
100
AcDbLine
 10
43.178
 20
109.899
 30
0.0
 11
43.785
 21
109.47
 31
0.0
  0
LINE
  5
7CC
330
1E
100
AcDbEntity
  8
0
100
AcDbLine
 10
43.651
 20
109.529
 30
0.0
 11
44.161
 21
109.102
 31
0.0
  0
LINE
  5
7CD
330
1E
100
AcDbEntity
  8
0
100
AcDbLine
 10
44.294
 20
109.014
 30
0.0
 11
44.698
 21
108.536
 31
0.0
  0
LINE
  5
7CE
330
1E
100
AcDbEntity
  8
0
100
AcDbLine
 10
44.576
 20
108.651
 30
0.0
 11
44.893
 21
108.182
 31
0.0
  0
LINE
  5
7CF
330
1E
100
AcDbEntity
  8
0
100
AcDbLine
 10
43.785
 20
109.47
 30
0.0
 11
44.294
 21
109.014
 31
0.0
  0
LINE
  5
7D0
330
1E
100
AcDbEntity
  8
0
100
AcDbLine
 10
44.161
 20
109.102
 30
0.0
 11
44.576
 21
108.651
 31
0.0
  0
LINE
  5
7D1
330
1E
100
AcDbEntity
  8
0
100
AcDbLine
 10
43.748
 20
107.53
 30
0.0
 11
43.748
 21
106.43
 31
0.0
  0
LINE
  5
7D2
330
1E
100
AcDbEntity
  8
0
100
AcDbLine
 10
43.748
 20
107.53
 30
0.0
 11
45.172
 21
107.53
 31
0.0
  0
LINE
  5
7D3
330
1E
100
AcDbEntity
  8
0
100
AcDbLine
 10
43.748
 20
106.43
 30
0.0
 11
45.172
 21
106.43
 31
0.0
  0
LINE
  5
7D4
330
1E
100
AcDbEntity
  8
0
100
AcDbLine
 10
43.748
 20
106.43
 30
0.0
 11
43.748
 21
107.53
 31
0.0
  0
LINE
  5
7D5
330
1E
100
AcDbEntity
  8
0
100
AcDbLine
 10
44.698
 20
105.425
 30
0.0
 11
44.99
 21
105.922
 31
0.0
  0
LINE
  5
7D6
330
1E
100
AcDbEntity
  8
0
100
AcDbLine
 10
44.99
 20
108.038
 30
0.0
 11
45.172
 21
107.53
 31
0.0
  0
LINE
  5
7D7
330
1E
100
AcDbEntity
  8
0
100
AcDbLine
 10
44.698
 20
108.536
 30
0.0
 11
44.99
 21
108.038
 31
0.0
  0
LINE
  5
7D8
330
1E
100
AcDbEntity
  8
0
100
AcDbLine
 10
44.893
 20
108.182
 30
0.0
 11
45.108
 21
107.702
 31
0.0
  0
LINE
  5
7D9
330
1E
100
AcDbEntity
  8
0
100
AcDbLine
 10
44.99
 20
105.922
 30
0.0
 11
45.172
 21
106.43
 31
0.0
  0
LINE
  5
7DA
330
1E
100
AcDbEntity
  8
0
100
AcDbLine
 10
44.893
 20
105.687
 30
0.0
 11
45.108
 21
106.169
 31
0.0
  0
LINE
  5
7DB
330
1E
100
AcDbEntity
  8
0
100
AcDbLine
 10
44.576
 20
105.22
 30
0.0
 11
44.893
 21
105.687
 31
0.0
  0
LINE
  5
7DC
330
1E
100
AcDbEntity
  8
0
100
AcDbLine
 10
44.161
 20
104.769
 30
0.0
 11
44.576
 21
105.22
 31
0.0
  0
LINE
  5
7DD
330
1E
100
AcDbEntity
  8
0
100
AcDbLine
 10
45.108
 20
107.702
 30
0.0
 11
45.22
 21
107.214
 31
0.0
  0
LINE
  5
7DE
330
1E
100
AcDbEntity
  8
0
100
AcDbLine
 10
45.22
 20
107.214
 30
0.0
 11
45.224
 21
106.935
 31
0.0
  0
LINE
  5
7DF
330
1E
100
AcDbEntity
  8
0
100
AcDbLine
 10
45.172
 20
107.423142857143
 30
0.0
 11
45.172
 21
106.43
 31
0.0
  0
LINE
  5
7E0
330
1E
100
AcDbEntity
  8
0
100
AcDbLine
 10
45.172
 20
106.43
 30
0.0
 11
45.172
 21
107.423142857143
 31
0.0
  0
LINE
  5
7E1
330
1E
100
AcDbEntity
  8
0
100
AcDbLine
 10
45.22
 20
106.658
 30
0.0
 11
45.224
 21
106.935
 31
0.0
  0
LINE
  5
7E2
330
1E
100
AcDbEntity
  8
0
100
AcDbLine
 10
45.108
 20
106.169
 30
0.0
 11
45.22
 21
106.658
 31
0.0
  0
LINE
  5
7E3
330
1E
100
AcDbEntity
  8
0
100
AcDbLine
 10
46.029054850489
 20
115.033101257545
 30
0.0
 11
46.383
 21
114.584
 31
0.0
  0
LINE
  5
7E8
330
1E
100
AcDbEntity
  8
0
100
AcDbLine
 10
45.985
 20
104.886
 30
0.0
 11
46.383
 21
105.391
 31
0.0
  0
LINE
  5
7E9
330
1E
100
AcDbEntity
  8
0
100
AcDbLine
 10
45.489
 20
104.402
 30
0.0
 11
45.985
 21
104.886
 31
0.0
  0
LINE
  5
7EA
330
1E
100
AcDbEntity
  8
0
100
AcDbLine
 10
45.052
 20
115.376
 30
0.0
 11
46.944
 21
114.712
 31
0.0
  0
LINE
  5
7F5
330
1E
100
AcDbEntity
  8
0
100
AcDbLine
 10
46.383
 20
105.391
 30
0.0
 11
46.676
 21
105.911
 31
0.0
  0
LINE
  5
7F6
330
1E
100
AcDbEntity
  8
0
100
AcDbLine
 10
46.865
 20
106.444
 30
0.0
 11
46.918
 21
106.62
 31
0.0
  0
LINE
  5
7F7
330
1E
100
AcDbEntity
  8
0
100
AcDbLine
 10
46.676
 20
105.911
 30
0.0
 11
46.865
 21
106.444
 31
0.0
  0
LINE
  5
7FB
330
1E
100
AcDbEntity
  8
0
100
AcDbLine
 10
46.383
 20
114.584
 30
0.0
 11
46.676
 21
114.062
 31
0.0
  0
LINE
  5
7FE
330
1E
100
AcDbEntity
  8
0
100
AcDbLine
 10
46.918
 20
113.356
 30
0.0
 11
47.0
 21
112.815
 31
0.0
  0
LINE
  5
7FF
330
1E
100
AcDbEntity
  8
0
100
AcDbLine
 10
46.676
 20
114.062
 30
0.0
 11
46.865
 21
113.532
 31
0.0
  0
LINE
  5
800
330
1E
100
AcDbEntity
  8
0
100
AcDbLine
 10
46.865
 20
113.532
 30
0.0
 11
46.918
 21
113.356
 31
0.0
  0
LINE
  5
802
330
1E
100
AcDbEntity
  8
0
100
AcDbLine
 10
46.918
 20
106.62
 30
0.0
 11
47.0
 21
107.16
 31
0.0
  0
LINE
  5
803
330
1E
100
AcDbEntity
  8
0
100
AcDbLine
 10
46.256689381312
 20
114.744268498586
 30
0.0
 11
46.570103560754
 21
114.843219469165
 31
0.0
  0
LINE
  5
804
330
1E
100
AcDbEntity
  8
0
100
AcDbLine
 10
46.134
 20
104.376
 30
0.0
 11
47.975
 21
105.314
 31
0.0
  0
LINE
  5
805
330
1E
100
AcDbEntity
  8
0
100
AcDbLine
 10
47.387
 20
102.803
 30
0.0
 11
49.683
 21
103.998
 31
0.0
  0
LINE
  5
806
330
1E
100
AcDbEntity
  8
0
100
AcDbLine
 10
47.975
 20
105.314
 30
0.0
 11
49.397
 21
106.303
 31
0.0
  0
LINE
  5
807
330
1E
100
AcDbEntity
  8
0
100
AcDbLine
 10
49.683
 20
103.998
 30
0.0
 11
51.703
 21
105.391
 31
0.0
  0
LINE
  5
808
330
1E
100
AcDbEntity
  8
0
100
AcDbLine
 10
46.993
 20
107.294
 30
0.0
 11
46.993
 21
107.446511111111
 31
0.0
  0
LINE
  5
809
330
1E
100
AcDbEntity
  8
0
100
AcDbLine
 10
46.993
 20
107.294
 30
0.0
 11
47.0
 21
107.428
 31
0.0
  0
LINE
  5
80A
330
1E
100
AcDbEntity
  8
0
100
AcDbLine
 10
46.993
 20
107.446511111111
 30
0.0
 11
46.993
 21
107.294
 31
0.0
  0
LINE
  5
80B
330
1E
100
AcDbEntity
  8
0
100
AcDbLine
 10
47.0
 20
107.16
 30
0.0
 11
47.0
 21
107.428
 31
0.0
  0
LINE
  5
80C
330
1E
100
AcDbEntity
  8
0
100
AcDbLine
 10
47.0
 20
107.428
 30
0.0
 11
47.0
 21
107.16
 31
0.0
  0
LINE
  5
80D
330
1E
100
AcDbEntity
  8
0
100
AcDbLine
 10
47.0
 20
107.428
 30
0.0
 11
47.0
 21
112.548
 31
0.0
  0
LINE
  5
80E
330
1E
100
AcDbEntity
  8
0
100
AcDbLine
 10
47.0
 20
107.428
 30
0.0
 11
47.0
 21
112.815
 31
0.0
  0
LINE
  5
80F
330
1E
100
AcDbEntity
  8
0
100
AcDbLine
 10
49.397
 20
106.303
 30
0.0
 11
50.478
 21
107.368
 31
0.0
  0
LINE
  5
810
330
1E
100
AcDbEntity
  8
0
100
AcDbLine
 10
52.734
 20
106.282
 30
0.0
 11
53.794
 21
107.409
 31
0.0
  0
LINE
  5
811
330
1E
100
AcDbEntity
  8
0
100
AcDbLine
 10
51.703
 20
105.391
 30
0.0
 11
52.734
 21
106.282
 31
0.0
  0
LINE
  5
812
330
1E
100
AcDbEntity
  8
0
100
AcDbLine
 10
53.794
 20
107.409
 30
0.0
 11
54.786
 21
108.724
 31
0.0
  0
LINE
  5
813
330
1E
100
AcDbEntity
  8
0
100
AcDbLine
 10
50.478
 20
107.368
 30
0.0
 11
51.19
 21
108.478
 31
0.0
  0
LINE
  5
814
330
1E
100
AcDbEntity
  8
0
100
AcDbLine
 10
46.993
 20
107.474097560976
 30
0.0
 11
46.993
 21
112.681
 31
0.0
  0
LINE
  5
815
330
1E
100
AcDbEntity
  8
0
100
AcDbLine
 10
47.382
 20
107.626
 30
0.0
 11
49.51
 21
109.015
 31
0.0
  0
LINE
  5
816
330
1E
100
AcDbEntity
  8
0
100
AcDbLine
 10
49.51
 20
109.015
 30
0.0
 11
50.909
 21
110.587
 31
0.0
  0
LINE
  5
817
330
1E
100
AcDbEntity
  8
0
100
AcDbLine
 10
47.0
 20
112.815
 30
0.0
 11
47.0
 21
107.428
 31
0.0
  0
LINE
  5
818
330
1E
100
AcDbEntity
  8
0
100
AcDbLine
 10
47.0
 20
112.548
 30
0.0
 11
47.0
 21
107.428
 31
0.0
  0
LINE
  5
819
330
1E
100
AcDbEntity
  8
0
100
AcDbLine
 10
46.993
 20
112.681
 30
0.0
 11
47.0
 21
112.548
 31
0.0
  0
LINE
  5
81A
330
1E
100
AcDbEntity
  8
0
100
AcDbLine
 10
46.993
 20
112.681
 30
0.0
 11
46.993
 21
107.474097560976
 31
0.0
  0
LINE
  5
81B
330
1E
100
AcDbEntity
  8
0
100
AcDbLine
 10
48.694
 20
113.845
 30
0.0
 11
50.055
 21
112.855
 31
0.0
  0
LINE
  5
81C
330
1E
100
AcDbEntity
  8
0
100
AcDbLine
 10
50.989
 20
111.762
 30
0.0
 11
51.367
 21
110.968
 31
0.0
  0
LINE
  5
81D
330
1E
100
AcDbEntity
  8
0
100
AcDbLine
 10
50.055
 20
112.855
 30
0.0
 11
50.989
 21
111.762
 31
0.0
  0
LINE
  5
81E
330
1E
100
AcDbEntity
  8
0
100
AcDbLine
 10
50.909
 20
110.587
 30
0.0
 11
51.18440273347
 21
111.351550872022
 31
0.0
  0
LINE
  5
81F
330
1E
100
AcDbEntity
  8
0
100
AcDbLine
 10
51.367
 20
110.968
 30
0.0
 11
51.528
 21
110.15
 31
0.0
  0
LINE
  5
820
330
1E
100
AcDbEntity
  8
0
100
AcDbLine
 10
51.467
 20
109.315
 30
0.0
 11
51.528
 21
110.15
 31
0.0
  0
LINE
  5
821
330
1E
100
AcDbEntity
  8
0
100
AcDbLine
 10
51.19
 20
108.478
 30
0.0
 11
51.467
 21
109.315
 31
0.0
  0
LINE
  5
825
330
1E
100
AcDbEntity
  8
0
100
AcDbLine
 10
55.64
 20
110.142
 30
0.0
 11
56.107
 21
111.055
 31
0.0
  0
LINE
  5
826
330
1E
100
AcDbEntity
  8
0
100
AcDbLine
 10
57.102
 20
113.927
 30
0.0
 11
57.151
 21
114.184
 31
0.0
  0
LINE
  5
827
330
1E
100
AcDbEntity
  8
0
100
AcDbLine
 10
57.015
 20
113.487
 30
0.0
 11
57.102
 21
113.927
 31
0.0
  0
LINE
  5
828
330
1E
100
AcDbEntity
  8
0
100
AcDbLine
 10
56.799
 20
112.753
 30
0.0
 11
57.015
 21
113.487
 31
0.0
  0
LINE
  5
829
330
1E
100
AcDbEntity
  8
0
100
AcDbLine
 10
56.493
 20
111.944
 30
0.0
 11
56.799
 21
112.753
 31
0.0
  0
LINE
  5
82A
330
1E
100
AcDbEntity
  8
0
100
AcDbLine
 10
57.187
 20
114.46
 30
0.0
 11
57.208
 21
115.15
 31
0.0
  0
LINE
  5
82B
330
1E
100
AcDbEntity
  8
0
100
AcDbLine
 10
57.151
 20
114.184
 30
0.0
 11
57.187
 21
114.46
 31
0.0
  0
LINE
  5
82C
330
1E
100
AcDbEntity
  8
0
100
AcDbLine
 10
57.208
 20
115.15
 30
0.0
 11
57.21
 21
115.35
 31
0.0
  0
LINE
  5
82D
330
1E
100
AcDbEntity
  8
0
100
AcDbLine
 10
56.107
 20
111.055
 30
0.0
 11
56.48
 21
111.909
 31
0.0
  0
LINE
  5
82E
330
1E
100
AcDbEntity
  8
0
100
AcDbLine
 10
57.222
 20
117.135
 30
0.0
 11
57.238
 21
118.688
 31
0.0
  0
LINE
  5
82F
330
1E
100
AcDbEntity
  8
0
100
AcDbLine
 10
57.21
 20
115.35
 30
0.0
 11
57.222
 21
117.135
 31
0.0
  0
LINE
  5
830
330
1E
100
AcDbEntity
  8
0
100
AcDbLine
 10
57.255
 20
120.053
 30
0.0
 11
57.277
 21
121.204
 31
0.0
  0
LINE
  5
831
330
1E
100
AcDbEntity
  8
0
100
AcDbLine
 10
57.238
 20
118.688
 30
0.0
 11
57.255
 21
120.053
 31
0.0
  0
LINE
  5
832
330
1E
100
AcDbEntity
  8
0
100
AcDbLine
 10
54.794
 20
108.742
 30
0.0
 11
55.64
 21
110.142
 31
0.0
  0
LINE
  5
834
330
1E
100
AcDbEntity
  8
0
100
AcDbLine
 10
57.277
 20
121.204
 30
0.0
 11
57.306
 21
122.377
 31
0.0
  0
LINE
  5
83B
330
1E
100
AcDbEntity
  8
0
100
AcDbLine
 10
47.0
 20
107.468002910149
 30
0.0
 11
47.382
 21
107.626
 31
0.0
  0
LINE
  5
83C
330
1E
100
AcDbEntity
  8
0
100
AcDbLine
 10
46.944
 20
114.712
 30
0.0
 11
48.694
 21
113.845
 31
0.0
  0
LINE
  5
83D
330
1E
100
AcDbEntity
  8
0
100
AcDbLine
 10
57.306
 20
122.377
 30
0.0
 11
57.344
 21
122.89
 31
0.0
  0
LINE
  5
840
330
1E
100
AcDbEntity
  8
0
100
AcDbLine
 10
57.344
 20
122.89
 30
0.0
 11
57.372
 21
123.052
 31
0.0
  0
LINE
  5
844
330
1E
100
AcDbEntity
  8
0
100
AcDbLine
 10
123.528
 20
23.0
 30
0.0
 11
124.32
 21
23.0
 31
0.0
  0
LINE
  5
845
330
1E
100
AcDbEntity
  8
0
100
AcDbLine
 10
123.0
 20
22.7
 30
0.0
 11
123.528
 21
23.0
 31
0.0
  0
LINE
  5
846
330
1E
100
AcDbEntity
  8
0
100
AcDbLine
 10
123.0
 20
22.7
 30
0.0
 11
123.0
 21
6.0
 31
0.0
  0
LINE
  5
847
330
1E
100
AcDbEntity
  8
0
100
AcDbLine
 10
123.0
 20
22.7
 30
0.0
 11
123.792
 21
22.7
 31
0.0
  0
LINE
  5
848
330
1E
100
AcDbEntity
  8
0
100
AcDbLine
 10
123.792
 20
22.7
 30
0.0
 11
125.904
 21
22.7
 31
0.0
  0
LINE
  5
849
330
1E
100
AcDbEntity
  8
0
100
AcDbLine
 10
123.599
 20
23.4765
 30
0.0
 11
123.784
 21
23.4765
 31
0.0
  0
LINE
  5
84A
330
1E
100
AcDbEntity
  8
0
100
AcDbLine
 10
123.502
 20
23.4765
 30
0.0
 11
123.599
 21
23.4765
 31
0.0
  0
LINE
  5
84B
330
1E
100
AcDbEntity
  8
0
100
AcDbLine
 10
124.32
 20
23.0
 30
0.0
 11
126.432
 21
23.0
 31
0.0
  0
LINE
  5
84C
330
1E
100
AcDbEntity
  8
0
100
AcDbLine
 10
124.481
 20
23.4765
 30
0.0
 11
125.316
 21
23.4765
 31
0.0
  0
LINE
  5
84D
330
1E
100
AcDbEntity
  8
0
100
AcDbLine
 10
123.893
 20
23.4765
 30
0.0
 11
124.481
 21
23.4765
 31
0.0
  0
LINE
  5
84E
330
1E
100
AcDbEntity
  8
0
100
AcDbLine
 10
123.002
 20
46.221
 30
0.0
 11
123.005
 21
45.2013
 31
0.0
  0
LINE
  5
84F
330
1E
100
AcDbEntity
  8
0
100
AcDbLine
 10
123.002
 20
46.221
 30
0.0
 11
123.003
 21
47.358
 31
0.0
  0
LINE
  5
850
330
1E
100
AcDbEntity
  8
0
100
AcDbLine
 10
123.002
 20
47.7883
 30
0.0
 11
123.007
 21
48.491
 31
0.0
  0
LINE
  5
851
330
1E
100
AcDbEntity
  8
0
100
AcDbLine
 10
123.002
 20
47.7883
 30
0.0
 11
123.003
 21
47.358
 31
0.0
  0
LINE
  5
852
330
1E
100
AcDbEntity
  8
0
100
AcDbLine
 10
123.002
 20
38.8575
 30
0.0
 11
123.004
 21
38.9837
 31
0.0
  0
LINE
  5
853
330
1E
100
AcDbEntity
  8
0
100
AcDbLine
 10
123.002
 20
38.8575
 30
0.0
 11
123.003
 21
40.4994
 31
0.0
  0
LINE
  5
854
330
1E
100
AcDbEntity
  8
0
100
AcDbLine
 10
123.004
 20
35.5678
 30
0.0
 11
123.004
 21
38.9837
 31
0.0
  0
LINE
  5
855
330
1E
100
AcDbEntity
  8
0
100
AcDbLine
 10
123.003
 20
40.4994
 30
0.0
 11
123.003
 21
41.9643
 31
0.0
  0
LINE
  5
856
330
1E
100
AcDbEntity
  8
0
100
AcDbLine
 10
123.003
 20
44.4857
 30
0.0
 11
123.008
 21
44.1617
 31
0.0
  0
LINE
  5
857
330
1E
100
AcDbEntity
  8
0
100
AcDbLine
 10
123.003
 20
44.4857
 30
0.0
 11
123.004
 21
45.7201
 31
0.0
  0
LINE
  5
858
330
1E
100
AcDbEntity
  8
0
100
AcDbLine
 10
123.004
 20
49.465
 30
0.0
 11
123.007
 21
48.491
 31
0.0
  0
LINE
  5
859
330
1E
100
AcDbEntity
  8
0
100
AcDbLine
 10
123.004
 20
49.465
 30
0.0
 11
123.014
 21
59.6858
 31
0.0
  0
LINE
  5
85A
330
1E
100
AcDbEntity
  8
0
100
AcDbLine
 10
123.004
 20
45.7201
 30
0.0
 11
123.005
 21
45.2013
 31
0.0
  0
LINE
  5
85B
330
1E
100
AcDbEntity
  8
0
100
AcDbLine
 10
123.003
 20
43.2315
 30
0.0
 11
123.005
 21
42.1353
 31
0.0
  0
LINE
  5
85C
330
1E
100
AcDbEntity
  8
0
100
AcDbLine
 10
123.003
 20
43.2315
 30
0.0
 11
123.008
 21
44.1617
 31
0.0
  0
LINE
  5
85D
330
1E
100
AcDbEntity
  8
0
100
AcDbLine
 10
123.003
 20
41.9643
 30
0.0
 11
123.005
 21
42.1353
 31
0.0
  0
LINE
  5
85E
330
1E
100
AcDbEntity
  8
0
100
AcDbLine
 10
123.003
 20
41.9643
 30
0.0
 11
123.003
 21
40.4994
 31
0.0
  0
LINE
  5
85F
330
1E
100
AcDbEntity
  8
0
100
AcDbLine
 10
123.039
 20
60.2434
 30
0.0
 11
123.098
 21
60.466
 31
0.0
  0
LINE
  5
860
330
1E
100
AcDbEntity
  8
0
100
AcDbLine
 10
123.011
 20
59.6819
 30
0.0
 11
123.039
 21
60.2434
 31
0.0
  0
LINE
  5
861
330
1E
100
AcDbEntity
  8
0
100
AcDbLine
 10
123.004
 20
38.9837
 30
0.0
 11
123.004
 21
35.5678
 31
0.0
  0
LINE
  5
862
330
1E
100
AcDbEntity
  8
0
100
AcDbLine
 10
123.002
 20
23.9725
 30
0.0
 11
123.004
 21
35.5678
 31
0.0
  0
LINE
  5
863
330
1E
100
AcDbEntity
  8
0
100
AcDbLine
 10
123.0
 20
23.9715
 30
0.0
 11
123.069
 21
23.725
 31
0.0
  0
LINE
  5
864
330
1E
100
AcDbEntity
  8
0
100
AcDbLine
 10
123.098
 20
60.466
 30
0.0
 11
123.264
 21
60.7254
 31
0.0
  0
LINE
  5
865
330
1E
100
AcDbEntity
  8
0
100
AcDbLine
 10
124.68
 20
60.3974
 30
0.0
 11
124.807
 21
60.628
 31
0.0
  0
LINE
  5
866
330
1E
100
AcDbEntity
  8
0
100
AcDbLine
 10
124.68
 20
60.3974
 30
0.0
 11
124.809909676392
 21
60.606664141368
 31
0.0
  0
LINE
  5
867
330
1E
100
AcDbEntity
  8
0
100
AcDbLine
 10
123.264
 20
60.7254
 30
0.0
 11
123.525
 21
60.8944
 31
0.0
  0
LINE
  5
868
330
1E
100
AcDbEntity
  8
0
100
AcDbLine
 10
123.532
 20
60.8983
 30
0.0
 11
123.754
 21
60.96
 31
0.0
  0
LINE
  5
869
330
1E
100
AcDbEntity
  8
0
100
AcDbLine
 10
123.826
 20
60.9669
 30
0.0
 11
124.403
 21
61.0067
 31
0.0
  0
LINE
  5
86A
330
1E
100
AcDbEntity
  8
0
100
AcDbLine
 10
123.754
 20
60.96
 30
0.0
 11
123.826
 21
60.9669
 31
0.0
  0
LINE
  5
86B
330
1E
100
AcDbEntity
  8
0
100
AcDbLine
 10
124.703
 20
61.0186
 30
0.0
 11
124.922616648732
 21
61.024716426292
 31
0.0
  0
LINE
  5
86C
330
1E
100
AcDbEntity
  8
0
100
AcDbLine
 10
124.403
 20
61.0067
 30
0.0
 11
124.703
 21
61.0186
 31
0.0
  0
LINE
  5
86D
330
1E
100
AcDbEntity
  8
0
100
AcDbLine
 10
124.807
 20
60.628
 30
0.0
 11
124.939
 21
61.0494
 31
0.0
  0
LINE
  5
86E
330
1E
100
AcDbEntity
  8
0
100
AcDbLine
 10
124.762
 20
60.5922
 30
0.0
 11
124.808328467832
 21
60.632241032912
 31
0.0
  0
LINE
  5
86F
330
1E
100
AcDbEntity
  8
0
100
AcDbLine
 10
123.069
 20
23.725
 30
0.0
 11
123.252
 21
23.5421
 31
0.0
  0
LINE
  5
870
330
1E
100
AcDbEntity
  8
0
100
AcDbLine
 10
123.252
 20
23.5421
 30
0.0
 11
123.502
 21
23.4765
 31
0.0
  0
LINE
  5
871
330
1E
100
AcDbEntity
  8
0
100
AcDbLine
 10
125.904
 20
22.7
 30
0.0
 11
129.424
 21
22.7
 31
0.0
  0
LINE
  5
872
330
1E
100
AcDbEntity
  8
0
100
AcDbLine
 10
126.432
 20
23.0
 30
0.0
 11
129.864
 21
23.0
 31
0.0
  0
LINE
  5
873
330
1E
100
AcDbEntity
  8
0
100
AcDbLine
 10
129.864
 20
23.0
 30
0.0
 11
134.352
 21
23.0
 31
0.0
  0
LINE
  5
874
330
1E
100
AcDbEntity
  8
0
100
AcDbLine
 10
129.424
 20
22.7
 30
0.0
 11
134.088
 21
22.7
 31
0.0
  0
LINE
  5
875
330
1E
100
AcDbEntity
  8
0
100
AcDbLine
 10
134.088
 20
22.7
 30
0.0
 11
139.368
 21
22.7
 31
0.0
  0
LINE
  5
876
330
1E
100
AcDbEntity
  8
0
100
AcDbLine
 10
134.352
 20
23.0
 30
0.0
 11
139.456
 21
23.0
 31
0.0
  0
LINE
  5
877
330
1E
100
AcDbEntity
  8
0
100
AcDbLine
 10
139.456
 20
23.0
 30
0.0
 11
145.0
 21
23.0
 31
0.0
  0
LINE
  5
878
330
1E
100
AcDbEntity
  8
0
100
AcDbLine
 10
139.368
 20
22.7
 30
0.0
 11
145.0
 21
22.7
 31
0.0
  0
LINE
  5
879
330
1E
100
AcDbEntity
  8
0
100
AcDbLine
 10
145.0
 20
23.0
 30
0.0
 11
150.544
 21
23.0
 31
0.0
  0
LINE
  5
87A
330
1E
100
AcDbEntity
  8
0
100
AcDbLine
 10
145.0
 20
22.7
 30
0.0
 11
150.632
 21
22.7
 31
0.0
  0
LINE
  5
87B
330
1E
100
AcDbEntity
  8
0
100
AcDbLine
 10
150.544
 20
23.0
 30
0.0
 11
155.648
 21
23.0
 31
0.0
  0
LINE
  5
87C
330
1E
100
AcDbEntity
  8
0
100
AcDbLine
 10
150.632
 20
22.7
 30
0.0
 11
155.912
 21
22.7
 31
0.0
  0
LINE
  5
87D
330
1E
100
AcDbEntity
  8
0
100
AcDbLine
 10
160.576
 20
22.7
 30
0.0
 11
164.096
 21
22.7
 31
0.0
  0
LINE
  5
87E
330
1E
100
AcDbEntity
  8
0
100
AcDbLine
 10
160.136
 20
23.0
 30
0.0
 11
163.568
 21
23.0
 31
0.0
  0
LINE
  5
87F
330
1E
100
AcDbEntity
  8
0
100
AcDbLine
 10
155.648
 20
23.0
 30
0.0
 11
160.136
 21
23.0
 31
0.0
  0
LINE
  5
880
330
1E
100
AcDbEntity
  8
0
100
AcDbLine
 10
155.912
 20
22.7
 30
0.0
 11
160.576
 21
22.7
 31
0.0
  0
LINE
  5
885
330
1E
100
AcDbEntity
  8
0
100
AcDbLine
 10
163.568
 20
23.0
 30
0.0
 11
165.68
 21
23.0
 31
0.0
  0
LINE
  5
886
330
1E
100
AcDbEntity
  8
0
100
AcDbLine
 10
162.124
 20
23.4765
 30
0.0
 11
163.61
 21
23.4765
 31
0.0
  0
LINE
  5
888
330
1E
100
AcDbEntity
  8
0
100
AcDbLine
 10
164.096
 20
22.7
 30
0.0
 11
166.208
 21
22.7
 31
0.0
  0
LINE
  5
889
330
1E
100
AcDbEntity
  8
0
100
AcDbLine
 10
165.064559498854
 20
23.4765
 30
0.0
 11
165.139125140155
 21
23.0
 31
0.0
  0
LINE
  5
88A
330
1E
100
AcDbEntity
  8
0
100
AcDbLine
 10
165.68
 20
23.0
 30
0.0
 11
166.472
 21
23.0
 31
0.0
  0
LINE
  5
88B
330
1E
100
AcDbEntity
  8
0
100
AcDbLine
 10
166.208
 20
22.7
 30
0.0
 11
167.0
 21
22.7
 31
0.0
  0
LINE
  5
88C
330
1E
100
AcDbEntity
  8
0
100
AcDbLine
 10
167.0
 20
22.7
 30
0.0
 11
167.0
 21
6.0
 31
0.0
  0
LINE
  5
88D
330
1E
100
AcDbEntity
  8
0
100
AcDbLine
 10
166.472
 20
23.0
 30
0.0
 11
167.0
 21
22.7
 31
0.0
  0
LINE
  5
88E
330
1E
100
AcDbEntity
  8
0
100
AcDbLine
 10
166.498
 20
23.4765
 30
0.0
 11
166.748
 21
23.5421
 31
0.0
  0
LINE
  5
88F
330
1E
100
AcDbEntity
  8
0
100
AcDbLine
 10
166.436
 20
23.4765
 30
0.0
 11
166.498
 21
23.4765
 31
0.0
  0
LINE
  5
890
330
1E
100
AcDbEntity
  8
0
100
AcDbLine
 10
166.401
 20
23.4765
 30
0.0
 11
166.498
 21
23.4765
 31
0.0
  0
LINE
  5
891
330
1E
100
AcDbEntity
  8
0
100
AcDbLine
 10
166.216
 20
23.4765
 30
0.0
 11
166.401
 21
23.4765
 31
0.0
  0
LINE
  5
892
330
1E
100
AcDbEntity
  8
0
100
AcDbLine
 10
166.107
 20
23.4765
 30
0.0
 11
166.436
 21
23.4765
 31
0.0
  0
LINE
  5
893
330
1E
100
AcDbEntity
  8
0
100
AcDbLine
 10
165.668
 20
23.4765
 30
0.0
 11
166.216
 21
23.4765
 31
0.0
  0
LINE
  5
894
330
1E
100
AcDbEntity
  8
0
100
AcDbLine
 10
164.684
 20
23.4765
 30
0.0
 11
165.52
 21
23.4765
 31
0.0
  0
LINE
  5
895
330
1E
100
AcDbEntity
  8
0
100
AcDbLine
 10
163.61
 20
23.4765
 30
0.0
 11
164.684
 21
23.4765
 31
0.0
  0
LINE
  5
897
330
1E
100
AcDbEntity
  8
0
100
AcDbLine
 10
139.464
 20
23.4765
 30
0.0
 11
162.470281291833
 21
23.4765
 31
0.0
  0
LINE
  5
898
330
1E
100
AcDbEntity
  8
0
100
AcDbLine
 10
136.814
 20
23.4765
 30
0.0
 11
139.464
 21
23.4765
 31
0.0
  0
LINE
  5
899
330
1E
100
AcDbEntity
  8
0
100
AcDbLine
 10
134.304
 20
23.4765
 30
0.0
 11
136.814
 21
23.4765
 31
0.0
  0
LINE
  5
89A
330
1E
100
AcDbEntity
  8
0
100
AcDbLine
 10
131.978
 20
23.4765
 30
0.0
 11
134.304
 21
23.4765
 31
0.0
  0
LINE
  5
89B
330
1E
100
AcDbEntity
  8
0
100
AcDbLine
 10
129.873
 20
23.4765
 30
0.0
 11
131.978
 21
23.4765
 31
0.0
  0
LINE
  5
89C
330
1E
100
AcDbEntity
  8
0
100
AcDbLine
 10
128.028
 20
23.4765
 30
0.0
 11
129.873
 21
23.4765
 31
0.0
  0
LINE
  5
89D
330
1E
100
AcDbEntity
  8
0
100
AcDbLine
 10
125.232
 20
23.4765
 30
0.0
 11
126.472
 21
23.4765
 31
0.0
  0
LINE
  5
89E
330
1E
100
AcDbEntity
  8
0
100
AcDbLine
 10
125.026
 20
61.5612
 30
0.0
 11
125.075
 21
61.8733
 31
0.0
  0
LINE
  5
89F
330
1E
100
AcDbEntity
  8
0
100
AcDbLine
 10
124.952
 20
61.1567
 30
0.0
 11
125.026
 21
61.5612
 31
0.0
  0
LINE
  5
8A0
330
1E
100
AcDbEntity
  8
0
100
AcDbLine
 10
125.176
 20
62.6088
 30
0.0
 11
125.237
 21
62.8185
 31
0.0
  0
LINE
  5
8A1
330
1E
100
AcDbEntity
  8
0
100
AcDbLine
 10
125.075
 20
61.8733
 30
0.0
 11
125.176
 21
62.6088
 31
0.0
  0
LINE
  5
8A2
330
1E
100
AcDbEntity
  8
0
100
AcDbLine
 10
124.879
 20
60.8288
 30
0.0
 11
124.939
 21
61.0494
 31
0.0
  0
LINE
  5
8A3
330
1E
100
AcDbEntity
  8
0
100
AcDbLine
 10
124.879
 20
60.8288
 30
0.0
 11
124.952
 21
61.1567
 31
0.0
  0
LINE
  5
8A4
330
1E
100
AcDbEntity
  8
0
100
AcDbLine
 10
125.5
 20
63.3651
 30
0.0
 11
125.625
 21
63.5201
 31
0.0
  0
LINE
  5
8A5
330
1E
100
AcDbEntity
  8
0
100
AcDbLine
 10
125.333
 20
63.1246
 30
0.0
 11
125.5
 21
63.3651
 31
0.0
  0
LINE
  5
8A6
330
1E
100
AcDbEntity
  8
0
100
AcDbLine
 10
125.237
 20
62.8185
 30
0.0
 11
125.333
 21
63.1246
 31
0.0
  0
LINE
  5
8A7
330
1E
100
AcDbEntity
  8
0
100
AcDbLine
 10
125.625
 20
63.5201
 30
0.0
 11
125.941
 21
63.7567
 31
0.0
  0
LINE
  5
8A8
330
1E
100
AcDbEntity
  8
0
100
AcDbLine
 10
126.152
 20
63.87
 30
0.0
 11
126.587
 21
64.0727
 31
0.0
  0
LINE
  5
8A9
330
1E
100
AcDbEntity
  8
0
100
AcDbLine
 10
125.941
 20
63.7567
 30
0.0
 11
126.152
 21
63.87
 31
0.0
  0
LINE
  5
8AA
330
1E
100
AcDbEntity
  8
0
100
AcDbLine
 10
126.587
 20
64.0727
 30
0.0
 11
127.147
 21
64.2476
 31
0.0
  0
LINE
  5
8AD
330
1E
100
AcDbEntity
  8
0
100
AcDbLine
 10
128.285
 20
64.4514
 30
0.0
 11
129.285
 21
64.5359
 31
0.0
  0
LINE
  5
8AE
330
1E
100
AcDbEntity
  8
0
100
AcDbLine
 10
127.807
 20
64.3838
 30
0.0
 11
128.285
 21
64.4514
 31
0.0
  0
LINE
  5
8AF
330
1E
100
AcDbEntity
  8
0
100
AcDbLine
 10
127.147
 20
64.2476
 30
0.0
 11
127.807
 21
64.3838
 31
0.0
  0
LINE
  5
8B0
330
1E
100
AcDbEntity
  8
0
100
AcDbLine
 10
133.199
 20
64.7515
 30
0.0
 11
137.125
 21
64.8976
 31
0.0
  0
LINE
  5
8B1
330
1E
100
AcDbEntity
  8
0
100
AcDbLine
 10
129.285
 20
64.5359
 30
0.0
 11
133.199
 21
64.7515
 31
0.0
  0
LINE
  5
8B3
330
1E
100
AcDbEntity
  8
0
100
AcDbLine
 10
142.31
 20
32.948
 30
0.0
 11
142.351
 21
33.271
 31
0.0
  0
LINE
  5
8B4
330
1E
100
AcDbEntity
  8
0
100
AcDbLine
 10
142.302
 20
32.622
 30
0.0
 11
142.329
 21
32.297
 31
0.0
  0
LINE
  5
8B5
330
1E
100
AcDbEntity
  8
0
100
AcDbLine
 10
142.302
 20
32.622
 30
0.0
 11
142.31
 21
32.948
 31
0.0
  0
LINE
  5
8B6
330
1E
100
AcDbEntity
  8
0
100
AcDbLine
 10
142.351
 20
33.271
 30
0.0
 11
142.384
 21
33.432
 31
0.0
  0
LINE
  5
8B7
330
1E
100
AcDbEntity
  8
0
100
AcDbLine
 10
142.388
 20
31.977
 30
0.0
 11
142.479
 21
31.6689
 31
0.0
  0
LINE
  5
8B9
330
1E
100
AcDbEntity
  8
0
100
AcDbLine
 10
142.384
 20
33.432
 30
0.0
 11
142.426
 21
33.59
 31
0.0
  0
LINE
  5
8BA
330
1E
100
AcDbEntity
  8
0
100
AcDbLine
 10
142.426
 20
33.59
 30
0.0
 11
142.475
 21
33.7441
 31
0.0
  0
LINE
  5
8BB
330
1E
100
AcDbEntity
  8
0
100
AcDbLine
 10
142.475
 20
33.7441
 30
0.0
 11
142.533
 21
33.8962
 31
0.0
  0
LINE
  5
8BC
330
1E
100
AcDbEntity
  8
0
100
AcDbLine
 10
142.533
 20
33.8962
 30
0.0
 11
142.639
 21
34.1257
 31
0.0
  0
LINE
  5
8BD
330
1E
100
AcDbEntity
  8
0
100
AcDbLine
 10
142.329
 20
32.297
 30
0.0
 11
142.388
 21
31.977
 31
0.0
  0
LINE
  5
8BE
330
1E
100
AcDbEntity
  8
0
100
AcDbLine
 10
142.479
 20
31.6689
 30
0.0
 11
142.536
 21
31.5159
 31
0.0
  0
LINE
  5
8C1
330
1E
100
AcDbEntity
  8
0
100
AcDbLine
 10
142.673
 20
31.2217
 30
0.0
 11
142.754
 21
31.0805
 31
0.0
  0
LINE
  5
8C3
330
1E
100
AcDbEntity
  8
0
100
AcDbLine
 10
142.601
 20
31.3668
 30
0.0
 11
142.673
 21
31.2217
 31
0.0
  0
LINE
  5
8C4
330
1E
100
AcDbEntity
  8
0
100
AcDbLine
 10
142.639
 20
34.1257
 30
0.0
 11
142.764
 21
34.3464
 31
0.0
  0
LINE
  5
8C6
330
1E
100
AcDbEntity
  8
0
100
AcDbLine
 10
142.536
 20
31.5159
 30
0.0
 11
142.601
 21
31.3668
 31
0.0
  0
LINE
  5
8C7
330
1E
100
AcDbEntity
  8
0
100
AcDbLine
 10
142.754
 20
31.0805
 30
0.0
 11
142.908
 21
30.852
 31
0.0
  0
LINE
  5
8C8
330
1E
100
AcDbEntity
  8
0
100
AcDbLine
 10
142.908
 20
30.852
 30
0.0
 11
143.083
 21
30.6383
 31
0.0
  0
LINE
  5
8C9
330
1E
100
AcDbEntity
  8
0
100
AcDbLine
 10
142.764
 20
34.3464
 30
0.0
 11
142.908
 21
34.5551
 31
0.0
  0
LINE
  5
8CA
330
1E
100
AcDbEntity
  8
0
100
AcDbLine
 10
143.694
 20
30.1354
 30
0.0
 11
143.928
 21
30.0102
 31
0.0
  0
LINE
  5
8CB
330
1E
100
AcDbEntity
  8
0
100
AcDbLine
 10
143.928
 20
30.0102
 30
0.0
 11
144.175
 21
29.9088
 31
0.0
  0
LINE
  5
8CC
330
1E
100
AcDbEntity
  8
0
100
AcDbLine
 10
144.175
 20
29.9088
 30
0.0
 11
144.431
 21
29.8352
 31
0.0
  0
LINE
  5
8CD
330
1E
100
AcDbEntity
  8
0
100
AcDbLine
 10
144.431
 20
29.8352
 30
0.0
 11
144.657
 21
29.7935
 31
0.0
  0
LINE
  5
8CE
330
1E
100
AcDbEntity
  8
0
100
AcDbLine
 10
144.657
 20
29.7935
 30
0.0
 11
144.885
 21
29.7716
 31
0.0
  0
LINE
  5
8CF
330
1E
100
AcDbEntity
  8
0
100
AcDbLine
 10
166.748
 20
23.5421
 30
0.0
 11
166.931
 21
23.725
 31
0.0
  0
LINE
  5
8D0
330
1E
100
AcDbEntity
  8
0
100
AcDbLine
 10
166.931
 20
23.725
 30
0.0
 11
167.0
 21
23.9715
 31
0.0
  0
LINE
  5
8D1
330
1E
100
AcDbEntity
  8
0
100
AcDbLine
 10
145.0
 20
29.7716
 30
0.0
 11
145.115
 21
29.7716
 31
0.0
  0
LINE
  5
8D2
330
1E
100
AcDbEntity
  8
0
100
AcDbLine
 10
145.343
 20
29.7935
 30
0.0
 11
145.569
 21
29.8352
 31
0.0
  0
LINE
  5
8D3
330
1E
100
AcDbEntity
  8
0
100
AcDbLine
 10
145.115
 20
29.7716
 30
0.0
 11
145.343
 21
29.7935
 31
0.0
  0
LINE
  5
8D4
330
1E
100
AcDbEntity
  8
0
100
AcDbLine
 10
145.825
 20
29.9088
 30
0.0
 11
146.072
 21
30.0102
 31
0.0
  0
LINE
  5
8D5
330
1E
100
AcDbEntity
  8
0
100
AcDbLine
 10
146.072
 20
30.0102
 30
0.0
 11
146.306
 21
30.1354
 31
0.0
  0
LINE
  5
8D6
330
1E
100
AcDbEntity
  8
0
100
AcDbLine
 10
146.306
 20
30.1354
 30
0.0
 11
146.504
 21
30.2666
 31
0.0
  0
LINE
  5
8D7
330
1E
100
AcDbEntity
  8
0
100
AcDbLine
 10
146.504
 20
30.2666
 30
0.0
 11
146.72
 21
30.4415
 31
0.0
  0
LINE
  5
8D8
330
1E
100
AcDbEntity
  8
0
100
AcDbLine
 10
145.569
 20
29.8352
 30
0.0
 11
145.825
 21
29.9088
 31
0.0
  0
LINE
  5
8D9
330
1E
100
AcDbEntity
  8
0
100
AcDbLine
 10
144.885
 20
29.7716
 30
0.0
 11
145.0
 21
29.7716
 31
0.0
  0
LINE
  5
8DA
330
1E
100
AcDbEntity
  8
0
100
AcDbLine
 10
143.069
 20
34.7519
 30
0.0
 11
143.268
 21
34.9506
 31
0.0
  0
LINE
  5
8DC
330
1E
100
AcDbEntity
  8
0
100
AcDbLine
 10
143.268
 20
34.9506
 30
0.0
 11
143.487
 21
35.1295
 31
0.0
  0
LINE
  5
8DE
330
1E
100
AcDbEntity
  8
0
100
AcDbLine
 10
143.083
 20
30.6383
 30
0.0
 11
143.28
 21
30.4415
 31
0.0
  0
LINE
  5
8E0
330
1E
100
AcDbEntity
  8
0
100
AcDbLine
 10
146.72
 20
30.4415
 30
0.0
 11
146.917
 21
30.6383
 31
0.0
  0
LINE
  5
8E2
330
1E
100
AcDbEntity
  8
0
100
AcDbLine
 10
146.917
 20
30.6383
 30
0.0
 11
147.092
 21
30.852
 31
0.0
  0
LINE
  5
8E4
330
1E
100
AcDbEntity
  8
0
100
AcDbLine
 10
147.246
 20
31.0805
 30
0.0
 11
147.327
 21
31.2217
 31
0.0
  0
LINE
  5
8E7
330
1E
100
AcDbEntity
  8
0
100
AcDbLine
 10
147.464
 20
31.5159
 30
0.0
 11
147.521
 21
31.6689
 31
0.0
  0
LINE
  5
8E8
330
1E
100
AcDbEntity
  8
0
100
AcDbLine
 10
147.399
 20
31.3668
 30
0.0
 11
147.464
 21
31.5159
 31
0.0
  0
LINE
  5
8EA
330
1E
100
AcDbEntity
  8
0
100
AcDbLine
 10
147.327
 20
31.2217
 30
0.0
 11
147.399
 21
31.3668
 31
0.0
  0
LINE
  5
8EC
330
1E
100
AcDbEntity
  8
0
100
AcDbLine
 10
147.092
 20
30.852
 30
0.0
 11
147.246
 21
31.0805
 31
0.0
  0
LINE
  5
8ED
330
1E
100
AcDbEntity
  8
0
100
AcDbLine
 10
147.52
 20
31.6679
 30
0.0
 11
147.612
 21
31.977
 31
0.0
  0
LINE
  5
8EE
330
1E
100
AcDbEntity
  8
0
100
AcDbLine
 10
147.521
 20
31.6689
 30
0.0
 11
147.612
 21
31.977
 31
0.0
  0
LINE
  5
8EF
330
1E
100
AcDbEntity
  8
0
100
AcDbLine
 10
147.671
 20
32.297
 30
0.0
 11
147.698
 21
32.622
 31
0.0
  0
LINE
  5
8F0
330
1E
100
AcDbEntity
  8
0
100
AcDbLine
 10
147.649
 20
33.271
 30
0.0
 11
147.69
 21
32.948
 31
0.0
  0
LINE
  5
8F1
330
1E
100
AcDbEntity
  8
0
100
AcDbLine
 10
147.69
 20
32.948
 30
0.0
 11
147.698
 21
32.622
 31
0.0
  0
LINE
  5
8F2
330
1E
100
AcDbEntity
  8
0
100
AcDbLine
 10
147.612
 20
31.977
 30
0.0
 11
147.671
 21
32.297
 31
0.0
  0
LINE
  5
8F3
330
1E
100
AcDbEntity
  8
0
100
AcDbLine
 10
147.574
 20
33.59
 30
0.0
 11
147.616
 21
33.432
 31
0.0
  0
LINE
  5
8F4
330
1E
100
AcDbEntity
  8
0
100
AcDbLine
 10
146.732
 20
34.9506
 30
0.0
 11
146.931
 21
34.7519
 31
0.0
  0
LINE
  5
8F5
330
1E
100
AcDbEntity
  8
0
100
AcDbLine
 10
146.931
 20
34.7519
 30
0.0
 11
147.092
 21
34.5551
 31
0.0
  0
LINE
  5
8F6
330
1E
100
AcDbEntity
  8
0
100
AcDbLine
 10
147.467
 20
33.8962
 30
0.0
 11
147.525
 21
33.7441
 31
0.0
  0
LINE
  5
8F7
330
1E
100
AcDbEntity
  8
0
100
AcDbLine
 10
147.236
 20
34.3464
 30
0.0
 11
147.361
 21
34.1257
 31
0.0
  0
LINE
  5
8F8
330
1E
100
AcDbEntity
  8
0
100
AcDbLine
 10
147.361
 20
34.1257
 30
0.0
 11
147.467
 21
33.8962
 31
0.0
  0
LINE
  5
8F9
330
1E
100
AcDbEntity
  8
0
100
AcDbLine
 10
147.092
 20
34.5551
 30
0.0
 11
147.236
 21
34.3464
 31
0.0
  0
LINE
  5
8FA
330
1E
100
AcDbEntity
  8
0
100
AcDbLine
 10
147.525
 20
33.7441
 30
0.0
 11
147.574
 21
33.59
 31
0.0
  0
LINE
  5
8FB
330
1E
100
AcDbEntity
  8
0
100
AcDbLine
 10
146.513
 20
35.1295
 30
0.0
 11
146.732
 21
34.9506
 31
0.0
  0
LINE
  5
8FC
330
1E
100
AcDbEntity
  8
0
100
AcDbLine
 10
147.616
 20
33.432
 30
0.0
 11
147.649
 21
33.271
 31
0.0
  0
LINE
  5
8FF
330
1E
100
AcDbEntity
  8
0
100
AcDbLine
 10
146.276
 20
35.2846
 30
0.0
 11
146.513
 21
35.1295
 31
0.0
  0
LINE
  5
900
330
1E
100
AcDbEntity
  8
0
100
AcDbLine
 10
146.073
 20
35.3899
 30
0.0
 11
146.276
 21
35.2846
 31
0.0
  0
LINE
  5
901
330
1E
100
AcDbEntity
  8
0
100
AcDbLine
 10
145.861
 20
35.4774
 30
0.0
 11
146.073
 21
35.3899
 31
0.0
  0
LINE
  5
902
330
1E
100
AcDbEntity
  8
0
100
AcDbLine
 10
145.642
 20
35.547
 30
0.0
 11
145.861
 21
35.4774
 31
0.0
  0
LINE
  5
904
330
1E
100
AcDbEntity
  8
0
100
AcDbLine
 10
144.586
 20
35.5957
 30
0.0
 11
144.816
 21
35.6235
 31
0.0
  0
LINE
  5
905
330
1E
100
AcDbEntity
  8
0
100
AcDbLine
 10
145.0
 20
35.6285
 30
0.0
 11
145.184
 21
35.6235
 31
0.0
  0
LINE
  5
906
330
1E
100
AcDbEntity
  8
0
100
AcDbLine
 10
145.184
 20
35.6235
 30
0.0
 11
145.414
 21
35.5957
 31
0.0
  0
LINE
  5
907
330
1E
100
AcDbEntity
  8
0
100
AcDbLine
 10
145.414
 20
35.5957
 30
0.0
 11
145.642
 21
35.547
 31
0.0
  0
LINE
  5
909
330
1E
100
AcDbEntity
  8
0
100
AcDbLine
 10
166.996
 20
38.9837
 30
0.0
 11
166.998
 21
38.8575
 31
0.0
  0
LINE
  5
90A
330
1E
100
AcDbEntity
  8
0
100
AcDbLine
 10
166.996
 20
38.9837
 30
0.0
 11
166.996
 21
35.5678
 31
0.0
  0
LINE
  5
90B
330
1E
100
AcDbEntity
  8
0
100
AcDbLine
 10
166.997
 20
40.4994
 30
0.0
 11
166.998
 21
38.8575
 31
0.0
  0
LINE
  5
90C
330
1E
100
AcDbEntity
  8
0
100
AcDbLine
 10
166.997
 20
40.4994
 30
0.0
 11
166.997
 21
41.9643
 31
0.0
  0
LINE
  5
90D
330
1E
100
AcDbEntity
  8
0
100
AcDbLine
 10
166.996
 20
35.5678
 30
0.0
 11
166.998
 21
23.9725
 31
0.0
  0
LINE
  5
90E
330
1E
100
AcDbEntity
  8
0
100
AcDbLine
 10
166.996
 20
35.5678
 30
0.0
 11
166.996
 21
38.9837
 31
0.0
  0
LINE
  5
90F
330
1E
100
AcDbEntity
  8
0
100
AcDbLine
 10
166.992
 20
44.1617
 30
0.0
 11
166.997
 21
43.2315
 31
0.0
  0
LINE
  5
910
330
1E
100
AcDbEntity
  8
0
100
AcDbLine
 10
166.992
 20
44.1617
 30
0.0
 11
166.997
 21
44.4857
 31
0.0
  0
LINE
  5
911
330
1E
100
AcDbEntity
  8
0
100
AcDbLine
 10
166.995
 20
45.2013
 30
0.0
 11
166.998
 21
46.221
 31
0.0
  0
LINE
  5
912
330
1E
100
AcDbEntity
  8
0
100
AcDbLine
 10
166.995
 20
45.2013
 30
0.0
 11
166.996
 21
45.7201
 31
0.0
  0
LINE
  5
913
330
1E
100
AcDbEntity
  8
0
100
AcDbLine
 10
166.993
 20
48.491
 30
0.0
 11
166.996
 21
49.465
 31
0.0
  0
LINE
  5
914
330
1E
100
AcDbEntity
  8
0
100
AcDbLine
 10
166.993
 20
48.491
 30
0.0
 11
166.998
 21
47.7883
 31
0.0
  0
LINE
  5
915
330
1E
100
AcDbEntity
  8
0
100
AcDbLine
 10
166.997
 20
47.358
 30
0.0
 11
166.998
 21
46.221
 31
0.0
  0
LINE
  5
916
330
1E
100
AcDbEntity
  8
0
100
AcDbLine
 10
166.997
 20
47.358
 30
0.0
 11
166.998
 21
47.7883
 31
0.0
  0
LINE
  5
917
330
1E
100
AcDbEntity
  8
0
100
AcDbLine
 10
166.996
 20
45.7201
 30
0.0
 11
166.997
 21
44.4857
 31
0.0
  0
LINE
  5
918
330
1E
100
AcDbEntity
  8
0
100
AcDbLine
 10
166.995
 20
42.1353
 30
0.0
 11
166.997
 21
41.9643
 31
0.0
  0
LINE
  5
919
330
1E
100
AcDbEntity
  8
0
100
AcDbLine
 10
166.995
 20
42.1353
 30
0.0
 11
166.997
 21
43.2315
 31
0.0
  0
LINE
  5
91A
330
1E
100
AcDbEntity
  8
0
100
AcDbLine
 10
166.997
 20
41.9643
 30
0.0
 11
166.997
 21
40.4994
 31
0.0
  0
LINE
  5
91C
330
1E
100
AcDbEntity
  8
0
100
AcDbLine
 10
166.902
 20
60.466
 30
0.0
 11
166.961
 21
60.2434
 31
0.0
  0
LINE
  5
91D
330
1E
100
AcDbEntity
  8
0
100
AcDbLine
 10
166.961
 20
60.2434
 30
0.0
 11
166.989
 21
59.6819
 31
0.0
  0
LINE
  5
91E
330
1E
100
AcDbEntity
  8
0
100
AcDbLine
 10
166.986
 20
59.6858
 30
0.0
 11
166.996
 21
49.465
 31
0.0
  0
LINE
  5
91F
330
1E
100
AcDbEntity
  8
0
100
AcDbLine
 10
165.190090323608
 20
60.606664141368
 30
0.0
 11
165.32
 21
60.3974
 31
0.0
  0
LINE
  5
920
330
1E
100
AcDbEntity
  8
0
100
AcDbLine
 10
166.475
 20
60.8944
 30
0.0
 11
166.736
 21
60.7254
 31
0.0
  0
LINE
  5
921
330
1E
100
AcDbEntity
  8
0
100
AcDbLine
 10
166.736
 20
60.7254
 30
0.0
 11
166.902
 21
60.466
 31
0.0
  0
LINE
  5
922
330
1E
100
AcDbEntity
  8
0
100
AcDbLine
 10
165.193
 20
60.628
 30
0.0
 11
165.32
 21
60.3974
 31
0.0
  0
LINE
  5
923
330
1E
100
AcDbEntity
  8
0
100
AcDbLine
 10
165.191671532168
 20
60.632241032912
 30
0.0
 11
165.238
 21
60.5922
 31
0.0
  0
LINE
  5
925
330
1E
100
AcDbEntity
  8
0
100
AcDbLine
 10
164.975
 20
61.5612
 30
0.0
 11
165.048
 21
61.1567
 31
0.0
  0
LINE
  5
926
330
1E
100
AcDbEntity
  8
0
100
AcDbLine
 10
164.924
 20
61.8733
 30
0.0
 11
164.975
 21
61.5612
 31
0.0
  0
LINE
  5
927
330
1E
100
AcDbEntity
  8
0
100
AcDbLine
 10
165.048
 20
61.1567
 30
0.0
 11
165.121
 21
60.8288
 31
0.0
  0
LINE
  5
928
330
1E
100
AcDbEntity
  8
0
100
AcDbLine
 10
165.597
 20
61.0067
 30
0.0
 11
166.174
 21
60.9669
 31
0.0
  0
LINE
  5
929
330
1E
100
AcDbEntity
  8
0
100
AcDbLine
 10
166.174
 20
60.9669
 30
0.0
 11
166.246
 21
60.96
 31
0.0
  0
LINE
  5
92A
330
1E
100
AcDbEntity
  8
0
100
AcDbLine
 10
166.246
 20
60.96
 30
0.0
 11
166.468
 21
60.8983
 31
0.0
  0
LINE
  5
92B
330
1E
100
AcDbEntity
  8
0
100
AcDbLine
 10
165.297
 20
61.0186
 30
0.0
 11
165.597
 21
61.0067
 31
0.0
  0
LINE
  5
92C
330
1E
100
AcDbEntity
  8
0
100
AcDbLine
 10
165.077383351268
 20
61.024716426292
 30
0.0
 11
165.297
 21
61.0186
 31
0.0
  0
LINE
  5
92D
330
1E
100
AcDbEntity
  8
0
100
AcDbLine
 10
165.061
 20
61.0494
 30
0.0
 11
165.121
 21
60.8288
 31
0.0
  0
LINE
  5
92E
330
1E
100
AcDbEntity
  8
0
100
AcDbLine
 10
165.061
 20
61.0494
 30
0.0
 11
165.193
 21
60.628
 31
0.0
  0
LINE
  5
92F
330
1E
100
AcDbEntity
  8
0
100
AcDbLine
 10
164.667
 20
63.1246
 30
0.0
 11
164.763
 21
62.8185
 31
0.0
  0
LINE
  5
930
330
1E
100
AcDbEntity
  8
0
100
AcDbLine
 10
164.763
 20
62.8185
 30
0.0
 11
164.823
 21
62.6088
 31
0.0
  0
LINE
  5
931
330
1E
100
AcDbEntity
  8
0
100
AcDbLine
 10
164.823
 20
62.6088
 30
0.0
 11
164.924
 21
61.8733
 31
0.0
  0
LINE
  5
932
330
1E
100
AcDbEntity
  8
0
100
AcDbLine
 10
164.5
 20
63.3651
 30
0.0
 11
164.667
 21
63.1246
 31
0.0
  0
LINE
  5
933
330
1E
100
AcDbEntity
  8
0
100
AcDbLine
 10
162.853
 20
64.2476
 30
0.0
 11
163.413
 21
64.0727
 31
0.0
  0
LINE
  5
934
330
1E
100
AcDbEntity
  8
0
100
AcDbLine
 10
163.413
 20
64.0727
 30
0.0
 11
163.848
 21
63.87
 31
0.0
  0
LINE
  5
935
330
1E
100
AcDbEntity
  8
0
100
AcDbLine
 10
161.715
 20
64.4514
 30
0.0
 11
162.193
 21
64.3838
 31
0.0
  0
LINE
  5
936
330
1E
100
AcDbEntity
  8
0
100
AcDbLine
 10
162.193
 20
64.3838
 30
0.0
 11
162.853
 21
64.2476
 31
0.0
  0
LINE
  5
937
330
1E
100
AcDbEntity
  8
0
100
AcDbLine
 10
163.848
 20
63.87
 30
0.0
 11
164.059
 21
63.7567
 31
0.0
  0
LINE
  5
938
330
1E
100
AcDbEntity
  8
0
100
AcDbLine
 10
160.715
 20
64.5359
 30
0.0
 11
161.715
 21
64.4514
 31
0.0
  0
LINE
  5
939
330
1E
100
AcDbEntity
  8
0
100
AcDbLine
 10
164.059
 20
63.7567
 30
0.0
 11
164.375
 21
63.5201
 31
0.0
  0
LINE
  5
93A
330
1E
100
AcDbEntity
  8
0
100
AcDbLine
 10
164.375
 20
63.5201
 30
0.0
 11
164.5
 21
63.3651
 31
0.0
  0
LINE
  5
93B
330
1E
100
AcDbEntity
  8
0
100
AcDbLine
 10
156.801
 20
64.7515
 30
0.0
 11
160.715
 21
64.5359
 31
0.0
  0
LINE
  5
940
330
1E
100
AcDbEntity
  8
0
100
AcDbLine
 10
144.816
 20
35.6235
 30
0.0
 11
145.0
 21
35.6285
 31
0.0
  0
LINE
  5
941
330
1E
100
AcDbEntity
  8
0
100
AcDbLine
 10
144.358
 20
35.547
 30
0.0
 11
144.586
 21
35.5957
 31
0.0
  0
LINE
  5
942
330
1E
100
AcDbEntity
  8
0
100
AcDbLine
 10
144.139
 20
35.4774
 30
0.0
 11
144.358
 21
35.547
 31
0.0
  0
LINE
  5
943
330
1E
100
AcDbEntity
  8
0
100
AcDbLine
 10
143.927
 20
35.3899
 30
0.0
 11
144.139
 21
35.4774
 31
0.0
  0
LINE
  5
944
330
1E
100
AcDbEntity
  8
0
100
AcDbLine
 10
143.724
 20
35.2846
 30
0.0
 11
143.927
 21
35.3899
 31
0.0
  0
LINE
  5
945
330
1E
100
AcDbEntity
  8
0
100
AcDbLine
 10
143.487
 20
35.1295
 30
0.0
 11
143.724
 21
35.2846
 31
0.0
  0
LINE
  5
946
330
1E
100
AcDbEntity
  8
0
100
AcDbLine
 10
143.28
 20
30.4415
 30
0.0
 11
143.496
 21
30.2666
 31
0.0
  0
LINE
  5
947
330
1E
100
AcDbEntity
  8
0
100
AcDbLine
 10
143.496
 20
30.2666
 30
0.0
 11
143.694
 21
30.1354
 31
0.0
  0
LINE
  5
948
330
1E
100
AcDbEntity
  8
0
100
AcDbLine
 10
142.908
 20
34.5551
 30
0.0
 11
143.069
 21
34.7519
 31
0.0
  0
LINE
  5
949
330
1E
100
AcDbEntity
  8
0
100
AcDbLine
 10
152.875
 20
64.8976
 30
0.0
 11
156.801
 21
64.7515
 31
0.0
  0
LINE
  5
94A
330
1E
100
AcDbEntity
  8
0
100
AcDbLine
 10
141.06
 20
64.9831
 30
0.0
 11
145.0
 21
65.0
 31
0.0
  0
LINE
  5
94D
330
1E
100
AcDbEntity
  8
0
100
AcDbLine
 10
145.0
 20
65.0
 30
0.0
 11
148.94
 21
64.9831
 31
0.0
  0
LINE
  5
94E
330
1E
100
AcDbEntity
  8
0
100
AcDbLine
 10
148.94
 20
64.9831
 30
0.0
 11
152.875
 21
64.8976
 31
0.0
  0
LINE
  5
953
330
1E
100
AcDbEntity
  8
0
100
AcDbLine
 10
137.125
 20
64.8976
 30
0.0
 11
141.06
 21
64.9831
 31
0.0
  0
LINE
  5
954
330
1E
100
AcDbEntity
  8
0
100
AcDbLine
 10
126.39
 20
23.4765
 30
0.0
 11
127.876
 21
23.4765
 31
0.0
  0
LINE
  5
955
330
1E
100
AcDbEntity
  8
0
100
AcDbLine
 10
124.860874859845
 20
23.0
 30
0.0
 11
124.935440501146
 21
23.4765
 31
0.0
  0
LINE
  5
956
330
1E
100
AcDbEntity
  8
0
100
AcDbLine
 10
58.363
 20
100.497
 30
0.0
 11
58.366
 21
96.762
 31
0.0
  0
LINE
  5
959
330
1E
100
AcDbEntity
  8
0
100
AcDbLine
 10
58.343
 20
106.551
 30
0.0
 11
58.359
 21
103.717
 31
0.0
  0
LINE
  5
95A
330
1E
100
AcDbEntity
  8
0
100
AcDbLine
 10
58.359
 20
103.717
 30
0.0
 11
58.363
 21
100.497
 31
0.0
  0
LINE
  5
95B
330
1E
100
AcDbEntity
  8
0
100
AcDbLine
 10
58.398238511566
 20
89.393915507296
 30
0.0
 11
58.468
 21
85.5425
 31
0.0
  0
LINE
  5
95C
330
1E
100
AcDbEntity
  8
0
100
AcDbLine
 10
58.381
 20
92.1552
 30
0.0
 11
58.398238511566
 21
89.393915507296
 31
0.0
  0
LINE
  5
95D
330
1E
100
AcDbEntity
  8
0
100
AcDbLine
 10
58.366
 20
96.762
 30
0.0
 11
58.381
 21
92.1552
 31
0.0
  0
LINE
  5
95E
330
1E
100
AcDbEntity
  8
0
100
AcDbLine
 10
58.468
 20
85.5425
 30
0.0
 11
58.99339479157
 21
6.0
 31
0.0
  0
LINE
  5
982
330
1E
100
AcDbEntity
  8
0
100
AcDbLine
 10
58.027
 20
133.417
 30
0.0
 11
58.114
 21
133.183
 31
0.0
  0
LINE
  5
983
330
1E
100
AcDbEntity
  8
0
100
AcDbLine
 10
57.79
 20
133.701
 30
0.0
 11
58.027
 21
133.417
 31
0.0
  0
LINE
  5
984
330
1E
100
AcDbEntity
  8
0
100
AcDbLine
 10
57.434
 20
133.888
 30
0.0
 11
57.79
 21
133.701
 31
0.0
  0
LINE
  5
985
330
1E
100
AcDbEntity
  8
0
100
AcDbLine
 10
58.114
 20
133.183
 30
0.0
 11
58.165
 21
132.616
 31
0.0
  0
LINE
  5
986
330
1E
100
AcDbEntity
  8
0
100
AcDbLine
 10
58.165
 20
132.616
 30
0.0
 11
58.343
 21
106.551
 31
0.0
  0
LINE
  5
98B
330
1E
100
AcDbEntity
  8
0
100
AcDbLine
 10
57.14
 20
133.957
 30
0.0
 11
57.434
 21
133.888
 31
0.0
  0
LINE
  5
993
330
1E
100
AcDbEntity
  8
0
100
AcDbLine
 10
14.758
 20
133.994
 30
0.0
 11
15.547
 21
133.995
 31
0.0
  0
LINE
  5
995
330
1E
100
AcDbEntity
  8
0
100
AcDbLine
 10
14.164
 20
133.993
 30
0.0
 11
14.758
 21
133.994
 31
0.0
  0
LINE
  5
997
330
1E
100
AcDbEntity
  8
0
100
AcDbLine
 10
15.547
 20
133.995
 30
0.0
 11
16.527
 21
133.996
 31
0.0
  0
LINE
  5
99D
330
1E
100
AcDbEntity
  8
0
100
AcDbLine
 10
16.527
 20
133.996
 30
0.0
 11
48.385
 21
134.0
 31
0.0
  0
LINE
  5
9A5
330
1E
100
AcDbEntity
  8
0
100
AcDbLine
 10
51.127
 20
133.999
 30
0.0
 11
52.313
 21
133.998
 31
0.0
  0
LINE
  5
9AA
330
1E
100
AcDbEntity
  8
0
100
AcDbLine
 10
49.814
 20
133.999
 30
0.0
 11
51.127
 21
133.999
 31
0.0
  0
LINE
  5
9AB
330
1E
100
AcDbEntity
  8
0
100
AcDbLine
 10
55.242
 20
133.994
 30
0.0
 11
55.836
 21
133.993
 31
0.0
  0
LINE
  5
9AC
330
1E
100
AcDbEntity
  8
0
100
AcDbLine
 10
54.453
 20
133.995
 30
0.0
 11
55.242
 21
133.994
 31
0.0
  0
LINE
  5
9AD
330
1E
100
AcDbEntity
  8
0
100
AcDbLine
 10
55.836
 20
133.993
 30
0.0
 11
56.285
 21
133.992
 31
0.0
  0
LINE
  5
9AE
330
1E
100
AcDbEntity
  8
0
100
AcDbLine
 10
53.473
 20
133.996
 30
0.0
 11
54.453
 21
133.995
 31
0.0
  0
LINE
  5
9AF
330
1E
100
AcDbEntity
  8
0
100
AcDbLine
 10
52.313
 20
133.998
 30
0.0
 11
53.473
 21
133.996
 31
0.0
  0
LINE
  5
9B0
330
1E
100
AcDbEntity
  8
0
100
AcDbLine
 10
48.385
 20
134.0
 30
0.0
 11
49.814
 21
133.999
 31
0.0
  0
LINE
  5
9C2
330
1E
100
AcDbEntity
  8
0
100
AcDbLine
 10
56.285
 20
133.992
 30
0.0
 11
56.431
 21
133.992
 31
0.0
  0
LINE
  5
9C3
330
1E
100
AcDbEntity
  8
0
100
AcDbLine
 10
56.39
 20
133.992
 30
0.0
 11
57.099
 21
133.957
 31
0.0
  0
LINE
  5
9C4
330
1E
100
AcDbEntity
  8
0
100
AcDbLine
 10
56.386
 20
133.992
 30
0.0
 11
57.099
 21
133.957
 31
0.0
  0
LINE
  5
9E4
330
1E
100
AcDbEntity
  8
0
100
AcDbLine
 10
230.0
 20
0.0
 30
0.0
 11
230.9
 21
0.0
 31
0.0
  0
LINE
  5
B84
330
1E
100
AcDbEntity
  8
0
100
AcDbLine
 10
279.1
 20
0.0
 30
0.0
 11
280.0
 21
0.0
 31
0.0
  0
LINE
  5
1CE3
330
1E
100
AcDbEntity
  8
0
100
AcDbLine
 10
238.922
 20
44.740643606811
 30
0.0
 11
238.922
 21
14.003795
 31
0.0
  0
LINE
  5
1CE4
330
1E
100
AcDbEntity
  8
0
100
AcDbLine
 10
238.922
 20
14.003795
 30
0.0
 11
238.922
 21
44.740643606811
 31
0.0
  0
LINE
  5
1CE6
330
1E
100
AcDbEntity
  8
0
100
AcDbLine
 10
270.873097936568
 20
44.374711599717
 30
0.0
 11
270.922
 21
14.003795
 31
0.0
  0
LINE
  5
1D03
330
1E
100
AcDbEntity
  8
0
100
AcDbLine
 10
220.0
 20
0.0
 30
0.0
 11
220.302996551922
 21
6.886565
 31
0.0
  0
LINE
  5
1D52
330
1E
100
AcDbEntity
  8
0
100
AcDbLine
 10
226.626
 20
9.003795
 30
0.0
 11
226.889
 21
9.003795
 31
0.0
  0
LINE
  5
1D53
330
1E
100
AcDbEntity
  8
0
100
AcDbLine
 10
226.626
 20
9.003795
 30
0.0
 11
226.775
 21
9.003795
 31
0.0
  0
LINE
  5
1D54
330
1E
100
AcDbEntity
  8
0
100
AcDbLine
 10
226.508
 20
9.003795
 30
0.0
 11
226.804
 21
9.003795
 31
0.0
  0
LINE
  5
1D56
330
1E
100
AcDbEntity
  8
0
100
AcDbLine
 10
220.663
 20
7.930635
 30
0.0
 11
221.449
 21
8.609625
 31
0.0
  0
LINE
  5
1D5A
330
1E
100
AcDbEntity
  8
0
100
AcDbLine
 10
220.303
 20
6.886575
 30
0.0
 11
220.663
 21
7.930635
 31
0.0
  0
LINE
  5
1D6B
330
1E
100
AcDbEntity
  8
0
100
AcDbLine
 10
221.449
 20
8.609625
 30
0.0
 11
222.187
 21
8.779165
 31
0.0
  0
LINE
  5
1D72
330
1E
100
AcDbEntity
  8
0
100
AcDbLine
 10
222.187
 20
8.779165
 30
0.0
 11
226.508
 21
9.003795
 31
0.0
  0
LINE
  5
1D76
330
1E
100
AcDbEntity
  8
0
100
AcDbLine
 10
231.366
 20
9.003795
 30
0.0
 11
233.429
 21
9.003795
 31
0.0
  0
LINE
  5
1D77
330
1E
100
AcDbEntity
  8
0
100
AcDbLine
 10
232.496
 20
9.003795
 30
0.0
 11
234.395
 21
9.003795
 31
0.0
  0
LINE
  5
1D7C
330
1E
100
AcDbEntity
  8
0
100
AcDbLine
 10
226.775
 20
9.003795
 30
0.0
 11
227.335
 21
9.003795
 31
0.0
  0
LINE
  5
1D7D
330
1E
100
AcDbEntity
  8
0
100
AcDbLine
 10
227.335
 20
9.003795
 30
0.0
 11
228.297
 21
9.003795
 31
0.0
  0
LINE
  5
1D7E
330
1E
100
AcDbEntity
  8
0
100
AcDbLine
 10
226.804
 20
9.003795
 30
0.0
 11
227.391
 21
9.003795
 31
0.0
  0
LINE
  5
1D7F
330
1E
100
AcDbEntity
  8
0
100
AcDbLine
 10
227.391
 20
9.003795
 30
0.0
 11
228.265
 21
9.003795
 31
0.0
  0
LINE
  5
1D85
330
1E
100
AcDbEntity
  8
0
100
AcDbLine
 10
228.297
 20
9.003795
 30
0.0
 11
229.647
 21
9.003795
 31
0.0
  0
LINE
  5
1D86
330
1E
100
AcDbEntity
  8
0
100
AcDbLine
 10
229.647
 20
9.003795
 30
0.0
 11
231.366
 21
9.003795
 31
0.0
  0
LINE
  5
1D87
330
1E
100
AcDbEntity
  8
0
100
AcDbLine
 10
228.265
 20
9.003795
 30
0.0
 11
229.415
 21
9.003795
 31
0.0
  0
LINE
  5
1D88
330
1E
100
AcDbEntity
  8
0
100
AcDbLine
 10
229.415
 20
9.003795
 30
0.0
 11
230.831
 21
9.003795
 31
0.0
  0
LINE
  5
1D89
330
1E
100
AcDbEntity
  8
0
100
AcDbLine
 10
230.831
 20
9.003795
 30
0.0
 11
232.496
 21
9.003795
 31
0.0
  0
LINE
  5
1D99
330
1E
100
AcDbEntity
  8
0
100
AcDbLine
 10
236.401183491223
 20
10.055170212643
 30
0.0
 11
238.116536795522
 21
11.529090890908
 31
0.0
  0
LINE
  5
1D9E
330
1E
100
AcDbEntity
  8
0
100
AcDbLine
 10
233.422
 20
9.003795
 30
0.0
 11
235.029398881011
 21
9.276244332968
 31
0.0
  0
LINE
  5
1DAA
330
1E
100
AcDbEntity
  8
0
100
AcDbLine
 10
238.116536795522
 20
11.529090890908
 30
0.0
 11
238.866
 21
13.234295
 31
0.0
  0
LINE
  5
1DAF
330
1E
100
AcDbEntity
  8
0
100
AcDbLine
 10
238.866
 20
13.234295
 30
0.0
 11
238.922
 21
14.003795
 31
0.0
  0
LINE
  5
1DB0
330
1E
100
AcDbEntity
  8
0
100
AcDbLine
 10
238.866
 20
13.234195
 30
0.0
 11
238.922
 21
14.003795
 31
0.0
  0
LINE
  5
1E1F
330
1E
100
AcDbEntity
  8
0
100
AcDbLine
 10
289.500921649406
 20
6.886575
 30
0.0
 11
289.861
 21
-0.074919
 31
0.0
  0
LINE
  5
1E83
330
1E
100
AcDbEntity
  8
0
100
AcDbLine
 10
271.301186137139
 20
12.262446934747
 30
0.0
 11
271.655175682719
 21
11.521370511561
 31
0.0
  0
LINE
  5
1E87
330
1E
100
AcDbEntity
  8
0
100
AcDbLine
 10
270.922
 20
14.003795
 30
0.0
 11
270.939351854483
 21
13.714526238196
 31
0.0
  0
LINE
  5
1E9D
330
1E
100
AcDbEntity
  8
0
100
AcDbLine
 10
272.969
 20
10.094095
 30
0.0
 11
275.091
 21
9.130715
 31
0.0
  0
LINE
  5
1EA6
330
1E
100
AcDbEntity
  8
0
100
AcDbLine
 10
275.789
 20
9.003795
 30
0.0
 11
277.941
 21
9.003795
 31
0.0
  0
LINE
  5
1EAC
330
1E
100
AcDbEntity
  8
0
100
AcDbLine
 10
283.335
 20
9.003795
 30
0.0
 11
287.656
 21
8.779165
 31
0.0
  0
LINE
  5
1EBE
330
1E
100
AcDbEntity
  8
0
100
AcDbLine
 10
283.068
 20
9.003795
 30
0.0
 11
283.218
 21
9.003795
 31
0.0
  0
LINE
  5
1EBF
330
1E
100
AcDbEntity
  8
0
100
AcDbLine
 10
282.954
 20
9.003795
 30
0.0
 11
283.218
 21
9.003795
 31
0.0
  0
LINE
  5
1EC3
330
1E
100
AcDbEntity
  8
0
100
AcDbLine
 10
283.039
 20
9.003795
 30
0.0
 11
283.335
 21
9.003795
 31
0.0
  0
LINE
  5
1ECD
330
1E
100
AcDbEntity
  8
0
100
AcDbLine
 10
288.394
 20
8.609635
 30
0.0
 11
289.219
 21
7.930055
 31
0.0
  0
LINE
  5
1ECE
330
1E
100
AcDbEntity
  8
0
100
AcDbLine
 10
289.219
 20
7.930055
 30
0.0
 11
289.500921649406
 21
6.886575
 31
0.0
  0
LINE
  5
1ECF
330
1E
100
AcDbEntity
  8
0
100
AcDbLine
 10
287.656
 20
8.779165
 30
0.0
 11
288.394
 21
8.609635
 31
0.0
  0
LINE
  5
1ED1
330
1E
100
AcDbEntity
  8
0
100
AcDbLine
 10
242.948
 20
140.770795
 30
0.0
 11
242.948
 21
131.997795
 31
0.0
  0
LINE
  5
1ED2
330
1E
100
AcDbEntity
  8
0
100
AcDbLine
 10
242.948
 20
131.997795
 30
0.0
 11
242.948
 21
140.770795
 31
0.0
  0
LINE
  5
1ED3
330
1E
100
AcDbEntity
  8
0
100
AcDbLine
 10
266.948
 20
140.770795
 30
0.0
 11
266.948
 21
131.997795
 31
0.0
  0
LINE
  5
1ED4
330
1E
100
AcDbEntity
  8
0
100
AcDbLine
 10
266.948
 20
131.997795
 30
0.0
 11
266.948
 21
140.770795
 31
0.0
  0
LINE
  5
1ED6
330
1E
100
AcDbEntity
  8
0
100
AcDbLine
 10
264.326
 20
36.453495
 30
0.0
 11
266.236
 21
37.501495
 31
0.0
  0
LINE
  5
1EDB
330
1E
100
AcDbEntity
  8
0
100
AcDbLine
 10
265.787
 20
52.145395
 30
0.0
 11
268.565
 21
54.268595
 31
0.0
  0
LINE
  5
1EDD
330
1E
100
AcDbEntity
  8
0
100
AcDbLine
 10
265.102
 20
55.066195
 30
0.0
 11
266.051
 21
55.784095
 31
0.0
  0
LINE
  5
1EDE
330
1E
100
AcDbEntity
  8
0
100
AcDbLine
 10
265.364
 20
59.303095
 30
0.0
 11
266.516
 21
62.474295
 31
0.0
  0
LINE
  5
1EDF
330
1E
100
AcDbEntity
  8
0
100
AcDbLine
 10
242.948
 20
91.538195
 30
0.0
 11
242.948
 21
66.799834371981
 31
0.0
  0
LINE
  5
1EE0
330
1E
100
AcDbEntity
  8
0
100
AcDbLine
 10
242.948
 20
66.799834371981
 30
0.0
 11
242.948
 21
91.538195
 31
0.0
  0
LINE
  5
1EE2
330
1E
100
AcDbEntity
  8
0
100
AcDbLine
 10
239.314
 20
42.371295
 30
0.0
 11
241.238
 21
39.383495
 31
0.0
  0
LINE
  5
1EE8
330
1E
100
AcDbEntity
  8
0
100
AcDbLine
 10
239.438
 20
62.369495
 30
0.0
 11
240.167
 21
63.946495
 31
0.0
  0
LINE
  5
1EE9
330
1E
100
AcDbEntity
  8
0
100
AcDbLine
 10
239.654
 20
56.636595
 30
0.0
 11
240.844
 21
54.770195
 31
0.0
  0
LINE
  5
1EEE
330
1E
100
AcDbEntity
  8
0
100
AcDbLine
 10
238.944483460593
 20
44.636092034643
 30
0.0
 11
239.314
 21
42.371295
 31
0.0
  0
LINE
  5
1EEF
330
1E
100
AcDbEntity
  8
0
100
AcDbLine
 10
238.915
 20
60.123295
 30
0.0
 11
239.192
 21
61.610295
 31
0.0
  0
LINE
  5
1EF0
330
1E
100
AcDbEntity
  8
0
100
AcDbLine
 10
238.915
 20
60.123295
 30
0.0
 11
239.098
 21
58.108195
 31
0.0
  0
LINE
  5
1EF1
330
1E
100
AcDbEntity
  8
0
100
AcDbLine
 10
239.098
 20
58.108195
 30
0.0
 11
239.654
 21
56.636595
 31
0.0
  0
LINE
  5
1EF3
330
1E
100
AcDbEntity
  8
0
100
AcDbLine
 10
238.963
 20
58.607595
 30
0.0
 11
238.915
 21
60.123295
 31
0.0
  0
LINE
  5
1EF4
330
1E
100
AcDbEntity
  8
0
100
AcDbLine
 10
238.922
 20
44.740643606811
 30
0.0
 11
238.963
 21
58.607595
 31
0.0
  0
LINE
  5
1EF6
330
1E
100
AcDbEntity
  8
0
100
AcDbLine
 10
239.192
 20
61.610295
 30
0.0
 11
239.438
 21
62.369495
 31
0.0
  0
LINE
  5
1EFE
330
1E
100
AcDbEntity
  8
0
100
AcDbLine
 10
240.846
 20
54.767095
 30
0.0
 11
243.151
 21
52.727195
 31
0.0
  0
LINE
  5
1F00
330
1E
100
AcDbEntity
  8
0
100
AcDbLine
 10
246.428
 20
54.090395
 30
0.0
 11
247.638
 21
53.558795
 31
0.0
  0
LINE
  5
1F01
330
1E
100
AcDbEntity
  8
0
100
AcDbLine
 10
258.02
 20
53.117995
 30
0.0
 11
260.9
 21
54.386695
 31
0.0
  0
LINE
  5
1F02
330
1E
100
AcDbEntity
  8
0
100
AcDbLine
 10
262.881
 20
53.840595
 30
0.0
 11
264.042
 21
54.416195
 31
0.0
  0
LINE
  5
1F03
330
1E
100
AcDbEntity
  8
0
100
AcDbLine
 10
248.996
 20
54.386695
 30
0.0
 11
251.876
 21
53.117995
 31
0.0
  0
LINE
  5
1F05
330
1E
100
AcDbEntity
  8
0
100
AcDbLine
 10
252.419
 20
34.615795
 30
0.0
 11
254.922
 21
34.489295
 31
0.0
  0
LINE
  5
1F09
330
1E
100
AcDbEntity
  8
0
100
AcDbLine
 10
251.548
 20
49.630495
 30
0.0
 11
254.491
 21
49.403595
 31
0.0
  0
LINE
  5
1F0A
330
1E
100
AcDbEntity
  8
0
100
AcDbLine
 10
251.689
 20
52.487995
 30
0.0
 11
253.13
 21
52.318795
 31
0.0
  0
LINE
  5
1F0D
330
1E
100
AcDbEntity
  8
0
100
AcDbLine
 10
251.876
 20
53.117995
 30
0.0
 11
254.948
 21
52.641995
 31
0.0
  0
LINE
  5
1F15
330
1E
100
AcDbEntity
  8
0
100
AcDbLine
 10
244.496
 20
36.930995
 30
0.0
 11
247.658
 21
35.610295
 31
0.0
  0
LINE
  5
1F19
330
1E
100
AcDbEntity
  8
0
100
AcDbLine
 10
241.238
 20
39.383495
 30
0.0
 11
244.496
 21
36.930995
 31
0.0
  0
LINE
  5
1F2F
330
1E
100
AcDbEntity
  8
0
100
AcDbLine
 10
247.658
 20
35.610095
 30
0.0
 11
249.978
 21
34.992795
 31
0.0
  0
LINE
  5
1F30
330
1E
100
AcDbEntity
  8
0
100
AcDbLine
 10
249.978
 20
34.992795
 30
0.0
 11
252.419
 21
34.615795
 31
0.0
  0
LINE
  5
1F36
330
1E
100
AcDbEntity
  8
0
100
AcDbLine
 10
243.151
 20
52.727195
 30
0.0
 11
244.885
 21
51.702395
 31
0.0
  0
LINE
  5
1F38
330
1E
100
AcDbEntity
  8
0
100
AcDbLine
 10
244.885
 20
51.702395
 30
0.0
 11
246.154
 21
51.108695
 31
0.0
  0
LINE
  5
1F39
330
1E
100
AcDbEntity
  8
0
100
AcDbLine
 10
246.154
 20
51.108695
 30
0.0
 11
248.205
 21
50.363595
 31
0.0
  0
LINE
  5
1F3B
330
1E
100
AcDbEntity
  8
0
100
AcDbLine
 10
247.638
 20
53.558795
 30
0.0
 11
248.927
 21
53.111395
 31
0.0
  0
LINE
  5
1F3C
330
1E
100
AcDbEntity
  8
0
100
AcDbLine
 10
248.205
 20
50.363595
 30
0.0
 11
251.548
 21
49.630495
 31
0.0
  0
LINE
  5
1F3E
330
1E
100
AcDbEntity
  8
0
100
AcDbLine
 10
248.927
 20
53.111395
 30
0.0
 11
250.282
 21
52.753395
 31
0.0
  0
LINE
  5
1F3F
330
1E
100
AcDbEntity
  8
0
100
AcDbLine
 10
250.282
 20
52.753395
 30
0.0
 11
251.689
 21
52.487995
 31
0.0
  0
LINE
  5
1F46
330
1E
100
AcDbEntity
  8
0
100
AcDbLine
 10
258.668
 20
34.742695
 30
0.0
 11
262.186
 21
35.610295
 31
0.0
  0
LINE
  5
1F4C
330
1E
100
AcDbEntity
  8
0
100
AcDbLine
 10
254.922
 20
34.489495
 30
0.0
 11
258.668
 21
34.742695
 31
0.0
  0
LINE
  5
1F5E
330
1E
100
AcDbEntity
  8
0
100
AcDbLine
 10
262.186
 20
35.610095
 30
0.0
 11
264.326
 21
36.453495
 31
0.0
  0
LINE
  5
1F67
330
1E
100
AcDbEntity
  8
0
100
AcDbLine
 10
253.13
 20
52.318795
 30
0.0
 11
254.591
 21
52.247295
 31
0.0
  0
LINE
  5
1F68
330
1E
100
AcDbEntity
  8
0
100
AcDbLine
 10
254.591
 20
52.247295
 30
0.0
 11
256.056
 21
52.274395
 31
0.0
  0
LINE
  5
1F69
330
1E
100
AcDbEntity
  8
0
100
AcDbLine
 10
254.491
 20
49.403595
 30
0.0
 11
256.64
 21
49.463895
 31
0.0
  0
LINE
  5
1F6A
330
1E
100
AcDbEntity
  8
0
100
AcDbLine
 10
256.64
 20
49.463895
 30
0.0
 11
260.102
 21
49.919695
 31
0.0
  0
LINE
  5
1F6B
330
1E
100
AcDbEntity
  8
0
100
AcDbLine
 10
256.056
 20
52.274395
 30
0.0
 11
257.508
 21
52.399795
 31
0.0
  0
LINE
  5
1F6C
330
1E
100
AcDbEntity
  8
0
100
AcDbLine
 10
260.102
 20
49.919695
 30
0.0
 11
263.299
 21
50.915895
 31
0.0
  0
LINE
  5
1F6D
330
1E
100
AcDbEntity
  8
0
100
AcDbLine
 10
257.508
 20
52.399795
 30
0.0
 11
258.933
 21
52.621995
 31
0.0
  0
LINE
  5
1F6E
330
1E
100
AcDbEntity
  8
0
100
AcDbLine
 10
258.933
 20
52.621995
 30
0.0
 11
260.313
 21
52.938695
 31
0.0
  0
LINE
  5
1F6F
330
1E
100
AcDbEntity
  8
0
100
AcDbLine
 10
260.313
 20
52.938695
 30
0.0
 11
261.634
 21
53.346595
 31
0.0
  0
LINE
  5
1F75
330
1E
100
AcDbEntity
  8
0
100
AcDbLine
 10
263.299
 20
50.915895
 30
0.0
 11
265.787
 21
52.145395
 31
0.0
  0
LINE
  5
1F76
330
1E
100
AcDbEntity
  8
0
100
AcDbLine
 10
254.948
 20
52.641995
 30
0.0
 11
258.02
 21
53.117995
 31
0.0
  0
LINE
  5
1F77
330
1E
100
AcDbEntity
  8
0
100
AcDbLine
 10
261.634
 20
53.346595
 30
0.0
 11
262.881
 21
53.840595
 31
0.0
  0
LINE
  5
1F78
330
1E
100
AcDbEntity
  8
0
100
AcDbLine
 10
240.883
 20
65.097595
 30
0.0
 11
242.948
 21
66.967811312057
 31
0.0
  0
LINE
  5
1F79
330
1E
100
AcDbEntity
  8
0
100
AcDbLine
 10
245.315
 20
54.732195
 30
0.0
 11
246.428
 21
54.090395
 31
0.0
  0
LINE
  5
1F7A
330
1E
100
AcDbEntity
  8
0
100
AcDbLine
 10
244.532
 20
59.303095
 30
0.0
 11
246.452
 21
56.500895
 31
0.0
  0
LINE
  5
1F7B
330
1E
100
AcDbEntity
  8
0
100
AcDbLine
 10
240.968
 20
60.514695
 30
0.0
 11
241.163
 21
59.581095
 31
0.0
  0
LINE
  5
1F7C
330
1E
100
AcDbEntity
  8
0
100
AcDbLine
 10
243.38
 20
62.474295
 30
0.0
 11
244.532
 21
59.303095
 31
0.0
  0
LINE
  5
1F82
330
1E
100
AcDbEntity
  8
0
100
AcDbLine
 10
241.163
 20
59.581095
 30
0.0
 11
241.509
 21
58.665695
 31
0.0
  0
LINE
  5
1F83
330
1E
100
AcDbEntity
  8
0
100
AcDbLine
 10
241.509
 20
58.665695
 30
0.0
 11
242.001
 21
57.778595
 31
0.0
  0
LINE
  5
1F87
330
1E
100
AcDbEntity
  8
0
100
AcDbLine
 10
242.001
 20
57.778595
 30
0.0
 11
242.63
 21
56.960395
 31
0.0
  0
LINE
  5
1F88
330
1E
100
AcDbEntity
  8
0
100
AcDbLine
 10
242.628
 20
56.973895
 30
0.0
 11
243.406
 21
56.158895
 31
0.0
  0
LINE
  5
1F89
330
1E
100
AcDbEntity
  8
0
100
AcDbLine
 10
243.406
 20
56.158895
 30
0.0
 11
244.3
 21
55.381695
 31
0.0
  0
LINE
  5
1F8A
330
1E
100
AcDbEntity
  8
0
100
AcDbLine
 10
244.3
 20
55.381695
 30
0.0
 11
245.315
 21
54.732195
 31
0.0
  0
LINE
  5
1F8D
330
1E
100
AcDbEntity
  8
0
100
AcDbLine
 10
240.167
 20
63.946495
 30
0.0
 11
240.883
 21
65.097595
 31
0.0
  0
LINE
  5
1F8E
330
1E
100
AcDbEntity
  8
0
100
AcDbLine
 10
240.926
 20
61.456295
 30
0.0
 11
240.968
 21
60.514695
 31
0.0
  0
LINE
  5
1F8F
330
1E
100
AcDbEntity
  8
0
100
AcDbLine
 10
240.926
 20
61.456295
 30
0.0
 11
241.037
 21
62.395395
 31
0.0
  0
LINE
  5
1F90
330
1E
100
AcDbEntity
  8
0
100
AcDbLine
 10
241.037
 20
62.395395
 30
0.0
 11
241.3
 21
63.321995
 31
0.0
  0
LINE
  5
1F91
330
1E
100
AcDbEntity
  8
0
100
AcDbLine
 10
241.3
 20
63.321995
 30
0.0
 11
241.713
 21
64.225795
 31
0.0
  0
LINE
  5
1F92
330
1E
100
AcDbEntity
  8
0
100
AcDbLine
 10
241.713
 20
64.225795
 30
0.0
 11
242.27
 21
65.097095
 31
0.0
  0
LINE
  5
1F93
330
1E
100
AcDbEntity
  8
0
100
AcDbLine
 10
242.27
 20
65.097095
 30
0.0
 11
242.966
 21
65.925895
 31
0.0
  0
LINE
  5
1F94
330
1E
100
AcDbEntity
  8
0
100
AcDbLine
 10
242.966
 20
65.925895
 30
0.0
 11
243.007483695548
 21
65.964910741714
 31
0.0
  0
LINE
  5
1F95
330
1E
100
AcDbEntity
  8
0
100
AcDbLine
 10
243.007483695548
 20
65.964910741714
 30
0.0
 11
243.38
 21
62.474295
 31
0.0
  0
LINE
  5
1F96
330
1E
100
AcDbEntity
  8
0
100
AcDbLine
 10
246.452
 20
56.500895
 30
0.0
 11
248.996
 21
54.386695
 31
0.0
  0
LINE
  5
1F97
330
1E
100
AcDbEntity
  8
0
100
AcDbLine
 10
264.042
 20
54.416195
 30
0.0
 11
265.102
 21
55.066195
 31
0.0
  0
LINE
  5
1F98
330
1E
100
AcDbEntity
  8
0
100
AcDbLine
 10
260.9
 20
54.386695
 30
0.0
 11
263.444
 21
56.500895
 31
0.0
  0
LINE
  5
1F99
330
1E
100
AcDbEntity
  8
0
100
AcDbLine
 10
263.444
 20
56.500895
 30
0.0
 11
265.364
 21
59.303095
 31
0.0
  0
LINE
  5
1F9C
330
1E
100
AcDbEntity
  8
0
100
AcDbLine
 10
242.948
 20
131.997795
 30
0.0
 11
242.948
 21
123.223795
 31
0.0
  0
LINE
  5
1F9D
330
1E
100
AcDbEntity
  8
0
100
AcDbLine
 10
242.948
 20
123.223795
 30
0.0
 11
242.948
 21
131.997795
 31
0.0
  0
LINE
  5
1F9E
330
1E
100
AcDbEntity
  8
0
100
AcDbLine
 10
242.948
 20
123.223795
 30
0.0
 11
242.948
 21
109.332795
 31
0.0
  0
LINE
  5
1F9F
330
1E
100
AcDbEntity
  8
0
100
AcDbLine
 10
242.948
 20
109.332795
 30
0.0
 11
242.948
 21
123.223795
 31
0.0
  0
LINE
  5
1FA0
330
1E
100
AcDbEntity
  8
0
100
AcDbLine
 10
242.948
 20
109.332795
 30
0.0
 11
242.948
 21
91.538195
 31
0.0
  0
LINE
  5
1FA1
330
1E
100
AcDbEntity
  8
0
100
AcDbLine
 10
242.948
 20
91.538195
 30
0.0
 11
242.948
 21
109.332795
 31
0.0
  0
LINE
  5
1FA2
330
1E
100
AcDbEntity
  8
0
100
AcDbLine
 10
266.948
 20
66.881277864914
 30
0.0
 11
266.948
 21
91.538195
 31
0.0
  0
LINE
  5
1FA3
330
1E
100
AcDbEntity
  8
0
100
AcDbLine
 10
266.948
 20
91.538195
 30
0.0
 11
266.948
 21
66.881277864914
 31
0.0
  0
LINE
  5
1FA5
330
1E
100
AcDbEntity
  8
0
100
AcDbLine
 10
270.873097936568
 20
44.374711599717
 30
0.0
 11
270.927637057189
 21
59.01711431571
 31
0.0
  0
LINE
  5
1FA9
330
1E
100
AcDbEntity
  8
0
100
AcDbLine
 10
269.178
 20
40.104695
 30
0.0
 11
270.138
 21
41.595895
 31
0.0
  0
LINE
  5
1FAE
330
1E
100
AcDbEntity
  8
0
100
AcDbLine
 10
266.236
 20
37.501495
 30
0.0
 11
267.866
 21
38.728695
 31
0.0
  0
LINE
  5
1FB3
330
1E
100
AcDbEntity
  8
0
100
AcDbLine
 10
267.866
 20
38.728695
 30
0.0
 11
269.178
 21
40.104695
 31
0.0
  0
LINE
  5
1FB6
330
1E
100
AcDbEntity
  8
0
100
AcDbLine
 10
270.138
 20
41.595895
 30
0.0
 11
270.725
 21
43.165195
 31
0.0
  0
LINE
  5
1FB9
330
1E
100
AcDbEntity
  8
0
100
AcDbLine
 10
270.725
 20
43.165195
 30
0.0
 11
270.873097936568
 21
44.374711599717
 31
0.0
  0
LINE
  5
1FC1
330
1E
100
AcDbEntity
  8
0
100
AcDbLine
 10
266.93857401242
 20
66.988652281333
 30
0.0
 11
268.728
 21
65.325895
 31
0.0
  0
LINE
  5
1FC2
330
1E
100
AcDbEntity
  8
0
100
AcDbLine
 10
268.814
 20
60.135195
 30
0.0
 11
268.918
 21
61.031395
 31
0.0
  0
LINE
  5
1FC4
330
1E
100
AcDbEntity
  8
0
100
AcDbLine
 10
270.746
 20
61.313895
 30
0.0
 11
270.928
 21
59.300395
 31
0.0
  0
LINE
  5
1FC5
330
1E
100
AcDbEntity
  8
0
100
AcDbLine
 10
268.565
 20
54.268595
 30
0.0
 11
269.946
 21
56.091295
 31
0.0
  0
LINE
  5
1FC8
330
1E
100
AcDbEntity
  8
0
100
AcDbLine
 10
266.051
 20
55.784095
 30
0.0
 11
266.878
 21
56.561795
 31
0.0
  0
LINE
  5
1FC9
330
1E
100
AcDbEntity
  8
0
100
AcDbLine
 10
269.946
 20
56.091295
 30
0.0
 11
270.547
 21
57.301795
 31
0.0
  0
LINE
  5
1FCA
330
1E
100
AcDbEntity
  8
0
100
AcDbLine
 10
266.878
 20
56.561795
 30
0.0
 11
267.573
 21
57.390595
 31
0.0
  0
LINE
  5
1FCB
330
1E
100
AcDbEntity
  8
0
100
AcDbLine
 10
267.573
 20
57.390595
 30
0.0
 11
268.135
 21
58.294995
 31
0.0
  0
LINE
  5
1FCC
330
1E
100
AcDbEntity
  8
0
100
AcDbLine
 10
268.135
 20
58.294995
 30
0.0
 11
268.543
 21
59.165795
 31
0.0
  0
LINE
  5
1FCD
330
1E
100
AcDbEntity
  8
0
100
AcDbLine
 10
268.543
 20
59.165795
 30
0.0
 11
268.814
 21
60.135195
 31
0.0
  0
LINE
  5
1FCE
330
1E
100
AcDbEntity
  8
0
100
AcDbLine
 10
270.547
 20
57.301795
 30
0.0
 11
270.935
 21
59.050295
 31
0.0
  0
LINE
  5
1FD1
330
1E
100
AcDbEntity
  8
0
100
AcDbLine
 10
270.927762100968
 20
59.114712301383
 30
0.0
 11
270.928
 21
59.300395
 31
0.0
  0
LINE
  5
1FD2
330
1E
100
AcDbEntity
  8
0
100
AcDbLine
 10
266.881451813367
 20
65.898713843772
 30
0.0
 11
267.208
 21
65.558195
 31
0.0
  0
LINE
  5
1FD4
330
1E
100
AcDbEntity
  8
0
100
AcDbLine
 10
267.208
 20
65.558195
 30
0.0
 11
267.842
 21
64.709195
 31
0.0
  0
LINE
  5
1FD6
330
1E
100
AcDbEntity
  8
0
100
AcDbLine
 10
266.516
 20
62.474295
 30
0.0
 11
266.881451813367
 21
65.898713843772
 31
0.0
  0
LINE
  5
1FD8
330
1E
100
AcDbEntity
  8
0
100
AcDbLine
 10
267.842
 20
64.709195
 30
0.0
 11
268.335
 21
63.822095
 31
0.0
  0
LINE
  5
1FD9
330
1E
100
AcDbEntity
  8
0
100
AcDbLine
 10
268.335
 20
63.822095
 30
0.0
 11
268.68
 21
62.906595
 31
0.0
  0
LINE
  5
1FDC
330
1E
100
AcDbEntity
  8
0
100
AcDbLine
 10
268.68
 20
62.906595
 30
0.0
 11
268.882
 21
62.011495
 31
0.0
  0
LINE
  5
1FDD
330
1E
100
AcDbEntity
  8
0
100
AcDbLine
 10
268.728
 20
65.325895
 30
0.0
 11
269.58
 21
64.119295
 31
0.0
  0
LINE
  5
1FDF
330
1E
100
AcDbEntity
  8
0
100
AcDbLine
 10
268.882
 20
62.011495
 30
0.0
 11
268.918
 21
61.031395
 31
0.0
  0
LINE
  5
1FE0
330
1E
100
AcDbEntity
  8
0
100
AcDbLine
 10
270.706
 20
61.569095
 30
0.0
 11
270.746
 21
61.313895
 31
0.0
  0
LINE
  5
1FE3
330
1E
100
AcDbEntity
  8
0
100
AcDbLine
 10
269.58
 20
64.119295
 30
0.0
 11
270.129
 21
63.046795
 31
0.0
  0
LINE
  5
1FE4
330
1E
100
AcDbEntity
  8
0
100
AcDbLine
 10
270.129
 20
63.046795
 30
0.0
 11
270.706
 21
61.569095
 31
0.0
  0
LINE
  5
1FE5
330
1E
100
AcDbEntity
  8
0
100
AcDbLine
 10
266.948
 20
131.997795
 30
0.0
 11
266.948
 21
123.223795
 31
0.0
  0
LINE
  5
1FE6
330
1E
100
AcDbEntity
  8
0
100
AcDbLine
 10
266.948
 20
109.332795
 30
0.0
 11
266.948
 21
123.223795
 31
0.0
  0
LINE
  5
1FE7
330
1E
100
AcDbEntity
  8
0
100
AcDbLine
 10
266.948
 20
109.332795
 30
0.0
 11
266.948
 21
91.538195
 31
0.0
  0
LINE
  5
1FE8
330
1E
100
AcDbEntity
  8
0
100
AcDbLine
 10
266.948
 20
123.223795
 30
0.0
 11
266.948
 21
131.997795
 31
0.0
  0
LINE
  5
1FE9
330
1E
100
AcDbEntity
  8
0
100
AcDbLine
 10
266.948
 20
123.223795
 30
0.0
 11
266.948
 21
109.332795
 31
0.0
  0
LINE
  5
1FEA
330
1E
100
AcDbEntity
  8
0
100
AcDbLine
 10
266.948
 20
91.538195
 30
0.0
 11
266.948
 21
109.332795
 31
0.0
  0
LINE
  5
1FEB
330
1E
100
AcDbEntity
  8
0
100
AcDbLine
 10
265.601
 20
234.890795
 30
0.0
 11
266.268
 21
234.573795
 31
0.0
  0
LINE
  5
1FEC
330
1E
100
AcDbEntity
  8
0
100
AcDbLine
 10
265.565
 20
235.627795
 30
0.0
 11
266.197
 21
235.295795
 31
0.0
  0
LINE
  5
1FEE
330
1E
100
AcDbEntity
  8
0
100
AcDbLine
 10
241.002
 20
186.906795
 30
0.0
 11
241.055
 21
179.394795
 31
0.0
  0
LINE
  5
1FEF
330
1E
100
AcDbEntity
  8
0
100
AcDbLine
 10
241.002
 20
186.956795
 30
0.0
 11
241.055
 21
179.444795
 31
0.0
  0
LINE
  5
1FF9
330
1E
100
AcDbEntity
  8
0
100
AcDbLine
 10
242.428
 20
153.864795
 30
0.0
 11
242.752
 21
148.737795
 31
0.0
  0
LINE
  5
1FFA
330
1E
100
AcDbEntity
  8
0
100
AcDbLine
 10
242.752
 20
148.737795
 30
0.0
 11
242.948
 21
140.770795
 31
0.0
  0
LINE
  5
1FFC
330
1E
100
AcDbEntity
  8
0
100
AcDbLine
 10
242.313
 20
155.471795
 30
0.0
 11
242.428
 21
153.864795
 31
0.0
  0
LINE
  5
1FFD
330
1E
100
AcDbEntity
  8
0
100
AcDbLine
 10
242.174
 20
157.606795
 30
0.0
 11
242.313
 21
155.471795
 31
0.0
  0
LINE
  5
200B
330
1E
100
AcDbEntity
  8
0
100
AcDbLine
 10
241.204
 20
172.671795
 30
0.0
 11
241.328
 21
167.692795
 31
0.0
  0
LINE
  5
200C
330
1E
100
AcDbEntity
  8
0
100
AcDbLine
 10
241.204
 20
172.721795
 30
0.0
 11
241.328
 21
167.742795
 31
0.0
  0
LINE
  5
2012
330
1E
100
AcDbEntity
  8
0
100
AcDbLine
 10
241.328
 20
167.692795
 30
0.0
 11
241.453
 21
164.433795
 31
0.0
  0
LINE
  5
2013
330
1E
100
AcDbEntity
  8
0
100
AcDbLine
 10
241.328
 20
167.742795
 30
0.0
 11
241.453
 21
164.482795
 31
0.0
  0
LINE
  5
2017
330
1E
100
AcDbEntity
  8
0
100
AcDbLine
 10
241.453
 20
164.433795
 30
0.0
 11
241.561
 21
162.487795
 31
0.0
  0
LINE
  5
2018
330
1E
100
AcDbEntity
  8
0
100
AcDbLine
 10
241.934
 20
159.590795
 30
0.0
 11
241.956517584527
 21
159.503492604178
 31
0.0
  0
LINE
  5
2019
330
1E
100
AcDbEntity
  8
0
100
AcDbLine
 10
241.701
 20
160.857795
 30
0.0
 11
241.934
 21
159.590795
 31
0.0
  0
LINE
  5
201B
330
1E
100
AcDbEntity
  8
0
100
AcDbLine
 10
241.561
 20
162.487795
 30
0.0
 11
241.701
 21
160.857795
 31
0.0
  0
LINE
  5
2046
330
1E
100
AcDbEntity
  8
0
100
AcDbLine
 10
241.055
 20
179.394795
 30
0.0
 11
241.204
 21
172.671795
 31
0.0
  0
LINE
  5
2047
330
1E
100
AcDbEntity
  8
0
100
AcDbLine
 10
241.055
 20
179.444795
 30
0.0
 11
241.204
 21
172.721795
 31
0.0
  0
LINE
  5
20DE
330
1E
100
AcDbEntity
  8
0
100
AcDbLine
 10
241.002
 20
204.172795
 30
0.0
 11
241.055
 21
211.685795
 31
0.0
  0
LINE
  5
20DF
330
1E
100
AcDbEntity
  8
0
100
AcDbLine
 10
241.002
 20
204.122795
 30
0.0
 11
241.055
 21
211.635795
 31
0.0
  0
LINE
  5
20F1
330
1E
100
AcDbEntity
  8
0
100
AcDbLine
 10
240.948
 20
195.564795
 30
0.0
 11
241.002
 21
204.172795
 31
0.0
  0
LINE
  5
20F2
330
1E
100
AcDbEntity
  8
0
100
AcDbLine
 10
240.948
 20
195.515795
 30
0.0
 11
241.002
 21
204.122795
 31
0.0
  0
LINE
  5
20F8
330
1E
100
AcDbEntity
  8
0
100
AcDbLine
 10
240.948
 20
195.564795
 30
0.0
 11
241.002
 21
186.956795
 31
0.0
  0
LINE
  5
20F9
330
1E
100
AcDbEntity
  8
0
100
AcDbLine
 10
240.948
 20
195.515795
 30
0.0
 11
241.002
 21
186.906795
 31
0.0
  0
LINE
  5
21BC
330
1E
100
AcDbEntity
  8
0
100
AcDbLine
 10
252.508
 20
216.414795
 30
0.0
 11
252.937
 21
216.934795
 31
0.0
  0
LINE
  5
21BE
330
1E
100
AcDbEntity
  8
0
100
AcDbLine
 10
252.508
 20
217.674795
 30
0.0
 11
252.937
 21
216.934795
 31
0.0
  0
LINE
  5
21C0
330
1E
100
AcDbEntity
  8
0
100
AcDbLine
 10
251.998
 20
236.206795
 30
0.0
 11
254.948
 21
236.363795
 31
0.0
  0
LINE
  5
21C1
330
1E
100
AcDbEntity
  8
0
100
AcDbLine
 10
252.02
 20
236.906795
 30
0.0
 11
254.948
 21
237.009795
 31
0.0
  0
LINE
  5
21C2
330
1E
100
AcDbEntity
  8
0
100
AcDbLine
 10
241.328
 20
223.386795
 30
0.0
 11
241.453
 21
226.645795
 31
0.0
  0
LINE
  5
21C3
330
1E
100
AcDbEntity
  8
0
100
AcDbLine
 10
241.328
 20
223.337795
 30
0.0
 11
241.453
 21
226.596795
 31
0.0
  0
LINE
  5
21C7
330
1E
100
AcDbEntity
  8
0
100
AcDbLine
 10
246.007
 20
217.639795
 30
0.0
 11
246.861
 21
217.372795
 31
0.0
  0
LINE
  5
21C9
330
1E
100
AcDbEntity
  8
0
100
AcDbLine
 10
246.007
 20
219.273795
 30
0.0
 11
246.861
 21
218.516795
 31
0.0
  0
LINE
  5
21CA
330
1E
100
AcDbEntity
  8
0
100
AcDbLine
 10
241.055
 20
211.685795
 30
0.0
 11
241.204
 21
218.407795
 31
0.0
  0
LINE
  5
21CB
330
1E
100
AcDbEntity
  8
0
100
AcDbLine
 10
241.204
 20
218.407795
 30
0.0
 11
241.328
 21
223.386795
 31
0.0
  0
LINE
  5
21CC
330
1E
100
AcDbEntity
  8
0
100
AcDbLine
 10
241.204
 20
218.358795
 30
0.0
 11
241.328
 21
223.337795
 31
0.0
  0
LINE
  5
21CD
330
1E
100
AcDbEntity
  8
0
100
AcDbLine
 10
241.055
 20
211.635795
 30
0.0
 11
241.204
 21
218.358795
 31
0.0
  0
LINE
  5
21D1
330
1E
100
AcDbEntity
  8
0
100
AcDbLine
 10
244.788
 20
219.189795
 30
0.0
 11
245.154
 21
218.397795
 31
0.0
  0
LINE
  5
21D3
330
1E
100
AcDbEntity
  8
0
100
AcDbLine
 10
244.788
 20
219.189795
 30
0.0
 11
245.154
 21
219.540795
 31
0.0
  0
LINE
  5
21D8
330
1E
100
AcDbEntity
  8
0
100
AcDbLine
 10
245.154
 20
219.540795
 30
0.0
 11
246.007
 21
219.273795
 31
0.0
  0
LINE
  5
21D9
330
1E
100
AcDbEntity
  8
0
100
AcDbLine
 10
245.154
 20
218.397795
 30
0.0
 11
246.007
 21
217.639795
 31
0.0
  0
LINE
  5
21DA
330
1E
100
AcDbEntity
  8
0
100
AcDbLine
 10
246.861
 20
217.372795
 30
0.0
 11
247.227
 21
217.724795
 31
0.0
  0
LINE
  5
21DB
330
1E
100
AcDbEntity
  8
0
100
AcDbLine
 10
250.08
 20
217.666795
 30
0.0
 11
250.508
 21
216.926795
 31
0.0
  0
LINE
  5
21E6
330
1E
100
AcDbEntity
  8
0
100
AcDbLine
 10
250.508
 20
216.926795
 30
0.0
 11
251.508
 21
216.399795
 31
0.0
  0
LINE
  5
21E7
330
1E
100
AcDbEntity
  8
0
100
AcDbLine
 10
251.508
 20
216.399795
 30
0.0
 11
252.508
 21
216.414795
 31
0.0
  0
LINE
  5
21E9
330
1E
100
AcDbEntity
  8
0
100
AcDbLine
 10
246.861
 20
218.516795
 30
0.0
 11
247.227
 21
217.724795
 31
0.0
  0
LINE
  5
21EC
330
1E
100
AcDbEntity
  8
0
100
AcDbLine
 10
250.508
 20
218.186795
 30
0.0
 11
251.508
 21
218.201795
 31
0.0
  0
LINE
  5
21EE
330
1E
100
AcDbEntity
  8
0
100
AcDbLine
 10
250.08
 20
217.666795
 30
0.0
 11
250.508
 21
218.186795
 31
0.0
  0
LINE
  5
21F0
330
1E
100
AcDbEntity
  8
0
100
AcDbLine
 10
251.508
 20
218.201795
 30
0.0
 11
252.508
 21
217.674795
 31
0.0
  0
LINE
  5
21F2
330
1E
100
AcDbEntity
  8
0
100
AcDbLine
 10
245.412
 20
235.253795
 30
0.0
 11
247.119
 21
235.616795
 31
0.0
  0
LINE
  5
21F3
330
1E
100
AcDbEntity
  8
0
100
AcDbLine
 10
245.472
 20
235.930795
 30
0.0
 11
247.199
 21
236.323795
 31
0.0
  0
LINE
  5
21F5
330
1E
100
AcDbEntity
  8
0
100
AcDbLine
 10
241.701
 20
230.172795
 30
0.0
 11
241.787
 21
230.972795
 31
0.0
  0
LINE
  5
21F6
330
1E
100
AcDbEntity
  8
0
100
AcDbLine
 10
241.701
 20
230.172795
 30
0.0
 11
241.934
 21
231.439795
 31
0.0
  0
LINE
  5
21F7
330
1E
100
AcDbEntity
  8
0
100
AcDbLine
 10
241.561
 20
228.592795
 30
0.0
 11
241.701
 21
230.221795
 31
0.0
  0
LINE
  5
21F8
330
1E
100
AcDbEntity
  8
0
100
AcDbLine
 10
241.453
 20
226.645795
 30
0.0
 11
241.561
 21
228.592795
 31
0.0
  0
LINE
  5
21F9
330
1E
100
AcDbEntity
  8
0
100
AcDbLine
 10
241.561
 20
228.543795
 30
0.0
 11
241.701
 21
230.172795
 31
0.0
  0
LINE
  5
21FA
330
1E
100
AcDbEntity
  8
0
100
AcDbLine
 10
241.453
 20
226.596795
 30
0.0
 11
241.561
 21
228.543795
 31
0.0
  0
LINE
  5
21FC
330
1E
100
AcDbEntity
  8
0
100
AcDbLine
 10
241.934
 20
231.439795
 30
0.0
 11
242.235
 21
232.606795
 31
0.0
  0
LINE
  5
21FD
330
1E
100
AcDbEntity
  8
0
100
AcDbLine
 10
242.049
 20
232.242795
 30
0.0
 11
242.327
 21
233.300795
 31
0.0
  0
LINE
  5
21FE
330
1E
100
AcDbEntity
  8
0
100
AcDbLine
 10
241.787
 20
230.972795
 30
0.0
 11
242.049
 21
232.242795
 31
0.0
  0
LINE
  5
2201
330
1E
100
AcDbEntity
  8
0
100
AcDbLine
 10
242.235
 20
232.606795
 30
0.0
 11
242.635
 21
233.487795
 31
0.0
  0
LINE
  5
2203
330
1E
100
AcDbEntity
  8
0
100
AcDbLine
 10
242.635
 20
233.487795
 30
0.0
 11
243.07
 21
234.166795
 31
0.0
  0
LINE
  5
2204
330
1E
100
AcDbEntity
  8
0
100
AcDbLine
 10
243.07
 20
234.166795
 30
0.0
 11
243.628
 21
234.573795
 31
0.0
  0
LINE
  5
2205
330
1E
100
AcDbEntity
  8
0
100
AcDbLine
 10
242.327
 20
233.300795
 30
0.0
 11
242.728
 21
234.207795
 31
0.0
  0
LINE
  5
2207
330
1E
100
AcDbEntity
  8
0
100
AcDbLine
 10
242.728
 20
234.207795
 30
0.0
 11
243.144
 21
234.871795
 31
0.0
  0
LINE
  5
2209
330
1E
100
AcDbEntity
  8
0
100
AcDbLine
 10
243.628
 20
234.573795
 30
0.0
 11
244.295
 21
234.890795
 31
0.0
  0
LINE
  5
220B
330
1E
100
AcDbEntity
  8
0
100
AcDbLine
 10
244.295
 20
234.890795
 30
0.0
 11
245.412
 21
235.253795
 31
0.0
  0
LINE
  5
220C
330
1E
100
AcDbEntity
  8
0
100
AcDbLine
 10
243.144
 20
234.871795
 30
0.0
 11
243.699
 21
235.295795
 31
0.0
  0
LINE
  5
220D
330
1E
100
AcDbEntity
  8
0
100
AcDbLine
 10
243.699
 20
235.295795
 30
0.0
 11
244.331
 21
235.627795
 31
0.0
  0
LINE
  5
220E
330
1E
100
AcDbEntity
  8
0
100
AcDbLine
 10
244.331
 20
235.627795
 30
0.0
 11
245.472
 21
235.930795
 31
0.0
  0
LINE
  5
2210
330
1E
100
AcDbEntity
  8
0
100
AcDbLine
 10
247.119
 20
235.616795
 30
0.0
 11
249.423
 21
236.050795
 31
0.0
  0
LINE
  5
2212
330
1E
100
AcDbEntity
  8
0
100
AcDbLine
 10
249.423
 20
236.050795
 30
0.0
 11
251.998
 21
236.206795
 31
0.0
  0
LINE
  5
2213
330
1E
100
AcDbEntity
  8
0
100
AcDbLine
 10
247.199
 20
236.323795
 30
0.0
 11
249.465
 21
236.802795
 31
0.0
  0
LINE
  5
2214
330
1E
100
AcDbEntity
  8
0
100
AcDbLine
 10
249.465
 20
236.802795
 30
0.0
 11
252.02
 21
236.906795
 31
0.0
  0
LINE
  5
2215
330
1E
100
AcDbEntity
  8
0
100
AcDbLine
 10
258.388
 20
218.201795
 30
0.0
 11
259.388
 21
218.186795
 31
0.0
  0
LINE
  5
2216
330
1E
100
AcDbEntity
  8
0
100
AcDbLine
 10
258.388
 20
216.399795
 30
0.0
 11
259.388
 21
216.926795
 31
0.0
  0
LINE
  5
221D
330
1E
100
AcDbEntity
  8
0
100
AcDbLine
 10
257.388
 20
216.414795
 30
0.0
 11
258.388
 21
216.399795
 31
0.0
  0
LINE
  5
221E
330
1E
100
AcDbEntity
  8
0
100
AcDbLine
 10
256.959
 20
216.934795
 30
0.0
 11
257.388
 21
217.674795
 31
0.0
  0
LINE
  5
221F
330
1E
100
AcDbEntity
  8
0
100
AcDbLine
 10
256.959
 20
216.934795
 30
0.0
 11
257.388
 21
216.414795
 31
0.0
  0
LINE
  5
2220
330
1E
100
AcDbEntity
  8
0
100
AcDbLine
 10
257.388
 20
217.674795
 30
0.0
 11
258.388
 21
218.201795
 31
0.0
  0
LINE
  5
2225
330
1E
100
AcDbEntity
  8
0
100
AcDbLine
 10
259.388
 20
216.926795
 30
0.0
 11
259.816
 21
217.666795
 31
0.0
  0
LINE
  5
2226
330
1E
100
AcDbEntity
  8
0
100
AcDbLine
 10
262.669
 20
217.724795
 30
0.0
 11
263.035
 21
217.372795
 31
0.0
  0
LINE
  5
2227
330
1E
100
AcDbEntity
  8
0
100
AcDbLine
 10
263.035
 20
217.372795
 30
0.0
 11
263.889
 21
217.639795
 31
0.0
  0
LINE
  5
2237
330
1E
100
AcDbEntity
  8
0
100
AcDbLine
 10
259.388
 20
218.186795
 30
0.0
 11
259.816
 21
217.666795
 31
0.0
  0
LINE
  5
223B
330
1E
100
AcDbEntity
  8
0
100
AcDbLine
 10
262.669
 20
217.724795
 30
0.0
 11
263.035
 21
218.516795
 31
0.0
  0
LINE
  5
223C
330
1E
100
AcDbEntity
  8
0
100
AcDbLine
 10
263.035
 20
218.516795
 30
0.0
 11
263.889
 21
219.273795
 31
0.0
  0
LINE
  5
223D
330
1E
100
AcDbEntity
  8
0
100
AcDbLine
 10
263.889
 20
219.273795
 30
0.0
 11
264.742
 21
219.540795
 31
0.0
  0
LINE
  5
223E
330
1E
100
AcDbEntity
  8
0
100
AcDbLine
 10
263.889
 20
217.639795
 30
0.0
 11
264.742
 21
218.397795
 31
0.0
  0
LINE
  5
2241
330
1E
100
AcDbEntity
  8
0
100
AcDbLine
 10
264.742
 20
219.540795
 30
0.0
 11
265.108
 21
219.189795
 31
0.0
  0
LINE
  5
2242
330
1E
100
AcDbEntity
  8
0
100
AcDbLine
 10
264.742
 20
218.397795
 30
0.0
 11
265.108
 21
219.189795
 31
0.0
  0
LINE
  5
2244
330
1E
100
AcDbEntity
  8
0
100
AcDbLine
 10
260.473
 20
236.050795
 30
0.0
 11
262.777
 21
235.616795
 31
0.0
  0
LINE
  5
2245
330
1E
100
AcDbEntity
  8
0
100
AcDbLine
 10
257.898
 20
236.206795
 30
0.0
 11
260.473
 21
236.050795
 31
0.0
  0
LINE
  5
2246
330
1E
100
AcDbEntity
  8
0
100
AcDbLine
 10
264.484
 20
235.253795
 30
0.0
 11
265.601
 21
234.890795
 31
0.0
  0
LINE
  5
2247
330
1E
100
AcDbEntity
  8
0
100
AcDbLine
 10
262.777
 20
235.616795
 30
0.0
 11
264.484
 21
235.253795
 31
0.0
  0
LINE
  5
2249
330
1E
100
AcDbEntity
  8
0
100
AcDbLine
 10
264.424
 20
235.930795
 30
0.0
 11
265.565
 21
235.627795
 31
0.0
  0
LINE
  5
224C
330
1E
100
AcDbEntity
  8
0
100
AcDbLine
 10
254.948
 20
236.363795
 30
0.0
 11
257.898
 21
236.206795
 31
0.0
  0
LINE
  5
224D
330
1E
100
AcDbEntity
  8
0
100
AcDbLine
 10
262.697
 20
236.323795
 30
0.0
 11
264.424
 21
235.930795
 31
0.0
  0
LINE
  5
224F
330
1E
100
AcDbEntity
  8
0
100
AcDbLine
 10
260.431
 20
236.802795
 30
0.0
 11
262.697
 21
236.323795
 31
0.0
  0
LINE
  5
2250
330
1E
100
AcDbEntity
  8
0
100
AcDbLine
 10
257.876
 20
236.906795
 30
0.0
 11
260.431
 21
236.802795
 31
0.0
  0
LINE
  5
2252
330
1E
100
AcDbEntity
  8
0
100
AcDbLine
 10
254.948
 20
237.009795
 30
0.0
 11
257.876
 21
236.906795
 31
0.0
  0
LINE
  5
2253
330
1E
100
AcDbEntity
  8
0
100
AcDbLine
 10
268.841
 20
179.444795
 30
0.0
 11
268.894
 21
186.956795
 31
0.0
  0
LINE
  5
2254
330
1E
100
AcDbEntity
  8
0
100
AcDbLine
 10
268.841
 20
179.394795
 30
0.0
 11
268.894
 21
186.906795
 31
0.0
  0
LINE
  5
2257
330
1E
100
AcDbEntity
  8
0
100
AcDbLine
 10
266.948
 20
140.770795
 30
0.0
 11
267.144
 21
148.737795
 31
0.0
  0
LINE
  5
2258
330
1E
100
AcDbEntity
  8
0
100
AcDbLine
 10
267.144
 20
148.737795
 30
0.0
 11
267.468
 21
153.864795
 31
0.0
  0
LINE
  5
2259
330
1E
100
AcDbEntity
  8
0
100
AcDbLine
 10
267.468
 20
153.864795
 30
0.0
 11
267.583
 21
155.471795
 31
0.0
  0
LINE
  5
225A
330
1E
100
AcDbEntity
  8
0
100
AcDbLine
 10
267.583
 20
155.471795
 30
0.0
 11
267.722
 21
157.606795
 31
0.0
  0
LINE
  5
225D
330
1E
100
AcDbEntity
  8
0
100
AcDbLine
 10
267.939482415474
 20
159.503492604179
 30
0.0
 11
267.962
 21
159.590795
 31
0.0
  0
LINE
  5
225E
330
1E
100
AcDbEntity
  8
0
100
AcDbLine
 10
267.962
 20
159.590795
 30
0.0
 11
268.195
 21
160.857795
 31
0.0
  0
LINE
  5
2261
330
1E
100
AcDbEntity
  8
0
100
AcDbLine
 10
268.335
 20
162.536795
 30
0.0
 11
268.443
 21
164.482795
 31
0.0
  0
LINE
  5
2262
330
1E
100
AcDbEntity
  8
0
100
AcDbLine
 10
268.195
 20
160.857795
 30
0.0
 11
268.335
 21
162.487795
 31
0.0
  0
LINE
  5
2263
330
1E
100
AcDbEntity
  8
0
100
AcDbLine
 10
268.335
 20
162.487795
 30
0.0
 11
268.443
 21
164.433795
 31
0.0
  0
LINE
  5
2264
330
1E
100
AcDbEntity
  8
0
100
AcDbLine
 10
268.443
 20
164.482795
 30
0.0
 11
268.568
 21
167.742795
 31
0.0
  0
LINE
  5
2265
330
1E
100
AcDbEntity
  8
0
100
AcDbLine
 10
268.568
 20
167.742795
 30
0.0
 11
268.692
 21
172.721795
 31
0.0
  0
LINE
  5
2266
330
1E
100
AcDbEntity
  8
0
100
AcDbLine
 10
268.443
 20
164.433795
 30
0.0
 11
268.568
 21
167.692795
 31
0.0
  0
LINE
  5
2267
330
1E
100
AcDbEntity
  8
0
100
AcDbLine
 10
268.568
 20
167.692795
 30
0.0
 11
268.692
 21
172.671795
 31
0.0
  0
LINE
  5
2268
330
1E
100
AcDbEntity
  8
0
100
AcDbLine
 10
268.692
 20
172.721795
 30
0.0
 11
268.841
 21
179.444795
 31
0.0
  0
LINE
  5
2269
330
1E
100
AcDbEntity
  8
0
100
AcDbLine
 10
268.692
 20
172.671795
 30
0.0
 11
268.841
 21
179.394795
 31
0.0
  0
LINE
  5
226A
330
1E
100
AcDbEntity
  8
0
100
AcDbLine
 10
268.841
 20
211.635795
 30
0.0
 11
268.894
 21
204.122795
 31
0.0
  0
LINE
  5
226B
330
1E
100
AcDbEntity
  8
0
100
AcDbLine
 10
268.841
 20
211.685795
 30
0.0
 11
268.894
 21
204.172795
 31
0.0
  0
LINE
  5
226C
330
1E
100
AcDbEntity
  8
0
100
AcDbLine
 10
268.894
 20
204.122795
 30
0.0
 11
268.948
 21
195.515795
 31
0.0
  0
LINE
  5
226D
330
1E
100
AcDbEntity
  8
0
100
AcDbLine
 10
268.894
 20
204.172795
 30
0.0
 11
268.948
 21
195.564795
 31
0.0
  0
LINE
  5
226E
330
1E
100
AcDbEntity
  8
0
100
AcDbLine
 10
268.894
 20
186.956795
 30
0.0
 11
268.948
 21
195.564795
 31
0.0
  0
LINE
  5
226F
330
1E
100
AcDbEntity
  8
0
100
AcDbLine
 10
268.894
 20
186.906795
 30
0.0
 11
268.948
 21
195.515795
 31
0.0
  0
LINE
  5
2270
330
1E
100
AcDbEntity
  8
0
100
AcDbLine
 10
268.443
 20
226.596795
 30
0.0
 11
268.568
 21
223.337795
 31
0.0
  0
LINE
  5
2271
330
1E
100
AcDbEntity
  8
0
100
AcDbLine
 10
268.443
 20
226.645795
 30
0.0
 11
268.568
 21
223.386795
 31
0.0
  0
LINE
  5
2272
330
1E
100
AcDbEntity
  8
0
100
AcDbLine
 10
268.692
 20
218.358795
 30
0.0
 11
268.841
 21
211.635795
 31
0.0
  0
LINE
  5
2273
330
1E
100
AcDbEntity
  8
0
100
AcDbLine
 10
268.568
 20
223.337795
 30
0.0
 11
268.692
 21
218.358795
 31
0.0
  0
LINE
  5
2274
330
1E
100
AcDbEntity
  8
0
100
AcDbLine
 10
268.568
 20
223.386795
 30
0.0
 11
268.692
 21
218.407795
 31
0.0
  0
LINE
  5
2275
330
1E
100
AcDbEntity
  8
0
100
AcDbLine
 10
268.692
 20
218.407795
 30
0.0
 11
268.841
 21
211.685795
 31
0.0
  0
LINE
  5
2276
330
1E
100
AcDbEntity
  8
0
100
AcDbLine
 10
267.962
 20
231.439795
 30
0.0
 11
268.195
 21
230.172795
 31
0.0
  0
LINE
  5
2277
330
1E
100
AcDbEntity
  8
0
100
AcDbLine
 10
268.109
 20
230.972795
 30
0.0
 11
268.195
 21
230.172795
 31
0.0
  0
LINE
  5
2279
330
1E
100
AcDbEntity
  8
0
100
AcDbLine
 10
268.195
 20
230.172795
 30
0.0
 11
268.335
 21
228.543795
 31
0.0
  0
LINE
  5
227A
330
1E
100
AcDbEntity
  8
0
100
AcDbLine
 10
268.335
 20
228.543795
 30
0.0
 11
268.443
 21
226.596795
 31
0.0
  0
LINE
  5
227D
330
1E
100
AcDbEntity
  8
0
100
AcDbLine
 10
266.268
 20
234.573795
 30
0.0
 11
266.826
 21
234.166795
 31
0.0
  0
LINE
  5
227E
330
1E
100
AcDbEntity
  8
0
100
AcDbLine
 10
267.261
 20
233.487795
 30
0.0
 11
267.661
 21
232.606795
 31
0.0
  0
LINE
  5
227F
330
1E
100
AcDbEntity
  8
0
100
AcDbLine
 10
266.826
 20
234.166795
 30
0.0
 11
267.261
 21
233.487795
 31
0.0
  0
LINE
  5
2280
330
1E
100
AcDbEntity
  8
0
100
AcDbLine
 10
267.169
 20
234.207795
 30
0.0
 11
267.569
 21
233.300795
 31
0.0
  0
LINE
  5
2281
330
1E
100
AcDbEntity
  8
0
100
AcDbLine
 10
267.661
 20
232.606795
 30
0.0
 11
267.962
 21
231.439795
 31
0.0
  0
LINE
  5
2282
330
1E
100
AcDbEntity
  8
0
100
AcDbLine
 10
267.847
 20
232.242795
 30
0.0
 11
268.109
 21
230.972795
 31
0.0
  0
LINE
  5
2283
330
1E
100
AcDbEntity
  8
0
100
AcDbLine
 10
267.569
 20
233.300795
 30
0.0
 11
267.847
 21
232.242795
 31
0.0
  0
LINE
  5
2287
330
1E
100
AcDbEntity
  8
0
100
AcDbLine
 10
266.752
 20
234.871795
 30
0.0
 11
267.169
 21
234.207795
 31
0.0
  0
LINE
  5
228A
330
1E
100
AcDbEntity
  8
0
100
AcDbLine
 10
266.197
 20
235.295795
 30
0.0
 11
266.752
 21
234.871795
 31
0.0
  0
LINE
  5
2293
330
1E
100
AcDbEntity
  8
0
100
AcDbLine
 10
264.742
 20
212.897795
 30
0.0
 11
265.108
 21
213.689795
 31
0.0
  0
LINE
  5
2294
330
1E
100
AcDbEntity
  8
0
100
AcDbLine
 10
264.742
 20
214.040795
 30
0.0
 11
265.108
 21
213.689795
 31
0.0
  0
LINE
  5
2295
330
1E
100
AcDbEntity
  8
0
100
AcDbLine
 10
263.889
 20
212.139795
 30
0.0
 11
264.742
 21
212.897795
 31
0.0
  0
LINE
  5
2296
330
1E
100
AcDbEntity
  8
0
100
AcDbLine
 10
263.889
 20
213.773795
 30
0.0
 11
264.742
 21
214.040795
 31
0.0
  0
LINE
  5
2297
330
1E
100
AcDbEntity
  8
0
100
AcDbLine
 10
263.035
 20
213.016795
 30
0.0
 11
263.889
 21
213.773795
 31
0.0
  0
LINE
  5
2298
330
1E
100
AcDbEntity
  8
0
100
AcDbLine
 10
262.669
 20
212.224795
 30
0.0
 11
263.035
 21
213.016795
 31
0.0
  0
LINE
  5
2299
330
1E
100
AcDbEntity
  8
0
100
AcDbLine
 10
259.388
 20
212.686795
 30
0.0
 11
259.816
 21
212.166795
 31
0.0
  0
LINE
  5
229A
330
1E
100
AcDbEntity
  8
0
100
AcDbLine
 10
263.035
 20
211.872795
 30
0.0
 11
263.889
 21
212.139795
 31
0.0
  0
LINE
  5
229B
330
1E
100
AcDbEntity
  8
0
100
AcDbLine
 10
262.669
 20
212.224795
 30
0.0
 11
263.035
 21
211.872795
 31
0.0
  0
LINE
  5
229C
330
1E
100
AcDbEntity
  8
0
100
AcDbLine
 10
259.388
 20
211.426795
 30
0.0
 11
259.816
 21
212.166795
 31
0.0
  0
LINE
  5
229D
330
1E
100
AcDbEntity
  8
0
100
AcDbLine
 10
257.388
 20
212.174795
 30
0.0
 11
258.388
 21
212.701795
 31
0.0
  0
LINE
  5
229E
330
1E
100
AcDbEntity
  8
0
100
AcDbLine
 10
256.959
 20
211.434795
 30
0.0
 11
257.388
 21
210.914795
 31
0.0
  0
LINE
  5
229F
330
1E
100
AcDbEntity
  8
0
100
AcDbLine
 10
256.959
 20
211.434795
 30
0.0
 11
257.388
 21
212.174795
 31
0.0
  0
LINE
  5
22A0
330
1E
100
AcDbEntity
  8
0
100
AcDbLine
 10
257.388
 20
210.914795
 30
0.0
 11
258.388
 21
210.899795
 31
0.0
  0
LINE
  5
22A1
330
1E
100
AcDbEntity
  8
0
100
AcDbLine
 10
258.388
 20
210.899795
 30
0.0
 11
259.388
 21
211.426795
 31
0.0
  0
LINE
  5
22A2
330
1E
100
AcDbEntity
  8
0
100
AcDbLine
 10
258.388
 20
212.701795
 30
0.0
 11
259.388
 21
212.686795
 31
0.0
  0
LINE
  5
22A3
330
1E
100
AcDbEntity
  8
0
100
AcDbLine
 10
251.508
 20
212.701795
 30
0.0
 11
252.508
 21
212.174795
 31
0.0
  0
LINE
  5
22A4
330
1E
100
AcDbEntity
  8
0
100
AcDbLine
 10
250.08
 20
212.166795
 30
0.0
 11
250.508
 21
212.686795
 31
0.0
  0
LINE
  5
22A5
330
1E
100
AcDbEntity
  8
0
100
AcDbLine
 10
250.508
 20
212.686795
 30
0.0
 11
251.508
 21
212.701795
 31
0.0
  0
LINE
  5
22A6
330
1E
100
AcDbEntity
  8
0
100
AcDbLine
 10
246.861
 20
213.016795
 30
0.0
 11
247.227
 21
212.224795
 31
0.0
  0
LINE
  5
22A7
330
1E
100
AcDbEntity
  8
0
100
AcDbLine
 10
251.508
 20
210.899795
 30
0.0
 11
252.508
 21
210.914795
 31
0.0
  0
LINE
  5
22A8
330
1E
100
AcDbEntity
  8
0
100
AcDbLine
 10
250.508
 20
211.426795
 30
0.0
 11
251.508
 21
210.899795
 31
0.0
  0
LINE
  5
22A9
330
1E
100
AcDbEntity
  8
0
100
AcDbLine
 10
250.08
 20
212.166795
 30
0.0
 11
250.508
 21
211.426795
 31
0.0
  0
LINE
  5
22AA
330
1E
100
AcDbEntity
  8
0
100
AcDbLine
 10
246.861
 20
211.872795
 30
0.0
 11
247.227
 21
212.224795
 31
0.0
  0
LINE
  5
22AB
330
1E
100
AcDbEntity
  8
0
100
AcDbLine
 10
245.154
 20
212.897795
 30
0.0
 11
246.007
 21
212.139795
 31
0.0
  0
LINE
  5
22AC
330
1E
100
AcDbEntity
  8
0
100
AcDbLine
 10
245.154
 20
214.040795
 30
0.0
 11
246.007
 21
213.773795
 31
0.0
  0
LINE
  5
22AD
330
1E
100
AcDbEntity
  8
0
100
AcDbLine
 10
244.788
 20
213.689795
 30
0.0
 11
245.154
 21
214.040795
 31
0.0
  0
LINE
  5
22AE
330
1E
100
AcDbEntity
  8
0
100
AcDbLine
 10
244.788
 20
213.689795
 30
0.0
 11
245.154
 21
212.897795
 31
0.0
  0
LINE
  5
22AF
330
1E
100
AcDbEntity
  8
0
100
AcDbLine
 10
246.007
 20
213.773795
 30
0.0
 11
246.861
 21
213.016795
 31
0.0
  0
LINE
  5
22B0
330
1E
100
AcDbEntity
  8
0
100
AcDbLine
 10
246.007
 20
212.139795
 30
0.0
 11
246.861
 21
211.872795
 31
0.0
  0
LINE
  5
22B1
330
1E
100
AcDbEntity
  8
0
100
AcDbLine
 10
252.508
 20
212.174795
 30
0.0
 11
252.937
 21
211.434795
 31
0.0
  0
LINE
  5
22B2
330
1E
100
AcDbEntity
  8
0
100
AcDbLine
 10
252.508
 20
210.914795
 30
0.0
 11
252.937
 21
211.434795
 31
0.0
  0
LINE
  5
22B3
330
1E
100
AcDbEntity
  8
0
100
AcDbLine
 10
264.742
 20
207.397795
 30
0.0
 11
265.108
 21
208.189795
 31
0.0
  0
LINE
  5
22B4
330
1E
100
AcDbEntity
  8
0
100
AcDbLine
 10
264.742
 20
208.540795
 30
0.0
 11
265.108
 21
208.189795
 31
0.0
  0
LINE
  5
22B5
330
1E
100
AcDbEntity
  8
0
100
AcDbLine
 10
263.889
 20
206.639795
 30
0.0
 11
264.742
 21
207.397795
 31
0.0
  0
LINE
  5
22B6
330
1E
100
AcDbEntity
  8
0
100
AcDbLine
 10
263.889
 20
208.273795
 30
0.0
 11
264.742
 21
208.540795
 31
0.0
  0
LINE
  5
22B7
330
1E
100
AcDbEntity
  8
0
100
AcDbLine
 10
263.035
 20
207.516795
 30
0.0
 11
263.889
 21
208.273795
 31
0.0
  0
LINE
  5
22B8
330
1E
100
AcDbEntity
  8
0
100
AcDbLine
 10
262.669
 20
206.724795
 30
0.0
 11
263.035
 21
207.516795
 31
0.0
  0
LINE
  5
22B9
330
1E
100
AcDbEntity
  8
0
100
AcDbLine
 10
259.388
 20
207.186795
 30
0.0
 11
259.816
 21
206.666795
 31
0.0
  0
LINE
  5
22BA
330
1E
100
AcDbEntity
  8
0
100
AcDbLine
 10
263.035
 20
206.372795
 30
0.0
 11
263.889
 21
206.639795
 31
0.0
  0
LINE
  5
22BB
330
1E
100
AcDbEntity
  8
0
100
AcDbLine
 10
262.669
 20
206.724795
 30
0.0
 11
263.035
 21
206.372795
 31
0.0
  0
LINE
  5
22BC
330
1E
100
AcDbEntity
  8
0
100
AcDbLine
 10
259.388
 20
205.926795
 30
0.0
 11
259.816
 21
206.666795
 31
0.0
  0
LINE
  5
22BD
330
1E
100
AcDbEntity
  8
0
100
AcDbLine
 10
257.388
 20
206.674795
 30
0.0
 11
258.388
 21
207.201795
 31
0.0
  0
LINE
  5
22BE
330
1E
100
AcDbEntity
  8
0
100
AcDbLine
 10
256.959
 20
205.934795
 30
0.0
 11
257.388
 21
205.414795
 31
0.0
  0
LINE
  5
22BF
330
1E
100
AcDbEntity
  8
0
100
AcDbLine
 10
256.959
 20
205.934795
 30
0.0
 11
257.388
 21
206.674795
 31
0.0
  0
LINE
  5
22C0
330
1E
100
AcDbEntity
  8
0
100
AcDbLine
 10
257.388
 20
205.414795
 30
0.0
 11
258.388
 21
205.399795
 31
0.0
  0
LINE
  5
22C1
330
1E
100
AcDbEntity
  8
0
100
AcDbLine
 10
258.388
 20
205.399795
 30
0.0
 11
259.388
 21
205.926795
 31
0.0
  0
LINE
  5
22C2
330
1E
100
AcDbEntity
  8
0
100
AcDbLine
 10
258.388
 20
207.201795
 30
0.0
 11
259.388
 21
207.186795
 31
0.0
  0
LINE
  5
22C3
330
1E
100
AcDbEntity
  8
0
100
AcDbLine
 10
251.508
 20
207.201795
 30
0.0
 11
252.508
 21
206.674795
 31
0.0
  0
LINE
  5
22C4
330
1E
100
AcDbEntity
  8
0
100
AcDbLine
 10
250.08
 20
206.666795
 30
0.0
 11
250.508
 21
207.186795
 31
0.0
  0
LINE
  5
22C5
330
1E
100
AcDbEntity
  8
0
100
AcDbLine
 10
250.508
 20
207.186795
 30
0.0
 11
251.508
 21
207.201795
 31
0.0
  0
LINE
  5
22C6
330
1E
100
AcDbEntity
  8
0
100
AcDbLine
 10
246.861
 20
207.516795
 30
0.0
 11
247.227
 21
206.724795
 31
0.0
  0
LINE
  5
22C7
330
1E
100
AcDbEntity
  8
0
100
AcDbLine
 10
251.508
 20
205.399795
 30
0.0
 11
252.508
 21
205.414795
 31
0.0
  0
LINE
  5
22C8
330
1E
100
AcDbEntity
  8
0
100
AcDbLine
 10
250.508
 20
205.926795
 30
0.0
 11
251.508
 21
205.399795
 31
0.0
  0
LINE
  5
22C9
330
1E
100
AcDbEntity
  8
0
100
AcDbLine
 10
250.08
 20
206.666795
 30
0.0
 11
250.508
 21
205.926795
 31
0.0
  0
LINE
  5
22CA
330
1E
100
AcDbEntity
  8
0
100
AcDbLine
 10
246.861
 20
206.372795
 30
0.0
 11
247.227
 21
206.724795
 31
0.0
  0
LINE
  5
22CB
330
1E
100
AcDbEntity
  8
0
100
AcDbLine
 10
245.154
 20
207.397795
 30
0.0
 11
246.007
 21
206.639795
 31
0.0
  0
LINE
  5
22CC
330
1E
100
AcDbEntity
  8
0
100
AcDbLine
 10
245.154
 20
208.540795
 30
0.0
 11
246.007
 21
208.273795
 31
0.0
  0
LINE
  5
22CD
330
1E
100
AcDbEntity
  8
0
100
AcDbLine
 10
244.788
 20
208.189795
 30
0.0
 11
245.154
 21
208.540795
 31
0.0
  0
LINE
  5
22CE
330
1E
100
AcDbEntity
  8
0
100
AcDbLine
 10
244.788
 20
208.189795
 30
0.0
 11
245.154
 21
207.397795
 31
0.0
  0
LINE
  5
22CF
330
1E
100
AcDbEntity
  8
0
100
AcDbLine
 10
246.007
 20
208.273795
 30
0.0
 11
246.861
 21
207.516795
 31
0.0
  0
LINE
  5
22D0
330
1E
100
AcDbEntity
  8
0
100
AcDbLine
 10
246.007
 20
206.639795
 30
0.0
 11
246.861
 21
206.372795
 31
0.0
  0
LINE
  5
22D1
330
1E
100
AcDbEntity
  8
0
100
AcDbLine
 10
252.508
 20
206.674795
 30
0.0
 11
252.937
 21
205.934795
 31
0.0
  0
LINE
  5
22D2
330
1E
100
AcDbEntity
  8
0
100
AcDbLine
 10
252.508
 20
205.414795
 30
0.0
 11
252.937
 21
205.934795
 31
0.0
  0
LINE
  5
22D3
330
1E
100
AcDbEntity
  8
0
100
AcDbLine
 10
252.508
 20
199.914795
 30
0.0
 11
252.937
 21
200.434795
 31
0.0
  0
LINE
  5
22D4
330
1E
100
AcDbEntity
  8
0
100
AcDbLine
 10
252.508
 20
201.174795
 30
0.0
 11
252.937
 21
200.434795
 31
0.0
  0
LINE
  5
22D5
330
1E
100
AcDbEntity
  8
0
100
AcDbLine
 10
246.007
 20
201.139795
 30
0.0
 11
246.861
 21
200.872795
 31
0.0
  0
LINE
  5
22D6
330
1E
100
AcDbEntity
  8
0
100
AcDbLine
 10
246.007
 20
202.773795
 30
0.0
 11
246.861
 21
202.016795
 31
0.0
  0
LINE
  5
22D7
330
1E
100
AcDbEntity
  8
0
100
AcDbLine
 10
244.788
 20
202.689795
 30
0.0
 11
245.154
 21
201.897795
 31
0.0
  0
LINE
  5
22D8
330
1E
100
AcDbEntity
  8
0
100
AcDbLine
 10
244.788
 20
202.689795
 30
0.0
 11
245.154
 21
203.040795
 31
0.0
  0
LINE
  5
22D9
330
1E
100
AcDbEntity
  8
0
100
AcDbLine
 10
245.154
 20
203.040795
 30
0.0
 11
246.007
 21
202.773795
 31
0.0
  0
LINE
  5
22DA
330
1E
100
AcDbEntity
  8
0
100
AcDbLine
 10
245.154
 20
201.897795
 30
0.0
 11
246.007
 21
201.139795
 31
0.0
  0
LINE
  5
22DB
330
1E
100
AcDbEntity
  8
0
100
AcDbLine
 10
246.861
 20
200.872795
 30
0.0
 11
247.227
 21
201.224795
 31
0.0
  0
LINE
  5
22DC
330
1E
100
AcDbEntity
  8
0
100
AcDbLine
 10
250.08
 20
201.166795
 30
0.0
 11
250.508
 21
200.426795
 31
0.0
  0
LINE
  5
22DD
330
1E
100
AcDbEntity
  8
0
100
AcDbLine
 10
250.508
 20
200.426795
 30
0.0
 11
251.508
 21
199.899795
 31
0.0
  0
LINE
  5
22DE
330
1E
100
AcDbEntity
  8
0
100
AcDbLine
 10
251.508
 20
199.899795
 30
0.0
 11
252.508
 21
199.914795
 31
0.0
  0
LINE
  5
22DF
330
1E
100
AcDbEntity
  8
0
100
AcDbLine
 10
246.861
 20
202.016795
 30
0.0
 11
247.227
 21
201.224795
 31
0.0
  0
LINE
  5
22E0
330
1E
100
AcDbEntity
  8
0
100
AcDbLine
 10
250.508
 20
201.686795
 30
0.0
 11
251.508
 21
201.701795
 31
0.0
  0
LINE
  5
22E1
330
1E
100
AcDbEntity
  8
0
100
AcDbLine
 10
250.08
 20
201.166795
 30
0.0
 11
250.508
 21
201.686795
 31
0.0
  0
LINE
  5
22E2
330
1E
100
AcDbEntity
  8
0
100
AcDbLine
 10
251.508
 20
201.701795
 30
0.0
 11
252.508
 21
201.174795
 31
0.0
  0
LINE
  5
22E3
330
1E
100
AcDbEntity
  8
0
100
AcDbLine
 10
258.388
 20
201.701795
 30
0.0
 11
259.388
 21
201.686795
 31
0.0
  0
LINE
  5
22E4
330
1E
100
AcDbEntity
  8
0
100
AcDbLine
 10
258.388
 20
199.899795
 30
0.0
 11
259.388
 21
200.426795
 31
0.0
  0
LINE
  5
22E5
330
1E
100
AcDbEntity
  8
0
100
AcDbLine
 10
257.388
 20
199.914795
 30
0.0
 11
258.388
 21
199.899795
 31
0.0
  0
LINE
  5
22E6
330
1E
100
AcDbEntity
  8
0
100
AcDbLine
 10
256.959
 20
200.434795
 30
0.0
 11
257.388
 21
201.174795
 31
0.0
  0
LINE
  5
22E7
330
1E
100
AcDbEntity
  8
0
100
AcDbLine
 10
256.959
 20
200.434795
 30
0.0
 11
257.388
 21
199.914795
 31
0.0
  0
LINE
  5
22E8
330
1E
100
AcDbEntity
  8
0
100
AcDbLine
 10
257.388
 20
201.174795
 30
0.0
 11
258.388
 21
201.701795
 31
0.0
  0
LINE
  5
22E9
330
1E
100
AcDbEntity
  8
0
100
AcDbLine
 10
259.388
 20
200.426795
 30
0.0
 11
259.816
 21
201.166795
 31
0.0
  0
LINE
  5
22EA
330
1E
100
AcDbEntity
  8
0
100
AcDbLine
 10
262.669
 20
201.224795
 30
0.0
 11
263.035
 21
200.872795
 31
0.0
  0
LINE
  5
22EB
330
1E
100
AcDbEntity
  8
0
100
AcDbLine
 10
263.035
 20
200.872795
 30
0.0
 11
263.889
 21
201.139795
 31
0.0
  0
LINE
  5
22EC
330
1E
100
AcDbEntity
  8
0
100
AcDbLine
 10
259.388
 20
201.686795
 30
0.0
 11
259.816
 21
201.166795
 31
0.0
  0
LINE
  5
22ED
330
1E
100
AcDbEntity
  8
0
100
AcDbLine
 10
262.669
 20
201.224795
 30
0.0
 11
263.035
 21
202.016795
 31
0.0
  0
LINE
  5
22EE
330
1E
100
AcDbEntity
  8
0
100
AcDbLine
 10
263.035
 20
202.016795
 30
0.0
 11
263.889
 21
202.773795
 31
0.0
  0
LINE
  5
22EF
330
1E
100
AcDbEntity
  8
0
100
AcDbLine
 10
263.889
 20
202.773795
 30
0.0
 11
264.742
 21
203.040795
 31
0.0
  0
LINE
  5
22F0
330
1E
100
AcDbEntity
  8
0
100
AcDbLine
 10
263.889
 20
201.139795
 30
0.0
 11
264.742
 21
201.897795
 31
0.0
  0
LINE
  5
22F1
330
1E
100
AcDbEntity
  8
0
100
AcDbLine
 10
264.742
 20
203.040795
 30
0.0
 11
265.108
 21
202.689795
 31
0.0
  0
LINE
  5
22F2
330
1E
100
AcDbEntity
  8
0
100
AcDbLine
 10
264.742
 20
201.897795
 30
0.0
 11
265.108
 21
202.689795
 31
0.0
  0
LINE
  5
22F3
330
1E
100
AcDbEntity
  8
0
100
AcDbLine
 10
264.742
 20
196.397795
 30
0.0
 11
265.108
 21
197.189795
 31
0.0
  0
LINE
  5
22F4
330
1E
100
AcDbEntity
  8
0
100
AcDbLine
 10
264.742
 20
197.540795
 30
0.0
 11
265.108
 21
197.189795
 31
0.0
  0
LINE
  5
22F5
330
1E
100
AcDbEntity
  8
0
100
AcDbLine
 10
263.889
 20
195.639795
 30
0.0
 11
264.742
 21
196.397795
 31
0.0
  0
LINE
  5
22F6
330
1E
100
AcDbEntity
  8
0
100
AcDbLine
 10
263.889
 20
197.273795
 30
0.0
 11
264.742
 21
197.540795
 31
0.0
  0
LINE
  5
22F7
330
1E
100
AcDbEntity
  8
0
100
AcDbLine
 10
263.035
 20
196.516795
 30
0.0
 11
263.889
 21
197.273795
 31
0.0
  0
LINE
  5
22F8
330
1E
100
AcDbEntity
  8
0
100
AcDbLine
 10
262.669
 20
195.724795
 30
0.0
 11
263.035
 21
196.516795
 31
0.0
  0
LINE
  5
22F9
330
1E
100
AcDbEntity
  8
0
100
AcDbLine
 10
259.388
 20
196.186795
 30
0.0
 11
259.816
 21
195.666795
 31
0.0
  0
LINE
  5
22FA
330
1E
100
AcDbEntity
  8
0
100
AcDbLine
 10
263.035
 20
195.372795
 30
0.0
 11
263.889
 21
195.639795
 31
0.0
  0
LINE
  5
22FB
330
1E
100
AcDbEntity
  8
0
100
AcDbLine
 10
262.669
 20
195.724795
 30
0.0
 11
263.035
 21
195.372795
 31
0.0
  0
LINE
  5
22FC
330
1E
100
AcDbEntity
  8
0
100
AcDbLine
 10
259.388
 20
194.926795
 30
0.0
 11
259.816
 21
195.666795
 31
0.0
  0
LINE
  5
22FD
330
1E
100
AcDbEntity
  8
0
100
AcDbLine
 10
257.388
 20
195.674795
 30
0.0
 11
258.388
 21
196.201795
 31
0.0
  0
LINE
  5
22FE
330
1E
100
AcDbEntity
  8
0
100
AcDbLine
 10
256.959
 20
194.934795
 30
0.0
 11
257.388
 21
194.414795
 31
0.0
  0
LINE
  5
22FF
330
1E
100
AcDbEntity
  8
0
100
AcDbLine
 10
256.959
 20
194.934795
 30
0.0
 11
257.388
 21
195.674795
 31
0.0
  0
LINE
  5
2300
330
1E
100
AcDbEntity
  8
0
100
AcDbLine
 10
257.388
 20
194.414795
 30
0.0
 11
258.388
 21
194.399795
 31
0.0
  0
LINE
  5
2301
330
1E
100
AcDbEntity
  8
0
100
AcDbLine
 10
258.388
 20
194.399795
 30
0.0
 11
259.388
 21
194.926795
 31
0.0
  0
LINE
  5
2302
330
1E
100
AcDbEntity
  8
0
100
AcDbLine
 10
258.388
 20
196.201795
 30
0.0
 11
259.388
 21
196.186795
 31
0.0
  0
LINE
  5
2303
330
1E
100
AcDbEntity
  8
0
100
AcDbLine
 10
251.508
 20
196.201795
 30
0.0
 11
252.508
 21
195.674795
 31
0.0
  0
LINE
  5
2304
330
1E
100
AcDbEntity
  8
0
100
AcDbLine
 10
250.08
 20
195.666795
 30
0.0
 11
250.508
 21
196.186795
 31
0.0
  0
LINE
  5
2305
330
1E
100
AcDbEntity
  8
0
100
AcDbLine
 10
250.508
 20
196.186795
 30
0.0
 11
251.508
 21
196.201795
 31
0.0
  0
LINE
  5
2306
330
1E
100
AcDbEntity
  8
0
100
AcDbLine
 10
246.861
 20
196.516795
 30
0.0
 11
247.227
 21
195.724795
 31
0.0
  0
LINE
  5
2307
330
1E
100
AcDbEntity
  8
0
100
AcDbLine
 10
251.508
 20
194.399795
 30
0.0
 11
252.508
 21
194.414795
 31
0.0
  0
LINE
  5
2308
330
1E
100
AcDbEntity
  8
0
100
AcDbLine
 10
250.508
 20
194.926795
 30
0.0
 11
251.508
 21
194.399795
 31
0.0
  0
LINE
  5
2309
330
1E
100
AcDbEntity
  8
0
100
AcDbLine
 10
250.08
 20
195.666795
 30
0.0
 11
250.508
 21
194.926795
 31
0.0
  0
LINE
  5
230A
330
1E
100
AcDbEntity
  8
0
100
AcDbLine
 10
246.861
 20
195.372795
 30
0.0
 11
247.227
 21
195.724795
 31
0.0
  0
LINE
  5
230B
330
1E
100
AcDbEntity
  8
0
100
AcDbLine
 10
245.154
 20
196.397795
 30
0.0
 11
246.007
 21
195.639795
 31
0.0
  0
LINE
  5
230C
330
1E
100
AcDbEntity
  8
0
100
AcDbLine
 10
245.154
 20
197.540795
 30
0.0
 11
246.007
 21
197.273795
 31
0.0
  0
LINE
  5
230D
330
1E
100
AcDbEntity
  8
0
100
AcDbLine
 10
244.788
 20
197.189795
 30
0.0
 11
245.154
 21
197.540795
 31
0.0
  0
LINE
  5
230E
330
1E
100
AcDbEntity
  8
0
100
AcDbLine
 10
244.788
 20
197.189795
 30
0.0
 11
245.154
 21
196.397795
 31
0.0
  0
LINE
  5
230F
330
1E
100
AcDbEntity
  8
0
100
AcDbLine
 10
246.007
 20
197.273795
 30
0.0
 11
246.861
 21
196.516795
 31
0.0
  0
LINE
  5
2310
330
1E
100
AcDbEntity
  8
0
100
AcDbLine
 10
246.007
 20
195.639795
 30
0.0
 11
246.861
 21
195.372795
 31
0.0
  0
LINE
  5
2311
330
1E
100
AcDbEntity
  8
0
100
AcDbLine
 10
252.508
 20
195.674795
 30
0.0
 11
252.937
 21
194.934795
 31
0.0
  0
LINE
  5
2312
330
1E
100
AcDbEntity
  8
0
100
AcDbLine
 10
252.508
 20
194.414795
 30
0.0
 11
252.937
 21
194.934795
 31
0.0
  0
LINE
  5
2313
330
1E
100
AcDbEntity
  8
0
100
AcDbLine
 10
252.508
 20
188.914795
 30
0.0
 11
252.937
 21
189.434795
 31
0.0
  0
LINE
  5
2314
330
1E
100
AcDbEntity
  8
0
100
AcDbLine
 10
252.508
 20
190.174795
 30
0.0
 11
252.937
 21
189.434795
 31
0.0
  0
LINE
  5
2315
330
1E
100
AcDbEntity
  8
0
100
AcDbLine
 10
246.007
 20
190.139795
 30
0.0
 11
246.861
 21
189.872795
 31
0.0
  0
LINE
  5
2316
330
1E
100
AcDbEntity
  8
0
100
AcDbLine
 10
246.007
 20
191.773795
 30
0.0
 11
246.861
 21
191.016795
 31
0.0
  0
LINE
  5
2317
330
1E
100
AcDbEntity
  8
0
100
AcDbLine
 10
244.788
 20
191.689795
 30
0.0
 11
245.154
 21
190.897795
 31
0.0
  0
LINE
  5
2318
330
1E
100
AcDbEntity
  8
0
100
AcDbLine
 10
244.788
 20
191.689795
 30
0.0
 11
245.154
 21
192.040795
 31
0.0
  0
LINE
  5
2319
330
1E
100
AcDbEntity
  8
0
100
AcDbLine
 10
245.154
 20
192.040795
 30
0.0
 11
246.007
 21
191.773795
 31
0.0
  0
LINE
  5
231A
330
1E
100
AcDbEntity
  8
0
100
AcDbLine
 10
245.154
 20
190.897795
 30
0.0
 11
246.007
 21
190.139795
 31
0.0
  0
LINE
  5
231B
330
1E
100
AcDbEntity
  8
0
100
AcDbLine
 10
246.861
 20
189.872795
 30
0.0
 11
247.227
 21
190.224795
 31
0.0
  0
LINE
  5
231C
330
1E
100
AcDbEntity
  8
0
100
AcDbLine
 10
250.08
 20
190.166795
 30
0.0
 11
250.508
 21
189.426795
 31
0.0
  0
LINE
  5
231D
330
1E
100
AcDbEntity
  8
0
100
AcDbLine
 10
250.508
 20
189.426795
 30
0.0
 11
251.508
 21
188.899795
 31
0.0
  0
LINE
  5
231E
330
1E
100
AcDbEntity
  8
0
100
AcDbLine
 10
251.508
 20
188.899795
 30
0.0
 11
252.508
 21
188.914795
 31
0.0
  0
LINE
  5
231F
330
1E
100
AcDbEntity
  8
0
100
AcDbLine
 10
246.861
 20
191.016795
 30
0.0
 11
247.227
 21
190.224795
 31
0.0
  0
LINE
  5
2320
330
1E
100
AcDbEntity
  8
0
100
AcDbLine
 10
250.508
 20
190.686795
 30
0.0
 11
251.508
 21
190.701795
 31
0.0
  0
LINE
  5
2321
330
1E
100
AcDbEntity
  8
0
100
AcDbLine
 10
250.08
 20
190.166795
 30
0.0
 11
250.508
 21
190.686795
 31
0.0
  0
LINE
  5
2322
330
1E
100
AcDbEntity
  8
0
100
AcDbLine
 10
251.508
 20
190.701795
 30
0.0
 11
252.508
 21
190.174795
 31
0.0
  0
LINE
  5
2323
330
1E
100
AcDbEntity
  8
0
100
AcDbLine
 10
258.388
 20
190.701795
 30
0.0
 11
259.388
 21
190.686795
 31
0.0
  0
LINE
  5
2324
330
1E
100
AcDbEntity
  8
0
100
AcDbLine
 10
258.388
 20
188.899795
 30
0.0
 11
259.388
 21
189.426795
 31
0.0
  0
LINE
  5
2325
330
1E
100
AcDbEntity
  8
0
100
AcDbLine
 10
257.388
 20
188.914795
 30
0.0
 11
258.388
 21
188.899795
 31
0.0
  0
LINE
  5
2326
330
1E
100
AcDbEntity
  8
0
100
AcDbLine
 10
256.959
 20
189.434795
 30
0.0
 11
257.388
 21
190.174795
 31
0.0
  0
LINE
  5
2327
330
1E
100
AcDbEntity
  8
0
100
AcDbLine
 10
256.959
 20
189.434795
 30
0.0
 11
257.388
 21
188.914795
 31
0.0
  0
LINE
  5
2328
330
1E
100
AcDbEntity
  8
0
100
AcDbLine
 10
257.388
 20
190.174795
 30
0.0
 11
258.388
 21
190.701795
 31
0.0
  0
LINE
  5
2329
330
1E
100
AcDbEntity
  8
0
100
AcDbLine
 10
259.388
 20
189.426795
 30
0.0
 11
259.816
 21
190.166795
 31
0.0
  0
LINE
  5
232A
330
1E
100
AcDbEntity
  8
0
100
AcDbLine
 10
262.669
 20
190.224795
 30
0.0
 11
263.035
 21
189.872795
 31
0.0
  0
LINE
  5
232B
330
1E
100
AcDbEntity
  8
0
100
AcDbLine
 10
263.035
 20
189.872795
 30
0.0
 11
263.889
 21
190.139795
 31
0.0
  0
LINE
  5
232C
330
1E
100
AcDbEntity
  8
0
100
AcDbLine
 10
259.388
 20
190.686795
 30
0.0
 11
259.816
 21
190.166795
 31
0.0
  0
LINE
  5
232D
330
1E
100
AcDbEntity
  8
0
100
AcDbLine
 10
262.669
 20
190.224795
 30
0.0
 11
263.035
 21
191.016795
 31
0.0
  0
LINE
  5
232E
330
1E
100
AcDbEntity
  8
0
100
AcDbLine
 10
263.035
 20
191.016795
 30
0.0
 11
263.889
 21
191.773795
 31
0.0
  0
LINE
  5
232F
330
1E
100
AcDbEntity
  8
0
100
AcDbLine
 10
263.889
 20
191.773795
 30
0.0
 11
264.742
 21
192.040795
 31
0.0
  0
LINE
  5
2330
330
1E
100
AcDbEntity
  8
0
100
AcDbLine
 10
263.889
 20
190.139795
 30
0.0
 11
264.742
 21
190.897795
 31
0.0
  0
LINE
  5
2331
330
1E
100
AcDbEntity
  8
0
100
AcDbLine
 10
264.742
 20
192.040795
 30
0.0
 11
265.108
 21
191.689795
 31
0.0
  0
LINE
  5
2332
330
1E
100
AcDbEntity
  8
0
100
AcDbLine
 10
264.742
 20
190.897795
 30
0.0
 11
265.108
 21
191.689795
 31
0.0
  0
LINE
  5
2333
330
1E
100
AcDbEntity
  8
0
100
AcDbLine
 10
264.742
 20
179.897795
 30
0.0
 11
265.108
 21
180.689795
 31
0.0
  0
LINE
  5
2334
330
1E
100
AcDbEntity
  8
0
100
AcDbLine
 10
264.742
 20
181.040795
 30
0.0
 11
265.108
 21
180.689795
 31
0.0
  0
LINE
  5
2335
330
1E
100
AcDbEntity
  8
0
100
AcDbLine
 10
263.889
 20
179.139795
 30
0.0
 11
264.742
 21
179.897795
 31
0.0
  0
LINE
  5
2336
330
1E
100
AcDbEntity
  8
0
100
AcDbLine
 10
263.889
 20
180.773795
 30
0.0
 11
264.742
 21
181.040795
 31
0.0
  0
LINE
  5
2337
330
1E
100
AcDbEntity
  8
0
100
AcDbLine
 10
263.035
 20
180.016795
 30
0.0
 11
263.889
 21
180.773795
 31
0.0
  0
LINE
  5
2338
330
1E
100
AcDbEntity
  8
0
100
AcDbLine
 10
262.669
 20
179.224795
 30
0.0
 11
263.035
 21
180.016795
 31
0.0
  0
LINE
  5
2339
330
1E
100
AcDbEntity
  8
0
100
AcDbLine
 10
259.388
 20
179.686795
 30
0.0
 11
259.816
 21
179.166795
 31
0.0
  0
LINE
  5
233A
330
1E
100
AcDbEntity
  8
0
100
AcDbLine
 10
263.035
 20
178.872795
 30
0.0
 11
263.889
 21
179.139795
 31
0.0
  0
LINE
  5
233B
330
1E
100
AcDbEntity
  8
0
100
AcDbLine
 10
262.669
 20
179.224795
 30
0.0
 11
263.035
 21
178.872795
 31
0.0
  0
LINE
  5
233C
330
1E
100
AcDbEntity
  8
0
100
AcDbLine
 10
259.388
 20
178.426795
 30
0.0
 11
259.816
 21
179.166795
 31
0.0
  0
LINE
  5
233D
330
1E
100
AcDbEntity
  8
0
100
AcDbLine
 10
257.388
 20
179.174795
 30
0.0
 11
258.388
 21
179.701795
 31
0.0
  0
LINE
  5
233E
330
1E
100
AcDbEntity
  8
0
100
AcDbLine
 10
256.959
 20
178.434795
 30
0.0
 11
257.388
 21
177.914795
 31
0.0
  0
LINE
  5
233F
330
1E
100
AcDbEntity
  8
0
100
AcDbLine
 10
256.959
 20
178.434795
 30
0.0
 11
257.388
 21
179.174795
 31
0.0
  0
LINE
  5
2340
330
1E
100
AcDbEntity
  8
0
100
AcDbLine
 10
257.388
 20
177.914795
 30
0.0
 11
258.388
 21
177.899795
 31
0.0
  0
LINE
  5
2341
330
1E
100
AcDbEntity
  8
0
100
AcDbLine
 10
258.388
 20
177.899795
 30
0.0
 11
259.388
 21
178.426795
 31
0.0
  0
LINE
  5
2342
330
1E
100
AcDbEntity
  8
0
100
AcDbLine
 10
258.388
 20
179.701795
 30
0.0
 11
259.388
 21
179.686795
 31
0.0
  0
LINE
  5
2343
330
1E
100
AcDbEntity
  8
0
100
AcDbLine
 10
251.508
 20
179.701795
 30
0.0
 11
252.508
 21
179.174795
 31
0.0
  0
LINE
  5
2344
330
1E
100
AcDbEntity
  8
0
100
AcDbLine
 10
250.08
 20
179.166795
 30
0.0
 11
250.508
 21
179.686795
 31
0.0
  0
LINE
  5
2345
330
1E
100
AcDbEntity
  8
0
100
AcDbLine
 10
250.508
 20
179.686795
 30
0.0
 11
251.508
 21
179.701795
 31
0.0
  0
LINE
  5
2346
330
1E
100
AcDbEntity
  8
0
100
AcDbLine
 10
246.861
 20
180.016795
 30
0.0
 11
247.227
 21
179.224795
 31
0.0
  0
LINE
  5
2347
330
1E
100
AcDbEntity
  8
0
100
AcDbLine
 10
251.508
 20
177.899795
 30
0.0
 11
252.508
 21
177.914795
 31
0.0
  0
LINE
  5
2348
330
1E
100
AcDbEntity
  8
0
100
AcDbLine
 10
250.508
 20
178.426795
 30
0.0
 11
251.508
 21
177.899795
 31
0.0
  0
LINE
  5
2349
330
1E
100
AcDbEntity
  8
0
100
AcDbLine
 10
250.08
 20
179.166795
 30
0.0
 11
250.508
 21
178.426795
 31
0.0
  0
LINE
  5
234A
330
1E
100
AcDbEntity
  8
0
100
AcDbLine
 10
246.861
 20
178.872795
 30
0.0
 11
247.227
 21
179.224795
 31
0.0
  0
LINE
  5
234B
330
1E
100
AcDbEntity
  8
0
100
AcDbLine
 10
245.154
 20
179.897795
 30
0.0
 11
246.007
 21
179.139795
 31
0.0
  0
LINE
  5
234C
330
1E
100
AcDbEntity
  8
0
100
AcDbLine
 10
245.154
 20
181.040795
 30
0.0
 11
246.007
 21
180.773795
 31
0.0
  0
LINE
  5
234D
330
1E
100
AcDbEntity
  8
0
100
AcDbLine
 10
244.788
 20
180.689795
 30
0.0
 11
245.154
 21
181.040795
 31
0.0
  0
LINE
  5
234E
330
1E
100
AcDbEntity
  8
0
100
AcDbLine
 10
244.788
 20
180.689795
 30
0.0
 11
245.154
 21
179.897795
 31
0.0
  0
LINE
  5
234F
330
1E
100
AcDbEntity
  8
0
100
AcDbLine
 10
246.007
 20
180.773795
 30
0.0
 11
246.861
 21
180.016795
 31
0.0
  0
LINE
  5
2350
330
1E
100
AcDbEntity
  8
0
100
AcDbLine
 10
246.007
 20
179.139795
 30
0.0
 11
246.861
 21
178.872795
 31
0.0
  0
LINE
  5
2351
330
1E
100
AcDbEntity
  8
0
100
AcDbLine
 10
252.508
 20
179.174795
 30
0.0
 11
252.937
 21
178.434795
 31
0.0
  0
LINE
  5
2352
330
1E
100
AcDbEntity
  8
0
100
AcDbLine
 10
252.508
 20
177.914795
 30
0.0
 11
252.937
 21
178.434795
 31
0.0
  0
LINE
  5
2353
330
1E
100
AcDbEntity
  8
0
100
AcDbLine
 10
252.508
 20
183.414795
 30
0.0
 11
252.937
 21
183.934795
 31
0.0
  0
LINE
  5
2354
330
1E
100
AcDbEntity
  8
0
100
AcDbLine
 10
252.508
 20
184.674795
 30
0.0
 11
252.937
 21
183.934795
 31
0.0
  0
LINE
  5
2355
330
1E
100
AcDbEntity
  8
0
100
AcDbLine
 10
246.007
 20
184.639795
 30
0.0
 11
246.861
 21
184.372795
 31
0.0
  0
LINE
  5
2356
330
1E
100
AcDbEntity
  8
0
100
AcDbLine
 10
246.007
 20
186.273795
 30
0.0
 11
246.861
 21
185.516795
 31
0.0
  0
LINE
  5
2357
330
1E
100
AcDbEntity
  8
0
100
AcDbLine
 10
244.788
 20
186.189795
 30
0.0
 11
245.154
 21
185.397795
 31
0.0
  0
LINE
  5
2358
330
1E
100
AcDbEntity
  8
0
100
AcDbLine
 10
244.788
 20
186.189795
 30
0.0
 11
245.154
 21
186.540795
 31
0.0
  0
LINE
  5
2359
330
1E
100
AcDbEntity
  8
0
100
AcDbLine
 10
245.154
 20
186.540795
 30
0.0
 11
246.007
 21
186.273795
 31
0.0
  0
LINE
  5
235A
330
1E
100
AcDbEntity
  8
0
100
AcDbLine
 10
245.154
 20
185.397795
 30
0.0
 11
246.007
 21
184.639795
 31
0.0
  0
LINE
  5
235B
330
1E
100
AcDbEntity
  8
0
100
AcDbLine
 10
246.861
 20
184.372795
 30
0.0
 11
247.227
 21
184.724795
 31
0.0
  0
LINE
  5
235C
330
1E
100
AcDbEntity
  8
0
100
AcDbLine
 10
250.08
 20
184.666795
 30
0.0
 11
250.508
 21
183.926795
 31
0.0
  0
LINE
  5
235D
330
1E
100
AcDbEntity
  8
0
100
AcDbLine
 10
250.508
 20
183.926795
 30
0.0
 11
251.508
 21
183.399795
 31
0.0
  0
LINE
  5
235E
330
1E
100
AcDbEntity
  8
0
100
AcDbLine
 10
251.508
 20
183.399795
 30
0.0
 11
252.508
 21
183.414795
 31
0.0
  0
LINE
  5
235F
330
1E
100
AcDbEntity
  8
0
100
AcDbLine
 10
246.861
 20
185.516795
 30
0.0
 11
247.227
 21
184.724795
 31
0.0
  0
LINE
  5
2360
330
1E
100
AcDbEntity
  8
0
100
AcDbLine
 10
250.508
 20
185.186795
 30
0.0
 11
251.508
 21
185.201795
 31
0.0
  0
LINE
  5
2361
330
1E
100
AcDbEntity
  8
0
100
AcDbLine
 10
250.08
 20
184.666795
 30
0.0
 11
250.508
 21
185.186795
 31
0.0
  0
LINE
  5
2362
330
1E
100
AcDbEntity
  8
0
100
AcDbLine
 10
251.508
 20
185.201795
 30
0.0
 11
252.508
 21
184.674795
 31
0.0
  0
LINE
  5
2363
330
1E
100
AcDbEntity
  8
0
100
AcDbLine
 10
258.388
 20
185.201795
 30
0.0
 11
259.388
 21
185.186795
 31
0.0
  0
LINE
  5
2364
330
1E
100
AcDbEntity
  8
0
100
AcDbLine
 10
258.388
 20
183.399795
 30
0.0
 11
259.388
 21
183.926795
 31
0.0
  0
LINE
  5
2365
330
1E
100
AcDbEntity
  8
0
100
AcDbLine
 10
257.388
 20
183.414795
 30
0.0
 11
258.388
 21
183.399795
 31
0.0
  0
LINE
  5
2366
330
1E
100
AcDbEntity
  8
0
100
AcDbLine
 10
256.959
 20
183.934795
 30
0.0
 11
257.388
 21
184.674795
 31
0.0
  0
LINE
  5
2367
330
1E
100
AcDbEntity
  8
0
100
AcDbLine
 10
256.959
 20
183.934795
 30
0.0
 11
257.388
 21
183.414795
 31
0.0
  0
LINE
  5
2368
330
1E
100
AcDbEntity
  8
0
100
AcDbLine
 10
257.388
 20
184.674795
 30
0.0
 11
258.388
 21
185.201795
 31
0.0
  0
LINE
  5
2369
330
1E
100
AcDbEntity
  8
0
100
AcDbLine
 10
259.388
 20
183.926795
 30
0.0
 11
259.816
 21
184.666795
 31
0.0
  0
LINE
  5
236A
330
1E
100
AcDbEntity
  8
0
100
AcDbLine
 10
262.669
 20
184.724795
 30
0.0
 11
263.035
 21
184.372795
 31
0.0
  0
LINE
  5
236B
330
1E
100
AcDbEntity
  8
0
100
AcDbLine
 10
263.035
 20
184.372795
 30
0.0
 11
263.889
 21
184.639795
 31
0.0
  0
LINE
  5
236C
330
1E
100
AcDbEntity
  8
0
100
AcDbLine
 10
259.388
 20
185.186795
 30
0.0
 11
259.816
 21
184.666795
 31
0.0
  0
LINE
  5
236D
330
1E
100
AcDbEntity
  8
0
100
AcDbLine
 10
262.669
 20
184.724795
 30
0.0
 11
263.035
 21
185.516795
 31
0.0
  0
LINE
  5
236E
330
1E
100
AcDbEntity
  8
0
100
AcDbLine
 10
263.035
 20
185.516795
 30
0.0
 11
263.889
 21
186.273795
 31
0.0
  0
LINE
  5
236F
330
1E
100
AcDbEntity
  8
0
100
AcDbLine
 10
263.889
 20
186.273795
 30
0.0
 11
264.742
 21
186.540795
 31
0.0
  0
LINE
  5
2370
330
1E
100
AcDbEntity
  8
0
100
AcDbLine
 10
263.889
 20
184.639795
 30
0.0
 11
264.742
 21
185.397795
 31
0.0
  0
LINE
  5
2371
330
1E
100
AcDbEntity
  8
0
100
AcDbLine
 10
264.742
 20
186.540795
 30
0.0
 11
265.108
 21
186.189795
 31
0.0
  0
LINE
  5
2372
330
1E
100
AcDbEntity
  8
0
100
AcDbLine
 10
264.742
 20
185.397795
 30
0.0
 11
265.108
 21
186.189795
 31
0.0
  0
LINE
  5
2373
330
1E
100
AcDbEntity
  8
0
100
AcDbLine
 10
264.742
 20
168.897795
 30
0.0
 11
265.108
 21
169.689795
 31
0.0
  0
LINE
  5
2374
330
1E
100
AcDbEntity
  8
0
100
AcDbLine
 10
264.742
 20
170.040795
 30
0.0
 11
265.108
 21
169.689795
 31
0.0
  0
LINE
  5
2375
330
1E
100
AcDbEntity
  8
0
100
AcDbLine
 10
263.889
 20
168.139795
 30
0.0
 11
264.742
 21
168.897795
 31
0.0
  0
LINE
  5
2376
330
1E
100
AcDbEntity
  8
0
100
AcDbLine
 10
263.889
 20
169.773795
 30
0.0
 11
264.742
 21
170.040795
 31
0.0
  0
LINE
  5
2377
330
1E
100
AcDbEntity
  8
0
100
AcDbLine
 10
263.035
 20
169.016795
 30
0.0
 11
263.889
 21
169.773795
 31
0.0
  0
LINE
  5
2378
330
1E
100
AcDbEntity
  8
0
100
AcDbLine
 10
262.669
 20
168.224795
 30
0.0
 11
263.035
 21
169.016795
 31
0.0
  0
LINE
  5
2379
330
1E
100
AcDbEntity
  8
0
100
AcDbLine
 10
259.388
 20
168.686795
 30
0.0
 11
259.816
 21
168.166795
 31
0.0
  0
LINE
  5
237A
330
1E
100
AcDbEntity
  8
0
100
AcDbLine
 10
263.035
 20
167.872795
 30
0.0
 11
263.889
 21
168.139795
 31
0.0
  0
LINE
  5
237B
330
1E
100
AcDbEntity
  8
0
100
AcDbLine
 10
262.669
 20
168.224795
 30
0.0
 11
263.035
 21
167.872795
 31
0.0
  0
LINE
  5
237C
330
1E
100
AcDbEntity
  8
0
100
AcDbLine
 10
259.388
 20
167.426795
 30
0.0
 11
259.816
 21
168.166795
 31
0.0
  0
LINE
  5
237D
330
1E
100
AcDbEntity
  8
0
100
AcDbLine
 10
257.388
 20
168.174795
 30
0.0
 11
258.388
 21
168.701795
 31
0.0
  0
LINE
  5
237E
330
1E
100
AcDbEntity
  8
0
100
AcDbLine
 10
256.959
 20
167.434795
 30
0.0
 11
257.388
 21
166.914795
 31
0.0
  0
LINE
  5
237F
330
1E
100
AcDbEntity
  8
0
100
AcDbLine
 10
256.959
 20
167.434795
 30
0.0
 11
257.388
 21
168.174795
 31
0.0
  0
LINE
  5
2380
330
1E
100
AcDbEntity
  8
0
100
AcDbLine
 10
257.388
 20
166.914795
 30
0.0
 11
258.388
 21
166.899795
 31
0.0
  0
LINE
  5
2381
330
1E
100
AcDbEntity
  8
0
100
AcDbLine
 10
258.388
 20
166.899795
 30
0.0
 11
259.388
 21
167.426795
 31
0.0
  0
LINE
  5
2382
330
1E
100
AcDbEntity
  8
0
100
AcDbLine
 10
258.388
 20
168.701795
 30
0.0
 11
259.388
 21
168.686795
 31
0.0
  0
LINE
  5
2383
330
1E
100
AcDbEntity
  8
0
100
AcDbLine
 10
251.508
 20
168.701795
 30
0.0
 11
252.508
 21
168.174795
 31
0.0
  0
LINE
  5
2384
330
1E
100
AcDbEntity
  8
0
100
AcDbLine
 10
250.08
 20
168.166795
 30
0.0
 11
250.508
 21
168.686795
 31
0.0
  0
LINE
  5
2385
330
1E
100
AcDbEntity
  8
0
100
AcDbLine
 10
250.508
 20
168.686795
 30
0.0
 11
251.508
 21
168.701795
 31
0.0
  0
LINE
  5
2386
330
1E
100
AcDbEntity
  8
0
100
AcDbLine
 10
246.861
 20
169.016795
 30
0.0
 11
247.227
 21
168.224795
 31
0.0
  0
LINE
  5
2387
330
1E
100
AcDbEntity
  8
0
100
AcDbLine
 10
251.508
 20
166.899795
 30
0.0
 11
252.508
 21
166.914795
 31
0.0
  0
LINE
  5
2388
330
1E
100
AcDbEntity
  8
0
100
AcDbLine
 10
250.508
 20
167.426795
 30
0.0
 11
251.508
 21
166.899795
 31
0.0
  0
LINE
  5
2389
330
1E
100
AcDbEntity
  8
0
100
AcDbLine
 10
250.08
 20
168.166795
 30
0.0
 11
250.508
 21
167.426795
 31
0.0
  0
LINE
  5
238A
330
1E
100
AcDbEntity
  8
0
100
AcDbLine
 10
246.861
 20
167.872795
 30
0.0
 11
247.227
 21
168.224795
 31
0.0
  0
LINE
  5
238B
330
1E
100
AcDbEntity
  8
0
100
AcDbLine
 10
245.154
 20
168.897795
 30
0.0
 11
246.007
 21
168.139795
 31
0.0
  0
LINE
  5
238C
330
1E
100
AcDbEntity
  8
0
100
AcDbLine
 10
245.154
 20
170.040795
 30
0.0
 11
246.007
 21
169.773795
 31
0.0
  0
LINE
  5
238D
330
1E
100
AcDbEntity
  8
0
100
AcDbLine
 10
244.788
 20
169.689795
 30
0.0
 11
245.154
 21
170.040795
 31
0.0
  0
LINE
  5
238E
330
1E
100
AcDbEntity
  8
0
100
AcDbLine
 10
244.788
 20
169.689795
 30
0.0
 11
245.154
 21
168.897795
 31
0.0
  0
LINE
  5
238F
330
1E
100
AcDbEntity
  8
0
100
AcDbLine
 10
246.007
 20
169.773795
 30
0.0
 11
246.861
 21
169.016795
 31
0.0
  0
LINE
  5
2390
330
1E
100
AcDbEntity
  8
0
100
AcDbLine
 10
246.007
 20
168.139795
 30
0.0
 11
246.861
 21
167.872795
 31
0.0
  0
LINE
  5
2391
330
1E
100
AcDbEntity
  8
0
100
AcDbLine
 10
252.508
 20
168.174795
 30
0.0
 11
252.937
 21
167.434795
 31
0.0
  0
LINE
  5
2392
330
1E
100
AcDbEntity
  8
0
100
AcDbLine
 10
252.508
 20
166.914795
 30
0.0
 11
252.937
 21
167.434795
 31
0.0
  0
LINE
  5
2393
330
1E
100
AcDbEntity
  8
0
100
AcDbLine
 10
252.508
 20
161.414795
 30
0.0
 11
252.937
 21
161.934795
 31
0.0
  0
LINE
  5
2394
330
1E
100
AcDbEntity
  8
0
100
AcDbLine
 10
252.508
 20
162.674795
 30
0.0
 11
252.937
 21
161.934795
 31
0.0
  0
LINE
  5
2395
330
1E
100
AcDbEntity
  8
0
100
AcDbLine
 10
246.007
 20
162.639795
 30
0.0
 11
246.861
 21
162.372795
 31
0.0
  0
LINE
  5
2396
330
1E
100
AcDbEntity
  8
0
100
AcDbLine
 10
246.007
 20
164.273795
 30
0.0
 11
246.861
 21
163.516795
 31
0.0
  0
LINE
  5
2397
330
1E
100
AcDbEntity
  8
0
100
AcDbLine
 10
244.788
 20
164.189795
 30
0.0
 11
245.154
 21
163.397795
 31
0.0
  0
LINE
  5
2398
330
1E
100
AcDbEntity
  8
0
100
AcDbLine
 10
244.788
 20
164.189795
 30
0.0
 11
245.154
 21
164.540795
 31
0.0
  0
LINE
  5
2399
330
1E
100
AcDbEntity
  8
0
100
AcDbLine
 10
245.154
 20
164.540795
 30
0.0
 11
246.007
 21
164.273795
 31
0.0
  0
LINE
  5
239A
330
1E
100
AcDbEntity
  8
0
100
AcDbLine
 10
245.154
 20
163.397795
 30
0.0
 11
246.007
 21
162.639795
 31
0.0
  0
LINE
  5
239B
330
1E
100
AcDbEntity
  8
0
100
AcDbLine
 10
246.861
 20
162.372795
 30
0.0
 11
247.227
 21
162.724795
 31
0.0
  0
LINE
  5
239C
330
1E
100
AcDbEntity
  8
0
100
AcDbLine
 10
250.08
 20
162.666795
 30
0.0
 11
250.508
 21
161.926795
 31
0.0
  0
LINE
  5
239D
330
1E
100
AcDbEntity
  8
0
100
AcDbLine
 10
250.508
 20
161.926795
 30
0.0
 11
251.508
 21
161.399795
 31
0.0
  0
LINE
  5
239E
330
1E
100
AcDbEntity
  8
0
100
AcDbLine
 10
251.508
 20
161.399795
 30
0.0
 11
252.508
 21
161.414795
 31
0.0
  0
LINE
  5
239F
330
1E
100
AcDbEntity
  8
0
100
AcDbLine
 10
246.861
 20
163.516795
 30
0.0
 11
247.227
 21
162.724795
 31
0.0
  0
LINE
  5
23A0
330
1E
100
AcDbEntity
  8
0
100
AcDbLine
 10
250.508
 20
163.186795
 30
0.0
 11
251.508
 21
163.201795
 31
0.0
  0
LINE
  5
23A1
330
1E
100
AcDbEntity
  8
0
100
AcDbLine
 10
250.08
 20
162.666795
 30
0.0
 11
250.508
 21
163.186795
 31
0.0
  0
LINE
  5
23A2
330
1E
100
AcDbEntity
  8
0
100
AcDbLine
 10
251.508
 20
163.201795
 30
0.0
 11
252.508
 21
162.674795
 31
0.0
  0
LINE
  5
23A3
330
1E
100
AcDbEntity
  8
0
100
AcDbLine
 10
258.388
 20
163.201795
 30
0.0
 11
259.388
 21
163.186795
 31
0.0
  0
LINE
  5
23A4
330
1E
100
AcDbEntity
  8
0
100
AcDbLine
 10
258.388
 20
161.399795
 30
0.0
 11
259.388
 21
161.926795
 31
0.0
  0
LINE
  5
23A5
330
1E
100
AcDbEntity
  8
0
100
AcDbLine
 10
257.388
 20
161.414795
 30
0.0
 11
258.388
 21
161.399795
 31
0.0
  0
LINE
  5
23A6
330
1E
100
AcDbEntity
  8
0
100
AcDbLine
 10
256.959
 20
161.934795
 30
0.0
 11
257.388
 21
162.674795
 31
0.0
  0
LINE
  5
23A7
330
1E
100
AcDbEntity
  8
0
100
AcDbLine
 10
256.959
 20
161.934795
 30
0.0
 11
257.388
 21
161.414795
 31
0.0
  0
LINE
  5
23A8
330
1E
100
AcDbEntity
  8
0
100
AcDbLine
 10
257.388
 20
162.674795
 30
0.0
 11
258.388
 21
163.201795
 31
0.0
  0
LINE
  5
23A9
330
1E
100
AcDbEntity
  8
0
100
AcDbLine
 10
259.388
 20
161.926795
 30
0.0
 11
259.816
 21
162.666795
 31
0.0
  0
LINE
  5
23AA
330
1E
100
AcDbEntity
  8
0
100
AcDbLine
 10
262.669
 20
162.724795
 30
0.0
 11
263.035
 21
162.372795
 31
0.0
  0
LINE
  5
23AB
330
1E
100
AcDbEntity
  8
0
100
AcDbLine
 10
263.035
 20
162.372795
 30
0.0
 11
263.889
 21
162.639795
 31
0.0
  0
LINE
  5
23AC
330
1E
100
AcDbEntity
  8
0
100
AcDbLine
 10
259.388
 20
163.186795
 30
0.0
 11
259.816
 21
162.666795
 31
0.0
  0
LINE
  5
23AD
330
1E
100
AcDbEntity
  8
0
100
AcDbLine
 10
262.669
 20
162.724795
 30
0.0
 11
263.035
 21
163.516795
 31
0.0
  0
LINE
  5
23AE
330
1E
100
AcDbEntity
  8
0
100
AcDbLine
 10
263.035
 20
163.516795
 30
0.0
 11
263.889
 21
164.273795
 31
0.0
  0
LINE
  5
23AF
330
1E
100
AcDbEntity
  8
0
100
AcDbLine
 10
263.889
 20
164.273795
 30
0.0
 11
264.742
 21
164.540795
 31
0.0
  0
LINE
  5
23B0
330
1E
100
AcDbEntity
  8
0
100
AcDbLine
 10
263.889
 20
162.639795
 30
0.0
 11
264.742
 21
163.397795
 31
0.0
  0
LINE
  5
23B1
330
1E
100
AcDbEntity
  8
0
100
AcDbLine
 10
264.742
 20
164.540795
 30
0.0
 11
265.108
 21
164.189795
 31
0.0
  0
LINE
  5
23B2
330
1E
100
AcDbEntity
  8
0
100
AcDbLine
 10
264.742
 20
163.397795
 30
0.0
 11
265.108
 21
164.189795
 31
0.0
  0
LINE
  5
23B3
330
1E
100
AcDbEntity
  8
0
100
AcDbLine
 10
264.742
 20
174.397795
 30
0.0
 11
265.108
 21
175.189795
 31
0.0
  0
LINE
  5
23B4
330
1E
100
AcDbEntity
  8
0
100
AcDbLine
 10
264.742
 20
175.540795
 30
0.0
 11
265.108
 21
175.189795
 31
0.0
  0
LINE
  5
23B5
330
1E
100
AcDbEntity
  8
0
100
AcDbLine
 10
263.889
 20
173.639795
 30
0.0
 11
264.742
 21
174.397795
 31
0.0
  0
LINE
  5
23B6
330
1E
100
AcDbEntity
  8
0
100
AcDbLine
 10
263.889
 20
175.273795
 30
0.0
 11
264.742
 21
175.540795
 31
0.0
  0
LINE
  5
23B7
330
1E
100
AcDbEntity
  8
0
100
AcDbLine
 10
263.035
 20
174.516795
 30
0.0
 11
263.889
 21
175.273795
 31
0.0
  0
LINE
  5
23B8
330
1E
100
AcDbEntity
  8
0
100
AcDbLine
 10
262.669
 20
173.724795
 30
0.0
 11
263.035
 21
174.516795
 31
0.0
  0
LINE
  5
23B9
330
1E
100
AcDbEntity
  8
0
100
AcDbLine
 10
259.388
 20
174.186795
 30
0.0
 11
259.816
 21
173.666795
 31
0.0
  0
LINE
  5
23BA
330
1E
100
AcDbEntity
  8
0
100
AcDbLine
 10
263.035
 20
173.372795
 30
0.0
 11
263.889
 21
173.639795
 31
0.0
  0
LINE
  5
23BB
330
1E
100
AcDbEntity
  8
0
100
AcDbLine
 10
262.669
 20
173.724795
 30
0.0
 11
263.035
 21
173.372795
 31
0.0
  0
LINE
  5
23BC
330
1E
100
AcDbEntity
  8
0
100
AcDbLine
 10
259.388
 20
172.926795
 30
0.0
 11
259.816
 21
173.666795
 31
0.0
  0
LINE
  5
23BD
330
1E
100
AcDbEntity
  8
0
100
AcDbLine
 10
257.388
 20
173.674795
 30
0.0
 11
258.388
 21
174.201795
 31
0.0
  0
LINE
  5
23BE
330
1E
100
AcDbEntity
  8
0
100
AcDbLine
 10
256.959
 20
172.934795
 30
0.0
 11
257.388
 21
172.414795
 31
0.0
  0
LINE
  5
23BF
330
1E
100
AcDbEntity
  8
0
100
AcDbLine
 10
256.959
 20
172.934795
 30
0.0
 11
257.388
 21
173.674795
 31
0.0
  0
LINE
  5
23C0
330
1E
100
AcDbEntity
  8
0
100
AcDbLine
 10
257.388
 20
172.414795
 30
0.0
 11
258.388
 21
172.399795
 31
0.0
  0
LINE
  5
23C1
330
1E
100
AcDbEntity
  8
0
100
AcDbLine
 10
258.388
 20
172.399795
 30
0.0
 11
259.388
 21
172.926795
 31
0.0
  0
LINE
  5
23C2
330
1E
100
AcDbEntity
  8
0
100
AcDbLine
 10
258.388
 20
174.201795
 30
0.0
 11
259.388
 21
174.186795
 31
0.0
  0
LINE
  5
23C3
330
1E
100
AcDbEntity
  8
0
100
AcDbLine
 10
251.508
 20
174.201795
 30
0.0
 11
252.508
 21
173.674795
 31
0.0
  0
LINE
  5
23C4
330
1E
100
AcDbEntity
  8
0
100
AcDbLine
 10
250.08
 20
173.666795
 30
0.0
 11
250.508
 21
174.186795
 31
0.0
  0
LINE
  5
23C5
330
1E
100
AcDbEntity
  8
0
100
AcDbLine
 10
250.508
 20
174.186795
 30
0.0
 11
251.508
 21
174.201795
 31
0.0
  0
LINE
  5
23C6
330
1E
100
AcDbEntity
  8
0
100
AcDbLine
 10
246.861
 20
174.516795
 30
0.0
 11
247.227
 21
173.724795
 31
0.0
  0
LINE
  5
23C7
330
1E
100
AcDbEntity
  8
0
100
AcDbLine
 10
251.508
 20
172.399795
 30
0.0
 11
252.508
 21
172.414795
 31
0.0
  0
LINE
  5
23C8
330
1E
100
AcDbEntity
  8
0
100
AcDbLine
 10
250.508
 20
172.926795
 30
0.0
 11
251.508
 21
172.399795
 31
0.0
  0
LINE
  5
23C9
330
1E
100
AcDbEntity
  8
0
100
AcDbLine
 10
250.08
 20
173.666795
 30
0.0
 11
250.508
 21
172.926795
 31
0.0
  0
LINE
  5
23CA
330
1E
100
AcDbEntity
  8
0
100
AcDbLine
 10
246.861
 20
173.372795
 30
0.0
 11
247.227
 21
173.724795
 31
0.0
  0
LINE
  5
23CB
330
1E
100
AcDbEntity
  8
0
100
AcDbLine
 10
245.154
 20
174.397795
 30
0.0
 11
246.007
 21
173.639795
 31
0.0
  0
LINE
  5
23CC
330
1E
100
AcDbEntity
  8
0
100
AcDbLine
 10
245.154
 20
175.540795
 30
0.0
 11
246.007
 21
175.273795
 31
0.0
  0
LINE
  5
23CD
330
1E
100
AcDbEntity
  8
0
100
AcDbLine
 10
244.788
 20
175.189795
 30
0.0
 11
245.154
 21
175.540795
 31
0.0
  0
LINE
  5
23CE
330
1E
100
AcDbEntity
  8
0
100
AcDbLine
 10
244.788
 20
175.189795
 30
0.0
 11
245.154
 21
174.397795
 31
0.0
  0
LINE
  5
23CF
330
1E
100
AcDbEntity
  8
0
100
AcDbLine
 10
246.007
 20
175.273795
 30
0.0
 11
246.861
 21
174.516795
 31
0.0
  0
LINE
  5
23D0
330
1E
100
AcDbEntity
  8
0
100
AcDbLine
 10
246.007
 20
173.639795
 30
0.0
 11
246.861
 21
173.372795
 31
0.0
  0
LINE
  5
23D1
330
1E
100
AcDbEntity
  8
0
100
AcDbLine
 10
252.508
 20
173.674795
 30
0.0
 11
252.937
 21
172.934795
 31
0.0
  0
LINE
  5
23D2
330
1E
100
AcDbEntity
  8
0
100
AcDbLine
 10
252.508
 20
172.414795
 30
0.0
 11
252.937
 21
172.934795
 31
0.0
  0
LINE
  5
23D3
330
1E
100
AcDbEntity
  8
0
100
AcDbLine
 10
267.939482415474
 20
159.503492604179
 30
0.0
 11
267.722
 21
157.606795
 31
0.0
  0
LINE
  5
23D4
330
1E
100
AcDbEntity
  8
0
100
AcDbLine
 10
242.174
 20
157.606795
 30
0.0
 11
241.956517584527
 21
159.503492604178
 31
0.0
  0
LINE
  5
23D5
330
1E
100
AcDbEntity
  8
0
100
AcDbLine
 10
242.948
 20
66.799834371981
 30
0.0
 11
243.007483695548
 21
65.964910741714
 31
0.0
  0
LINE
  5
23D6
330
1E
100
AcDbEntity
  8
0
100
AcDbLine
 10
235.029398881011
 20
9.276244332968
 30
0.0
 11
235.862600041562
 21
9.662191619339
 31
0.0
  0
LINE
  5
23D7
330
1E
100
AcDbEntity
  8
0
100
AcDbLine
 10
235.862600041562
 20
9.662191619339
 30
0.0
 11
236.401183491223
 21
10.055170212643
 31
0.0
  0
LINE
  5
23D8
330
1E
100
AcDbEntity
  8
0
100
AcDbLine
 10
275.091
 20
9.130715
 30
0.0
 11
275.789
 21
9.003795
 31
0.0
  0
LINE
  5
23D9
330
1E
100
AcDbEntity
  8
0
100
AcDbLine
 10
277.941
 20
9.003795
 30
0.0
 11
283.039
 21
9.003795
 31
0.0
  0
LINE
  5
23DA
330
1E
100
AcDbEntity
  8
0
100
AcDbLine
 10
272.969
 20
10.094095
 30
0.0
 11
271.655175682719
 21
11.521370511561
 31
0.0
  0
LINE
  5
23DB
330
1E
100
AcDbEntity
  8
0
100
AcDbLine
 10
271.301186137139
 20
12.262446934747
 30
0.0
 11
270.939351854483
 21
13.714526238196
 31
0.0
  0
LINE
  5
23DC
330
1E
100
AcDbEntity
  8
0
100
AcDbLine
 10
234.395
 20
9.003795
 30
0.0
 11
275.789
 21
9.003795
 31
0.0
  0
LINE
  5
23DD
330
1E
100
AcDbEntity
  8
0
100
AcDbLine
 10
220.0
 20
0.0
 30
0.0
 11
289.857124867744
 21
0.0
 31
0.0
  0
ENDSEC
  0
SECTION
  2
OBJECTS
  0
DICTIONARY
  5
C
330
0
100
AcDbDictionary
281
     1
  3
ACAD_GROUP
350
D
  3
ACAD_LAYOUT
350
19
  3
ACAD_MLEADERSTYLE
350
23E0
  3
ACAD_MLINESTYLE
350
16
  3
ACAD_PLOTSETTINGS
350
18
  3
ACAD_PLOTSTYLENAME
350
E
  3
ACAD_SCALELIST
350
E3C
  3
AcDbVariableDictionary
350
E39
  3
DWGPROPS
350
23E6
  0
DICTIONARY
  5
D
102
{ACAD_REACTORS
330
C
102
}
330
C
100
AcDbDictionary
281
     1
  0
DICTIONARY
  5
19
102
{ACAD_REACTORS
330
C
102
}
330
C
100
AcDbDictionary
281
     1
  3
Layout1
350
1D
  3
Model
350
21
  0
DICTIONARY
  5
23E0
102
{ACAD_REACTORS
330
C
102
}
330
C
100
AcDbDictionary
281
     1
  0
DICTIONARY
  5
16
102
{ACAD_REACTORS
330
C
102
}
330
C
100
AcDbDictionary
281
     1
  3
Standard
350
17
  0
DICTIONARY
  5
18
102
{ACAD_REACTORS
330
C
102
}
330
C
100
AcDbDictionary
281
     1
  0
ACDBDICTIONARYWDFLT
  5
E
102
{ACAD_REACTORS
330
C
102
}
330
C
100
AcDbDictionary
281
     1
  3
Normal
350
F
100
AcDbDictionaryWithDefault
340
F
  0
DICTIONARY
  5
E3C
102
{ACAD_REACTORS
330
C
102
}
330
C
100
AcDbDictionary
281
     1
  3
A0
350
E3D
  3
A1
350
E3E
  3
A2
350
E3F
  3
A3
350
E40
  3
A4
350
E41
  3
A5
350
E42
  3
A6
350
E43
  3
A7
350
E44
  3
A8
350
E45
  3
A9
350
E46
  3
B0
350
E47
  3
B1
350
E48
  3
B2
350
E49
  3
B3
350
E4A
  3
B4
350
E4B
  3
B5
350
E4C
  3
B6
350
E4D
  3
B7
350
E4E
  3
B8
350
E4F
  3
B9
350
E50
  3
C0
350
E51
  3
C1
350
E52
  3
C2
350
E53
  3
C3
350
E54
  3
C4
350
E55
  3
C5
350
E56
  3
C6
350
E57
  3
C7
350
E58
  3
C8
350
E59
  3
C9
350
E5A
  3
D0
350
E5B
  3
D1
350
E5C
  3
D2
350
E5D
  0
DICTIONARY
  5
E39
102
{ACAD_REACTORS
330
C
102
}
330
C
100
AcDbDictionary
281
     1
  3
CANNOSCALE
350
23E1
  3
DIMASSOC
350
E3A
  0
XRECORD
  5
23E6
102
{ACAD_REACTORS
330
C
102
}
330
C
100
AcDbXrecord
280
     1
  1
DWGPROPS COOKIE
  2

  3

  4

  6

  7

  8
MARTIN
  9

300
=
301
=
302
=
303
=
304
=
305
=
306
=
307
=
308
=
309
=
 40
0.0
 41
2455654.860849062
 42
2456213.81471625
  1

 90
        0
  0
LAYOUT
  5
1D
102
{ACAD_REACTORS
330
19
102
}
330
19
100
AcDbPlotSettings
  1

  2
C:\Programme\AutoCAD LT 2002 Deu\plotters\DWF ePlot (optimized for plotting).pc3
  4

  6

 40
0.0
 41
0.0
 42
0.0
 43
0.0
 44
0.0
 45
0.0
 46
0.0
 47
0.0
 48
0.0
 49
0.0
140
0.0
141
0.0
142
1.0
143
1.0
 70
   688
 72
     0
 73
     0
 74
     5
  7

 75
    16
147
1.0
148
0.0
149
0.0
100
AcDbLayout
  1
Layout1
 70
     1
 71
     1
 10
0.0
 20
0.0
 11
12.0
 21
9.0
 12
0.0
 22
0.0
 32
0.0
 14
1.000000000000E+20
 24
1.000000000000E+20
 34
1.000000000000E+20
 15
-1.000000000000E+20
 25
-1.000000000000E+20
 35
-1.000000000000E+20
146
0.0
 13
0.0
 23
0.0
 33
0.0
 16
1.0
 26
0.0
 36
0.0
 17
0.0
 27
1.0
 37
0.0
 76
     0
330
1A
  0
LAYOUT
  5
21
102
{ACAD_REACTORS
330
19
102
}
330
19
100
AcDbPlotSettings
  1

  2
C:\Programme\AutoCAD LT 2002 Deu\plotters\DWF ePlot (optimized for plotting).pc3
  4

  6

 40
0.0
 41
0.0
 42
0.0
 43
0.0
 44
0.0
 45
0.0
 46
0.0
 47
0.0
 48
0.0
 49
0.0
140
0.0
141
0.0
142
1.0
143
1.0
 70
  1712
 72
     0
 73
     0
 74
     0
  7

 75
     0
147
1.0
148
0.0
149
0.0
100
AcDbLayout
  1
Model
 70
     1
 71
     0
 10
0.0
 20
0.0
 11
12.0
 21
9.0
 12
0.0
 22
0.0
 32
0.0
 14
0.0
 24
-0.074919
 34
0.0
 15
289.861
 25
237.009795
 35
0.0
146
0.0
 13
0.0
 23
0.0
 33
0.0
 16
1.0
 26
0.0
 36
0.0
 17
0.0
 27
1.0
 37
0.0
 76
     0
330
1E
331
E3B
  0
MLINESTYLE
  5
17
102
{ACAD_REACTORS
330
16
102
}
330
16
100
AcDbMlineStyle
  2
STANDARD
 70
     0
  3

 62
   256
 51
90.0
 52
90.0
 71
     2
 49
0.5
 62
   256
  6
BYLAYER
 49
-0.5
 62
   256
  6
BYLAYER
  0
ACDBPLACEHOLDER
  5
F
102
{ACAD_REACTORS
330
E
102
}
330
E
  0
SCALE
  5
E3D
102
{ACAD_REACTORS
330
E3C
102
}
330
E3C
100
AcDbScale
 70
     0
300
1:1
140
1.0
141
1.0
290
     1
  0
SCALE
  5
E3E
102
{ACAD_REACTORS
330
E3C
102
}
330
E3C
100
AcDbScale
 70
     0
300
1:2
140
1.0
141
2.0
290
     0
  0
SCALE
  5
E3F
102
{ACAD_REACTORS
330
E3C
102
}
330
E3C
100
AcDbScale
 70
     0
300
1:4
140
1.0
141
4.0
290
     0
  0
SCALE
  5
E40
102
{ACAD_REACTORS
330
E3C
102
}
330
E3C
100
AcDbScale
 70
     0
300
1:5
140
1.0
141
5.0
290
     0
  0
SCALE
  5
E41
102
{ACAD_REACTORS
330
E3C
102
}
330
E3C
100
AcDbScale
 70
     0
300
1:8
140
1.0
141
8.0
290
     0
  0
SCALE
  5
E42
102
{ACAD_REACTORS
330
E3C
102
}
330
E3C
100
AcDbScale
 70
     0
300
1:10
140
1.0
141
10.0
290
     0
  0
SCALE
  5
E43
102
{ACAD_REACTORS
330
E3C
102
}
330
E3C
100
AcDbScale
 70
     0
300
1:16
140
1.0
141
16.0
290
     0
  0
SCALE
  5
E44
102
{ACAD_REACTORS
330
E3C
102
}
330
E3C
100
AcDbScale
 70
     0
300
1:20
140
1.0
141
20.0
290
     0
  0
SCALE
  5
E45
102
{ACAD_REACTORS
330
E3C
102
}
330
E3C
100
AcDbScale
 70
     0
300
1:30
140
1.0
141
30.0
290
     0
  0
SCALE
  5
E46
102
{ACAD_REACTORS
330
E3C
102
}
330
E3C
100
AcDbScale
 70
     0
300
1:40
140
1.0
141
40.0
290
     0
  0
SCALE
  5
E47
102
{ACAD_REACTORS
330
E3C
102
}
330
E3C
100
AcDbScale
 70
     0
300
1:50
140
1.0
141
50.0
290
     0
  0
SCALE
  5
E48
102
{ACAD_REACTORS
330
E3C
102
}
330
E3C
100
AcDbScale
 70
     0
300
1:100
140
1.0
141
100.0
290
     0
  0
SCALE
  5
E49
102
{ACAD_REACTORS
330
E3C
102
}
330
E3C
100
AcDbScale
 70
     0
300
2:1
140
2.0
141
1.0
290
     0
  0
SCALE
  5
E4A
102
{ACAD_REACTORS
330
E3C
102
}
330
E3C
100
AcDbScale
 70
     0
300
4:1
140
4.0
141
1.0
290
     0
  0
SCALE
  5
E4B
102
{ACAD_REACTORS
330
E3C
102
}
330
E3C
100
AcDbScale
 70
     0
300
8:1
140
8.0
141
1.0
290
     0
  0
SCALE
  5
E4C
102
{ACAD_REACTORS
330
E3C
102
}
330
E3C
100
AcDbScale
 70
     0
300
10:1
140
10.0
141
1.0
290
     0
  0
SCALE
  5
E4D
102
{ACAD_REACTORS
330
E3C
102
}
330
E3C
100
AcDbScale
 70
     0
300
100:1
140
100.0
141
1.0
290
     0
  0
SCALE
  5
E4E
102
{ACAD_REACTORS
330
E3C
102
}
330
E3C
100
AcDbScale
 70
     0
300
1/128" = 1'-0"
140
0.0078125
141
12.0
290
     0
  0
SCALE
  5
E4F
102
{ACAD_REACTORS
330
E3C
102
}
330
E3C
100
AcDbScale
 70
     0
300
1/64" = 1'-0"
140
0.015625
141
12.0
290
     0
  0
SCALE
  5
E50
102
{ACAD_REACTORS
330
E3C
102
}
330
E3C
100
AcDbScale
 70
     0
300
1/32" = 1'-0"
140
0.03125
141
12.0
290
     0
  0
SCALE
  5
E51
102
{ACAD_REACTORS
330
E3C
102
}
330
E3C
100
AcDbScale
 70
     0
300
1/16" = 1'-0"
140
0.0625
141
12.0
290
     0
  0
SCALE
  5
E52
102
{ACAD_REACTORS
330
E3C
102
}
330
E3C
100
AcDbScale
 70
     0
300
3/32" = 1'-0"
140
0.09375
141
12.0
290
     0
  0
SCALE
  5
E53
102
{ACAD_REACTORS
330
E3C
102
}
330
E3C
100
AcDbScale
 70
     0
300
1/8" = 1'-0"
140
0.125
141
12.0
290
     0
  0
SCALE
  5
E54
102
{ACAD_REACTORS
330
E3C
102
}
330
E3C
100
AcDbScale
 70
     0
300
3/16" = 1'-0"
140
0.1875
141
12.0
290
     0
  0
SCALE
  5
E55
102
{ACAD_REACTORS
330
E3C
102
}
330
E3C
100
AcDbScale
 70
     0
300
1/4" = 1'-0"
140
0.25
141
12.0
290
     0
  0
SCALE
  5
E56
102
{ACAD_REACTORS
330
E3C
102
}
330
E3C
100
AcDbScale
 70
     0
300
3/8" = 1'-0"
140
0.375
141
12.0
290
     0
  0
SCALE
  5
E57
102
{ACAD_REACTORS
330
E3C
102
}
330
E3C
100
AcDbScale
 70
     0
300
1/2" = 1'-0"
140
0.5
141
12.0
290
     0
  0
SCALE
  5
E58
102
{ACAD_REACTORS
330
E3C
102
}
330
E3C
100
AcDbScale
 70
     0
300
3/4" = 1'-0"
140
0.75
141
12.0
290
     0
  0
SCALE
  5
E59
102
{ACAD_REACTORS
330
E3C
102
}
330
E3C
100
AcDbScale
 70
     0
300
1" = 1'-0"
140
1.0
141
12.0
290
     0
  0
SCALE
  5
E5A
102
{ACAD_REACTORS
330
E3C
102
}
330
E3C
100
AcDbScale
 70
     0
300
1-1/2" = 1'-0"
140
1.5
141
12.0
290
     0
  0
SCALE
  5
E5B
102
{ACAD_REACTORS
330
E3C
102
}
330
E3C
100
AcDbScale
 70
     0
300
3" = 1'-0"
140
3.0
141
12.0
290
     0
  0
SCALE
  5
E5C
102
{ACAD_REACTORS
330
E3C
102
}
330
E3C
100
AcDbScale
 70
     0
300
6" = 1'-0"
140
6.0
141
12.0
290
     0
  0
SCALE
  5
E5D
102
{ACAD_REACTORS
330
E3C
102
}
330
E3C
100
AcDbScale
 70
     0
300
1'-0" = 1'-0"
140
12.0
141
12.0
290
     0
  0
DICTIONARYVAR
  5
23E1
102
{ACAD_REACTORS
330
E39
102
}
330
E39
100
DictionaryVariables
280
     0
  1
1:1
  0
DICTIONARYVAR
  5
E3A
102
{ACAD_REACTORS
330
E39
102
}
330
E39
100
DictionaryVariables
280
     0
  1
1
  0
ENDSEC
  0
SECTION
  2
THUMBNAILIMAGE
 90
    16364
310
28000000B40000005500000001000800000000000000000000000000000000000000000000000000FFFFFF000000FF0000FFFF0000FF0000FFFF0000FF000000FF00FF000000000080808000C0C0C0000000FF007F7FFF000000A5005252A50000007F003F3F7F0000004C0026264C000000260013132600003FFF007F9FFF
310
000029A5005267A500001F7F003F4F7F0000134C00262F4C000009260013172600007FFF007FBFFF000052A500527CA500003F7F003F5F7F0000264C0026394C0000132600131C260000BFFF007FDFFF00007CA5005291A500005F7F003F6F7F0000394C0026424C00001C26001321260000FFFF007FFFFF0000A5A50052A5
310
A500007F7F003F7F7F00004C4C00264C4C00002626001326260000FFBF007FFFDF0000A57C0052A59100007F5F003F7F6F00004C3900264C420000261C001326210000FF7F007FFFBF0000A5520052A57C00007F3F003F7F5F00004C2600264C39000026130013261C0000FF3F007FFF9F0000A5290052A56700007F1F003F
310
7F4F00004C1300264C2F00002609001326170000FF00007FFF7F0000A5000052A55200007F00003F7F3F00004C0000264C260000260000132613003FFF00009FFF7F0029A5000067A552001F7F00004F7F3F00134C00002F4C260009260000172613007FFF0000BFFF7F0052A500007CA552003F7F00005F7F3F00264C0000
310
394C2600132600001C261300BFFF0000DFFF7F007CA5000091A552005F7F00006F7F3F00394C0000424C26001C26000021261300FFFF0000FFFF7F00A5A50000A5A552007F7F00007F7F3F004C4C00004C4C26002626000026261300FFBF0000FFDF7F00A57C0000A59152007F5F00007F6F3F004C3900004C422600261C00
310
0026211300FF7F0000FFBF7F00A5520000A57C52007F3F00007F5F3F004C2600004C39260026130000261C1300FF3F0000FF9F7F00A5290000A56752007F1F00007F4F3F004C1300004C2F26002609000026171300FF000000FF7F7F00A5000000A55252007F0000007F3F3F004C0000004C2626002600000026131300FF00
310
3F00FF7F9F00A5002900A55267007F001F007F3F4F004C0013004C262F002600090026131700FF007F00FF7FBF00A5005200A5527C007F003F007F3F5F004C0026004C2639002600130026131C00FF00BF00FF7FDF00A5007C00A55291007F005F007F3F6F004C0039004C26420026001C0026132100FF00FF00FF7FFF00A5
310
00A500A552A5007F007F007F3F7F004C004C004C264C002600260026132600BF00FF00DF7FFF007C00A5009152A5005F007F006F3F7F0039004C0042264C001C002600211326007F00FF00BF7FFF005200A5007C52A5003F007F005F3F7F0026004C0039264C00130026001C1326003F00FF009F7FFF002900A5006752A500
310
1F007F004F3F7F0013004C002F264C000900260017132600000000002D2D2D005B5B5B0089898900B7B7B700B3B3B30000000000000000000000000000000000000000000000000000000000000000000000000000000000000000000000000000000000000000070707070707070707070707070707070707070707070707
310
07070707070707070707070707070707070707070707070707070707070707070707070707070707070707070707070000000000000000000000000000000000000000000000000000000000000000000000000000000000000000000000000000000000000000000000000000000000000000000000000000000000000000
310
00000000000000000000000000000000000000000000000000000000000700000000000000000000000000000000000000000000000000000000000000000000000000000000000000000000000000000000000000000000000000000000000000000007000000000000000000000000000000000000000000000000000000
310
00000000000000000000000000000000000000000000000000000000000000000000000000000000000000000000000000000000000000000000000000000000000000000000000000000000000000000000070000000000000000000000000000000000000000000000000000000000000000000000000000000000000000
310
00000000000000000000000000000000000000000000000000070000000000000000000000000000000000000000000000000000000000000000000000000000000000000000000000000000000000000000000000000000000000000000000000000000000000000000000000000000000000000000000000000000000000
310
00000000000000000700000000000000000000000000000000000000000000000000000000000000000000000000000000000000000000000000000000000000000000000000000000000000000007000000000000000000000000000000000000000000000000000000000000000000000000000000000000000000000000
310
00000000000000000000000000000000000000000000000000000000000000000000000000000000000000000000000000000000000000000000000000070000000000000000000000000000000000000000000000000000000000000000000000000000000000000000000000000000000000000000000000000000000000
310
00000000070000000000000000000000000000000000000000000000000000000000000000000000000000000000000000000000000000000000000000000000000000000000000000000000000000000000000000000000000000000000000000000000000000000000000000000000000007000000000000000000000000
310
00000000000000000000000000000000000000000000000000000000000000000000000000000000000000000000000000000000000000000007000000000000000000000000000000000000000000000000000000000000000000000000000000000000000000000000000000000000000000000000000000000000000000
310
00000000000000000000000000000000000000000000000000000000000000000000000000000000000700000000000000000000000000000000000000000000000000000000000000000000000000000000000000000000000000000000000000000000000000000000000000070000000000000000000000000000000000
310
00000000000000000000000000000000000000000000000000000000000000000000000000000000000000000000000000000000000000000000000000000000000000000000000000000000000000000000000000000000000000000000070000000000000000000000000000000000000000000000000000000000000000
310
00000000000000000000000000000000000000000000000000000000000000000000070000000000000000000000000000000000000000000000000000000000000000000000000000000000000000000000000000000000000000000000000000000000000000000000000000000000000000000000000000000000000000
310
00000000000000000000000000000000000000000007000000000000000000000000000000000000000000000000000000000000000000000000000000000000000000000000000000000000000000000000000000000007000000000000000000000000000000000000000000000000000000000000000000000000000000
310
00000000000000000000000000000000000000000000000000000000000000000000000000000000000000000000000000000000000000000000000000000000000000000000000000000007000000000000000000000000000000000000000000000000000000000000000000000000000000000000000000000000000000
310
00000000000000000000000007000000000000000000000000000000000000000000000000000000000000000000000000000000000000000000000000000000000000000000000000000000000000000000000000000000000000000000000000000000000000000000000000000000000000000000000000000000000000
310
00000700000000000000000000000000000000000000000000000000000000000000000000000000000000000000000000000000000000000000000000000000070000000000000000000000000000000000000000000000000000000000000000000000000000000000000000000000000000000000000000000000000000
310
00000000000000000000000000000000000000000000000000000000000000000000000000000000000000000000000000000000000000070000000000000000000000000000000000000000000000000000000000000000000000000000000000000000000000000000000000000000000000000700000000000000000000
310
00000000000000000000000000000000000000000000000000000000000000000000000000000000000000000000000000000000000000000000000000000000000000000000000000000000000000000000000000000000000000000000000000000000000000000000000000070000000000000000000000000000000000
310
00000000000000000000000000000000000000000000000000000000000000000000000000000000000007000000000000000000000000000000000000000000000000000000000000000000000000000000000000000000000000000000000000000000000000000000000000000000000000000000000000000000000000
310
00000000000000000000000000000000000000000000000000000000000000000000000007000000000000000000000000000000000000000000000000000000000000000000000000000000000000000000000000000000000000000000070000000000000000000000000000000000000000000000000000000000000000
310
00000000000000000000000000000000000000000000000000000000000000000000000000000000000000000000000000000000000000000000000000000000000000000000000000000000000000000000000000000000000007000000000000000000000000000000000000000000000000000000000000000000000000
310
00000000000000000000000000000000000000070000000000000000000000000000000000000000000000000000000000000000000000000000000000000000000000000000000000000000000000000000000000000000000000000000000000000000000000000000000000000000000000000000000000000000000000
310
00000000000000000000000000000000070000000000000000000000000000000000000000000000000000000000000000000000000000000000000000000000000000000000000700000000000000000000000000000000000000000000000000000000000000000000000000000000000000000000000000000000000000
310
00000000000000000000000000000000000000000000000000000000000000000000000000000000000000000000000000000000000000000000000000000000000000000000070000000000000000000000000000000000000000000000000000000000000000000000000000000000000000000000000000000000070000
310
00000000000000000000000000000000000000000000000000000000000000000000000000000000000000000000000000000000000000000000000000000000000000000000000000000000000000000000000000000000000000000000000000000000000000000000000000000000000000000000000000000000070000
310
00000000000000000000000000000000000000000000000000000000000000000000000000000000000000000000000000070000000000000000000000000000000000000000000000000000000000000000000000000000000000000000000000000000000000000000000000000000000000000000000000000000000000
310
00000000000000000000000000000000000000000000000000000000000000000000000000000000000000000000000000000007000000000000000000000000000000000000000000000000000000000000000000000000000000000000000000000000000700000000000000000000000000000000000000000000000000
310
00000000000000000000000000000000000000000000000000000000000000000000000000000000000000000000000000000000000000000000000000000000000000000000000000000000000000000000000000000000000000000000000000000000000000000700000000000000000000000000000000000000000000
310
00000000000000000000000000000000000000000000000000000700000000000000000000000000000000000000000000000000000000000000000000000000000000000000000000000000000000000000000000000000000000000000000000000000000000000000000000000000000000000000000000000000000000
310
00000000000000000000000000000000000000000000000000000000000000070000000000000000000000000000000000000000000000000000000000000000000000000000000000000000000000070000000000000000000000000000000000000000000000000000000000000000000000000000000000000000000000
310
00000000000000000000000000000000000000000000000000000000000000000000000000000000000000000000000000000000000000000000000000000000000000000000000000000000000000000000000000070000000000000000000000000000000000000000000000000000000000000000000000000000000000
310
00000000070000000000000000000000000000000000000000000000000000000000000000000000000000000000000000000000000000000000000000000000000000000000000000000000000000000000000000000000000000000000000000000000000000000000000000000000000000000000000000000000000000
310
00000000000000000000000007000000000000000000000000000000000000000000000000000000000000000000000000000000000000000700000000000000000000000000000000000000000000000000000000000000000000000000000000000000000000000000000000000000000000000000000000000000000000
310
00000000000000000000000000000000000000000000000000000000000000000000000000000000000000000000000000000000000000000000000000000000000700000000000000000000000000000000000000000000000000000000000000000000000000000000000007000000000000000000000000000000000000
310
00000000000000000000000000000000000000000000000000000000000000000000000000000000000000000000000000000000000000000000000000000000000000000000000000000000000000000000000000000000000000000000000000000000000000000000000000000000000000000000000700000000000000
310
00000000000000000000000000000000000000000000000000000000000000000000070000000000000000000000000000000000000000000000000000000000000000000000000000000000000000000000000000000000000000000000000000000000000000000000000000000000000000000000000000000000000000
310
00000000000000000000000000000000000000000000000000000000000000000000000000000000000000000000070000000000000000000000000000000000000000000000000000000000000000000000000000000700000000000000000000000000000000000000000000000000000000000000000000000000000000
310
00000000000000000000000000000000000000000000000000000000000000000000000000000000000000000000000000000000000000000000000000000000000000000000000000000000000000000000000000000000000000000000000000000007000000000000000000000000000000000000000000000000000000
310
00000000000000000000000007000000000000000000000000000000000000000000000000000000000000000000000000000000000000000000000000000000000000000000000000000000000000000000000000000000000000000000000000000000000000000000000000000000000000000000000000000000000000
310
00000000000000000000000000000000000000000000000000070000000000000000000000000000000000000000000000000000000000000000000000000000000700000000000000000000000000000000000000000000000000000000000000000000000000000000000000000000000000000000000000000000000000
310
00000000000000000000000000000000000000000000000000000000000000000000000000000000000000000000000000000000000000000000000000000000000000000000000000000000000007000000000000000000000000000000000000000000000000000000000000000000000000000000070000000000000000
310
00000000000000000000000000000000000000000000000000000000000000000000000000000000000000000000000000000000000000000000000000000000000000000000000000000000000000000000000000000000000000000000000000000000000000000000000000000000000000000000000000000000000000
310
00000000070000000000000000000000000000000000000000000000000000000000000000000000000000000700000000000000000000000000000000000000000000000000000000000000000000000000000000000000000000000000000000000000000000000000000000000000000000000000000000000000000000
310
00000000000000000000000000000000000000000000000000000000000000000000000000000000000000000000000000000000000000000007000000000000000000000000000000000000000000000000000000000000000000000000000000070000000000000000000000000000000000000000000000000000000000
310
00000000000000000000000000000000000000000000000000000000000000000000000000000000000000000000000000000000000000000000000000000000000000000000000000000000000000000000000000000000000000000000000000000000000000000000000000000700000000000000000000000000000000
310
00000000000000000000000000000000000000000000000700000000000000000000000000000000000000000000000000000000000000000000000000000000000000000000000000000000000000000000000000000000000000000000000000000000000000000000000000000000000000000000000000000000000000
310
00000000000000000000000000000000000000000000000000000000000000000000000007000000000000000000000000000000000000000000000000000000000000000000000000000000070000000000000000000000000000000000000000000000000000000000000000000000000000000000000000000000000000
310
00000000000000000000000000000000000000000000000000000000000000000000000000000000000000000000000000000000000000000000000000000000000000000000000000000000000000000000000000000000000700000000000000000000000000000000000000000000000000000000000000000000000000
310
00000700000000000000000000000000000000000000000000000000000000000000000000000000000000000000000000000000000000000000000000000000000000000000000000000000000000000000000000000000000000000000000000000000000000000000000000000000000000000000000000000000000000
310
00000000000000000000000000000007000000000000000000000000000000000000000000000000000000000000000000000000000000070000000000000000000000000000000000000000000000000000000000000000000000000000000000000000000000000000000000000000000000000000000000000000000000
310
00000000000000000000000000000000000000000000000000000000000000000000000000000000000000000000000000000000000000000000000000000000000000000700000000000000000000000000000000000000000000000000000000000000000000000000000007000000000000000000000000000000000000
310
00000000000000000000000000000000000000000000000000000000000000000000000000000000000000000000000000000000000000000000000000000000000000000000000000000000000000000000000000000000000000000000000000000000000000000000000000000000000000000000000000070000000000
310
00000000000000000000000000000000000000000000000000000000000000000000070000000000000000000000000000000000000000000000000000000000000000000000000000000000000000000000000000000000000000000000000000000000000000000000000000000000000000000000000000000000000000
310
00000000000000000000000000000000000000000000000000000000000000000000000000000000000000000000000700000000000000000000000000000000000000000000000000000000000000000000000000000007000000000000000000000000000000000000000000000000000000000000000000000000000000
310
00000000000000000000000000000000000000000000000000000000000000000000000000000000000000000000000000000000000000000000000000000000000000000000000000000000000000000000000000000000000000000000000000000000070000000000000000000000000000000000000000000000000000
310
00000000000000000000000000070000000000000000000000000000000000000000000000000000000000000000000000000000000000000000000000000000000000000000000000000000000000000000000000000000000000000000000000000000000000000000000000000000000000000000000000000000000000
310
00000000000000000000000000000000000000000000000000000700000000000000000000000000000000000000000000000000000000000000000000000000000007000000000000000000000000000000000000000000000000000000000000000000000000000000000000000000000000000000000000000000000000
310
00000000000000000000000000000000000000000000000000000000000000000000000000000000000000000000000000000000000000000000000000000000000000000000000000000000000000070000000000000000000000000000000000000000000000000000000000000000000000000000000700000000000000
310
00000000000000000000000000000000000000000000000000000000000000000000000000000000000000000000000000000000000000000000000000000000000000000000000000000000000000000000000000000000000000000000000000000000000000000000000000000000000000000000000000000000000000
310
00000000000700000000000000000000000000000000000000000000000000000000000000000000000000000007000000000000000000000000000000000000000000000000000000000000000000000000000000000000000000000000000000000000000000000000000000000000000000000000000000000000000000
310
00000000000000000000000000000000000000000000000000000000000000000000000000000000000000000000000000000000000000000000070000000000000000000000000000000000000000000000000000000000000000000000000000000700000000000000000000000000000000000000000000000000000000
310
00000000000000000000000000000000000000000000000000000000000000000000000000000000000000000000000000000000000000000000000000000000000000000000000000000000000000000000000000000000000000000000000000000000000000000000000000000007000000000000000000000000000000
310
00000000000000000000000000000000000000000000000007000000000000000000000000000000000000000000000000000000000000000000000000000000000000000000000000000000000000000000000000000000000000000000000000000000000000000000000000000000000000000000000000000000000000
310
00000000000000000000000000000000000000000000000000000000000000000000000000070000000000000000000000000000000000000000000000000000000000000000000000000000000700000000000000000000000000000000000000000000000000000000000000000000000000000000000000000000000000
310
00000000000000000000000000000000000000000000000000000000000000000000000000000000000000000000000000000000000000000000000000000000000000000000000000000000000000000000000000000000000007070707070707070707070707070707070707070707070707070707070707070707070707
310
07070707000000000000000000000000000000000000000000000000000000000000000000000000000000000000000000000000000000000000000000000000000000000000000000000000000000000000000000000000000000000000000000000000000000000000000000000000000000000000000000000000000000
310
00000000000000000000000000000000070000000000000000000000000000000000000700070000000000000000070707000000000000000700000000000000000000000000000000000000000000000000000000000000000000000000000000000000000000000000000000000000000000000000000000000000000000
310
00000000000000000000000000000000000000000000000000000000000000000000000000000000000000000000000000000000000000000000000000000000000000000007000000000000000000000000000000000707070707070700000000000007000700000000000000070000000000000000000000000000000000
310
00000000000000000000000000000000000000000000000000000000000000000000000000000000000000000000000000000000000000000000000000000000000000000000000000000000000000000000000000000000000000000000000000000000000000000000000000000000000000000000000000000700000000
310
00000000000000000000000707070707070000070000000000070007000000000000000700000000000000000000000000000000000000000000000000000000000000000000000000000000000000000000000000000000000000000000000000000000000000000000000000000000000000000000000000000000000000
310
00000000000000000000000000000000000000000000000000000000000000000000000000000000000000000000000007000000000000000707070000000000070007070707070700000000000007000700000000000000070000000000000000000000000000000000000000000000000000000000000000000000000000
310
00000000000000000000000000000000000000000000000000000000000000000000000000000000000000000000000000000000000000000000000000000000000000000000000000000000000000000000000000000000000000000000000000000000000700000000000000070007000000000000070700000007070000
310
00000000070007000000000000000700000000000000000000000000000000000000000000000000000000000000000000000000000000000000000000000000000000000000000000000000000000000000000000000000000000000000000000000000000000000000000000000000000000000000000000000000000000
310
00000000000000000000000000000000000000000000000000000007000000000000000707070000000000000700000000070700000000000007070700000000000000070000000000000000000000000000000000000000000000000000000000000000000000000000000000000000000000000000000000000000000000
310
00000000000000000000000000000000000000000000000000000000000000000000000000000000000000000000000000000000000000000000000000000000000000000000000000000000000000000700000000070707070007070707000000070000000007000000000000000700070000000000000007000000000000
310
00000000000000000000000000000000000000000000000000000000000000000000000000000000000000000000000000000000000000000000000000000000000000000000000000000000000000000000000000000000000000000000000000000000000000000000000000000000000000000000000000000000000000
310
00000000000007000000000707070000000007070000000007000000070000000000000007000700000000000000070000000000000000000000000000000000000000000000000000000000000000000000000000000000000000000000000000000000000000000000000000000000000000000000000000000000000000
310
00000000000000000000000000000000000000000000000000000000000000000000000000000000000000000000000000000000000000000000000700000000070707070007070707000000000700000007000000000000070707070700000000000007000000000000000000000000000000000000000000000000000000
310
00000000000000000000000000000000000000000000000000000000000000000000000000000000000000000000000000000000000000000000000000000000000000000000000000000000000000000000000000000000000000000000000000000000000000000000000000000000070707070707070707000707070707
310
07070707070707070707070707070700000007070707070707070000000000000000000000000000000000000000000000000000000000000000000000000000000000000000000000000000000000000000000000000000000000000000000000000000000000000000000000000000000000000000000000000000000000
310
00000000000000000000000000000000000000000000000000000000000000000000000000000000000000000000070007000000000000070700000000070000000000070000000700000000000000000000000000000000000000000000000000000000000000000000000000000000000000000000000000000000000000
310
00000000000000000000000000000000000000000000000000000000000000000000000000000000000000000000000000000000000000000000000000000000000000000000000000000000000000000000000000000000000000000000000000000707070707000000000007070707070707000000000707070707070000
310
00000000000000000000000000000000000000000000000000000000000000000000000000000000000000000000000000000000000000000000000000000000000000000000000000000000000000000000000000000000000000000000000000000000000000000000000000000000000000000000000000000000000000
310
00000000000000000000000000000000000000000000000007070707070000000000070700000000070000000007070707070700000000000000000000000000000000000000000000000000000000000000000000000000000000000000000000000000000000000000000000000000000000000000000000000000000000
310
00000000000000000000000000000000000000000000000000000000000000000000000000000000000000000000000000000000000000000000000000000000000000000000000000000000000707070707000000000007070707070707000000000707070707070700000000000000000000000000000000000000000000
310
00000000000000000000000000000000000000000000000000000000000000000000000000000000000000000000000000000000000000000000000000000000000000000000000000000000000000000000000000000000000000000000000000000000000000000000000000000000000000000000000000000000000000
310
00000707070707070707000000070707070707070000000707070707070707000000000000000000000000000000000000000000000000000000000000000000000000000000000000000000000000000000000000000000000000000000000000000000000000000000000000000000000000000000000000000000000000
310
00000000000000000000000000000000000000000000000000000000000000000000000000000000000000000000000000000000000000000700000007000000000000070000000700000000000007000000070000000000000000000000000000000000000000000000000000000000000000000000000000000000000000
310
00000000000000000000000000000000000000000000000000000000000000000000000000000000000000000000000000000000000000000000000000000000000000000000000000000000000000000000000000000000000000000000000000000000000000000000000000070000000700000000000007070707070000
310
00000000070000000700000000000000000000000000000000000000000000000000000000000000000000000000000000000000000000000000000000000000000000000000000000000000000000000000000000000000000000000000000000000000000000000000000000000000000000000000000000000000000000
310
00000000000000000000000000000000000000000000000000000000000000000000000700000007000000000000070007000700000000000007070707070000000000000000000000000000000000000000000000000000000000000000000000000000000000000000000000000000000000000000000000000000000000
310
00000000000000000000000000000000000000000000000000000000000000000000000000000000000000000000000000000000000000000000000000000000000000000000000000000000000000000000000000000000070000000700000000000007000000070000000000000700070707000000000000000000000000
310
00000000000000000000000000000000000000000000000000000000000000000000000000000000000000000000000000000000000000000000000000000000000000000000000000000000000000000000000000000000000000000000000000000000000000000000000000000000000000000000000000000000000000
310
00000000000000000000000000000700000007000000000000070000000700000000000007070707070000000000000000000000000000000000000000000000000000000000000000000000000000000000000000000000000000000000000000000000000000000000000000000000000000000000000000000000000000
310
00000000000000000000000000000000000000000000000000000000000000000000000000000000000000000000000000000000000000000000000000000000000000070000000700000000000007070707070000000000000707000707000000000000000000000000000000000000000000000000000000000000000000
310
00000000000000000000000000000000000000000000000000000000000000000000000000000000000000000000000000000000000000000000000000000000000000000000000000000000000000000000000000000000000000000000000000000000000000000000000000000000000000000000000007000000070000
310
00000000000000000000000000000000070007000000000000000000000000000000000000000000000000000000000000000000000000000000000000000000000000000000000000000000000000000000000000000000000000000000000000000000000000000000000000000000000000000000000000000000000000
310
00000000000000000000000000000000000000000000000000000000000000000000000000000000000000000000070000000700000000000000000000000000000000000007000700000000000000000000000000000000000000000000000000000000000000000000000000000000000000000000000000000000000000
310
00000000000000000000000000000000000000000000000000000000000000000000000000000000000000000000000000000000000000000000000000000000000000000000000000000000000000000000000000000000000000000000000000000007000000070000000000000000000000000000000000000700070000
310
00000000000000000000000000000000000000000000000000000000000000000000000000000000000000000000000000000000000000000000000000000000000000000000000000000000000000000000000000000000000000000000000000000000000000000000000000000000000000000000000000000000000000
310
00000000000000000000000000000000000000000000000000070707070700000000000000000000000000000000000007000700000000000000000000000000000000000000000000000000000000000000000000000000000000000000000000000000000000000000000000000000000000000000000000000000000000
310
00000000000000000000000000000000000000000000000000000000000000000000000000000000000000000000000000000000000000000000000000000000000000000000000000000000000007070707070000000000000000000000000000000000000700070000000000000000000000000000000000000000000000
310
00000000000000000000000000000000000000000000000000000000000000000000000000000000000000000000000000000000000000000000000000000000000000000000000000000000000000000000000000000000000000000000000000000000000000000000000000000000000000000000000000000000000000
310
00000000070000000700000000000000000000000000000000000007000700000000000000000000000000000000000000000000000000000000000000000000000000000000000000000000000000000000000000000000000000000000000000000000000000000000000000000000000000000000000000000000000000
310
00000000000000000000000000000000000000000000000000000000000000000000000000000000000000000000000000000000000000000007070707070000000000000000000000000000000000000700070000000000000000000000000000000000000000000000000000000000000000000000000000000000000000
310
00000000000000000000000000000000000000000000000000000000000000000000000000000000000000000000000000000000000000000000000000000000000000000000000000000000000000000000000000000000000000000000000000000000000000000000000000000000000000000000000000000000000000
310
00000000000007000700000000000000000000000000000000000000000000000000000000000000000000000000000000000000000000000000000000000000000000000000000000000000000000000000000000000000000000000000000000000000000000000000000000000000000000000000000000000000000000
310
00000000000000000000000000000000000000000000000000000000000000000000000000000000000000000000000000000000000000000000000700070000000000000000000000000000000000000000000000000000000000000000000000000000000000000000000000000000000000000000000000000000000000
310
00000000000000000000000000000000000000000000000000000000000000000000000000000000000000000000000000000000000000000000000000000000000000000000000000000000000000000000000000000000000000000000000000000000000000000000000000000000070707000000000000000000000000
310
00000000000000000000000000000000000000000000000000000000000000000000000000000000000000000000000000000000000000000000000000000000000000000000000000000000000000000000000000000000000000000000000000000000000000000000000000000000000000000000000000000000000000
310
00000000000000000000000000000000000000000000000000000000000000000000000000000707070000000000000000000000000000000000000000000000000000000000000000000000000000000000000000000000000000000000000000000000000000000000000000000000000000000000000000000000000000
310
00000000000000000000000000000000000000000000000000000000000000000000000000000000000000000000000000000000000000000000000000000000000000000000000000000000000000000000000000000000000000070707000000000000000000000000000000000000000000000000000000000000000000
310
00000000000000000000000000000000000000000000000000000000000000000000000000000000000000000000000000000000000000000000000000000000000000000000000000000000000000000000000000000000000000000000000000000000000000000000000000000000000000000000000000000000000000
310
00000000000000000000000000000000000707070000000000000000000000000000000000000000000000000000000000000000000000000000000000000000000000000000000000000000000000000000000000000000000000000000000000000000000000000000000000000000000000000000000000000000000000
310
00000000000000000000000000000000000000000000000000000000000000000000000000000000000000000000000000000000000000000000000000000000000000000000070707000000000000000000000000000000000000000000000000000000000000000000000000000000000000000000000000000000000000
310
00000000000000000000000000000000000000000000000000000000000000000000000000000000000000000000000000000000000000000000000000000000000000000000000000000000000000000000000000000000000000000000000000000000000000000000000000000000000000000000000000000007070700
310
00000000000000000000000000000000000000000000000000000000000000000000000000000000000000000000000000000000000000000000000000000000000000000000000000000000000000000000000000000000000000000000000000000000000000000000000000000000000000000000000000000000000000
310
00000000000000000000000000000000000000000000000000000000000000000000000000000000000000000000000000070007000000000000000000000000000000000000000000000000000000000000000000000000000000000000000000000000000000000000000000000000000000000000000000000000000000
310
00000000000000000000000000000000000000000000000000000000000000000000000000000000000000000000000000000000000000000000000000000000000000000000000000000000000000000000000000000000000000000000000000000000000007070700000000000000000000000000000000000000000000
310
00000000000000000000000000000000000000000000000000000000000000000000000000000000000000000000000000000000000000000000000000000000000000000000000000000000000000000000000000000000000000000000000000000000000000000000000000000000000000000000000000000000000000
310
000000000000000000000000000000000000000000000000000000000000000000000000000000000000000000000000000000000000000000000000000000000000000000000000000000000000000000000000000000000000000000000000000000000000000000000000
  0
ENDSEC
  0
EOF
