  0
SECTION
  2
HEADER
  9
$ACADVER
  1
AC1015
  9
$ACADMAINTVER
 70
     6
  9
$DWGCODEPAGE
  3
ANSI_1252
  9
$INSBASE
 10
0.0
 20
0.0
 30
0.0
  9
$EXTMIN
 10
0.0
 20
0.1165
 30
0.0
  9
$EXTMAX
 10
342.0
 20
117.8835
 30
0.0
  9
$LIMMIN
 10
0.0
 20
0.0
  9
$LIMMAX
 10
12.0
 20
9.0
  9
$ORTHOMODE
 70
     0
  9
$REGENMODE
 70
     1
  9
$FILLMODE
 70
     1
  9
$QTEXTMODE
 70
     0
  9
$MIRRTEXT
 70
     1
  9
$LTSCALE
 40
1.0
  9
$ATTMODE
 70
     1
  9
$TEXTSIZE
 40
0.2
  9
$TRACEWID
 40
0.05
  9
$TEXTSTYLE
  7
Standard
  9
$CLAYER
  8
0
  9
$CELTYPE
  6
ByBlock
  9
$CECOLOR
 62
   256
  9
$CELTSCALE
 40
1.0
  9
$DISPSILH
 70
     0
  9
$DIMSCALE
 40
1.0
  9
$DIMASZ
 40
0.18
  9
$DIMEXO
 40
0.0625
  9
$DIMDLI
 40
0.38
  9
$DIMRND
 40
0.0
  9
$DIMDLE
 40
0.0
  9
$DIMEXE
 40
0.18
  9
$DIMTP
 40
0.0
  9
$DIMTM
 40
0.0
  9
$DIMTXT
 40
0.18
  9
$DIMCEN
 40
0.09
  9
$DIMTSZ
 40
0.0
  9
$DIMTOL
 70
     0
  9
$DIMLIM
 70
     0
  9
$DIMTIH
 70
     1
  9
$DIMTOH
 70
     1
  9
$DIMSE1
 70
     0
  9
$DIMSE2
 70
     0
  9
$DIMTAD
 70
     0
  9
$DIMZIN
 70
     0
  9
$DIMBLK
  1

  9
$DIMASO
 70
     1
  9
$DIMSHO
 70
     1
  9
$DIMPOST
  1

  9
$DIMAPOST
  1

  9
$DIMALT
 70
     0
  9
$DIMALTD
 70
     2
  9
$DIMALTF
 40
25.4
  9
$DIMLFAC
 40
1.0
  9
$DIMTOFL
 70
     0
  9
$DIMTVP
 40
0.0
  9
$DIMTIX
 70
     0
  9
$DIMSOXD
 70
     0
  9
$DIMSAH
 70
     0
  9
$DIMBLK1
  1

  9
$DIMBLK2
  1

  9
$DIMSTYLE
  2
Standard
  9
$DIMCLRD
 70
     0
  9
$DIMCLRE
 70
     0
  9
$DIMCLRT
 70
     0
  9
$DIMTFAC
 40
1.0
  9
$DIMGAP
 40
0.09
  9
$DIMJUST
 70
     0
  9
$DIMSD1
 70
     0
  9
$DIMSD2
 70
     0
  9
$DIMTOLJ
 70
     1
  9
$DIMTZIN
 70
     0
  9
$DIMALTZ
 70
     0
  9
$DIMALTTZ
 70
     0
  9
$DIMUPT
 70
     0
  9
$DIMDEC
 70
     4
  9
$DIMTDEC
 70
     4
  9
$DIMALTU
 70
     2
  9
$DIMALTTD
 70
     2
  9
$DIMTXSTY
  7
Standard
  9
$DIMAUNIT
 70
     0
  9
$DIMADEC
 70
     0
  9
$DIMALTRND
 40
0.0
  9
$DIMAZIN
 70
     0
  9
$DIMDSEP
 70
    46
  9
$DIMATFIT
 70
     3
  9
$DIMFRAC
 70
     0
  9
$DIMLDRBLK
  1

  9
$DIMLUNIT
 70
     2
  9
$DIMLWD
 70
    -2
  9
$DIMLWE
 70
    -2
  9
$DIMTMOVE
 70
     2
  9
$LUNITS
 70
     2
  9
$LUPREC
 70
     4
  9
$SKETCHINC
 40
0.1
  9
$FILLETRAD
 40
0.5
  9
$AUNITS
 70
     0
  9
$AUPREC
 70
     0
  9
$MENU
  1
.
  9
$ELEVATION
 40
0.0
  9
$PELEVATION
 40
0.0
  9
$THICKNESS
 40
0.0
  9
$LIMCHECK
 70
     0
  9
$CHAMFERA
 40
0.5
  9
$CHAMFERB
 40
0.5
  9
$CHAMFERC
 40
1.0
  9
$CHAMFERD
 40
0.0
  9
$SKPOLY
 70
     0
  9
$TDCREATE
 40
2455873.374156713
  9
$TDUCREATE
 40
2455873.332490047
  9
$TDUPDATE
 40
2455873.378199317
  9
$TDUUPDATE
 40
2455873.336532651
  9
$TDINDWG
 40
0.0038954051
  9
$TDUSRTIMER
 40
0.0038954051
  9
$USRTIMER
 70
     1
  9
$ANGBASE
 50
0.0
  9
$ANGDIR
 70
     0
  9
$PDMODE
 70
     0
  9
$PDSIZE
 40
0.0
  9
$PLINEWID
 40
0.0
  9
$SPLFRAME
 70
     0
  9
$SPLINETYPE
 70
     6
  9
$SPLINESEGS
 70
     8
  9
$HANDSEED
  5
DCE
  9
$SURFTAB1
 70
     6
  9
$SURFTAB2
 70
     6
  9
$SURFTYPE
 70
     6
  9
$SURFU
 70
     6
  9
$SURFV
 70
     6
  9
$UCSBASE
  2

  9
$UCSNAME
  2

  9
$UCSORG
 10
0.0
 20
0.0
 30
0.0
  9
$UCSXDIR
 10
1.0
 20
0.0
 30
0.0
  9
$UCSYDIR
 10
0.0
 20
1.0
 30
0.0
  9
$UCSORTHOREF
  2

  9
$UCSORTHOVIEW
 70
     0
  9
$UCSORGTOP
 10
0.0
 20
0.0
 30
0.0
  9
$UCSORGBOTTOM
 10
0.0
 20
0.0
 30
0.0
  9
$UCSORGLEFT
 10
0.0
 20
0.0
 30
0.0
  9
$UCSORGRIGHT
 10
0.0
 20
0.0
 30
0.0
  9
$UCSORGFRONT
 10
0.0
 20
0.0
 30
0.0
  9
$UCSORGBACK
 10
0.0
 20
0.0
 30
0.0
  9
$PUCSBASE
  2

  9
$PUCSNAME
  2

  9
$PUCSORG
 10
0.0
 20
0.0
 30
0.0
  9
$PUCSXDIR
 10
1.0
 20
0.0
 30
0.0
  9
$PUCSYDIR
 10
0.0
 20
1.0
 30
0.0
  9
$PUCSORTHOREF
  2

  9
$PUCSORTHOVIEW
 70
     0
  9
$PUCSORGTOP
 10
0.0
 20
0.0
 30
0.0
  9
$PUCSORGBOTTOM
 10
0.0
 20
0.0
 30
0.0
  9
$PUCSORGLEFT
 10
0.0
 20
0.0
 30
0.0
  9
$PUCSORGRIGHT
 10
0.0
 20
0.0
 30
0.0
  9
$PUCSORGFRONT
 10
0.0
 20
0.0
 30
0.0
  9
$PUCSORGBACK
 10
0.0
 20
0.0
 30
0.0
  9
$USERI1
 70
     0
  9
$USERI2
 70
     0
  9
$USERI3
 70
     0
  9
$USERI4
 70
     0
  9
$USERI5
 70
     0
  9
$USERR1
 40
0.0
  9
$USERR2
 40
0.0
  9
$USERR3
 40
0.0
  9
$USERR4
 40
0.0
  9
$USERR5
 40
0.0
  9
$WORLDVIEW
 70
     1
  9
$SHADEDGE
 70
     3
  9
$SHADEDIF
 70
    70
  9
$TILEMODE
 70
     1
  9
$MAXACTVP
 70
    64
  9
$PINSBASE
 10
0.0
 20
0.0
 30
0.0
  9
$PLIMCHECK
 70
     0
  9
$PEXTMIN
 10
1.000000000000E+20
 20
1.000000000000E+20
 30
1.000000000000E+20
  9
$PEXTMAX
 10
-1.000000000000E+20
 20
-1.000000000000E+20
 30
-1.000000000000E+20
  9
$PLIMMIN
 10
0.0
 20
0.0
  9
$PLIMMAX
 10
12.0
 20
9.0
  9
$UNITMODE
 70
     0
  9
$VISRETAIN
 70
     1
  9
$PLINEGEN
 70
     0
  9
$PSLTSCALE
 70
     1
  9
$TREEDEPTH
 70
  3020
  9
$CMLSTYLE
  2
Standard
  9
$CMLJUST
 70
     0
  9
$CMLSCALE
 40
1.0
  9
$PROXYGRAPHICS
 70
     1
  9
$MEASUREMENT
 70
     0
  9
$CELWEIGHT
370
    -1
  9
$ENDCAPS
280
     0
  9
$JOINSTYLE
280
     0
  9
$LWDISPLAY
290
     0
  9
$INSUNITS
 70
     0
  9
$HYPERLINKBASE
  1

  9
$STYLESHEET
  1

  9
$XEDIT
290
     1
  9
$CEPSNTYPE
380
     0
  9
$PSTYLEMODE
290
     1
  9
$FINGERPRINTGUID
  2
{0B809BFE-75BB-4CA6-A206-A9EABEBF7024}
  9
$VERSIONGUID
  2
{FAEB1C32-E019-11D5-929B-00C0DF256EC4}
  9
$EXTNAMES
290
     1
  9
$PSVPSCALE
 40
0.0
  9
$OLESTARTUP
290
     0
  0
ENDSEC
  0
SECTION
  2
CLASSES
  0
CLASS
  1
ACDBDICTIONARYWDFLT
  2
AcDbDictionaryWithDefault
  3
ObjectDBX Classes
 90
        0
280
     0
281
     0
  0
CLASS
  1
SCALE
  2
AcDbScale
  3
ObjectDBX Classes
 90
     1153
280
     0
281
     0
  0
CLASS
  1
ACDBPLACEHOLDER
  2
AcDbPlaceHolder
  3
ObjectDBX Classes
 90
        0
280
     0
281
     0
  0
CLASS
  1
LAYOUT
  2
AcDbLayout
  3
ObjectDBX Classes
 90
        0
280
     0
281
     0
  0
ENDSEC
  0
SECTION
  2
TABLES
  0
TABLE
  2
VPORT
  5
8
330
0
100
AcDbSymbolTable
 70
     1
  0
VPORT
  5
721
330
8
100
AcDbSymbolTableRecord
100
AcDbViewportTableRecord
  2
*Active
 70
     0
 10
0.0
 20
0.0
 11
1.0
 21
1.0
 12
171.0
 22
58.94175
 13
0.0
 23
0.0
 14
0.5
 24
0.5
 15
0.5
 25
0.5
 16
0.0
 26
0.0
 36
1.0
 17
0.0
 27
0.0
 37
0.0
 40
153.55737704918
 41
2.271724137931
 42
50.0
 43
0.0
 44
0.0
 50
0.0
 51
0.0
 71
    16
 72
   100
 73
     1
 74
     3
 75
     0
 76
     0
 77
     0
 78
     0
281
     0
 65
     1
110
0.0
120
0.0
130
0.0
111
1.0
121
0.0
131
0.0
112
0.0
122
1.0
132
0.0
 79
     0
146
0.0
  0
ENDTAB
  0
TABLE
  2
LTYPE
  5
5
330
0
100
AcDbSymbolTable
 70
     1
  0
LTYPE
  5
14
330
5
100
AcDbSymbolTableRecord
100
AcDbLinetypeTableRecord
  2
ByBlock
 70
     0
  3

 72
    65
 73
     0
 40
0.0
  0
LTYPE
  5
15
330
5
100
AcDbSymbolTableRecord
100
AcDbLinetypeTableRecord
  2
ByLayer
 70
     0
  3

 72
    65
 73
     0
 40
0.0
  0
LTYPE
  5
16
330
5
100
AcDbSymbolTableRecord
100
AcDbLinetypeTableRecord
  2
Continuous
 70
     0
  3
Solid line
 72
    65
 73
     0
 40
0.0
  0
ENDTAB
  0
TABLE
  2
LAYER
  5
2
330
0
100
AcDbSymbolTable
 70
     1
  0
LAYER
  5
10
330
2
100
AcDbSymbolTableRecord
100
AcDbLayerTableRecord
  2
0
 70
     0
 62
     7
  6
Continuous
370
    -3
390
F
  0
ENDTAB
  0
TABLE
  2
STYLE
  5
3
330
0
100
AcDbSymbolTable
 70
     1
  0
STYLE
  5
11
330
3
100
AcDbSymbolTableRecord
100
AcDbTextStyleTableRecord
  2
Standard
 70
     0
 40
0.0
 41
1.0
 50
0.0
 71
     0
 42
0.2
  3
txt
  4

  0
ENDTAB
  0
TABLE
  2
VIEW
  5
6
330
0
100
AcDbSymbolTable
 70
     0
  0
ENDTAB
  0
TABLE
  2
UCS
  5
7
330
0
100
AcDbSymbolTable
 70
     0
  0
ENDTAB
  0
TABLE
  2
APPID
  5
9
330
0
100
AcDbSymbolTable
 70
     1
  0
APPID
  5
12
330
9
100
AcDbSymbolTableRecord
100
AcDbRegAppTableRecord
  2
ACAD
 70
     0
  0
ENDTAB
  0
TABLE
  2
DIMSTYLE
  5
A
330
0
100
AcDbSymbolTable
 70
     1
100
AcDbDimStyleTable
  0
DIMSTYLE
105
20
330
A
100
AcDbSymbolTableRecord
100
AcDbDimStyleTableRecord
  2
Standard
 70
     0
340
11
  0
ENDTAB
  0
TABLE
  2
BLOCK_RECORD
  5
1
330
0
100
AcDbSymbolTable
 70
     0
  0
BLOCK_RECORD
  5
1D
330
1
100
AcDbSymbolTableRecord
100
AcDbBlockTableRecord
  2
*Model_Space
340
1E
  0
BLOCK_RECORD
  5
1B
330
1
100
AcDbSymbolTableRecord
100
AcDbBlockTableRecord
  2
*Paper_Space
340
1C
  0
ENDTAB
  0
ENDSEC
  0
SECTION
  2
BLOCKS
  0
BLOCK
  5
724
330
1D
100
AcDbEntity
  8
0
100
AcDbBlockBegin
  2
*Model_Space
 70
     0
 10
0.0
 20
0.0
 30
0.0
  3
*Model_Space
  1
*Model_Space
  0
ENDBLK
  5
725
330
1D
100
AcDbEntity
  8
0
100
AcDbBlockEnd
  0
BLOCK
  5
722
330
1B
100
AcDbEntity
 67
     1
  8
0
100
AcDbBlockBegin
  2
*Paper_Space
 70
     0
 10
0.0
 20
0.0
 30
0.0
  3
*Paper_Space
  1
*Paper_Space
  0
ENDBLK
  5
723
330
1B
100
AcDbEntity
 67
     1
  8
0
100
AcDbBlockEnd
  0
ENDSEC
  0
SECTION
  2
ENTITIES
  0
LINE
  5
21
330
1D
100
AcDbEntity
  8
0
100
AcDbLine
 10
0.0612
 20
69.0166
 30
0.0
 11
0.2331
 21
68.1311
 31
0.0
  0
LINE
  5
22
330
1D
100
AcDbEntity
  8
0
100
AcDbLine
 10
0.7349
 20
66.9039
 30
0.0
 11
0.9788
 21
66.4996
 31
0.0
  0
LINE
  5
23
330
1D
100
AcDbEntity
  8
0
100
AcDbLine
 10
0.6651
 20
67.02
 30
0.0
 11
0.7349
 21
66.9039
 31
0.0
  0
LINE
  5
25
330
1D
100
AcDbEntity
  8
0
100
AcDbLine
 10
0.2331
 20
68.1311
 30
0.0
 11
0.6651
 21
67.02
 31
0.0
  0
LINE
  5
27
330
1D
100
AcDbEntity
  8
0
100
AcDbLine
 10
3.4243
 20
64.4674
 30
0.0
 11
4.6859
 21
63.9031
 31
0.0
  0
LINE
  5
29
330
1D
100
AcDbEntity
  8
0
100
AcDbLine
 10
3.4243
 20
64.4674
 30
0.0
 11
4.6859
 21
63.9031
 31
0.0
  0
LINE
  5
2A
330
1D
100
AcDbEntity
  8
0
100
AcDbLine
 10
5.411822438294
 20
63.667573573847
 30
0.0
 11
6.7492
 21
63.2336
 31
0.0
  0
LINE
  5
2C
330
1D
100
AcDbEntity
  8
0
100
AcDbLine
 10
6.7496
 20
63.2335
 30
0.0
 11
8.3607
 21
62.8294
 31
0.0
  0
LINE
  5
2F
330
1D
100
AcDbEntity
  8
0
100
AcDbLine
 10
5.413415651909
 20
63.667077592481
 30
0.0
 11
6.7492
 21
63.2336
 31
0.0
  0
LINE
  5
32
330
1D
100
AcDbEntity
  8
0
100
AcDbLine
 10
6.7492
 20
63.2336
 30
0.0
 11
8.3607
 21
62.8294
 31
0.0
  0
LINE
  5
34
330
1D
100
AcDbEntity
  8
0
100
AcDbLine
 10
5.411822438294
 20
63.667573573847
 30
0.0
 11
6.7492
 21
63.2336
 31
0.0
  0
LINE
  5
3B
330
1D
100
AcDbEntity
  8
0
100
AcDbLine
 10
2.3992
 20
65.0884
 30
0.0
 11
2.554
 21
64.9946
 31
0.0
  0
LINE
  5
3E
330
1D
100
AcDbEntity
  8
0
100
AcDbLine
 10
2.554
 20
64.9946
 30
0.0
 11
3.4243
 21
64.4674
 31
0.0
  0
LINE
  5
42
330
1D
100
AcDbEntity
  8
0
100
AcDbLine
 10
2.2735
 20
65.1878
 30
0.0
 11
2.3992
 21
65.0884
 31
0.0
  0
LINE
  5
43
330
1D
100
AcDbEntity
  8
0
100
AcDbLine
 10
1.8384
 20
65.5338
 30
0.0
 11
2.2735
 21
65.1878
 31
0.0
  0
LINE
  5
44
330
1D
100
AcDbEntity
  8
0
100
AcDbLine
 10
0.9788
 20
66.4996
 30
0.0
 11
1.3688
 21
66.0039
 31
0.0
  0
LINE
  5
46
330
1D
100
AcDbEntity
  8
0
100
AcDbLine
 10
1.3688
 20
66.0039
 30
0.0
 11
1.8384
 21
65.5338
 31
0.0
  0
LINE
  5
47
330
1D
100
AcDbEntity
  8
0
100
AcDbLine
 10
0.9788
 20
66.4996
 30
0.0
 11
1.3688
 21
66.0039
 31
0.0
  0
LINE
  5
5A
330
1D
100
AcDbEntity
  8
0
100
AcDbLine
 10
0.0612
 20
69.0166
 30
0.0
 11
0.2331
 21
68.1311
 31
0.0
  0
LINE
  5
5B
330
1D
100
AcDbEntity
  8
0
100
AcDbLine
 10
8.3613
 20
62.8292
 30
0.0
 11
11.259
 21
62.2311
 31
0.0
  0
LINE
  5
5F
330
1D
100
AcDbEntity
  8
0
100
AcDbLine
 10
10.5569
 20
62.3767
 30
0.0
 11
11.6812
 21
62.1445
 31
0.0
  0
LINE
  5
60
330
1D
100
AcDbEntity
  8
0
100
AcDbLine
 10
10.5569
 20
62.3767
 30
0.0
 11
11.259
 21
62.2311
 31
0.0
  0
LINE
  5
62
330
1D
100
AcDbEntity
  8
0
100
AcDbLine
 10
11.259
 20
62.2311
 30
0.0
 11
12.0914
 21
62.0593
 31
0.0
  0
LINE
  5
63
330
1D
100
AcDbEntity
  8
0
100
AcDbLine
 10
12.0914
 20
62.0593
 30
0.0
 11
36.0
 21
57.3829
 31
0.0
  0
LINE
  5
64
330
1D
100
AcDbEntity
  8
0
100
AcDbLine
 10
45.0357
 20
0.1165
 30
0.0
 11
45.2125
 21
0.1165
 31
0.0
  0
LINE
  5
65
330
1D
100
AcDbEntity
  8
0
100
AcDbLine
 10
45.0357
 20
0.1165
 30
0.0
 11
46.974
 21
0.1165
 31
0.0
  0
LINE
  5
66
330
1D
100
AcDbEntity
  8
0
100
AcDbLine
 10
45.0357
 20
0.1165
 30
0.0
 11
45.0357
 21
7.10405
 31
0.0
  0
LINE
  5
67
330
1D
100
AcDbEntity
  8
0
100
AcDbLine
 10
46.2637
 20
0.1165
 30
0.0
 11
47.1294
 21
0.1165
 31
0.0
  0
LINE
  5
68
330
1D
100
AcDbEntity
  8
0
100
AcDbLine
 10
47.1294
 20
0.1165
 30
0.0
 11
48.2109
 21
0.1165
 31
0.0
  0
LINE
  5
69
330
1D
100
AcDbEntity
  8
0
100
AcDbLine
 10
47.1953
 20
0.1165
 30
0.0
 11
47.3313
 21
0.1165
 31
0.0
  0
LINE
  5
6A
330
1D
100
AcDbEntity
  8
0
100
AcDbLine
 10
47.3313
 20
0.1165
 30
0.0
 11
47.6953
 21
0.1165
 31
0.0
  0
LINE
  5
6B
330
1D
100
AcDbEntity
  8
0
100
AcDbLine
 10
45.6233
 20
0.1165
 30
0.0
 11
46.2637
 21
0.1165
 31
0.0
  0
LINE
  5
6C
330
1D
100
AcDbEntity
  8
0
100
AcDbLine
 10
45.2125
 20
0.1165
 30
0.0
 11
45.6233
 21
0.1165
 31
0.0
  0
LINE
  5
6D
330
1D
100
AcDbEntity
  8
0
100
AcDbLine
 10
45.0504
 20
0.1165
 30
0.0
 11
46.974
 21
0.1165
 31
0.0
  0
LINE
  5
6E
330
1D
100
AcDbEntity
  8
0
100
AcDbLine
 10
45.0357
 20
0.1165
 30
0.0
 11
46.974
 21
0.1165
 31
0.0
  0
LINE
  5
6F
330
1D
100
AcDbEntity
  8
0
100
AcDbLine
 10
45.0357
 20
0.1165
 30
0.0
 11
45.2125
 21
0.1165
 31
0.0
  0
LINE
  5
70
330
1D
100
AcDbEntity
  8
0
100
AcDbLine
 10
45.0357
 20
0.1165
 30
0.0
 11
45.0357
 21
7.10405
 31
0.0
  0
LINE
  5
71
330
1D
100
AcDbEntity
  8
0
100
AcDbLine
 10
47.1953
 20
0.1165
 30
0.0
 11
47.3313
 21
0.1165
 31
0.0
  0
LINE
  5
72
330
1D
100
AcDbEntity
  8
0
100
AcDbLine
 10
47.6953
 20
0.1165
 30
0.0
 11
48.2854
 21
0.1165
 31
0.0
  0
LINE
  5
73
330
1D
100
AcDbEntity
  8
0
100
AcDbLine
 10
48.2109
 20
0.1165
 30
0.0
 11
49.4986
 21
0.1165
 31
0.0
  0
LINE
  5
74
330
1D
100
AcDbEntity
  8
0
100
AcDbLine
 10
47.3313
 20
0.1165
 30
0.0
 11
47.6953
 21
0.1165
 31
0.0
  0
LINE
  5
75
330
1D
100
AcDbEntity
  8
0
100
AcDbLine
 10
46.2637
 20
0.1165
 30
0.0
 11
47.1294
 21
0.1165
 31
0.0
  0
LINE
  5
76
330
1D
100
AcDbEntity
  8
0
100
AcDbLine
 10
47.1294
 20
0.1165
 30
0.0
 11
48.2109
 21
0.1165
 31
0.0
  0
LINE
  5
77
330
1D
100
AcDbEntity
  8
0
100
AcDbLine
 10
47.6953
 20
0.1165
 30
0.0
 11
48.2854
 21
0.1165
 31
0.0
  0
LINE
  5
78
330
1D
100
AcDbEntity
  8
0
100
AcDbLine
 10
45.6233
 20
0.1165
 30
0.0
 11
46.2637
 21
0.1165
 31
0.0
  0
LINE
  5
79
330
1D
100
AcDbEntity
  8
0
100
AcDbLine
 10
45.2125
 20
0.1165
 30
0.0
 11
45.6233
 21
0.1165
 31
0.0
  0
LINE
  5
7A
330
1D
100
AcDbEntity
  8
0
100
AcDbLine
 10
48.2854
 20
0.1165
 30
0.0
 11
49.093
 21
0.1165
 31
0.0
  0
LINE
  5
7B
330
1D
100
AcDbEntity
  8
0
100
AcDbLine
 10
72.8848
 20
0.1165
 30
0.0
 11
75.3416
 21
0.1165
 31
0.0
  0
LINE
  5
7C
330
1D
100
AcDbEntity
  8
0
100
AcDbLine
 10
70.4117
 20
0.1165
 30
0.0
 11
72.8848
 21
0.1165
 31
0.0
  0
LINE
  5
7D
330
1D
100
AcDbEntity
  8
0
100
AcDbLine
 10
65.5042
 20
0.1165
 30
0.0
 11
67.9445
 21
0.1165
 31
0.0
  0
LINE
  5
7E
330
1D
100
AcDbEntity
  8
0
100
AcDbLine
 10
67.9445
 20
0.1165
 30
0.0
 11
70.4117
 21
0.1165
 31
0.0
  0
LINE
  5
7F
330
1D
100
AcDbEntity
  8
0
100
AcDbLine
 10
75.3416
 20
0.1165
 30
0.0
 11
77.7584
 21
0.1165
 31
0.0
  0
LINE
  5
80
330
1D
100
AcDbEntity
  8
0
100
AcDbLine
 10
60.7961
 20
0.1165
 30
0.0
 11
63.1142
 21
0.1165
 31
0.0
  0
LINE
  5
81
330
1D
100
AcDbEntity
  8
0
100
AcDbLine
 10
63.1142
 20
0.1165
 30
0.0
 11
65.5042
 21
0.1165
 31
0.0
  0
LINE
  5
82
330
1D
100
AcDbEntity
  8
0
100
AcDbLine
 10
73.5773
 20
0.1165
 30
0.0
 11
75.8875
 21
0.1165
 31
0.0
  0
LINE
  5
83
330
1D
100
AcDbEntity
  8
0
100
AcDbLine
 10
68.9064
 20
0.1165
 30
0.0
 11
71.2427
 21
0.1165
 31
0.0
  0
LINE
  5
84
330
1D
100
AcDbEntity
  8
0
100
AcDbLine
 10
58.5708
 20
0.1165
 30
0.0
 11
60.7961
 21
0.1165
 31
0.0
  0
LINE
  5
85
330
1D
100
AcDbEntity
  8
0
100
AcDbLine
 10
62.1064
 20
0.1165
 30
0.0
 11
64.3161
 21
0.1165
 31
0.0
  0
LINE
  5
86
330
1D
100
AcDbEntity
  8
0
100
AcDbLine
 10
64.3161
 20
0.1165
 30
0.0
 11
66.5892
 21
0.1165
 31
0.0
  0
LINE
  5
87
330
1D
100
AcDbEntity
  8
0
100
AcDbLine
 10
75.8875
 20
0.1165
 30
0.0
 11
78.1502
 21
0.1165
 31
0.0
  0
LINE
  5
88
330
1D
100
AcDbEntity
  8
0
100
AcDbLine
 10
78.1502
 20
0.1165
 30
0.0
 11
80.3452
 21
0.1165
 31
0.0
  0
LINE
  5
89
330
1D
100
AcDbEntity
  8
0
100
AcDbLine
 10
66.5892
 20
0.1165
 30
0.0
 11
68.9064
 21
0.1165
 31
0.0
  0
LINE
  5
8A
330
1D
100
AcDbEntity
  8
0
100
AcDbLine
 10
71.2427
 20
0.1165
 30
0.0
 11
73.5773
 21
0.1165
 31
0.0
  0
LINE
  5
8B
330
1D
100
AcDbEntity
  8
0
100
AcDbLine
 10
80.1155
 20
0.1165
 30
0.0
 11
82.3894
 21
0.1165
 31
0.0
  0
LINE
  5
8C
330
1D
100
AcDbEntity
  8
0
100
AcDbLine
 10
77.7584
 20
0.1165
 30
0.0
 11
80.1155
 21
0.1165
 31
0.0
  0
LINE
  5
8D
330
1D
100
AcDbEntity
  8
0
100
AcDbLine
 10
82.3894
 20
0.1165
 30
0.0
 11
84.5603
 21
0.1165
 31
0.0
  0
LINE
  5
8E
330
1D
100
AcDbEntity
  8
0
100
AcDbLine
 10
80.3452
 20
0.1165
 30
0.0
 11
82.4501
 21
0.1165
 31
0.0
  0
LINE
  5
8F
330
1D
100
AcDbEntity
  8
0
100
AcDbLine
 10
56.458
 20
0.1165
 30
0.0
 11
58.5708
 21
0.1165
 31
0.0
  0
LINE
  5
90
330
1D
100
AcDbEntity
  8
0
100
AcDbLine
 10
59.9833
 20
0.1165
 30
0.0
 11
62.1064
 21
0.1165
 31
0.0
  0
LINE
  5
91
330
1D
100
AcDbEntity
  8
0
100
AcDbLine
 10
82.4501
 20
0.1165
 30
0.0
 11
84.445
 21
0.1165
 31
0.0
  0
LINE
  5
92
330
1D
100
AcDbEntity
  8
0
100
AcDbLine
 10
57.9667
 20
0.1165
 30
0.0
 11
59.9833
 21
0.1165
 31
0.0
  0
LINE
  5
93
330
1D
100
AcDbEntity
  8
0
100
AcDbLine
 10
52.646
 20
0.1165
 30
0.0
 11
54.4771
 21
0.1165
 31
0.0
  0
LINE
  5
94
330
1D
100
AcDbEntity
  8
0
100
AcDbLine
 10
54.3289
 20
0.1165
 30
0.0
 11
56.0759
 21
0.1165
 31
0.0
  0
LINE
  5
95
330
1D
100
AcDbEntity
  8
0
100
AcDbLine
 10
51.3323
 20
0.1165
 30
0.0
 11
52.7422
 21
0.1165
 31
0.0
  0
LINE
  5
96
330
1D
100
AcDbEntity
  8
0
100
AcDbLine
 10
52.7422
 20
0.1165
 30
0.0
 11
54.3289
 21
0.1165
 31
0.0
  0
LINE
  5
97
330
1D
100
AcDbEntity
  8
0
100
AcDbLine
 10
50.9813
 20
0.1165
 30
0.0
 11
52.646
 21
0.1165
 31
0.0
  0
LINE
  5
98
330
1D
100
AcDbEntity
  8
0
100
AcDbLine
 10
84.445
 20
0.1165
 30
0.0
 11
86.3107
 21
0.1165
 31
0.0
  0
LINE
  5
99
330
1D
100
AcDbEntity
  8
0
100
AcDbLine
 10
56.0759
 20
0.1165
 30
0.0
 11
57.9667
 21
0.1165
 31
0.0
  0
LINE
  5
9A
330
1D
100
AcDbEntity
  8
0
100
AcDbLine
 10
54.4771
 20
0.1165
 30
0.0
 11
56.458
 21
0.1165
 31
0.0
  0
LINE
  5
9B
330
1D
100
AcDbEntity
  8
0
100
AcDbLine
 10
86.6088
 20
0.1165
 30
0.0
 11
88.5161
 21
0.1165
 31
0.0
  0
LINE
  5
9C
330
1D
100
AcDbEntity
  8
0
100
AcDbLine
 10
88.0291
 20
0.1165
 30
0.0
 11
89.5838
 21
0.1165
 31
0.0
  0
LINE
  5
9D
330
1D
100
AcDbEntity
  8
0
100
AcDbLine
 10
88.5161
 20
0.1165
 30
0.0
 11
90.2649
 21
0.1165
 31
0.0
  0
LINE
  5
9E
330
1D
100
AcDbEntity
  8
0
100
AcDbLine
 10
89.5838
 20
0.1165
 30
0.0
 11
90.9599
 21
0.1165
 31
0.0
  0
LINE
  5
9F
330
1D
100
AcDbEntity
  8
0
100
AcDbLine
 10
86.3107
 20
0.1165
 30
0.0
 11
88.0291
 21
0.1165
 31
0.0
  0
LINE
  5
A0
330
1D
100
AcDbEntity
  8
0
100
AcDbLine
 10
84.5603
 20
0.1165
 30
0.0
 11
86.6088
 21
0.1165
 31
0.0
  0
LINE
  5
A1
330
1D
100
AcDbEntity
  8
0
100
AcDbLine
 10
91.8403
 20
0.1165
 30
0.0
 11
93.2268
 21
0.1165
 31
0.0
  0
LINE
  5
A2
330
1D
100
AcDbEntity
  8
0
100
AcDbLine
 10
90.2649
 20
0.1165
 30
0.0
 11
91.8403
 21
0.1165
 31
0.0
  0
LINE
  5
A3
330
1D
100
AcDbEntity
  8
0
100
AcDbLine
 10
90.9599
 20
0.1165
 30
0.0
 11
92.1436
 21
0.1165
 31
0.0
  0
LINE
  5
A4
330
1D
100
AcDbEntity
  8
0
100
AcDbLine
 10
49.4986
 20
0.1165
 30
0.0
 11
50.9813
 21
0.1165
 31
0.0
  0
LINE
  5
A5
330
1D
100
AcDbEntity
  8
0
100
AcDbLine
 10
93.1246
 20
0.1165
 30
0.0
 11
93.8924
 21
0.1165
 31
0.0
  0
LINE
  5
A6
330
1D
100
AcDbEntity
  8
0
100
AcDbLine
 10
92.1436
 20
0.1165
 30
0.0
 11
93.1246
 21
0.1165
 31
0.0
  0
LINE
  5
A7
330
1D
100
AcDbEntity
  8
0
100
AcDbLine
 10
50.1112
 20
0.1165
 30
0.0
 11
51.3323
 21
0.1165
 31
0.0
  0
LINE
  5
A8
330
1D
100
AcDbEntity
  8
0
100
AcDbLine
 10
49.093
 20
0.1165
 30
0.0
 11
50.1112
 21
0.1165
 31
0.0
  0
LINE
  5
A9
330
1D
100
AcDbEntity
  8
0
100
AcDbLine
 10
48.2854
 20
0.1165
 30
0.0
 11
49.093
 21
0.1165
 31
0.0
  0
LINE
  5
AA
330
1D
100
AcDbEntity
  8
0
100
AcDbLine
 10
94.4115
 20
0.1165
 30
0.0
 11
95.3846
 21
0.1165
 31
0.0
  0
LINE
  5
AB
330
1D
100
AcDbEntity
  8
0
100
AcDbLine
 10
94.4392
 20
0.1165
 30
0.0
 11
94.7616
 21
0.1165
 31
0.0
  0
LINE
  5
AC
330
1D
100
AcDbEntity
  8
0
100
AcDbLine
 10
93.8924
 20
0.1165
 30
0.0
 11
94.4392
 21
0.1165
 31
0.0
  0
LINE
  5
AD
330
1D
100
AcDbEntity
  8
0
100
AcDbLine
 10
93.2268
 20
0.1165
 30
0.0
 11
94.4115
 21
0.1165
 31
0.0
  0
LINE
  5
AE
330
1D
100
AcDbEntity
  8
0
100
AcDbLine
 10
94.7616
 20
0.1165
 30
0.0
 11
96.6637
 21
0.1165
 31
0.0
  0
LINE
  5
AF
330
1D
100
AcDbEntity
  8
0
100
AcDbLine
 10
94.7616
 20
0.1165
 30
0.0
 11
94.8464
 21
0.1165
 31
0.0
  0
LINE
  5
B0
330
1D
100
AcDbEntity
  8
0
100
AcDbLine
 10
94.7616
 20
0.1165
 30
0.0
 11
96.9566
 21
0.1165
 31
0.0
  0
LINE
  5
B1
330
1D
100
AcDbEntity
  8
0
100
AcDbLine
 10
94.4392
 20
0.1165
 30
0.0
 11
94.7616
 21
0.1165
 31
0.0
  0
LINE
  5
B2
330
1D
100
AcDbEntity
  8
0
100
AcDbLine
 10
93.8924
 20
0.1165
 30
0.0
 11
94.4392
 21
0.1165
 31
0.0
  0
LINE
  5
B3
330
1D
100
AcDbEntity
  8
0
100
AcDbLine
 10
96.6637
 20
0.1165
 30
0.0
 11
96.9566
 21
0.1165
 31
0.0
  0
LINE
  5
B4
330
1D
100
AcDbEntity
  8
0
100
AcDbLine
 10
96.1377
 20
0.1165
 30
0.0
 11
96.6637
 21
0.1165
 31
0.0
  0
LINE
  5
B5
330
1D
100
AcDbEntity
  8
0
100
AcDbLine
 10
95.3846
 20
0.1165
 30
0.0
 11
96.1377
 21
0.1165
 31
0.0
  0
LINE
  5
B6
330
1D
100
AcDbEntity
  8
0
100
AcDbLine
 10
96.6637
 20
0.1165
 30
0.0
 11
96.9566
 21
0.1165
 31
0.0
  0
LINE
  5
B7
330
1D
100
AcDbEntity
  8
0
100
AcDbLine
 10
148.5176
 20
0.1165
 30
0.0
 11
152.6471
 21
0.1165
 31
0.0
  0
LINE
  5
B8
330
1D
100
AcDbEntity
  8
0
100
AcDbLine
 10
145.9176
 20
0.1165
 30
0.0
 11
148.5176
 21
0.1165
 31
0.0
  0
LINE
  5
B9
330
1D
100
AcDbEntity
  8
0
100
AcDbLine
 10
152.6471
 20
0.1165
 30
0.0
 11
158.0765
 21
0.1165
 31
0.0
  0
LINE
  5
BA
330
1D
100
AcDbEntity
  8
0
100
AcDbLine
 10
158.0765
 20
0.1165
 30
0.0
 11
164.3471
 21
0.1165
 31
0.0
  0
LINE
  5
BB
330
1D
100
AcDbEntity
  8
0
100
AcDbLine
 10
164.3471
 20
0.1165
 30
0.0
 11
171.0
 21
0.1165
 31
0.0
  0
LINE
  5
BD
330
1D
100
AcDbEntity
  8
0
100
AcDbLine
 10
145.0
 20
0.1165
 30
0.0
 11
145.0
 21
6.96265
 31
0.0
  0
LINE
  5
BE
330
1D
100
AcDbEntity
  8
0
100
AcDbLine
 10
145.0
 20
0.1165
 30
0.0
 11
145.9176
 21
0.1165
 31
0.0
  0
LINE
  5
BF
330
1D
100
AcDbEntity
  8
0
100
AcDbLine
 10
145.0
 20
0.1165
 30
0.0
 11
145.9176
 21
0.1165
 31
0.0
  0
LINE
  5
C0
330
1D
100
AcDbEntity
  8
0
100
AcDbLine
 10
145.9176
 20
0.1165
 30
0.0
 11
148.5176
 21
0.1165
 31
0.0
  0
LINE
  5
C1
330
1D
100
AcDbEntity
  8
0
100
AcDbLine
 10
97.0
 20
0.1165
 30
0.0
 11
97.0
 21
7.10405
 31
0.0
  0
LINE
  5
C2
330
1D
100
AcDbEntity
  8
0
100
AcDbLine
 10
96.1377
 20
0.1165
 30
0.0
 11
96.6637
 21
0.1165
 31
0.0
  0
LINE
  5
C3
330
1D
100
AcDbEntity
  8
0
100
AcDbLine
 10
94.7616
 20
0.1165
 30
0.0
 11
96.6637
 21
0.1165
 31
0.0
  0
LINE
  5
C4
330
1D
100
AcDbEntity
  8
0
100
AcDbLine
 10
94.7616
 20
0.1165
 30
0.0
 11
94.8464
 21
0.1165
 31
0.0
  0
LINE
  5
C5
330
1D
100
AcDbEntity
  8
0
100
AcDbLine
 10
94.7616
 20
0.1165
 30
0.0
 11
96.9566
 21
0.1165
 31
0.0
  0
LINE
  5
C6
330
1D
100
AcDbEntity
  8
0
100
AcDbLine
 10
95.3846
 20
0.1165
 30
0.0
 11
96.1377
 21
0.1165
 31
0.0
  0
LINE
  5
C7
330
1D
100
AcDbEntity
  8
0
100
AcDbLine
 10
93.1246
 20
0.1165
 30
0.0
 11
93.8924
 21
0.1165
 31
0.0
  0
LINE
  5
C8
330
1D
100
AcDbEntity
  8
0
100
AcDbLine
 10
148.5176
 20
0.1165
 30
0.0
 11
152.6471
 21
0.1165
 31
0.0
  0
LINE
  5
C9
330
1D
100
AcDbEntity
  8
0
100
AcDbLine
 10
94.4115
 20
0.1165
 30
0.0
 11
95.3846
 21
0.1165
 31
0.0
  0
LINE
  5
CA
330
1D
100
AcDbEntity
  8
0
100
AcDbLine
 10
92.1436
 20
0.1165
 30
0.0
 11
93.1246
 21
0.1165
 31
0.0
  0
LINE
  5
CB
330
1D
100
AcDbEntity
  8
0
100
AcDbLine
 10
51.3323
 20
0.1165
 30
0.0
 11
52.7422
 21
0.1165
 31
0.0
  0
LINE
  5
CC
330
1D
100
AcDbEntity
  8
0
100
AcDbLine
 10
90.9599
 20
0.1165
 30
0.0
 11
92.1436
 21
0.1165
 31
0.0
  0
LINE
  5
CD
330
1D
100
AcDbEntity
  8
0
100
AcDbLine
 10
50.1112
 20
0.1165
 30
0.0
 11
51.3323
 21
0.1165
 31
0.0
  0
LINE
  5
CE
330
1D
100
AcDbEntity
  8
0
100
AcDbLine
 10
49.093
 20
0.1165
 30
0.0
 11
50.1112
 21
0.1165
 31
0.0
  0
LINE
  5
CF
330
1D
100
AcDbEntity
  8
0
100
AcDbLine
 10
48.2109
 20
0.1165
 30
0.0
 11
49.4986
 21
0.1165
 31
0.0
  0
LINE
  5
D0
330
1D
100
AcDbEntity
  8
0
100
AcDbLine
 10
45.1207
 20
7.65768
 30
0.0
 11
45.3659
 21
8.15755
 31
0.0
  0
LINE
  5
D1
330
1D
100
AcDbEntity
  8
0
100
AcDbLine
 10
45.0357
 20
7.10405
 30
0.0
 11
45.1207
 21
7.65768
 31
0.0
  0
LINE
  5
D2
330
1D
100
AcDbEntity
  8
0
100
AcDbLine
 10
45.0357
 20
7.10405
 30
0.0
 11
45.0357
 21
0.1165
 31
0.0
  0
LINE
  5
D3
330
1D
100
AcDbEntity
  8
0
100
AcDbLine
 10
46.2471
 20
8.80793
 30
0.0
 11
46.7708
 21
8.89573
 31
0.0
  0
LINE
  5
D4
330
1D
100
AcDbEntity
  8
0
100
AcDbLine
 10
46.2333
 20
8.80793
 30
0.0
 11
46.762
 21
8.89573
 31
0.0
  0
LINE
  5
D5
330
1D
100
AcDbEntity
  8
0
100
AcDbLine
 10
45.7497
 20
8.55352
 30
0.0
 11
46.2333
 21
8.80793
 31
0.0
  0
LINE
  5
D6
330
1D
100
AcDbEntity
  8
0
100
AcDbLine
 10
45.3659
 20
8.15755
 30
0.0
 11
45.7497
 21
8.55352
 31
0.0
  0
LINE
  5
D7
330
1D
100
AcDbEntity
  8
0
100
AcDbLine
 10
47.2715
 20
8.89573
 30
0.0
 11
47.8712
 21
8.89573
 31
0.0
  0
LINE
  5
D8
330
1D
100
AcDbEntity
  8
0
100
AcDbLine
 10
37.039
 20
57.1358
 30
0.0
 11
39.877
 21
56.4433
 31
0.0
  0
LINE
  5
DD
330
1D
100
AcDbEntity
  8
0
100
AcDbLine
 10
39.877
 20
56.4433
 30
0.0
 11
41.264027775487
 21
56.074393061819
 31
0.0
  0
LINE
  5
DF
330
1D
100
AcDbEntity
  8
0
100
AcDbLine
 10
41.264027775487
 20
56.074393061819
 30
0.0
 11
42.792728024899
 21
55.613863011388
 31
0.0
  0
LINE
  5
E0
330
1D
100
AcDbEntity
  8
0
100
AcDbLine
 10
44.018694271354
 20
55.211146486815
 30
0.0
 11
44.9993
 21
54.8613
 31
0.0
  0
LINE
  5
E1
330
1D
100
AcDbEntity
  8
0
100
AcDbLine
 10
44.9993
 20
54.8613
 30
0.0
 11
46.5418
 21
54.2145
 31
0.0
  0
LINE
  5
E3
330
1D
100
AcDbEntity
  8
0
100
AcDbLine
 10
48.014
 20
53.4731
 30
0.0
 11
48.7759
 21
53.0481
 31
0.0
  0
LINE
  5
E6
330
1D
100
AcDbEntity
  8
0
100
AcDbLine
 10
47.6727
 20
53.6635
 30
0.0
 11
48.014
 21
53.4731
 31
0.0
  0
LINE
  5
E7
330
1D
100
AcDbEntity
  8
0
100
AcDbLine
 10
47.3228
 20
53.834
 30
0.0
 11
47.6727
 21
53.6635
 31
0.0
  0
LINE
  5
EB
330
1D
100
AcDbEntity
  8
0
100
AcDbLine
 10
46.5418
 20
54.2145
 30
0.0
 11
47.3228
 21
53.834
 31
0.0
  0
LINE
  5
EC
330
1D
100
AcDbEntity
  8
0
100
AcDbLine
 10
41.264027775487
 20
56.074393061819
 30
0.0
 11
42.792728024899
 21
55.613863011388
 31
0.0
  0
LINE
  5
EE
330
1D
100
AcDbEntity
  8
0
100
AcDbLine
 10
47.8712
 20
8.89573
 30
0.0
 11
48.6936
 21
8.89573
 31
0.0
  0
LINE
  5
EF
330
1D
100
AcDbEntity
  8
0
100
AcDbLine
 10
49.5161
 20
52.573
 30
0.0
 11
49.8478
 21
52.3601
 31
0.0
  0
LINE
  5
F2
330
1D
100
AcDbEntity
  8
0
100
AcDbLine
 10
48.7759
 20
53.0481
 30
0.0
 11
49.5161
 21
52.573
 31
0.0
  0
LINE
  5
F3
330
1D
100
AcDbEntity
  8
0
100
AcDbLine
 10
48.6936
 20
8.89573
 30
0.0
 11
49.7317
 21
8.89573
 31
0.0
  0
LINE
  5
F4
330
1D
100
AcDbEntity
  8
0
100
AcDbLine
 10
49.4986
 20
0.1165
 30
0.0
 11
50.9813
 21
0.1165
 31
0.0
  0
LINE
  5
F5
330
1D
100
AcDbEntity
  8
0
100
AcDbLine
 10
50.9813
 20
0.1165
 30
0.0
 11
52.646
 21
0.1165
 31
0.0
  0
LINE
  5
F6
330
1D
100
AcDbEntity
  8
0
100
AcDbLine
 10
50.9744
 20
8.89573
 30
0.0
 11
52.4103
 21
8.89573
 31
0.0
  0
LINE
  5
F7
330
1D
100
AcDbEntity
  8
0
100
AcDbLine
 10
52.7422
 20
0.1165
 30
0.0
 11
54.3289
 21
0.1165
 31
0.0
  0
LINE
  5
F8
330
1D
100
AcDbEntity
  8
0
100
AcDbLine
 10
52.646
 20
0.1165
 30
0.0
 11
54.4771
 21
0.1165
 31
0.0
  0
LINE
  5
F9
330
1D
100
AcDbEntity
  8
0
100
AcDbLine
 10
54.3289
 20
0.1165
 30
0.0
 11
56.0759
 21
0.1165
 31
0.0
  0
LINE
  5
FA
330
1D
100
AcDbEntity
  8
0
100
AcDbLine
 10
59.9833
 20
0.1165
 30
0.0
 11
62.1064
 21
0.1165
 31
0.0
  0
LINE
  5
FB
330
1D
100
AcDbEntity
  8
0
100
AcDbLine
 10
58.5708
 20
0.1165
 30
0.0
 11
60.7961
 21
0.1165
 31
0.0
  0
LINE
  5
FC
330
1D
100
AcDbEntity
  8
0
100
AcDbLine
 10
62.1064
 20
0.1165
 30
0.0
 11
64.3161
 21
0.1165
 31
0.0
  0
LINE
  5
FD
330
1D
100
AcDbEntity
  8
0
100
AcDbLine
 10
60.7961
 20
0.1165
 30
0.0
 11
63.1142
 21
0.1165
 31
0.0
  0
LINE
  5
FE
330
1D
100
AcDbEntity
  8
0
100
AcDbLine
 10
64.3161
 20
0.1165
 30
0.0
 11
66.5892
 21
0.1165
 31
0.0
  0
LINE
  5
FF
330
1D
100
AcDbEntity
  8
0
100
AcDbLine
 10
63.1142
 20
0.1165
 30
0.0
 11
65.5042
 21
0.1165
 31
0.0
  0
LINE
  5
100
330
1D
100
AcDbEntity
  8
0
100
AcDbLine
 10
66.5892
 20
0.1165
 30
0.0
 11
68.9064
 21
0.1165
 31
0.0
  0
LINE
  5
101
330
1D
100
AcDbEntity
  8
0
100
AcDbLine
 10
58.0363
 20
8.89573
 30
0.0
 11
58.0363
 21
9.52279
 31
0.0
  0
LINE
  5
102
330
1D
100
AcDbEntity
  8
0
100
AcDbLine
 10
65.5042
 20
0.1165
 30
0.0
 11
67.9445
 21
0.1165
 31
0.0
  0
LINE
  5
103
330
1D
100
AcDbEntity
  8
0
100
AcDbLine
 10
68.9064
 20
0.1165
 30
0.0
 11
71.2427
 21
0.1165
 31
0.0
  0
LINE
  5
104
330
1D
100
AcDbEntity
  8
0
100
AcDbLine
 10
70.4117
 20
0.1165
 30
0.0
 11
72.8848
 21
0.1165
 31
0.0
  0
LINE
  5
105
330
1D
100
AcDbEntity
  8
0
100
AcDbLine
 10
71.2427
 20
0.1165
 30
0.0
 11
73.5773
 21
0.1165
 31
0.0
  0
LINE
  5
106
330
1D
100
AcDbEntity
  8
0
100
AcDbLine
 10
67.9445
 20
0.1165
 30
0.0
 11
70.4117
 21
0.1165
 31
0.0
  0
LINE
  5
107
330
1D
100
AcDbEntity
  8
0
100
AcDbLine
 10
57.9667
 20
0.1165
 30
0.0
 11
59.9833
 21
0.1165
 31
0.0
  0
LINE
  5
108
330
1D
100
AcDbEntity
  8
0
100
AcDbLine
 10
56.458
 20
0.1165
 30
0.0
 11
58.5708
 21
0.1165
 31
0.0
  0
LINE
  5
109
330
1D
100
AcDbEntity
  8
0
100
AcDbLine
 10
56.0759
 20
0.1165
 30
0.0
 11
57.9667
 21
0.1165
 31
0.0
  0
LINE
  5
10A
330
1D
100
AcDbEntity
  8
0
100
AcDbLine
 10
54.4771
 20
0.1165
 30
0.0
 11
56.458
 21
0.1165
 31
0.0
  0
LINE
  5
10B
330
1D
100
AcDbEntity
  8
0
100
AcDbLine
 10
57.7293
 20
8.89573
 30
0.0
 11
59.7831
 21
8.89573
 31
0.0
  0
LINE
  5
10C
330
1D
100
AcDbEntity
  8
0
100
AcDbLine
 10
54.0256
 20
8.89573
 30
0.0
 11
55.8046
 21
8.89573
 31
0.0
  0
LINE
  5
10D
330
1D
100
AcDbEntity
  8
0
100
AcDbLine
 10
55.8046
 20
8.89573
 30
0.0
 11
57.7293
 21
8.89573
 31
0.0
  0
LINE
  5
10E
330
1D
100
AcDbEntity
  8
0
100
AcDbLine
 10
52.4103
 20
8.89573
 30
0.0
 11
54.0256
 21
8.89573
 31
0.0
  0
LINE
  5
10F
330
1D
100
AcDbEntity
  8
0
100
AcDbLine
 10
59.7831
 20
8.89573
 30
0.0
 11
61.9443
 21
8.89573
 31
0.0
  0
LINE
  5
110
330
1D
100
AcDbEntity
  8
0
100
AcDbLine
 10
71.247
 20
8.89573
 30
0.0
 11
73.6241
 21
8.89573
 31
0.0
  0
LINE
  5
111
330
1D
100
AcDbEntity
  8
0
100
AcDbLine
 10
64.194
 20
8.89573
 30
0.0
 11
66.5086
 21
8.89573
 31
0.0
  0
LINE
  5
112
330
1D
100
AcDbEntity
  8
0
100
AcDbLine
 10
84.445
 20
0.1165
 30
0.0
 11
86.3107
 21
0.1165
 31
0.0
  0
LINE
  5
113
330
1D
100
AcDbEntity
  8
0
100
AcDbLine
 10
82.4501
 20
0.1165
 30
0.0
 11
84.445
 21
0.1165
 31
0.0
  0
LINE
  5
114
330
1D
100
AcDbEntity
  8
0
100
AcDbLine
 10
80.3452
 20
0.1165
 30
0.0
 11
82.4501
 21
0.1165
 31
0.0
  0
LINE
  5
115
330
1D
100
AcDbEntity
  8
0
100
AcDbLine
 10
88.0291
 20
0.1165
 30
0.0
 11
89.5838
 21
0.1165
 31
0.0
  0
LINE
  5
116
330
1D
100
AcDbEntity
  8
0
100
AcDbLine
 10
89.5838
 20
0.1165
 30
0.0
 11
90.9599
 21
0.1165
 31
0.0
  0
LINE
  5
117
330
1D
100
AcDbEntity
  8
0
100
AcDbLine
 10
86.6088
 20
0.1165
 30
0.0
 11
88.5161
 21
0.1165
 31
0.0
  0
LINE
  5
118
330
1D
100
AcDbEntity
  8
0
100
AcDbLine
 10
88.5161
 20
0.1165
 30
0.0
 11
90.2649
 21
0.1165
 31
0.0
  0
LINE
  5
119
330
1D
100
AcDbEntity
  8
0
100
AcDbLine
 10
86.3107
 20
0.1165
 30
0.0
 11
88.0291
 21
0.1165
 31
0.0
  0
LINE
  5
11A
330
1D
100
AcDbEntity
  8
0
100
AcDbLine
 10
75.8875
 20
0.1165
 30
0.0
 11
78.1502
 21
0.1165
 31
0.0
  0
LINE
  5
11B
330
1D
100
AcDbEntity
  8
0
100
AcDbLine
 10
73.5773
 20
0.1165
 30
0.0
 11
75.8875
 21
0.1165
 31
0.0
  0
LINE
  5
11C
330
1D
100
AcDbEntity
  8
0
100
AcDbLine
 10
72.8848
 20
0.1165
 30
0.0
 11
75.3416
 21
0.1165
 31
0.0
  0
LINE
  5
11D
330
1D
100
AcDbEntity
  8
0
100
AcDbLine
 10
75.3416
 20
0.1165
 30
0.0
 11
77.7584
 21
0.1165
 31
0.0
  0
LINE
  5
11E
330
1D
100
AcDbEntity
  8
0
100
AcDbLine
 10
78.1502
 20
0.1165
 30
0.0
 11
80.3452
 21
0.1165
 31
0.0
  0
LINE
  5
11F
330
1D
100
AcDbEntity
  8
0
100
AcDbLine
 10
82.3894
 20
0.1165
 30
0.0
 11
84.5603
 21
0.1165
 31
0.0
  0
LINE
  5
120
330
1D
100
AcDbEntity
  8
0
100
AcDbLine
 10
80.1155
 20
0.1165
 30
0.0
 11
82.3894
 21
0.1165
 31
0.0
  0
LINE
  5
121
330
1D
100
AcDbEntity
  8
0
100
AcDbLine
 10
77.7584
 20
0.1165
 30
0.0
 11
80.1155
 21
0.1165
 31
0.0
  0
LINE
  5
122
330
1D
100
AcDbEntity
  8
0
100
AcDbLine
 10
84.5603
 20
0.1165
 30
0.0
 11
86.6088
 21
0.1165
 31
0.0
  0
LINE
  5
123
330
1D
100
AcDbEntity
  8
0
100
AcDbLine
 10
152.6471
 20
0.1165
 30
0.0
 11
158.0765
 21
0.1165
 31
0.0
  0
LINE
  5
124
330
1D
100
AcDbEntity
  8
0
100
AcDbLine
 10
158.0765
 20
0.1165
 30
0.0
 11
164.3471
 21
0.1165
 31
0.0
  0
LINE
  5
126
330
1D
100
AcDbEntity
  8
0
100
AcDbLine
 10
164.3471
 20
0.1165
 30
0.0
 11
171.0
 21
0.1165
 31
0.0
  0
LINE
  5
127
330
1D
100
AcDbEntity
  8
0
100
AcDbLine
 10
145.0
 20
6.96265
 30
0.0
 11
145.3823
 21
7.73189
 31
0.0
  0
LINE
  5
128
330
1D
100
AcDbEntity
  8
0
100
AcDbLine
 10
145.0
 20
6.96265
 30
0.0
 11
145.0
 21
0.1165
 31
0.0
  0
LINE
  5
129
330
1D
100
AcDbEntity
  8
0
100
AcDbLine
 10
97.0
 20
7.10405
 30
0.0
 11
97.0
 21
0.1165
 31
0.0
  0
LINE
  5
12A
330
1D
100
AcDbEntity
  8
0
100
AcDbLine
 10
148.8235
 20
7.73189
 30
0.0
 11
152.8765
 21
7.73189
 31
0.0
  0
LINE
  5
12B
330
1D
100
AcDbEntity
  8
0
100
AcDbLine
 10
149.5118
 20
8.1165
 30
0.0
 11
153.4118
 21
8.1165
 31
0.0
  0
LINE
  5
12C
330
1D
100
AcDbEntity
  8
0
100
AcDbLine
 10
147.0647
 20
8.1165
 30
0.0
 11
149.5118
 21
8.1165
 31
0.0
  0
LINE
  5
12D
330
1D
100
AcDbEntity
  8
0
100
AcDbLine
 10
146.1471
 20
8.1165
 30
0.0
 11
147.0647
 21
8.1165
 31
0.0
  0
LINE
  5
12E
330
1D
100
AcDbEntity
  8
0
100
AcDbLine
 10
146.3
 20
7.73189
 30
0.0
 11
148.8235
 21
7.73189
 31
0.0
  0
LINE
  5
12F
330
1D
100
AcDbEntity
  8
0
100
AcDbLine
 10
145.3823
 20
7.73189
 30
0.0
 11
146.3
 21
7.73189
 31
0.0
  0
LINE
  5
130
330
1D
100
AcDbEntity
  8
0
100
AcDbLine
 10
145.3823
 20
7.73189
 30
0.0
 11
146.1471
 21
8.1165
 31
0.0
  0
LINE
  5
133
330
1D
100
AcDbEntity
  8
0
100
AcDbLine
 10
150.1264
 20
8.1165
 30
0.0
 11
150.173121610974
 21
9.961745299113
 31
0.0
  0
LINE
  5
134
330
1D
100
AcDbEntity
  8
0
100
AcDbLine
 10
152.8765
 20
7.73189
 30
0.0
 11
158.2294
 21
7.73189
 31
0.0
  0
LINE
  5
136
330
1D
100
AcDbEntity
  8
0
100
AcDbLine
 10
158.2294
 20
7.73189
 30
0.0
 11
164.4235
 21
7.73189
 31
0.0
  0
LINE
  5
137
330
1D
100
AcDbEntity
  8
0
100
AcDbLine
 10
164.4235
 20
7.73189
 30
0.0
 11
171.0
 21
7.73189
 31
0.0
  0
LINE
  5
139
330
1D
100
AcDbEntity
  8
0
100
AcDbLine
 10
153.4118
 20
8.1165
 30
0.0
 11
158.6118
 21
8.1165
 31
0.0
  0
LINE
  5
13B
330
1D
100
AcDbEntity
  8
0
100
AcDbLine
 10
158.6118
 20
8.1165
 30
0.0
 11
164.5765
 21
8.1165
 31
0.0
  0
LINE
  5
13C
330
1D
100
AcDbEntity
  8
0
100
AcDbLine
 10
164.5765
 20
8.1165
 30
0.0
 11
171.0
 21
8.1165
 31
0.0
  0
LINE
  5
13F
330
1D
100
AcDbEntity
  8
0
100
AcDbLine
 10
150.1407
 20
8.1165
 30
0.0
 11
151.5976
 21
90.5623
 31
0.0
  0
LINE
  5
140
330
1D
100
AcDbEntity
  8
0
100
AcDbLine
 10
150.1407
 20
8.1165
 30
0.0
 11
151.5976
 21
90.5623
 31
0.0
  0
LINE
  5
144
330
1D
100
AcDbEntity
  8
0
100
AcDbLine
 10
96.9151
 20
7.65768
 30
0.0
 11
97.0
 21
7.10405
 31
0.0
  0
LINE
  5
145
330
1D
100
AcDbEntity
  8
0
100
AcDbLine
 10
96.6698
 20
8.15755
 30
0.0
 11
96.9151
 21
7.65768
 31
0.0
  0
LINE
  5
146
330
1D
100
AcDbEntity
  8
0
100
AcDbLine
 10
95.2795
 20
8.89573
 30
0.0
 11
95.8039
 21
8.80793
 31
0.0
  0
LINE
  5
147
330
1D
100
AcDbEntity
  8
0
100
AcDbLine
 10
95.8039
 20
8.80793
 30
0.0
 11
96.2864
 21
8.55352
 31
0.0
  0
LINE
  5
148
330
1D
100
AcDbEntity
  8
0
100
AcDbLine
 10
96.2864
 20
8.55352
 30
0.0
 11
96.6698
 21
8.15755
 31
0.0
  0
LINE
  5
149
330
1D
100
AcDbEntity
  8
0
100
AcDbLine
 10
94.8655
 20
8.89573
 30
0.0
 11
95.1931
 21
8.89573
 31
0.0
  0
LINE
  5
14A
330
1D
100
AcDbEntity
  8
0
100
AcDbLine
 10
94.3083
 20
8.89573
 30
0.0
 11
94.8655
 21
8.89573
 31
0.0
  0
LINE
  5
14B
330
1D
100
AcDbEntity
  8
0
100
AcDbLine
 10
93.5258
 20
8.89573
 30
0.0
 11
94.3083
 21
8.89573
 31
0.0
  0
LINE
  5
14C
330
1D
100
AcDbEntity
  8
0
100
AcDbLine
 10
91.8403
 20
0.1165
 30
0.0
 11
93.2268
 21
0.1165
 31
0.0
  0
LINE
  5
14D
330
1D
100
AcDbEntity
  8
0
100
AcDbLine
 10
90.2649
 20
0.1165
 30
0.0
 11
91.8403
 21
0.1165
 31
0.0
  0
LINE
  5
14F
330
1D
100
AcDbEntity
  8
0
100
AcDbLine
 10
84.0212
 20
8.89573
 30
0.0
 11
84.0212
 21
9.52279
 31
0.0
  0
LINE
  5
150
330
1D
100
AcDbEntity
  8
0
100
AcDbLine
 10
88.3385
 20
8.89573
 30
0.0
 11
89.9217
 21
8.89573
 31
0.0
  0
LINE
  5
151
330
1D
100
AcDbEntity
  8
0
100
AcDbLine
 10
80.5142
 20
8.89573
 30
0.0
 11
82.6581
 21
8.89573
 31
0.0
  0
LINE
  5
152
330
1D
100
AcDbEntity
  8
0
100
AcDbLine
 10
78.281
 20
8.89573
 30
0.0
 11
80.5142
 21
8.89573
 31
0.0
  0
LINE
  5
153
330
1D
100
AcDbEntity
  8
0
100
AcDbLine
 10
75.976
 20
8.89573
 30
0.0
 11
78.281
 21
8.89573
 31
0.0
  0
LINE
  5
154
330
1D
100
AcDbEntity
  8
0
100
AcDbLine
 10
51.7862
 20
50.7967
 30
0.0
 11
52.1919
 21
50.4394
 31
0.0
  0
LINE
  5
155
330
1D
100
AcDbEntity
  8
0
100
AcDbLine
 10
50.1675
 20
52.1231
 30
0.0
 11
50.8808
 21
51.5941
 31
0.0
  0
LINE
  5
159
330
1D
100
AcDbEntity
  8
0
100
AcDbLine
 10
49.8478
 20
52.3601
 30
0.0
 11
50.1675
 21
52.1231
 31
0.0
  0
LINE
  5
15D
330
1D
100
AcDbEntity
  8
0
100
AcDbLine
 10
50.8808
 20
51.5941
 30
0.0
 11
51.7862
 21
50.7967
 31
0.0
  0
LINE
  5
15F
330
1D
100
AcDbEntity
  8
0
100
AcDbLine
 10
58.071
 20
9.65723
 30
0.0
 11
58.1661
 21
9.75577
 31
0.0
  0
LINE
  5
160
330
1D
100
AcDbEntity
  8
0
100
AcDbLine
 10
58.1661
 20
9.75577
 30
0.0
 11
58.2961
 21
9.79158
 31
0.0
  0
LINE
  5
161
330
1D
100
AcDbEntity
  8
0
100
AcDbLine
 10
58.7345
 20
9.79158
 30
0.0
 11
59.108
 21
9.79158
 31
0.0
  0
LINE
  5
163
330
1D
100
AcDbEntity
  8
0
100
AcDbLine
 10
58.4719
 20
9.79158
 30
0.0
 11
58.7345
 21
9.79158
 31
0.0
  0
LINE
  5
164
330
1D
100
AcDbEntity
  8
0
100
AcDbLine
 10
58.3229
 20
9.79158
 30
0.0
 11
58.4719
 21
9.79158
 31
0.0
  0
LINE
  5
165
330
1D
100
AcDbEntity
  8
0
100
AcDbLine
 10
58.0363
 20
9.52279
 30
0.0
 11
58.071
 21
9.65723
 31
0.0
  0
LINE
  5
166
330
1D
100
AcDbEntity
  8
0
100
AcDbLine
 10
58.0363
 20
9.52279
 30
0.0
 11
58.0363
 21
8.89573
 31
0.0
  0
LINE
  5
167
330
1D
100
AcDbEntity
  8
0
100
AcDbLine
 10
71.3813
 20
9.79158
 30
0.0
 11
72.5893
 21
9.79158
 31
0.0
  0
LINE
  5
168
330
1D
100
AcDbEntity
  8
0
100
AcDbLine
 10
72.5893
 20
9.79158
 30
0.0
 11
73.7844
 21
9.79158
 31
0.0
  0
LINE
  5
169
330
1D
100
AcDbEntity
  8
0
100
AcDbLine
 10
68.9644
 20
9.79158
 30
0.0
 11
70.169
 21
9.79158
 31
0.0
  0
LINE
  5
16A
330
1D
100
AcDbEntity
  8
0
100
AcDbLine
 10
74.9542
 20
9.79158
 30
0.0
 11
76.0877
 21
9.79158
 31
0.0
  0
LINE
  5
16B
330
1D
100
AcDbEntity
  8
0
100
AcDbLine
 10
65.5068
 20
9.79158
 30
0.0
 11
66.623
 21
9.79158
 31
0.0
  0
LINE
  5
16C
330
1D
100
AcDbEntity
  8
0
100
AcDbLine
 10
62.4955
 20
9.79158
 30
0.0
 11
63.4331
 21
9.79158
 31
0.0
  0
LINE
  5
16D
330
1D
100
AcDbEntity
  8
0
100
AcDbLine
 10
63.4331
 20
9.79158
 30
0.0
 11
64.4401
 21
9.79158
 31
0.0
  0
LINE
  5
16E
330
1D
100
AcDbEntity
  8
0
100
AcDbLine
 10
78.2091
 20
9.79158
 30
0.0
 11
79.1762
 21
9.79158
 31
0.0
  0
LINE
  5
16F
330
1D
100
AcDbEntity
  8
0
100
AcDbLine
 10
79.1762
 20
9.79158
 30
0.0
 11
80.0696
 21
9.79158
 31
0.0
  0
LINE
  5
170
330
1D
100
AcDbEntity
  8
0
100
AcDbLine
 10
80.0696
 20
9.79158
 30
0.0
 11
80.8816
 21
9.79158
 31
0.0
  0
LINE
  5
171
330
1D
100
AcDbEntity
  8
0
100
AcDbLine
 10
61.635
 20
9.79158
 30
0.0
 11
62.4955
 21
9.79158
 31
0.0
  0
LINE
  5
172
330
1D
100
AcDbEntity
  8
0
100
AcDbLine
 10
60.1756
 20
9.79158
 30
0.0
 11
60.8594
 21
9.79158
 31
0.0
  0
LINE
  5
173
330
1D
100
AcDbEntity
  8
0
100
AcDbLine
 10
60.8594
 20
9.79158
 30
0.0
 11
61.635
 21
9.79158
 31
0.0
  0
LINE
  5
174
330
1D
100
AcDbEntity
  8
0
100
AcDbLine
 10
59.5898
 20
9.79158
 30
0.0
 11
60.1756
 21
9.79158
 31
0.0
  0
LINE
  5
175
330
1D
100
AcDbEntity
  8
0
100
AcDbLine
 10
59.108
 20
9.79158
 30
0.0
 11
59.5898
 21
9.79158
 31
0.0
  0
LINE
  5
176
330
1D
100
AcDbEntity
  8
0
100
AcDbLine
 10
83.6244
 20
9.79158
 30
0.0
 11
83.841
 21
9.85251
 31
0.0
  0
LINE
  5
179
330
1D
100
AcDbEntity
  8
0
100
AcDbLine
 10
83.1745
 20
9.79158
 30
0.0
 11
83.484
 21
9.79158
 31
0.0
  0
LINE
  5
17C
330
1D
100
AcDbEntity
  8
0
100
AcDbLine
 10
83.8912
 20
9.75577
 30
0.0
 11
83.9866
 21
9.65723
 31
0.0
  0
LINE
  5
17D
330
1D
100
AcDbEntity
  8
0
100
AcDbLine
 10
83.7612
 20
9.79158
 30
0.0
 11
83.8912
 21
9.75577
 31
0.0
  0
LINE
  5
17F
330
1D
100
AcDbEntity
  8
0
100
AcDbLine
 10
84.0212
 20
9.52279
 30
0.0
 11
84.0212
 21
8.89573
 31
0.0
  0
LINE
  5
180
330
1D
100
AcDbEntity
  8
0
100
AcDbLine
 10
83.9866
 20
9.65723
 30
0.0
 11
84.0212
 21
9.52279
 31
0.0
  0
LINE
  5
181
330
1D
100
AcDbEntity
  8
0
100
AcDbLine
 10
83.6798
 20
9.79158
 30
0.0
 11
83.7612
 21
9.79158
 31
0.0
  0
LINE
  5
182
330
1D
100
AcDbEntity
  8
0
100
AcDbLine
 10
81.6043
 20
9.79158
 30
0.0
 11
82.2309
 21
9.79158
 31
0.0
  0
LINE
  5
183
330
1D
100
AcDbEntity
  8
0
100
AcDbLine
 10
56.4373
 20
43.8505
 30
0.0
 11
57.0603
 21
41.8635
 31
0.0
  0
LINE
  5
184
330
1D
100
AcDbEntity
  8
0
100
AcDbLine
 10
55.6053
 20
45.7729
 30
0.0
 11
56.4373
 21
43.8505
 31
0.0
  0
LINE
  5
185
330
1D
100
AcDbEntity
  8
0
100
AcDbLine
 10
54.5351
 20
47.6148
 30
0.0
 11
55.1018
 21
46.7055
 31
0.0
  0
LINE
  5
186
330
1D
100
AcDbEntity
  8
0
100
AcDbLine
 10
55.1018
 20
46.7055
 30
0.0
 11
55.6053
 21
45.7729
 31
0.0
  0
LINE
  5
187
330
1D
100
AcDbEntity
  8
0
100
AcDbLine
 10
58.2761
 20
9.85251
 30
0.0
 11
58.4928
 21
9.79158
 31
0.0
  0
LINE
  5
18A
330
1D
100
AcDbEntity
  8
0
100
AcDbLine
 10
58.1176
 20
10.01639
 30
0.0
 11
58.2761
 21
9.85251
 31
0.0
  0
LINE
  5
18B
330
1D
100
AcDbEntity
  8
0
100
AcDbLine
 10
58.0595
 20
10.2404
 30
0.0
 11
58.095
 21
29.4427
 31
0.0
  0
LINE
  5
18C
330
1D
100
AcDbEntity
  8
0
100
AcDbLine
 10
58.0595
 20
10.2404
 30
0.0
 11
58.1176
 21
10.01639
 31
0.0
  0
LINE
  5
192
330
1D
100
AcDbEntity
  8
0
100
AcDbLine
 10
83.9996
 20
10.01639
 30
0.0
 11
84.0576
 21
10.2404
 31
0.0
  0
LINE
  5
193
330
1D
100
AcDbEntity
  8
0
100
AcDbLine
 10
83.841
 20
9.85251
 30
0.0
 11
83.9996
 21
10.01639
 31
0.0
  0
LINE
  5
194
330
1D
100
AcDbEntity
  8
0
100
AcDbLine
 10
57.9755
 20
35.6742
 30
0.0
 11
58.0638
 21
33.5832
 31
0.0
  0
LINE
  5
195
330
1D
100
AcDbEntity
  8
0
100
AcDbLine
 10
58.0638
 20
33.5832
 30
0.0
 11
58.095
 21
29.4427
 31
0.0
  0
LINE
  5
196
330
1D
100
AcDbEntity
  8
0
100
AcDbLine
 10
57.8524
 20
37.2401
 30
0.0
 11
57.9755
 21
35.6742
 31
0.0
  0
LINE
  5
197
330
1D
100
AcDbEntity
  8
0
100
AcDbLine
 10
57.4079
 20
40.3406
 30
0.0
 11
57.6678
 21
38.798
 31
0.0
  0
LINE
  5
198
330
1D
100
AcDbEntity
  8
0
100
AcDbLine
 10
57.6678
 20
38.798
 30
0.0
 11
57.8524
 21
37.2401
 31
0.0
  0
LINE
  5
199
330
1D
100
AcDbEntity
  8
0
100
AcDbLine
 10
57.0603
 20
41.8635
 30
0.0
 11
57.4079
 21
40.3406
 31
0.0
  0
LINE
  5
19A
330
1D
100
AcDbEntity
  8
0
100
AcDbLine
 10
82.2309
 20
9.79158
 30
0.0
 11
82.756
 21
9.79158
 31
0.0
  0
LINE
  5
1C6
330
1D
100
AcDbEntity
  8
0
100
AcDbLine
 10
53.4138
 20
49.1171
 30
0.0
 11
54.5351
 21
47.6148
 31
0.0
  0
LINE
  5
1C7
330
1D
100
AcDbEntity
  8
0
100
AcDbLine
 10
52.57
 20
50.0302
 30
0.0
 11
53.4138
 21
49.1171
 31
0.0
  0
LINE
  5
24A
330
1D
100
AcDbEntity
  8
0
100
AcDbLine
 10
83.6408
 20
52.4702
 30
0.0
 11
83.8149
 21
52.3842
 31
0.0
  0
LINE
  5
24C
330
1D
100
AcDbEntity
  8
0
100
AcDbLine
 10
83.8149
 20
52.3842
 30
0.0
 11
83.8756
 21
52.3152
 31
0.0
  0
LINE
  5
24E
330
1D
100
AcDbEntity
  8
0
100
AcDbLine
 10
83.8756
 20
52.3152
 30
0.0
 11
83.9363
 21
52.2284
 31
0.0
  0
LINE
  5
250
330
1D
100
AcDbEntity
  8
0
100
AcDbLine
 10
83.581089803777
 20
52.484119877883
 30
0.0
 11
83.6407
 21
52.4703
 31
0.0
  0
LINE
  5
270
330
1D
100
AcDbEntity
  8
0
100
AcDbLine
 10
83.9363
 20
52.2284
 30
0.0
 11
83.9797
 21
52.034
 31
0.0
  0
LINE
  5
27A
330
1D
100
AcDbEntity
  8
0
100
AcDbLine
 10
52.1919
 20
50.4394
 30
0.0
 11
52.57
 21
50.0302
 31
0.0
  0
LINE
  5
27B
330
1D
100
AcDbEntity
  8
0
100
AcDbLine
 10
68.8674
 20
8.89573
 30
0.0
 11
71.247
 21
8.89573
 31
0.0
  0
LINE
  5
27C
330
1D
100
AcDbEntity
  8
0
100
AcDbLine
 10
49.7317
 20
8.89573
 30
0.0
 11
50.9744
 21
8.89573
 31
0.0
  0
LINE
  5
27D
330
1D
100
AcDbEntity
  8
0
100
AcDbLine
 10
93.2268
 20
0.1165
 30
0.0
 11
94.4115
 21
0.1165
 31
0.0
  0
LINE
  5
27F
330
1D
100
AcDbEntity
  8
0
100
AcDbLine
 10
36.0
 20
57.3829
 30
0.0
 11
37.0388
 21
57.1358
 31
0.0
  0
LINE
  5
280
330
1D
100
AcDbEntity
  8
0
100
AcDbLine
 10
36.0
 20
57.3829
 30
0.0
 11
37.039
 21
57.1358
 31
0.0
  0
LINE
  5
2DA
330
1D
100
AcDbEntity
  8
0
100
AcDbLine
 10
0.0
 20
69.9311
 30
0.0
 11
0.0902
 21
70.1909
 31
0.0
  0
LINE
  5
2DB
330
1D
100
AcDbEntity
  8
0
100
AcDbLine
 10
0.0
 20
69.9311
 30
0.0
 11
0.0612
 21
69.0166
 31
0.0
  0
LINE
  5
2E0
330
1D
100
AcDbEntity
  8
0
100
AcDbLine
 10
2.0511
 20
70.1158
 30
0.0
 11
2.8301
 21
69.9677
 31
0.0
  0
LINE
  5
2EA
330
1D
100
AcDbEntity
  8
0
100
AcDbLine
 10
0.3374
 20
70.3609
 30
0.0
 11
0.6554
 21
70.3829
 31
0.0
  0
LINE
  5
2EC
330
1D
100
AcDbEntity
  8
0
100
AcDbLine
 10
1.443
 20
70.232
 30
0.0
 11
2.0511
 21
70.1158
 31
0.0
  0
LINE
  5
2ED
330
1D
100
AcDbEntity
  8
0
100
AcDbLine
 10
1.0959
 20
70.2988
 30
0.0
 11
1.443
 21
70.232
 31
0.0
  0
LINE
  5
2EE
330
1D
100
AcDbEntity
  8
0
100
AcDbLine
 10
0.8499
 20
70.3454
 30
0.0
 11
1.0959
 21
70.2988
 31
0.0
  0
LINE
  5
2F0
330
1D
100
AcDbEntity
  8
0
100
AcDbLine
 10
151.9493
 20
97.0345
 30
0.0
 11
151.9932
 21
97.8063
 31
0.0
  0
LINE
  5
2F1
330
1D
100
AcDbEntity
  8
0
100
AcDbLine
 10
151.9932
 20
97.8063
 30
0.0
 11
152.016
 21
98.19
 31
0.0
  0
LINE
  5
2F2
330
1D
100
AcDbEntity
  8
0
100
AcDbLine
 10
151.5976
 20
90.5623
 30
0.0
 11
151.9493
 21
97.0345
 31
0.0
  0
LINE
  5
2F5
330
1D
100
AcDbEntity
  8
0
100
AcDbLine
 10
152.016
 20
98.19
 30
0.0
 11
152.0663
 21
99.0662
 31
0.0
  0
LINE
  5
2F7
330
1D
100
AcDbEntity
  8
0
100
AcDbLine
 10
152.0663
 20
99.0662
 30
0.0
 11
152.2854
 21
102.4075
 31
0.0
  0
LINE
  5
2FF
330
1D
100
AcDbEntity
  8
0
100
AcDbLine
 10
152.2854
 20
102.4075
 30
0.0
 11
154.0292
 21
112.4815
 31
0.0
  0
LINE
  5
300
330
1D
100
AcDbEntity
  8
0
100
AcDbLine
 10
152.2854
 20
102.4075
 30
0.0
 11
154.0292
 21
112.4825
 31
0.0
  0
LINE
  5
301
330
1D
100
AcDbEntity
  8
0
100
AcDbLine
 10
157.4583
 20
100.2065
 30
0.0
 11
158.4877
 21
98.9426
 31
0.0
  0
LINE
  5
30C
330
1D
100
AcDbEntity
  8
0
100
AcDbLine
 10
170.7434
 20
93.2416
 30
0.0
 11
170.9991
 21
93.2441
 31
0.0
  0
LINE
  5
30D
330
1D
100
AcDbEntity
  8
0
100
AcDbLine
 10
159.6212
 20
100.5255
 30
0.0
 11
159.8414
 21
99.8335
 31
0.0
  0
LINE
  5
30E
330
1D
100
AcDbEntity
  8
0
100
AcDbLine
 10
159.8414
 20
99.8335
 30
0.0
 11
160.0409
 21
99.510388397962
 31
0.0
  0
LINE
  5
30F
330
1D
100
AcDbEntity
  8
0
100
AcDbLine
 10
161.5399
 20
95.5227
 30
0.0
 11
162.0737
 21
95.1665
 31
0.0
  0
LINE
  5
310
330
1D
100
AcDbEntity
  8
0
100
AcDbLine
 10
162.0737
 20
95.1665
 30
0.0
 11
162.6882
 21
94.833
 31
0.0
  0
LINE
  5
311
330
1D
100
AcDbEntity
  8
0
100
AcDbLine
 10
163.5311
 20
95.3333
 30
0.0
 11
164.1703
 21
95.0232
 31
0.0
  0
LINE
  5
312
330
1D
100
AcDbEntity
  8
0
100
AcDbLine
 10
163.6462
 20
95.2336
 30
0.0
 11
164.2671
 21
94.9428
 31
0.0
  0
LINE
  5
313
330
1D
100
AcDbEntity
  8
0
100
AcDbLine
 10
162.6882
 20
94.833
 30
0.0
 11
163.3777
 21
94.5246
 31
0.0
  0
LINE
  5
314
330
1D
100
AcDbEntity
  8
0
100
AcDbLine
 10
163.3777
 20
94.5246
 30
0.0
 11
164.1375
 21
94.2439
 31
0.0
  0
LINE
  5
315
330
1D
100
AcDbEntity
  8
0
100
AcDbLine
 10
165.8341
 20
93.7771
 30
0.0
 11
166.7565
 21
93.5944
 31
0.0
  0
LINE
  5
316
330
1D
100
AcDbEntity
  8
0
100
AcDbLine
 10
166.7565
 20
93.5944
 30
0.0
 11
167.718
 21
93.4494
 31
0.0
  0
LINE
  5
317
330
1D
100
AcDbEntity
  8
0
100
AcDbLine
 10
169.2266
 20
93.8877
 30
0.0
 11
170.1809
 21
93.8332
 31
0.0
  0
LINE
  5
318
330
1D
100
AcDbEntity
  8
0
100
AcDbLine
 10
168.2924
 20
93.9807
 30
0.0
 11
169.2266
 21
93.8877
 31
0.0
  0
LINE
  5
319
330
1D
100
AcDbEntity
  8
0
100
AcDbLine
 10
168.2632
 20
93.9472
 30
0.0
 11
169.1809
 21
93.8525
 31
0.0
  0
LINE
  5
31A
330
1D
100
AcDbEntity
  8
0
100
AcDbLine
 10
169.1809
 20
93.8525
 30
0.0
 11
170.1188
 21
93.7972
 31
0.0
  0
LINE
  5
31B
330
1D
100
AcDbEntity
  8
0
100
AcDbLine
 10
167.718
 20
93.4494
 30
0.0
 11
168.7088
 21
93.3413
 31
0.0
  0
LINE
  5
31C
330
1D
100
AcDbEntity
  8
0
100
AcDbLine
 10
168.7088
 20
93.3413
 30
0.0
 11
169.7206
 21
93.2718
 31
0.0
  0
LINE
  5
324
330
1D
100
AcDbEntity
  8
0
100
AcDbLine
 10
170.1809
 20
93.8332
 30
0.0
 11
170.9991
 21
93.8207
 31
0.0
  0
LINE
  5
325
330
1D
100
AcDbEntity
  8
0
100
AcDbLine
 10
170.1188
 20
93.7972
 30
0.0
 11
170.9991
 21
93.7813
 31
0.0
  0
LINE
  5
327
330
1D
100
AcDbEntity
  8
0
100
AcDbLine
 10
169.7206
 20
93.2718
 30
0.0
 11
170.7434
 21
93.2416
 31
0.0
  0
LINE
  5
328
330
1D
100
AcDbEntity
  8
0
100
AcDbLine
 10
165.6734
 20
94.4961
 30
0.0
 11
166.519
 21
94.2841
 31
0.0
  0
LINE
  5
329
330
1D
100
AcDbEntity
  8
0
100
AcDbLine
 10
164.1703
 20
95.0232
 30
0.0
 11
164.8872
 21
94.7433
 31
0.0
  0
LINE
  5
32A
330
1D
100
AcDbEntity
  8
0
100
AcDbLine
 10
165.1456
 20
95.3668
 30
0.0
 11
165.7547
 21
95.1305
 31
0.0
  0
LINE
  5
32B
330
1D
100
AcDbEntity
  8
0
100
AcDbLine
 10
164.8872
 20
94.7433
 30
0.0
 11
165.6734
 21
94.4961
 31
0.0
  0
LINE
  5
32C
330
1D
100
AcDbEntity
  8
0
100
AcDbLine
 10
164.2671
 20
94.9428
 30
0.0
 11
164.9584
 21
94.6796
 31
0.0
  0
LINE
  5
32D
330
1D
100
AcDbEntity
  8
0
100
AcDbLine
 10
164.9584
 20
94.6796
 30
0.0
 11
165.7118
 21
94.4467
 31
0.0
  0
LINE
  5
32E
330
1D
100
AcDbEntity
  8
0
100
AcDbLine
 10
165.7547
 20
95.1305
 30
0.0
 11
166.4213
 21
94.9227
 31
0.0
  0
LINE
  5
32F
330
1D
100
AcDbEntity
  8
0
100
AcDbLine
 10
166.4213
 20
94.9227
 30
0.0
 11
167.1373
 21
94.7433
 31
0.0
  0
LINE
  5
330
330
1D
100
AcDbEntity
  8
0
100
AcDbLine
 10
166.519
 20
94.2841
 30
0.0
 11
167.3866
 21
94.114
 31
0.0
  0
LINE
  5
331
330
1D
100
AcDbEntity
  8
0
100
AcDbLine
 10
167.1373
 20
94.7433
 30
0.0
 11
167.9673
 21
94.5833
 31
0.0
  0
LINE
  5
332
330
1D
100
AcDbEntity
  8
0
100
AcDbLine
 10
167.9673
 20
94.5833
 30
0.0
 11
168.8367
 21
94.4634
 31
0.0
  0
LINE
  5
333
330
1D
100
AcDbEntity
  8
0
100
AcDbLine
 10
168.8367
 20
94.4634
 30
0.0
 11
169.7352
 21
94.383
 31
0.0
  0
LINE
  5
334
330
1D
100
AcDbEntity
  8
0
100
AcDbLine
 10
169.7352
 20
94.383
 30
0.0
 11
170.6493
 21
94.3453
 31
0.0
  0
LINE
  5
337
330
1D
100
AcDbEntity
  8
0
100
AcDbLine
 10
170.6493
 20
94.3453
 30
0.0
 11
170.9991
 21
94.3478
 31
0.0
  0
LINE
  5
339
330
1D
100
AcDbEntity
  8
0
100
AcDbLine
 10
167.3866
 20
94.114
 30
0.0
 11
168.2924
 21
93.9807
 31
0.0
  0
LINE
  5
33A
330
1D
100
AcDbEntity
  8
0
100
AcDbLine
 10
166.519
 20
94.2447
 30
0.0
 11
167.3719
 21
94.0779
 31
0.0
  0
LINE
  5
33B
330
1D
100
AcDbEntity
  8
0
100
AcDbLine
 10
167.3719
 20
94.0779
 30
0.0
 11
168.2632
 21
93.9472
 31
0.0
  0
LINE
  5
33C
330
1D
100
AcDbEntity
  8
0
100
AcDbLine
 10
165.7118
 20
94.4467
 30
0.0
 11
166.519
 21
94.2447
 31
0.0
  0
LINE
  5
33D
330
1D
100
AcDbEntity
  8
0
100
AcDbLine
 10
164.9584
 20
93.9941
 30
0.0
 11
165.8341
 21
93.7771
 31
0.0
  0
LINE
  5
33E
330
1D
100
AcDbEntity
  8
0
100
AcDbLine
 10
164.1375
 20
94.2439
 30
0.0
 11
164.9584
 21
93.9941
 31
0.0
  0
LINE
  5
340
330
1D
100
AcDbEntity
  8
0
100
AcDbLine
 10
160.1156
 20
97.358
 30
0.0
 11
160.1644
 21
97.2071
 31
0.0
  0
LINE
  5
341
330
1D
100
AcDbEntity
  8
0
100
AcDbLine
 10
160.1644
 20
97.2071
 30
0.0
 11
160.3367
 21
96.7906
 31
0.0
  0
LINE
  5
343
330
1D
100
AcDbEntity
  8
0
100
AcDbLine
 10
160.3367
 20
96.7906
 30
0.0
 11
160.6048
 21
96.3833
 31
0.0
  0
LINE
  5
344
330
1D
100
AcDbEntity
  8
0
100
AcDbLine
 10
160.6048
 20
96.3833
 30
0.0
 11
160.9678
 21
95.9878
 31
0.0
  0
LINE
  5
345
330
1D
100
AcDbEntity
  8
0
100
AcDbLine
 10
160.9678
 20
95.9878
 30
0.0
 11
161.4211
 21
95.6082
 31
0.0
  0
LINE
  5
346
330
1D
100
AcDbEntity
  8
0
100
AcDbLine
 10
162.512
 20
96.0247
 30
0.0
 11
162.9768
 21
95.6677
 31
0.0
  0
LINE
  5
347
330
1D
100
AcDbEntity
  8
0
100
AcDbLine
 10
161.8764
 20
96.7889
 30
0.0
 11
162.1431
 21
96.4001
 31
0.0
  0
LINE
  5
348
330
1D
100
AcDbEntity
  8
0
100
AcDbLine
 10
161.717014851149
 20
97.171904432993
 30
0.0
 11
161.8764
 21
96.7889
 31
0.0
  0
LINE
  5
349
330
1D
100
AcDbEntity
  8
0
100
AcDbLine
 10
161.7104
 20
97.196663245357
 30
0.0
 11
161.7104
 21
97.963379960899
 31
0.0
  0
LINE
  5
34A
330
1D
100
AcDbEntity
  8
0
100
AcDbLine
 10
161.712768007313
 20
97.1878
 30
0.0
 11
163.0106
 21
97.1878
 31
0.0
  0
LINE
  5
34B
330
1D
100
AcDbEntity
  8
0
100
AcDbLine
 10
161.6662
 20
97.3621
 30
0.0
 11
161.7685
 21
96.9792
 31
0.0
  0
LINE
  5
34C
330
1D
100
AcDbEntity
  8
0
100
AcDbLine
 10
161.7685
 20
96.9792
 30
0.0
 11
161.965
 21
96.6029
 31
0.0
  0
LINE
  5
34D
330
1D
100
AcDbEntity
  8
0
100
AcDbLine
 10
162.1431
 20
96.4001
 30
0.0
 11
162.512
 21
96.0247
 31
0.0
  0
LINE
  5
34E
330
1D
100
AcDbEntity
  8
0
100
AcDbLine
 10
161.965
 20
96.6029
 30
0.0
 11
162.2545
 21
96.2367
 31
0.0
  0
LINE
  5
34F
330
1D
100
AcDbEntity
  8
0
100
AcDbLine
 10
162.2545
 20
96.2367
 30
0.0
 11
162.6335
 21
95.883
 31
0.0
  0
LINE
  5
350
330
1D
100
AcDbEntity
  8
0
100
AcDbLine
 10
161.4211
 20
95.6082
 30
0.0
 11
161.5399
 21
95.5227
 31
0.0
  0
LINE
  5
354
330
1D
100
AcDbEntity
  8
0
100
AcDbLine
 10
161.6626
 20
97.58
 30
0.0
 11
161.6662
 21
97.3621
 31
0.0
  0
LINE
  5
355
330
1D
100
AcDbEntity
  8
0
100
AcDbLine
 10
161.6626
 20
97.58
 30
0.0
 11
161.6662
 21
97.7979
 31
0.0
  0
LINE
  5
35A
330
1D
100
AcDbEntity
  8
0
100
AcDbLine
 10
160.0472
 20
97.971992771084
 30
0.0
 11
160.0472
 21
97.8859
 31
0.0
  0
LINE
  5
35B
330
1D
100
AcDbEntity
  8
0
100
AcDbLine
 10
160.0409
 20
97.9915
 30
0.0
 11
160.0472
 21
97.8859
 31
0.0
  0
LINE
  5
35C
330
1D
100
AcDbEntity
  8
0
100
AcDbLine
 10
160.0409
 20
97.9915
 30
0.0
 11
160.0409
 21
101.895629289512
 31
0.0
  0
LINE
  5
35D
330
1D
100
AcDbEntity
  8
0
100
AcDbLine
 10
160.0472
 20
98.027124096386
 30
0.0
 11
160.0472
 21
101.90185621073
 31
0.0
  0
LINE
  5
35E
330
1D
100
AcDbEntity
  8
0
100
AcDbLine
 10
161.6662
 20
97.7979
 30
0.0
 11
161.7685
 21
98.1809
 31
0.0
  0
LINE
  5
360
330
1D
100
AcDbEntity
  8
0
100
AcDbLine
 10
161.733349399478
 20
98.0493
 30
0.0
 11
163.0106
 21
98.0493
 31
0.0
  0
LINE
  5
361
330
1D
100
AcDbEntity
  8
0
100
AcDbLine
 10
161.7685
 20
98.1809
 30
0.0
 11
161.965
 21
98.5563
 31
0.0
  0
LINE
  5
362
330
1D
100
AcDbEntity
  8
0
100
AcDbLine
 10
161.965
 20
98.5563
 30
0.0
 11
162.2545
 21
98.9242
 31
0.0
  0
LINE
  5
363
330
1D
100
AcDbEntity
  8
0
100
AcDbLine
 10
162.2545
 20
98.9242
 30
0.0
 11
162.6335
 21
99.2762
 31
0.0
  0
LINE
  5
364
330
1D
100
AcDbEntity
  8
0
100
AcDbLine
 10
162.6335
 20
99.2762
 30
0.0
 11
163.0992
 21
99.6114
 31
0.0
  0
LINE
  5
365
330
1D
100
AcDbEntity
  8
0
100
AcDbLine
 10
161.7104
 20
97.963379960899
 30
0.0
 11
161.7104
 21
97.196663245357
 31
0.0
  0
LINE
  5
366
330
1D
100
AcDbEntity
  8
0
100
AcDbLine
 10
160.0472
 20
97.8859
 30
0.0
 11
160.0472
 21
97.971992771084
 31
0.0
  0
LINE
  5
367
330
1D
100
AcDbEntity
  8
0
100
AcDbLine
 10
160.0409
 20
97.7811
 30
0.0
 11
160.1156
 21
97.358
 31
0.0
  0
LINE
  5
368
330
1D
100
AcDbEntity
  8
0
100
AcDbLine
 10
160.0409
 20
97.7811
 30
0.0
 11
160.0409
 21
101.895629289512
 31
0.0
  0
LINE
  5
369
330
1D
100
AcDbEntity
  8
0
100
AcDbLine
 10
164.1265
 20
95.9082
 30
0.0
 11
164.6014
 21
95.6266
 31
0.0
  0
LINE
  5
36A
330
1D
100
AcDbEntity
  8
0
100
AcDbLine
 10
163.7247
 20
96.209
 30
0.0
 11
164.1265
 21
95.9082
 31
0.0
  0
LINE
  5
36B
330
1D
100
AcDbEntity
  8
0
100
AcDbLine
 10
163.4033
 20
96.5241
 30
0.0
 11
163.7247
 21
96.209
 31
0.0
  0
LINE
  5
36C
330
1D
100
AcDbEntity
  8
0
100
AcDbLine
 10
163.164
 20
96.8518
 30
0.0
 11
163.4033
 21
96.5241
 31
0.0
  0
LINE
  5
36D
330
1D
100
AcDbEntity
  8
0
100
AcDbLine
 10
164.6014
 20
95.6266
 30
0.0
 11
165.1456
 21
95.3668
 31
0.0
  0
LINE
  5
36E
330
1D
100
AcDbEntity
  8
0
100
AcDbLine
 10
162.9768
 20
95.6677
 30
0.0
 11
163.5311
 21
95.3333
 31
0.0
  0
LINE
  5
36F
330
1D
100
AcDbEntity
  8
0
100
AcDbLine
 10
163.0106
 20
98.0493
 30
0.0
 11
163.0106
 21
97.1878
 31
0.0
  0
LINE
  5
370
330
1D
100
AcDbEntity
  8
0
100
AcDbLine
 10
163.0106
 20
98.0493
 30
0.0
 11
163.164
 21
98.3854
 31
0.0
  0
LINE
  5
371
330
1D
100
AcDbEntity
  8
0
100
AcDbLine
 10
163.164
 20
98.3854
 30
0.0
 11
163.4033
 21
98.7122
 31
0.0
  0
LINE
  5
372
330
1D
100
AcDbEntity
  8
0
100
AcDbLine
 10
163.4033
 20
98.7122
 30
0.0
 11
163.7247
 21
99.0281
 31
0.0
  0
LINE
  5
373
330
1D
100
AcDbEntity
  8
0
100
AcDbLine
 10
163.7247
 20
99.0281
 30
0.0
 11
164.1265
 21
99.3281
 31
0.0
  0
LINE
  5
374
330
1D
100
AcDbEntity
  8
0
100
AcDbLine
 10
163.426325921992
 20
98.734831887858
 30
0.0
 11
163.5695
 21
98.5714
 31
0.0
  0
LINE
  5
375
330
1D
100
AcDbEntity
  8
0
100
AcDbLine
 10
163.5695
 20
98.5714
 30
0.0
 11
163.9658
 21
98.2412
 31
0.0
  0
LINE
  5
376
330
1D
100
AcDbEntity
  8
0
100
AcDbLine
 10
163.9658
 20
98.2412
 30
0.0
 11
164.4507
 21
97.9312
 31
0.0
  0
LINE
  5
377
330
1D
100
AcDbEntity
  8
0
100
AcDbLine
 10
164.4507
 20
97.9312
 30
0.0
 11
165.0169
 21
97.6454
 31
0.0
  0
LINE
  5
378
330
1D
100
AcDbEntity
  8
0
100
AcDbLine
 10
165.6588
 20
97.3864
 30
0.0
 11
166.3693
 21
97.1585
 31
0.0
  0
LINE
  5
379
330
1D
100
AcDbEntity
  8
0
100
AcDbLine
 10
165.0169
 20
97.6454
 30
0.0
 11
165.6588
 21
97.3864
 31
0.0
  0
LINE
  5
37A
330
1D
100
AcDbEntity
  8
0
100
AcDbLine
 10
166.3693
 20
97.1585
 30
0.0
 11
167.1373
 21
96.9649
 31
0.0
  0
LINE
  5
37B
330
1D
100
AcDbEntity
  8
0
100
AcDbLine
 10
163.0106
 20
97.1878
 30
0.0
 11
163.0106
 21
98.0493
 31
0.0
  0
LINE
  5
37C
330
1D
100
AcDbEntity
  8
0
100
AcDbLine
 10
163.0106
 20
97.1878
 30
0.0
 11
163.164
 21
96.8518
 31
0.0
  0
LINE
  5
37D
330
1D
100
AcDbEntity
  8
0
100
AcDbLine
 10
167.1373
 20
96.9649
 30
0.0
 11
167.9536
 21
96.8074
 31
0.0
  0
LINE
  5
37F
330
1D
100
AcDbEntity
  8
0
100
AcDbLine
 10
167.9536
 20
96.8074
 30
0.0
 11
168.8084
 21
96.6875
 31
0.0
  0
LINE
  5
380
330
1D
100
AcDbEntity
  8
0
100
AcDbLine
 10
168.8084
 20
96.6875
 30
0.0
 11
169.6914
 21
96.6071
 31
0.0
  0
LINE
  5
381
330
1D
100
AcDbEntity
  8
0
100
AcDbLine
 10
169.6914
 20
96.6071
 30
0.0
 11
170.5891
 21
96.5685
 31
0.0
  0
LINE
  5
382
330
1D
100
AcDbEntity
  8
0
100
AcDbLine
 10
170.5891
 20
96.5685
 30
0.0
 11
170.9991
 21
96.5685
 31
0.0
  0
LINE
  5
383
330
1D
100
AcDbEntity
  8
0
100
AcDbLine
 10
164.1265
 20
99.3281
 30
0.0
 11
164.6014
 21
99.6097
 31
0.0
  0
LINE
  5
384
330
1D
100
AcDbEntity
  8
0
100
AcDbLine
 10
164.6014
 20
99.6097
 30
0.0
 11
165.1456
 21
99.8703
 31
0.0
  0
LINE
  5
385
330
1D
100
AcDbEntity
  8
0
100
AcDbLine
 10
163.6462
 20
99.9256
 30
0.0
 11
164.2671
 21
100.2155
 31
0.0
  0
LINE
  5
386
330
1D
100
AcDbEntity
  8
0
100
AcDbLine
 10
164.2671
 20
100.2155
 30
0.0
 11
164.9584
 21
100.4795
 31
0.0
  0
LINE
  5
387
330
1D
100
AcDbEntity
  8
0
100
AcDbLine
 10
165.7547
 20
100.105
 30
0.0
 11
166.4213
 21
100.3135
 31
0.0
  0
LINE
  5
388
330
1D
100
AcDbEntity
  8
0
100
AcDbLine
 10
165.1456
 20
99.8703
 30
0.0
 11
165.7547
 21
100.105
 31
0.0
  0
LINE
  5
389
330
1D
100
AcDbEntity
  8
0
100
AcDbLine
 10
166.4213
 20
100.3135
 30
0.0
 11
167.1373
 21
100.4935
 31
0.0
  0
LINE
  5
38A
330
1D
100
AcDbEntity
  8
0
100
AcDbLine
 10
167.1373
 20
100.4935
 30
0.0
 11
167.9673
 21
100.6525
 31
0.0
  0
LINE
  5
38B
330
1D
100
AcDbEntity
  8
0
100
AcDbLine
 10
167.9673
 20
100.6525
 30
0.0
 11
168.8367
 21
100.7735
 31
0.0
  0
LINE
  5
38C
330
1D
100
AcDbEntity
  8
0
100
AcDbLine
 10
164.9584
 20
100.4795
 30
0.0
 11
165.7118
 21
100.7125
 31
0.0
  0
LINE
  5
38D
330
1D
100
AcDbEntity
  8
0
100
AcDbLine
 10
166.519
 20
100.9145
 30
0.0
 11
167.3719
 21
101.0825
 31
0.0
  0
LINE
  5
38E
330
1D
100
AcDbEntity
  8
0
100
AcDbLine
 10
167.3719
 20
101.0825
 30
0.0
 11
168.2632
 21
101.2125
 31
0.0
  0
LINE
  5
38F
330
1D
100
AcDbEntity
  8
0
100
AcDbLine
 10
168.8367
 20
100.7735
 30
0.0
 11
169.7352
 21
100.8535
 31
0.0
  0
LINE
  5
390
330
1D
100
AcDbEntity
  8
0
100
AcDbLine
 10
169.7352
 20
100.8535
 30
0.0
 11
170.6493
 21
100.8905
 31
0.0
  0
LINE
  5
392
330
1D
100
AcDbEntity
  8
0
100
AcDbLine
 10
168.2632
 20
101.2125
 30
0.0
 11
169.1809
 21
101.3065
 31
0.0
  0
LINE
  5
393
330
1D
100
AcDbEntity
  8
0
100
AcDbLine
 10
169.1809
 20
101.3065
 30
0.0
 11
170.1188
 21
101.3625
 31
0.0
  0
LINE
  5
39B
330
1D
100
AcDbEntity
  8
0
100
AcDbLine
 10
170.6493
 20
100.8905
 30
0.0
 11
170.9991
 21
100.8895
 31
0.0
  0
LINE
  5
39D
330
1D
100
AcDbEntity
  8
0
100
AcDbLine
 10
170.1188
 20
101.3625
 30
0.0
 11
170.9991
 21
101.3775
 31
0.0
  0
LINE
  5
39F
330
1D
100
AcDbEntity
  8
0
100
AcDbLine
 10
165.7118
 20
100.7125
 30
0.0
 11
166.519
 21
100.9145
 31
0.0
  0
LINE
  5
3A0
330
1D
100
AcDbEntity
  8
0
100
AcDbLine
 10
163.0992
 20
99.6114
 30
0.0
 11
163.6462
 21
99.9256
 31
0.0
  0
LINE
  5
3A1
330
1D
100
AcDbEntity
  8
0
100
AcDbLine
 10
162.6335
 20
95.883
 30
0.0
 11
163.0992
 21
95.5487
 31
0.0
  0
LINE
  5
3A2
330
1D
100
AcDbEntity
  8
0
100
AcDbLine
 10
163.0992
 20
95.5487
 30
0.0
 11
163.6462
 21
95.2336
 31
0.0
  0
LINE
  5
3A3
330
1D
100
AcDbEntity
  8
0
100
AcDbLine
 10
159.9035
 20
101.2195
 30
0.0
 11
160.0409
 21
101.071608426339
 31
0.0
  0
LINE
  5
3A4
330
1D
100
AcDbEntity
  8
0
100
AcDbLine
 10
160.0472
 20
101.90185621073
 30
0.0
 11
160.0472
 21
98.027124096386
 31
0.0
  0
LINE
  5
3A5
330
1D
100
AcDbEntity
  8
0
100
AcDbLine
 10
160.0409
 20
101.895629289512
 30
0.0
 11
160.0409
 21
97.7811
 31
0.0
  0
LINE
  5
3A6
330
1D
100
AcDbEntity
  8
0
100
AcDbLine
 10
160.0409
 20
101.895629289512
 30
0.0
 11
160.0409
 21
97.9915
 31
0.0
  0
LINE
  5
3A7
330
1D
100
AcDbEntity
  8
0
100
AcDbLine
 10
159.791981446573
 20
101.649598143181
 30
0.0
 11
159.9035
 21
101.2195
 31
0.0
  0
LINE
  5
3A8
330
1D
100
AcDbEntity
  8
0
100
AcDbLine
 10
159.7848
 20
101.6425
 30
0.0
 11
160.1986
 21
102.0515
 31
0.0
  0
LINE
  5
3A9
330
1D
100
AcDbEntity
  8
0
100
AcDbLine
 10
161.4774
 20
102.5565
 30
0.0
 11
163.3467
 21
102.8595
 31
0.0
  0
LINE
  5
3AD
330
1D
100
AcDbEntity
  8
0
100
AcDbLine
 10
168.7207
 20
103.1545
 30
0.0
 11
170.9991
 21
103.1745
 31
0.0
  0
LINE
  5
3AE
330
1D
100
AcDbEntity
  8
0
100
AcDbLine
 10
167.0834
 20
103.1105
 30
0.0
 11
168.7207
 21
103.1545
 31
0.0
  0
LINE
  5
3B0
330
1D
100
AcDbEntity
  8
0
100
AcDbLine
 10
165.5246
 20
103.0365
 30
0.0
 11
167.0834
 21
103.1105
 31
0.0
  0
LINE
  5
3B1
330
1D
100
AcDbEntity
  8
0
100
AcDbLine
 10
163.3467
 20
102.8595
 30
0.0
 11
165.5246
 21
103.0365
 31
0.0
  0
LINE
  5
3B2
330
1D
100
AcDbEntity
  8
0
100
AcDbLine
 10
160.1986
 20
102.0515
 30
0.0
 11
161.4774
 21
102.5565
 31
0.0
  0
LINE
  5
3B3
330
1D
100
AcDbEntity
  8
0
100
AcDbLine
 10
159.592
 20
101.1035
 30
0.0
 11
159.7848
 21
101.6425
 31
0.0
  0
LINE
  5
3B4
330
1D
100
AcDbEntity
  8
0
100
AcDbLine
 10
159.592
 20
101.1035
 30
0.0
 11
159.6212
 21
100.5255
 31
0.0
  0
LINE
  5
3B7
330
1D
100
AcDbEntity
  8
0
100
AcDbLine
 10
158.4877
 20
98.9426
 30
0.0
 11
159.6304
 21
97.7845
 31
0.0
  0
LINE
  5
3B8
330
1D
100
AcDbEntity
  8
0
100
AcDbLine
 10
154.2137
 20
113.6125
 30
0.0
 11
154.3562
 21
114.0485
 31
0.0
  0
LINE
  5
3B9
330
1D
100
AcDbEntity
  8
0
100
AcDbLine
 10
154.1562
 20
113.4095
 30
0.0
 11
154.2137
 21
113.6125
 31
0.0
  0
LINE
  5
3BA
330
1D
100
AcDbEntity
  8
0
100
AcDbLine
 10
154.031
 20
112.5035
 30
0.0
 11
154.1562
 21
113.4095
 31
0.0
  0
LINE
  5
3BB
330
1D
100
AcDbEntity
  8
0
100
AcDbLine
 10
154.0292
 20
112.4825
 30
0.0
 11
154.1562
 21
113.4095
 31
0.0
  0
LINE
  5
3BD
330
1D
100
AcDbEntity
  8
0
100
AcDbLine
 10
155.9611
 20
115.6555
 30
0.0
 11
157.1432
 21
116.1955
 31
0.0
  0
LINE
  5
3BE
330
1D
100
AcDbEntity
  8
0
100
AcDbLine
 10
155.023
 20
114.9505
 30
0.0
 11
155.9611
 21
115.6555
 31
0.0
  0
LINE
  5
3BF
330
1D
100
AcDbEntity
  8
0
100
AcDbLine
 10
154.8632
 20
114.8035
 30
0.0
 11
155.023
 21
114.9505
 31
0.0
  0
LINE
  5
3C0
330
1D
100
AcDbEntity
  8
0
100
AcDbLine
 10
154.3562
 20
114.0485
 30
0.0
 11
154.8632
 21
114.8035
 31
0.0
  0
LINE
  5
3C1
330
1D
100
AcDbEntity
  8
0
100
AcDbLine
 10
160.5
 20
117.0715
 30
0.0
 11
160.6535
 21
117.0975
 31
0.0
  0
LINE
  5
3C2
330
1D
100
AcDbEntity
  8
0
100
AcDbLine
 10
158.7033
 20
116.6795
 30
0.0
 11
160.5
 21
117.0715
 31
0.0
  0
LINE
  5
3C3
330
1D
100
AcDbEntity
  8
0
100
AcDbLine
 10
160.6535
 20
117.0975
 30
0.0
 11
162.7056
 21
117.4125
 31
0.0
  0
LINE
  5
3C4
330
1D
100
AcDbEntity
  8
0
100
AcDbLine
 10
162.7056
 20
117.4125
 30
0.0
 11
165.7109
 21
117.7055
 31
0.0
  0
LINE
  5
3C7
330
1D
100
AcDbEntity
  8
0
100
AcDbLine
 10
167.6623
 20
117.8145
 30
0.0
 11
170.9991
 21
117.8835
 31
0.0
  0
LINE
  5
3CA
330
1D
100
AcDbEntity
  8
0
100
AcDbLine
 10
165.7109
 20
117.7055
 30
0.0
 11
167.6623
 21
117.8145
 31
0.0
  0
LINE
  5
3CC
330
1D
100
AcDbEntity
  8
0
100
AcDbLine
 10
157.1432
 20
116.1955
 30
0.0
 11
158.7033
 21
116.6795
 31
0.0
  0
LINE
  5
3D6
330
1D
100
AcDbEntity
  8
0
100
AcDbLine
 10
0.6554
 20
70.3829
 30
0.0
 11
0.8499
 21
70.3454
 31
0.0
  0
LINE
  5
3D8
330
1D
100
AcDbEntity
  8
0
100
AcDbLine
 10
0.0902
 20
70.1909
 30
0.0
 11
0.3374
 21
70.3609
 31
0.0
  0
LINE
  5
BE1
330
1D
100
AcDbEntity
  8
0
100
AcDbLine
 10
157.4583
 20
100.2065
 30
0.0
 11
155.994230710577
 21
102.546654312631
 31
0.0
  0
LINE
  5
BE2
330
1D
100
AcDbEntity
  8
0
100
AcDbLine
 10
155.994230710577
 20
102.546654312631
 30
0.0
 11
154.952937648366
 21
105.699552234963
 31
0.0
  0
LINE
  5
BE3
330
1D
100
AcDbEntity
  8
0
100
AcDbLine
 10
154.952937648366
 20
105.699552234963
 30
0.0
 11
154.332415658064
 21
108.647031688895
 31
0.0
  0
LINE
  5
BE4
330
1D
100
AcDbEntity
  8
0
100
AcDbLine
 10
154.332415658064
 20
108.647031688895
 30
0.0
 11
154.0292
 21
112.4815
 31
0.0
  0
LINE
  5
BE5
330
1D
100
AcDbEntity
  8
0
100
AcDbLine
 10
46.762
 20
8.89573
 30
0.0
 11
95.2795
 21
8.89573
 31
0.0
  0
LINE
  5
BE8
330
1D
100
AcDbEntity
  8
0
100
AcDbLine
 10
58.2961
 20
9.79158
 30
0.0
 11
83.6798
 21
9.79158
 31
0.0
  0
LINE
  5
BE9
330
1D
100
AcDbEntity
  8
0
100
AcDbLine
 10
84.0576
 20
10.2404
 30
0.0
 11
83.9797
 21
52.034
 31
0.0
  0
LINE
  5
BEA
330
1D
100
AcDbEntity
  8
0
100
AcDbLine
 10
4.6859
 20
63.9031
 30
0.0
 11
5.411822438294
 21
63.667573573847
 31
0.0
  0
LINE
  5
BEB
330
1D
100
AcDbEntity
  8
0
100
AcDbLine
 10
2.8301
 20
69.9677
 30
0.0
 11
83.581089803777
 21
52.484119877883
 31
0.0
  0
LINE
  5
BEC
330
1D
100
AcDbEntity
  8
0
100
AcDbLine
 10
42.792728024899
 20
55.613863011388
 30
0.0
 11
44.018694271354
 21
55.211146486815
 31
0.0
  0
LINE
  5
BED
330
1D
100
AcDbEntity
  8
0
100
AcDbLine
 10
257.555
 20
0.1165
 30
0.0
 11
255.6893
 21
0.1165
 31
0.0
  0
LINE
  5
BEE
330
1D
100
AcDbEntity
  8
0
100
AcDbLine
 10
257.4397
 20
0.1165
 30
0.0
 11
255.3912
 21
0.1165
 31
0.0
  0
LINE
  5
BEF
330
1D
100
AcDbEntity
  8
0
100
AcDbLine
 10
257.555
 20
0.1165
 30
0.0
 11
255.6893
 21
0.1165
 31
0.0
  0
LINE
  5
BF0
330
1D
100
AcDbEntity
  8
0
100
AcDbLine
 10
257.4397
 20
0.1165
 30
0.0
 11
255.3912
 21
0.1165
 31
0.0
  0
LINE
  5
BF1
330
1D
100
AcDbEntity
  8
0
100
AcDbLine
 10
295.238
 20
8.89573
 30
0.0
 11
246.7205
 21
8.89573
 31
0.0
  0
LINE
  5
BF2
330
1D
100
AcDbEntity
  8
0
100
AcDbLine
 10
339.1699
 20
69.9677
 30
0.0
 11
258.418910196223
 21
52.484119877883
 31
0.0
  0
LINE
  5
BF3
330
1D
100
AcDbEntity
  8
0
100
AcDbLine
 10
300.735972224513
 20
56.074393061819
 30
0.0
 11
299.207271975101
 21
55.613863011388
 31
0.0
  0
LINE
  5
BF4
330
1D
100
AcDbEntity
  8
0
100
AcDbLine
 10
300.735972224513
 20
56.074393061819
 30
0.0
 11
299.207271975101
 21
55.613863011388
 31
0.0
  0
LINE
  5
BF5
330
1D
100
AcDbEntity
  8
0
100
AcDbLine
 10
329.9086
 20
62.0593
 30
0.0
 11
306.0
 21
57.3829
 31
0.0
  0
LINE
  5
BF6
330
1D
100
AcDbEntity
  8
0
100
AcDbLine
 10
338.5757
 20
64.4674
 30
0.0
 11
337.3141
 21
63.9031
 31
0.0
  0
LINE
  5
BF7
330
1D
100
AcDbEntity
  8
0
100
AcDbLine
 10
338.5757
 20
64.4674
 30
0.0
 11
337.3141
 21
63.9031
 31
0.0
  0
LINE
  5
BF8
330
1D
100
AcDbEntity
  8
0
100
AcDbLine
 10
333.6387
 20
62.8292
 30
0.0
 11
330.741
 21
62.2311
 31
0.0
  0
LINE
  5
BF9
330
1D
100
AcDbEntity
  8
0
100
AcDbLine
 10
331.4431
 20
62.3767
 30
0.0
 11
330.3188
 21
62.1445
 31
0.0
  0
LINE
  5
BFA
330
1D
100
AcDbEntity
  8
0
100
AcDbLine
 10
331.4431
 20
62.3767
 30
0.0
 11
330.741
 21
62.2311
 31
0.0
  0
LINE
  5
BFB
330
1D
100
AcDbEntity
  8
0
100
AcDbLine
 10
336.588177561706
 20
63.667573573847
 30
0.0
 11
335.2508
 21
63.2336
 31
0.0
  0
LINE
  5
BFC
330
1D
100
AcDbEntity
  8
0
100
AcDbLine
 10
335.2504
 20
63.2335
 30
0.0
 11
333.6393
 21
62.8294
 31
0.0
  0
LINE
  5
BFD
330
1D
100
AcDbEntity
  8
0
100
AcDbLine
 10
336.586584348091
 20
63.667077592481
 30
0.0
 11
335.2508
 21
63.2336
 31
0.0
  0
LINE
  5
BFE
330
1D
100
AcDbEntity
  8
0
100
AcDbLine
 10
335.2508
 20
63.2336
 30
0.0
 11
333.6393
 21
62.8294
 31
0.0
  0
LINE
  5
BFF
330
1D
100
AcDbEntity
  8
0
100
AcDbLine
 10
336.588177561706
 20
63.667573573847
 30
0.0
 11
335.2508
 21
63.2336
 31
0.0
  0
LINE
  5
C00
330
1D
100
AcDbEntity
  8
0
100
AcDbLine
 10
337.3141
 20
63.9031
 30
0.0
 11
336.588177561706
 21
63.667573573847
 31
0.0
  0
LINE
  5
C01
330
1D
100
AcDbEntity
  8
0
100
AcDbLine
 10
330.741
 20
62.2311
 30
0.0
 11
329.9086
 21
62.0593
 31
0.0
  0
LINE
  5
C02
330
1D
100
AcDbEntity
  8
0
100
AcDbLine
 10
342.0
 20
69.9311
 30
0.0
 11
341.9388
 21
69.0166
 31
0.0
  0
LINE
  5
C03
330
1D
100
AcDbEntity
  8
0
100
AcDbLine
 10
339.446
 20
64.9946
 30
0.0
 11
338.5757
 21
64.4674
 31
0.0
  0
LINE
  5
C04
330
1D
100
AcDbEntity
  8
0
100
AcDbLine
 10
341.9388
 20
69.0166
 30
0.0
 11
341.7669
 21
68.1311
 31
0.0
  0
LINE
  5
C05
330
1D
100
AcDbEntity
  8
0
100
AcDbLine
 10
341.2651
 20
66.9039
 30
0.0
 11
341.0212
 21
66.4996
 31
0.0
  0
LINE
  5
C06
330
1D
100
AcDbEntity
  8
0
100
AcDbLine
 10
341.3349
 20
67.02
 30
0.0
 11
341.2651
 21
66.9039
 31
0.0
  0
LINE
  5
C07
330
1D
100
AcDbEntity
  8
0
100
AcDbLine
 10
341.7669
 20
68.1311
 30
0.0
 11
341.3349
 21
67.02
 31
0.0
  0
LINE
  5
C08
330
1D
100
AcDbEntity
  8
0
100
AcDbLine
 10
339.6008
 20
65.0884
 30
0.0
 11
339.446
 21
64.9946
 31
0.0
  0
LINE
  5
C09
330
1D
100
AcDbEntity
  8
0
100
AcDbLine
 10
339.7265
 20
65.1878
 30
0.0
 11
339.6008
 21
65.0884
 31
0.0
  0
LINE
  5
C0A
330
1D
100
AcDbEntity
  8
0
100
AcDbLine
 10
340.1616
 20
65.5338
 30
0.0
 11
339.7265
 21
65.1878
 31
0.0
  0
LINE
  5
C0B
330
1D
100
AcDbEntity
  8
0
100
AcDbLine
 10
341.0212
 20
66.4996
 30
0.0
 11
340.6312
 21
66.0039
 31
0.0
  0
LINE
  5
C0C
330
1D
100
AcDbEntity
  8
0
100
AcDbLine
 10
340.6312
 20
66.0039
 30
0.0
 11
340.1616
 21
65.5338
 31
0.0
  0
LINE
  5
C0D
330
1D
100
AcDbEntity
  8
0
100
AcDbLine
 10
341.0212
 20
66.4996
 30
0.0
 11
340.6312
 21
66.0039
 31
0.0
  0
LINE
  5
C0E
330
1D
100
AcDbEntity
  8
0
100
AcDbLine
 10
341.9388
 20
69.0166
 30
0.0
 11
341.7669
 21
68.1311
 31
0.0
  0
LINE
  5
C0F
330
1D
100
AcDbEntity
  8
0
100
AcDbLine
 10
339.9489
 20
70.1158
 30
0.0
 11
339.1699
 21
69.9677
 31
0.0
  0
LINE
  5
C10
330
1D
100
AcDbEntity
  8
0
100
AcDbLine
 10
340.9041
 20
70.2988
 30
0.0
 11
340.557
 21
70.232
 31
0.0
  0
LINE
  5
C11
330
1D
100
AcDbEntity
  8
0
100
AcDbLine
 10
342.0
 20
69.9311
 30
0.0
 11
341.9098
 21
70.1909
 31
0.0
  0
LINE
  5
C12
330
1D
100
AcDbEntity
  8
0
100
AcDbLine
 10
341.6626
 20
70.3609
 30
0.0
 11
341.3446
 21
70.3829
 31
0.0
  0
LINE
  5
C13
330
1D
100
AcDbEntity
  8
0
100
AcDbLine
 10
341.1501
 20
70.3454
 30
0.0
 11
340.9041
 21
70.2988
 31
0.0
  0
LINE
  5
C14
330
1D
100
AcDbEntity
  8
0
100
AcDbLine
 10
341.3446
 20
70.3829
 30
0.0
 11
341.1501
 21
70.3454
 31
0.0
  0
LINE
  5
C15
330
1D
100
AcDbEntity
  8
0
100
AcDbLine
 10
341.9098
 20
70.1909
 30
0.0
 11
341.6626
 21
70.3609
 31
0.0
  0
LINE
  5
C16
330
1D
100
AcDbEntity
  8
0
100
AcDbLine
 10
340.557
 20
70.232
 30
0.0
 11
339.9489
 21
70.1158
 31
0.0
  0
LINE
  5
C17
330
1D
100
AcDbEntity
  8
0
100
AcDbLine
 10
304.961
 20
57.1358
 30
0.0
 11
302.123
 21
56.4433
 31
0.0
  0
LINE
  5
C18
330
1D
100
AcDbEntity
  8
0
100
AcDbLine
 10
306.0
 20
57.3829
 30
0.0
 11
304.9612
 21
57.1358
 31
0.0
  0
LINE
  5
C19
330
1D
100
AcDbEntity
  8
0
100
AcDbLine
 10
306.0
 20
57.3829
 30
0.0
 11
304.961
 21
57.1358
 31
0.0
  0
LINE
  5
C1A
330
1D
100
AcDbEntity
  8
0
100
AcDbLine
 10
302.123
 20
56.4433
 30
0.0
 11
300.735972224513
 21
56.074393061819
 31
0.0
  0
LINE
  5
C1B
330
1D
100
AcDbEntity
  8
0
100
AcDbLine
 10
285.5627
 20
43.8505
 30
0.0
 11
284.9397
 21
41.8635
 31
0.0
  0
LINE
  5
C1C
330
1D
100
AcDbEntity
  8
0
100
AcDbLine
 10
257.9424
 20
10.2404
 30
0.0
 11
258.0203
 21
52.034
 31
0.0
  0
LINE
  5
C1D
330
1D
100
AcDbEntity
  8
0
100
AcDbLine
 10
278.8858
 20
0.1165
 30
0.0
 11
276.4958
 21
0.1165
 31
0.0
  0
LINE
  5
C1E
330
1D
100
AcDbEntity
  8
0
100
AcDbLine
 10
279.8936
 20
0.1165
 30
0.0
 11
277.6839
 21
0.1165
 31
0.0
  0
LINE
  5
C1F
330
1D
100
AcDbEntity
  8
0
100
AcDbLine
 10
279.8936
 20
0.1165
 30
0.0
 11
277.6839
 21
0.1165
 31
0.0
  0
LINE
  5
C20
330
1D
100
AcDbEntity
  8
0
100
AcDbLine
 10
278.8858
 20
0.1165
 30
0.0
 11
276.4958
 21
0.1165
 31
0.0
  0
LINE
  5
C21
330
1D
100
AcDbEntity
  8
0
100
AcDbLine
 10
278.5669
 20
9.79158
 30
0.0
 11
277.5599
 21
9.79158
 31
0.0
  0
LINE
  5
C22
330
1D
100
AcDbEntity
  8
0
100
AcDbLine
 10
283.7039
 20
9.79158
 30
0.0
 11
258.3202
 21
9.79158
 31
0.0
  0
LINE
  5
C23
330
1D
100
AcDbEntity
  8
0
100
AcDbLine
 10
283.9405
 20
10.2404
 30
0.0
 11
283.905
 21
29.4427
 31
0.0
  0
LINE
  5
C24
330
1D
100
AcDbEntity
  8
0
100
AcDbLine
 10
289.354
 20
0.1165
 30
0.0
 11
287.5229
 21
0.1165
 31
0.0
  0
LINE
  5
C25
330
1D
100
AcDbEntity
  8
0
100
AcDbLine
 10
289.2578
 20
0.1165
 30
0.0
 11
287.6711
 21
0.1165
 31
0.0
  0
LINE
  5
C26
330
1D
100
AcDbEntity
  8
0
100
AcDbLine
 10
289.2578
 20
0.1165
 30
0.0
 11
287.6711
 21
0.1165
 31
0.0
  0
LINE
  5
C27
330
1D
100
AcDbEntity
  8
0
100
AcDbLine
 10
289.354
 20
0.1165
 30
0.0
 11
287.5229
 21
0.1165
 31
0.0
  0
LINE
  5
C28
330
1D
100
AcDbEntity
  8
0
100
AcDbLine
 10
289.5897
 20
8.89573
 30
0.0
 11
287.9744
 21
8.89573
 31
0.0
  0
LINE
  5
C29
330
1D
100
AcDbEntity
  8
0
100
AcDbLine
 10
294.8706
 20
0.1165
 30
0.0
 11
293.7891
 21
0.1165
 31
0.0
  0
LINE
  5
C2A
330
1D
100
AcDbEntity
  8
0
100
AcDbLine
 10
294.3047
 20
0.1165
 30
0.0
 11
293.7146
 21
0.1165
 31
0.0
  0
LINE
  5
C2B
330
1D
100
AcDbEntity
  8
0
100
AcDbLine
 10
294.8706
 20
0.1165
 30
0.0
 11
293.7891
 21
0.1165
 31
0.0
  0
LINE
  5
C2C
330
1D
100
AcDbEntity
  8
0
100
AcDbLine
 10
294.3047
 20
0.1165
 30
0.0
 11
293.7146
 21
0.1165
 31
0.0
  0
LINE
  5
C2D
330
1D
100
AcDbEntity
  8
0
100
AcDbLine
 10
294.1288
 20
8.89573
 30
0.0
 11
293.3064
 21
8.89573
 31
0.0
  0
LINE
  5
C2E
330
1D
100
AcDbEntity
  8
0
100
AcDbLine
 10
296.9643
 20
0.1165
 30
0.0
 11
296.9643
 21
7.10405
 31
0.0
  0
LINE
  5
C2F
330
1D
100
AcDbEntity
  8
0
100
AcDbLine
 10
296.9643
 20
0.1165
 30
0.0
 11
296.9643
 21
7.10405
 31
0.0
  0
LINE
  5
C30
330
1D
100
AcDbEntity
  8
0
100
AcDbLine
 10
296.9643
 20
7.10405
 30
0.0
 11
296.9643
 21
0.1165
 31
0.0
  0
LINE
  5
C31
330
1D
100
AcDbEntity
  8
0
100
AcDbLine
 10
296.9643
 20
0.1165
 30
0.0
 11
296.7875
 21
0.1165
 31
0.0
  0
LINE
  5
C32
330
1D
100
AcDbEntity
  8
0
100
AcDbLine
 10
296.9643
 20
0.1165
 30
0.0
 11
295.026
 21
0.1165
 31
0.0
  0
LINE
  5
C33
330
1D
100
AcDbEntity
  8
0
100
AcDbLine
 10
295.7363
 20
0.1165
 30
0.0
 11
294.8706
 21
0.1165
 31
0.0
  0
LINE
  5
C34
330
1D
100
AcDbEntity
  8
0
100
AcDbLine
 10
294.8047
 20
0.1165
 30
0.0
 11
294.6687
 21
0.1165
 31
0.0
  0
LINE
  5
C35
330
1D
100
AcDbEntity
  8
0
100
AcDbLine
 10
294.6687
 20
0.1165
 30
0.0
 11
294.3047
 21
0.1165
 31
0.0
  0
LINE
  5
C36
330
1D
100
AcDbEntity
  8
0
100
AcDbLine
 10
296.3767
 20
0.1165
 30
0.0
 11
295.7363
 21
0.1165
 31
0.0
  0
LINE
  5
C37
330
1D
100
AcDbEntity
  8
0
100
AcDbLine
 10
296.7875
 20
0.1165
 30
0.0
 11
296.3767
 21
0.1165
 31
0.0
  0
LINE
  5
C38
330
1D
100
AcDbEntity
  8
0
100
AcDbLine
 10
296.9496
 20
0.1165
 30
0.0
 11
295.026
 21
0.1165
 31
0.0
  0
LINE
  5
C39
330
1D
100
AcDbEntity
  8
0
100
AcDbLine
 10
296.9643
 20
0.1165
 30
0.0
 11
295.026
 21
0.1165
 31
0.0
  0
LINE
  5
C3A
330
1D
100
AcDbEntity
  8
0
100
AcDbLine
 10
296.9643
 20
0.1165
 30
0.0
 11
296.7875
 21
0.1165
 31
0.0
  0
LINE
  5
C3B
330
1D
100
AcDbEntity
  8
0
100
AcDbLine
 10
294.8047
 20
0.1165
 30
0.0
 11
294.6687
 21
0.1165
 31
0.0
  0
LINE
  5
C3C
330
1D
100
AcDbEntity
  8
0
100
AcDbLine
 10
294.6687
 20
0.1165
 30
0.0
 11
294.3047
 21
0.1165
 31
0.0
  0
LINE
  5
C3D
330
1D
100
AcDbEntity
  8
0
100
AcDbLine
 10
295.7363
 20
0.1165
 30
0.0
 11
294.8706
 21
0.1165
 31
0.0
  0
LINE
  5
C3E
330
1D
100
AcDbEntity
  8
0
100
AcDbLine
 10
296.3767
 20
0.1165
 30
0.0
 11
295.7363
 21
0.1165
 31
0.0
  0
LINE
  5
C3F
330
1D
100
AcDbEntity
  8
0
100
AcDbLine
 10
296.7875
 20
0.1165
 30
0.0
 11
296.3767
 21
0.1165
 31
0.0
  0
LINE
  5
C40
330
1D
100
AcDbEntity
  8
0
100
AcDbLine
 10
296.8793
 20
7.65768
 30
0.0
 11
296.6341
 21
8.15755
 31
0.0
  0
LINE
  5
C41
330
1D
100
AcDbEntity
  8
0
100
AcDbLine
 10
296.9643
 20
7.10405
 30
0.0
 11
296.8793
 21
7.65768
 31
0.0
  0
LINE
  5
C42
330
1D
100
AcDbEntity
  8
0
100
AcDbLine
 10
295.7529
 20
8.80793
 30
0.0
 11
295.2292
 21
8.89573
 31
0.0
  0
LINE
  5
C43
330
1D
100
AcDbEntity
  8
0
100
AcDbLine
 10
295.7667
 20
8.80793
 30
0.0
 11
295.238
 21
8.89573
 31
0.0
  0
LINE
  5
C44
330
1D
100
AcDbEntity
  8
0
100
AcDbLine
 10
296.2503
 20
8.55352
 30
0.0
 11
295.7667
 21
8.80793
 31
0.0
  0
LINE
  5
C45
330
1D
100
AcDbEntity
  8
0
100
AcDbLine
 10
296.6341
 20
8.15755
 30
0.0
 11
296.2503
 21
8.55352
 31
0.0
  0
LINE
  5
C46
330
1D
100
AcDbEntity
  8
0
100
AcDbLine
 10
294.7285
 20
8.89573
 30
0.0
 11
294.1288
 21
8.89573
 31
0.0
  0
LINE
  5
C47
330
1D
100
AcDbEntity
  8
0
100
AcDbLine
 10
293.7891
 20
0.1165
 30
0.0
 11
292.5014
 21
0.1165
 31
0.0
  0
LINE
  5
C48
330
1D
100
AcDbEntity
  8
0
100
AcDbLine
 10
293.7146
 20
0.1165
 30
0.0
 11
292.907
 21
0.1165
 31
0.0
  0
LINE
  5
C49
330
1D
100
AcDbEntity
  8
0
100
AcDbLine
 10
290.6677
 20
0.1165
 30
0.0
 11
289.2578
 21
0.1165
 31
0.0
  0
LINE
  5
C4A
330
1D
100
AcDbEntity
  8
0
100
AcDbLine
 10
291.0187
 20
0.1165
 30
0.0
 11
289.354
 21
0.1165
 31
0.0
  0
LINE
  5
C4B
330
1D
100
AcDbEntity
  8
0
100
AcDbLine
 10
292.5014
 20
0.1165
 30
0.0
 11
291.0187
 21
0.1165
 31
0.0
  0
LINE
  5
C4C
330
1D
100
AcDbEntity
  8
0
100
AcDbLine
 10
291.8888
 20
0.1165
 30
0.0
 11
290.6677
 21
0.1165
 31
0.0
  0
LINE
  5
C4D
330
1D
100
AcDbEntity
  8
0
100
AcDbLine
 10
292.907
 20
0.1165
 30
0.0
 11
291.8888
 21
0.1165
 31
0.0
  0
LINE
  5
C4E
330
1D
100
AcDbEntity
  8
0
100
AcDbLine
 10
293.7146
 20
0.1165
 30
0.0
 11
292.907
 21
0.1165
 31
0.0
  0
LINE
  5
C4F
330
1D
100
AcDbEntity
  8
0
100
AcDbLine
 10
290.6677
 20
0.1165
 30
0.0
 11
289.2578
 21
0.1165
 31
0.0
  0
LINE
  5
C50
330
1D
100
AcDbEntity
  8
0
100
AcDbLine
 10
291.8888
 20
0.1165
 30
0.0
 11
290.6677
 21
0.1165
 31
0.0
  0
LINE
  5
C51
330
1D
100
AcDbEntity
  8
0
100
AcDbLine
 10
292.907
 20
0.1165
 30
0.0
 11
291.8888
 21
0.1165
 31
0.0
  0
LINE
  5
C52
330
1D
100
AcDbEntity
  8
0
100
AcDbLine
 10
293.7891
 20
0.1165
 30
0.0
 11
292.5014
 21
0.1165
 31
0.0
  0
LINE
  5
C53
330
1D
100
AcDbEntity
  8
0
100
AcDbLine
 10
293.3064
 20
8.89573
 30
0.0
 11
292.2683
 21
8.89573
 31
0.0
  0
LINE
  5
C54
330
1D
100
AcDbEntity
  8
0
100
AcDbLine
 10
292.5014
 20
0.1165
 30
0.0
 11
291.0187
 21
0.1165
 31
0.0
  0
LINE
  5
C55
330
1D
100
AcDbEntity
  8
0
100
AcDbLine
 10
291.0187
 20
0.1165
 30
0.0
 11
289.354
 21
0.1165
 31
0.0
  0
LINE
  5
C56
330
1D
100
AcDbEntity
  8
0
100
AcDbLine
 10
291.0256
 20
8.89573
 30
0.0
 11
289.5897
 21
8.89573
 31
0.0
  0
LINE
  5
C57
330
1D
100
AcDbEntity
  8
0
100
AcDbLine
 10
292.2683
 20
8.89573
 30
0.0
 11
291.0256
 21
8.89573
 31
0.0
  0
LINE
  5
C58
330
1D
100
AcDbEntity
  8
0
100
AcDbLine
 10
283.4292
 20
0.1165
 30
0.0
 11
281.2039
 21
0.1165
 31
0.0
  0
LINE
  5
C59
330
1D
100
AcDbEntity
  8
0
100
AcDbLine
 10
284.0333
 20
0.1165
 30
0.0
 11
282.0167
 21
0.1165
 31
0.0
  0
LINE
  5
C5A
330
1D
100
AcDbEntity
  8
0
100
AcDbLine
 10
283.4292
 20
0.1165
 30
0.0
 11
281.2039
 21
0.1165
 31
0.0
  0
LINE
  5
C5B
330
1D
100
AcDbEntity
  8
0
100
AcDbLine
 10
284.0333
 20
0.1165
 30
0.0
 11
282.0167
 21
0.1165
 31
0.0
  0
LINE
  5
C5C
330
1D
100
AcDbEntity
  8
0
100
AcDbLine
 10
284.2707
 20
8.89573
 30
0.0
 11
282.2169
 21
8.89573
 31
0.0
  0
LINE
  5
C5D
330
1D
100
AcDbEntity
  8
0
100
AcDbLine
 10
283.2655
 20
9.79158
 30
0.0
 11
282.892
 21
9.79158
 31
0.0
  0
LINE
  5
C5E
330
1D
100
AcDbEntity
  8
0
100
AcDbLine
 10
285.542
 20
0.1165
 30
0.0
 11
283.4292
 21
0.1165
 31
0.0
  0
LINE
  5
C5F
330
1D
100
AcDbEntity
  8
0
100
AcDbLine
 10
287.6711
 20
0.1165
 30
0.0
 11
285.9241
 21
0.1165
 31
0.0
  0
LINE
  5
C60
330
1D
100
AcDbEntity
  8
0
100
AcDbLine
 10
285.9241
 20
0.1165
 30
0.0
 11
284.0333
 21
0.1165
 31
0.0
  0
LINE
  5
C61
330
1D
100
AcDbEntity
  8
0
100
AcDbLine
 10
287.5229
 20
0.1165
 30
0.0
 11
285.542
 21
0.1165
 31
0.0
  0
LINE
  5
C62
330
1D
100
AcDbEntity
  8
0
100
AcDbLine
 10
287.6711
 20
0.1165
 30
0.0
 11
285.9241
 21
0.1165
 31
0.0
  0
LINE
  5
C63
330
1D
100
AcDbEntity
  8
0
100
AcDbLine
 10
285.542
 20
0.1165
 30
0.0
 11
283.4292
 21
0.1165
 31
0.0
  0
LINE
  5
C64
330
1D
100
AcDbEntity
  8
0
100
AcDbLine
 10
285.9241
 20
0.1165
 30
0.0
 11
284.0333
 21
0.1165
 31
0.0
  0
LINE
  5
C65
330
1D
100
AcDbEntity
  8
0
100
AcDbLine
 10
287.5229
 20
0.1165
 30
0.0
 11
285.542
 21
0.1165
 31
0.0
  0
LINE
  5
C66
330
1D
100
AcDbEntity
  8
0
100
AcDbLine
 10
283.9637
 20
8.89573
 30
0.0
 11
283.9637
 21
9.52279
 31
0.0
  0
LINE
  5
C67
330
1D
100
AcDbEntity
  8
0
100
AcDbLine
 10
287.9744
 20
8.89573
 30
0.0
 11
286.1954
 21
8.89573
 31
0.0
  0
LINE
  5
C68
330
1D
100
AcDbEntity
  8
0
100
AcDbLine
 10
286.1954
 20
8.89573
 30
0.0
 11
284.2707
 21
8.89573
 31
0.0
  0
LINE
  5
C69
330
1D
100
AcDbEntity
  8
0
100
AcDbLine
 10
283.929
 20
9.65723
 30
0.0
 11
283.8339
 21
9.75577
 31
0.0
  0
LINE
  5
C6A
330
1D
100
AcDbEntity
  8
0
100
AcDbLine
 10
283.8339
 20
9.75577
 30
0.0
 11
283.7039
 21
9.79158
 31
0.0
  0
LINE
  5
C6B
330
1D
100
AcDbEntity
  8
0
100
AcDbLine
 10
283.5281
 20
9.79158
 30
0.0
 11
283.2655
 21
9.79158
 31
0.0
  0
LINE
  5
C6C
330
1D
100
AcDbEntity
  8
0
100
AcDbLine
 10
283.6771
 20
9.79158
 30
0.0
 11
283.5281
 21
9.79158
 31
0.0
  0
LINE
  5
C6D
330
1D
100
AcDbEntity
  8
0
100
AcDbLine
 10
283.9637
 20
9.52279
 30
0.0
 11
283.929
 21
9.65723
 31
0.0
  0
LINE
  5
C6E
330
1D
100
AcDbEntity
  8
0
100
AcDbLine
 10
283.9637
 20
9.52279
 30
0.0
 11
283.9637
 21
8.89573
 31
0.0
  0
LINE
  5
C6F
330
1D
100
AcDbEntity
  8
0
100
AcDbLine
 10
283.7239
 20
9.85251
 30
0.0
 11
283.5072
 21
9.79158
 31
0.0
  0
LINE
  5
C70
330
1D
100
AcDbEntity
  8
0
100
AcDbLine
 10
283.8824
 20
10.01639
 30
0.0
 11
283.7239
 21
9.85251
 31
0.0
  0
LINE
  5
C71
330
1D
100
AcDbEntity
  8
0
100
AcDbLine
 10
283.9405
 20
10.2404
 30
0.0
 11
283.8824
 21
10.01639
 31
0.0
  0
LINE
  5
C72
330
1D
100
AcDbEntity
  8
0
100
AcDbLine
 10
281.2039
 20
0.1165
 30
0.0
 11
278.8858
 21
0.1165
 31
0.0
  0
LINE
  5
C73
330
1D
100
AcDbEntity
  8
0
100
AcDbLine
 10
282.0167
 20
0.1165
 30
0.0
 11
279.8936
 21
0.1165
 31
0.0
  0
LINE
  5
C74
330
1D
100
AcDbEntity
  8
0
100
AcDbLine
 10
282.0167
 20
0.1165
 30
0.0
 11
279.8936
 21
0.1165
 31
0.0
  0
LINE
  5
C75
330
1D
100
AcDbEntity
  8
0
100
AcDbLine
 10
281.2039
 20
0.1165
 30
0.0
 11
278.8858
 21
0.1165
 31
0.0
  0
LINE
  5
C76
330
1D
100
AcDbEntity
  8
0
100
AcDbLine
 10
282.2169
 20
8.89573
 30
0.0
 11
280.0557
 21
8.89573
 31
0.0
  0
LINE
  5
C77
330
1D
100
AcDbEntity
  8
0
100
AcDbLine
 10
279.5045
 20
9.79158
 30
0.0
 11
278.5669
 21
9.79158
 31
0.0
  0
LINE
  5
C78
330
1D
100
AcDbEntity
  8
0
100
AcDbLine
 10
280.365
 20
9.79158
 30
0.0
 11
279.5045
 21
9.79158
 31
0.0
  0
LINE
  5
C79
330
1D
100
AcDbEntity
  8
0
100
AcDbLine
 10
281.8244
 20
9.79158
 30
0.0
 11
281.1406
 21
9.79158
 31
0.0
  0
LINE
  5
C7A
330
1D
100
AcDbEntity
  8
0
100
AcDbLine
 10
281.1406
 20
9.79158
 30
0.0
 11
280.365
 21
9.79158
 31
0.0
  0
LINE
  5
C7B
330
1D
100
AcDbEntity
  8
0
100
AcDbLine
 10
282.4102
 20
9.79158
 30
0.0
 11
281.8244
 21
9.79158
 31
0.0
  0
LINE
  5
C7C
330
1D
100
AcDbEntity
  8
0
100
AcDbLine
 10
282.892
 20
9.79158
 30
0.0
 11
282.4102
 21
9.79158
 31
0.0
  0
LINE
  5
C7D
330
1D
100
AcDbEntity
  8
0
100
AcDbLine
 10
284.0245
 20
35.6742
 30
0.0
 11
283.9362
 21
33.5832
 31
0.0
  0
LINE
  5
C7E
330
1D
100
AcDbEntity
  8
0
100
AcDbLine
 10
283.9362
 20
33.5832
 30
0.0
 11
283.905
 21
29.4427
 31
0.0
  0
LINE
  5
C7F
330
1D
100
AcDbEntity
  8
0
100
AcDbLine
 10
284.1476
 20
37.2401
 30
0.0
 11
284.0245
 21
35.6742
 31
0.0
  0
LINE
  5
C80
330
1D
100
AcDbEntity
  8
0
100
AcDbLine
 10
284.5921
 20
40.3406
 30
0.0
 11
284.3322
 21
38.798
 31
0.0
  0
LINE
  5
C81
330
1D
100
AcDbEntity
  8
0
100
AcDbLine
 10
284.3322
 20
38.798
 30
0.0
 11
284.1476
 21
37.2401
 31
0.0
  0
LINE
  5
C82
330
1D
100
AcDbEntity
  8
0
100
AcDbLine
 10
284.9397
 20
41.8635
 30
0.0
 11
284.5921
 21
40.3406
 31
0.0
  0
LINE
  5
C83
330
1D
100
AcDbEntity
  8
0
100
AcDbLine
 10
269.1152
 20
0.1165
 30
0.0
 11
266.6584
 21
0.1165
 31
0.0
  0
LINE
  5
C84
330
1D
100
AcDbEntity
  8
0
100
AcDbLine
 10
268.4227
 20
0.1165
 30
0.0
 11
266.1125
 21
0.1165
 31
0.0
  0
LINE
  5
C85
330
1D
100
AcDbEntity
  8
0
100
AcDbLine
 10
268.4227
 20
0.1165
 30
0.0
 11
266.1125
 21
0.1165
 31
0.0
  0
LINE
  5
C86
330
1D
100
AcDbEntity
  8
0
100
AcDbLine
 10
269.1152
 20
0.1165
 30
0.0
 11
266.6584
 21
0.1165
 31
0.0
  0
LINE
  5
C87
330
1D
100
AcDbEntity
  8
0
100
AcDbLine
 10
271.5883
 20
0.1165
 30
0.0
 11
269.1152
 21
0.1165
 31
0.0
  0
LINE
  5
C88
330
1D
100
AcDbEntity
  8
0
100
AcDbLine
 10
276.4958
 20
0.1165
 30
0.0
 11
274.0555
 21
0.1165
 31
0.0
  0
LINE
  5
C89
330
1D
100
AcDbEntity
  8
0
100
AcDbLine
 10
274.0555
 20
0.1165
 30
0.0
 11
271.5883
 21
0.1165
 31
0.0
  0
LINE
  5
C8A
330
1D
100
AcDbEntity
  8
0
100
AcDbLine
 10
273.0936
 20
0.1165
 30
0.0
 11
270.7573
 21
0.1165
 31
0.0
  0
LINE
  5
C8B
330
1D
100
AcDbEntity
  8
0
100
AcDbLine
 10
277.6839
 20
0.1165
 30
0.0
 11
275.4108
 21
0.1165
 31
0.0
  0
LINE
  5
C8C
330
1D
100
AcDbEntity
  8
0
100
AcDbLine
 10
275.4108
 20
0.1165
 30
0.0
 11
273.0936
 21
0.1165
 31
0.0
  0
LINE
  5
C8D
330
1D
100
AcDbEntity
  8
0
100
AcDbLine
 10
270.7573
 20
0.1165
 30
0.0
 11
268.4227
 21
0.1165
 31
0.0
  0
LINE
  5
C8E
330
1D
100
AcDbEntity
  8
0
100
AcDbLine
 10
277.6839
 20
0.1165
 30
0.0
 11
275.4108
 21
0.1165
 31
0.0
  0
LINE
  5
C8F
330
1D
100
AcDbEntity
  8
0
100
AcDbLine
 10
275.4108
 20
0.1165
 30
0.0
 11
273.0936
 21
0.1165
 31
0.0
  0
LINE
  5
C90
330
1D
100
AcDbEntity
  8
0
100
AcDbLine
 10
276.4958
 20
0.1165
 30
0.0
 11
274.0555
 21
0.1165
 31
0.0
  0
LINE
  5
C91
330
1D
100
AcDbEntity
  8
0
100
AcDbLine
 10
273.0936
 20
0.1165
 30
0.0
 11
270.7573
 21
0.1165
 31
0.0
  0
LINE
  5
C92
330
1D
100
AcDbEntity
  8
0
100
AcDbLine
 10
271.5883
 20
0.1165
 30
0.0
 11
269.1152
 21
0.1165
 31
0.0
  0
LINE
  5
C93
330
1D
100
AcDbEntity
  8
0
100
AcDbLine
 10
270.7573
 20
0.1165
 30
0.0
 11
268.4227
 21
0.1165
 31
0.0
  0
LINE
  5
C94
330
1D
100
AcDbEntity
  8
0
100
AcDbLine
 10
274.0555
 20
0.1165
 30
0.0
 11
271.5883
 21
0.1165
 31
0.0
  0
LINE
  5
C95
330
1D
100
AcDbEntity
  8
0
100
AcDbLine
 10
270.753
 20
8.89573
 30
0.0
 11
268.3759
 21
8.89573
 31
0.0
  0
LINE
  5
C96
330
1D
100
AcDbEntity
  8
0
100
AcDbLine
 10
277.806
 20
8.89573
 30
0.0
 11
275.4914
 21
8.89573
 31
0.0
  0
LINE
  5
C97
330
1D
100
AcDbEntity
  8
0
100
AcDbLine
 10
270.6187
 20
9.79158
 30
0.0
 11
269.4107
 21
9.79158
 31
0.0
  0
LINE
  5
C98
330
1D
100
AcDbEntity
  8
0
100
AcDbLine
 10
269.4107
 20
9.79158
 30
0.0
 11
268.2156
 21
9.79158
 31
0.0
  0
LINE
  5
C99
330
1D
100
AcDbEntity
  8
0
100
AcDbLine
 10
273.0356
 20
9.79158
 30
0.0
 11
271.831
 21
9.79158
 31
0.0
  0
LINE
  5
C9A
330
1D
100
AcDbEntity
  8
0
100
AcDbLine
 10
276.4932
 20
9.79158
 30
0.0
 11
275.377
 21
9.79158
 31
0.0
  0
LINE
  5
C9B
330
1D
100
AcDbEntity
  8
0
100
AcDbLine
 10
273.1326
 20
8.89573
 30
0.0
 11
270.753
 21
8.89573
 31
0.0
  0
LINE
  5
C9C
330
1D
100
AcDbEntity
  8
0
100
AcDbLine
 10
263.8498
 20
0.1165
 30
0.0
 11
261.6548
 21
0.1165
 31
0.0
  0
LINE
  5
C9D
330
1D
100
AcDbEntity
  8
0
100
AcDbLine
 10
261.8845
 20
0.1165
 30
0.0
 11
259.6106
 21
0.1165
 31
0.0
  0
LINE
  5
C9E
330
1D
100
AcDbEntity
  8
0
100
AcDbLine
 10
263.8498
 20
0.1165
 30
0.0
 11
261.6548
 21
0.1165
 31
0.0
  0
LINE
  5
C9F
330
1D
100
AcDbEntity
  8
0
100
AcDbLine
 10
261.8845
 20
0.1165
 30
0.0
 11
259.6106
 21
0.1165
 31
0.0
  0
LINE
  5
CA0
330
1D
100
AcDbEntity
  8
0
100
AcDbLine
 10
263.719
 20
8.89573
 30
0.0
 11
261.4858
 21
8.89573
 31
0.0
  0
LINE
  5
CA1
330
1D
100
AcDbEntity
  8
0
100
AcDbLine
 10
261.9304
 20
9.79158
 30
0.0
 11
261.1184
 21
9.79158
 31
0.0
  0
LINE
  5
CA2
330
1D
100
AcDbEntity
  8
0
100
AcDbLine
 10
266.6584
 20
0.1165
 30
0.0
 11
264.2416
 21
0.1165
 31
0.0
  0
LINE
  5
CA3
330
1D
100
AcDbEntity
  8
0
100
AcDbLine
 10
266.1125
 20
0.1165
 30
0.0
 11
263.8498
 21
0.1165
 31
0.0
  0
LINE
  5
CA4
330
1D
100
AcDbEntity
  8
0
100
AcDbLine
 10
264.2416
 20
0.1165
 30
0.0
 11
261.8845
 21
0.1165
 31
0.0
  0
LINE
  5
CA5
330
1D
100
AcDbEntity
  8
0
100
AcDbLine
 10
266.1125
 20
0.1165
 30
0.0
 11
263.8498
 21
0.1165
 31
0.0
  0
LINE
  5
CA6
330
1D
100
AcDbEntity
  8
0
100
AcDbLine
 10
266.6584
 20
0.1165
 30
0.0
 11
264.2416
 21
0.1165
 31
0.0
  0
LINE
  5
CA7
330
1D
100
AcDbEntity
  8
0
100
AcDbLine
 10
264.2416
 20
0.1165
 30
0.0
 11
261.8845
 21
0.1165
 31
0.0
  0
LINE
  5
CA8
330
1D
100
AcDbEntity
  8
0
100
AcDbLine
 10
266.024
 20
8.89573
 30
0.0
 11
263.719
 21
8.89573
 31
0.0
  0
LINE
  5
CA9
330
1D
100
AcDbEntity
  8
0
100
AcDbLine
 10
267.0458
 20
9.79158
 30
0.0
 11
265.9123
 21
9.79158
 31
0.0
  0
LINE
  5
CAA
330
1D
100
AcDbEntity
  8
0
100
AcDbLine
 10
263.7909
 20
9.79158
 30
0.0
 11
262.8238
 21
9.79158
 31
0.0
  0
LINE
  5
CAB
330
1D
100
AcDbEntity
  8
0
100
AcDbLine
 10
262.8238
 20
9.79158
 30
0.0
 11
261.9304
 21
9.79158
 31
0.0
  0
LINE
  5
CAC
330
1D
100
AcDbEntity
  8
0
100
AcDbLine
 10
259.6106
 20
0.1165
 30
0.0
 11
257.4397
 21
0.1165
 31
0.0
  0
LINE
  5
CAD
330
1D
100
AcDbEntity
  8
0
100
AcDbLine
 10
261.6548
 20
0.1165
 30
0.0
 11
259.5499
 21
0.1165
 31
0.0
  0
LINE
  5
CAE
330
1D
100
AcDbEntity
  8
0
100
AcDbLine
 10
259.5499
 20
0.1165
 30
0.0
 11
257.555
 21
0.1165
 31
0.0
  0
LINE
  5
CAF
330
1D
100
AcDbEntity
  8
0
100
AcDbLine
 10
259.5499
 20
0.1165
 30
0.0
 11
257.555
 21
0.1165
 31
0.0
  0
LINE
  5
CB0
330
1D
100
AcDbEntity
  8
0
100
AcDbLine
 10
261.6548
 20
0.1165
 30
0.0
 11
259.5499
 21
0.1165
 31
0.0
  0
LINE
  5
CB1
330
1D
100
AcDbEntity
  8
0
100
AcDbLine
 10
259.6106
 20
0.1165
 30
0.0
 11
257.4397
 21
0.1165
 31
0.0
  0
LINE
  5
CB2
330
1D
100
AcDbEntity
  8
0
100
AcDbLine
 10
257.9788
 20
8.89573
 30
0.0
 11
257.9788
 21
9.52279
 31
0.0
  0
LINE
  5
CB3
330
1D
100
AcDbEntity
  8
0
100
AcDbLine
 10
261.4858
 20
8.89573
 30
0.0
 11
259.3419
 21
8.89573
 31
0.0
  0
LINE
  5
CB4
330
1D
100
AcDbEntity
  8
0
100
AcDbLine
 10
258.3756
 20
9.79158
 30
0.0
 11
258.159
 21
9.85251
 31
0.0
  0
LINE
  5
CB5
330
1D
100
AcDbEntity
  8
0
100
AcDbLine
 10
258.8255
 20
9.79158
 30
0.0
 11
258.516
 21
9.79158
 31
0.0
  0
LINE
  5
CB6
330
1D
100
AcDbEntity
  8
0
100
AcDbLine
 10
258.1088
 20
9.75577
 30
0.0
 11
258.0134
 21
9.65723
 31
0.0
  0
LINE
  5
CB7
330
1D
100
AcDbEntity
  8
0
100
AcDbLine
 10
258.2388
 20
9.79158
 30
0.0
 11
258.1088
 21
9.75577
 31
0.0
  0
LINE
  5
CB8
330
1D
100
AcDbEntity
  8
0
100
AcDbLine
 10
257.9788
 20
9.52279
 30
0.0
 11
257.9788
 21
8.89573
 31
0.0
  0
LINE
  5
CB9
330
1D
100
AcDbEntity
  8
0
100
AcDbLine
 10
258.0134
 20
9.65723
 30
0.0
 11
257.9788
 21
9.52279
 31
0.0
  0
LINE
  5
CBA
330
1D
100
AcDbEntity
  8
0
100
AcDbLine
 10
258.3202
 20
9.79158
 30
0.0
 11
258.2388
 21
9.79158
 31
0.0
  0
LINE
  5
CBB
330
1D
100
AcDbEntity
  8
0
100
AcDbLine
 10
260.3957
 20
9.79158
 30
0.0
 11
259.7691
 21
9.79158
 31
0.0
  0
LINE
  5
CBC
330
1D
100
AcDbEntity
  8
0
100
AcDbLine
 10
258.0004
 20
10.01639
 30
0.0
 11
257.9424
 21
10.2404
 31
0.0
  0
LINE
  5
CBD
330
1D
100
AcDbEntity
  8
0
100
AcDbLine
 10
258.159
 20
9.85251
 30
0.0
 11
258.0004
 21
10.01639
 31
0.0
  0
LINE
  5
CBE
330
1D
100
AcDbEntity
  8
0
100
AcDbLine
 10
259.7691
 20
9.79158
 30
0.0
 11
259.244
 21
9.79158
 31
0.0
  0
LINE
  5
CBF
330
1D
100
AcDbEntity
  8
0
100
AcDbLine
 10
288.5862
 20
49.1171
 30
0.0
 11
287.4649
 21
47.6148
 31
0.0
  0
LINE
  5
CC0
330
1D
100
AcDbEntity
  8
0
100
AcDbLine
 10
294.3273
 20
53.6635
 30
0.0
 11
293.986
 21
53.4731
 31
0.0
  0
LINE
  5
CC1
330
1D
100
AcDbEntity
  8
0
100
AcDbLine
 10
293.986
 20
53.4731
 30
0.0
 11
293.2241
 21
53.0481
 31
0.0
  0
LINE
  5
CC2
330
1D
100
AcDbEntity
  8
0
100
AcDbLine
 10
291.8325
 20
52.1231
 30
0.0
 11
291.1192
 21
51.5941
 31
0.0
  0
LINE
  5
CC3
330
1D
100
AcDbEntity
  8
0
100
AcDbLine
 10
292.4839
 20
52.573
 30
0.0
 11
292.1522
 21
52.3601
 31
0.0
  0
LINE
  5
CC4
330
1D
100
AcDbEntity
  8
0
100
AcDbLine
 10
293.2241
 20
53.0481
 30
0.0
 11
292.4839
 21
52.573
 31
0.0
  0
LINE
  5
CC5
330
1D
100
AcDbEntity
  8
0
100
AcDbLine
 10
292.1522
 20
52.3601
 30
0.0
 11
291.8325
 21
52.1231
 31
0.0
  0
LINE
  5
CC6
330
1D
100
AcDbEntity
  8
0
100
AcDbLine
 10
290.2138
 20
50.7967
 30
0.0
 11
289.8081
 21
50.4394
 31
0.0
  0
LINE
  5
CC7
330
1D
100
AcDbEntity
  8
0
100
AcDbLine
 10
291.1192
 20
51.5941
 30
0.0
 11
290.2138
 21
50.7967
 31
0.0
  0
LINE
  5
CC8
330
1D
100
AcDbEntity
  8
0
100
AcDbLine
 10
289.43
 20
50.0302
 30
0.0
 11
288.5862
 21
49.1171
 31
0.0
  0
LINE
  5
CC9
330
1D
100
AcDbEntity
  8
0
100
AcDbLine
 10
289.8081
 20
50.4394
 30
0.0
 11
289.43
 21
50.0302
 31
0.0
  0
LINE
  5
CCA
330
1D
100
AcDbEntity
  8
0
100
AcDbLine
 10
297.981305728646
 20
55.211146486815
 30
0.0
 11
297.0007
 21
54.8613
 31
0.0
  0
LINE
  5
CCB
330
1D
100
AcDbEntity
  8
0
100
AcDbLine
 10
297.0007
 20
54.8613
 30
0.0
 11
295.4582
 21
54.2145
 31
0.0
  0
LINE
  5
CCC
330
1D
100
AcDbEntity
  8
0
100
AcDbLine
 10
294.6772
 20
53.834
 30
0.0
 11
294.3273
 21
53.6635
 31
0.0
  0
LINE
  5
CCD
330
1D
100
AcDbEntity
  8
0
100
AcDbLine
 10
295.4582
 20
54.2145
 30
0.0
 11
294.6772
 21
53.834
 31
0.0
  0
LINE
  5
CCE
330
1D
100
AcDbEntity
  8
0
100
AcDbLine
 10
299.207271975101
 20
55.613863011388
 30
0.0
 11
297.981305728646
 21
55.211146486815
 31
0.0
  0
LINE
  5
CCF
330
1D
100
AcDbEntity
  8
0
100
AcDbLine
 10
286.3947
 20
45.7729
 30
0.0
 11
285.5627
 21
43.8505
 31
0.0
  0
LINE
  5
CD0
330
1D
100
AcDbEntity
  8
0
100
AcDbLine
 10
287.4649
 20
47.6148
 30
0.0
 11
286.8982
 21
46.7055
 31
0.0
  0
LINE
  5
CD1
330
1D
100
AcDbEntity
  8
0
100
AcDbLine
 10
286.8982
 20
46.7055
 30
0.0
 11
286.3947
 21
45.7729
 31
0.0
  0
LINE
  5
CD2
330
1D
100
AcDbEntity
  8
0
100
AcDbLine
 10
258.0637
 20
52.2284
 30
0.0
 11
258.0203
 21
52.034
 31
0.0
  0
LINE
  5
CD3
330
1D
100
AcDbEntity
  8
0
100
AcDbLine
 10
258.3592
 20
52.4702
 30
0.0
 11
258.1851
 21
52.3842
 31
0.0
  0
LINE
  5
CD4
330
1D
100
AcDbEntity
  8
0
100
AcDbLine
 10
258.1851
 20
52.3842
 30
0.0
 11
258.1244
 21
52.3152
 31
0.0
  0
LINE
  5
CD5
330
1D
100
AcDbEntity
  8
0
100
AcDbLine
 10
258.1244
 20
52.3152
 30
0.0
 11
258.0637
 21
52.2284
 31
0.0
  0
LINE
  5
CD6
330
1D
100
AcDbEntity
  8
0
100
AcDbLine
 10
258.418910196223
 20
52.484119877883
 30
0.0
 11
258.3593
 21
52.4703
 31
0.0
  0
LINE
  5
CD7
330
1D
100
AcDbEntity
  8
0
100
AcDbLine
 10
191.8593
 20
8.1165
 30
0.0
 11
190.4024
 21
90.5623
 31
0.0
  0
LINE
  5
CD8
330
1D
100
AcDbEntity
  8
0
100
AcDbLine
 10
191.8593
 20
8.1165
 30
0.0
 11
190.4024
 21
90.5623
 31
0.0
  0
LINE
  5
CD9
330
1D
100
AcDbEntity
  8
0
100
AcDbLine
 10
247.2384
 20
0.1165
 30
0.0
 11
245.3363
 21
0.1165
 31
0.0
  0
LINE
  5
CDA
330
1D
100
AcDbEntity
  8
0
100
AcDbLine
 10
247.2384
 20
0.1165
 30
0.0
 11
245.0434
 21
0.1165
 31
0.0
  0
LINE
  5
CDB
330
1D
100
AcDbEntity
  8
0
100
AcDbLine
 10
245.8623
 20
0.1165
 30
0.0
 11
245.3363
 21
0.1165
 31
0.0
  0
LINE
  5
CDC
330
1D
100
AcDbEntity
  8
0
100
AcDbLine
 10
245.8623
 20
0.1165
 30
0.0
 11
245.3363
 21
0.1165
 31
0.0
  0
LINE
  5
CDD
330
1D
100
AcDbEntity
  8
0
100
AcDbLine
 10
247.2384
 20
0.1165
 30
0.0
 11
245.3363
 21
0.1165
 31
0.0
  0
LINE
  5
CDE
330
1D
100
AcDbEntity
  8
0
100
AcDbLine
 10
247.2384
 20
0.1165
 30
0.0
 11
245.0434
 21
0.1165
 31
0.0
  0
LINE
  5
CDF
330
1D
100
AcDbEntity
  8
0
100
AcDbLine
 10
246.1961
 20
8.80793
 30
0.0
 11
245.7136
 21
8.55352
 31
0.0
  0
LINE
  5
CE0
330
1D
100
AcDbEntity
  8
0
100
AcDbLine
 10
252.4162
 20
0.1165
 30
0.0
 11
251.0401
 21
0.1165
 31
0.0
  0
LINE
  5
CE1
330
1D
100
AcDbEntity
  8
0
100
AcDbLine
 10
251.7351
 20
0.1165
 30
0.0
 11
250.1597
 21
0.1165
 31
0.0
  0
LINE
  5
CE2
330
1D
100
AcDbEntity
  8
0
100
AcDbLine
 10
252.4162
 20
0.1165
 30
0.0
 11
251.0401
 21
0.1165
 31
0.0
  0
LINE
  5
CE3
330
1D
100
AcDbEntity
  8
0
100
AcDbLine
 10
251.7351
 20
0.1165
 30
0.0
 11
250.1597
 21
0.1165
 31
0.0
  0
LINE
  5
CE4
330
1D
100
AcDbEntity
  8
0
100
AcDbLine
 10
255.3912
 20
0.1165
 30
0.0
 11
253.4839
 21
0.1165
 31
0.0
  0
LINE
  5
CE5
330
1D
100
AcDbEntity
  8
0
100
AcDbLine
 10
253.9709
 20
0.1165
 30
0.0
 11
252.4162
 21
0.1165
 31
0.0
  0
LINE
  5
CE6
330
1D
100
AcDbEntity
  8
0
100
AcDbLine
 10
253.4839
 20
0.1165
 30
0.0
 11
251.7351
 21
0.1165
 31
0.0
  0
LINE
  5
CE7
330
1D
100
AcDbEntity
  8
0
100
AcDbLine
 10
255.6893
 20
0.1165
 30
0.0
 11
253.9709
 21
0.1165
 31
0.0
  0
LINE
  5
CE8
330
1D
100
AcDbEntity
  8
0
100
AcDbLine
 10
253.9709
 20
0.1165
 30
0.0
 11
252.4162
 21
0.1165
 31
0.0
  0
LINE
  5
CE9
330
1D
100
AcDbEntity
  8
0
100
AcDbLine
 10
255.3912
 20
0.1165
 30
0.0
 11
253.4839
 21
0.1165
 31
0.0
  0
LINE
  5
CEA
330
1D
100
AcDbEntity
  8
0
100
AcDbLine
 10
253.4839
 20
0.1165
 30
0.0
 11
251.7351
 21
0.1165
 31
0.0
  0
LINE
  5
CEB
330
1D
100
AcDbEntity
  8
0
100
AcDbLine
 10
255.6893
 20
0.1165
 30
0.0
 11
253.9709
 21
0.1165
 31
0.0
  0
LINE
  5
CEC
330
1D
100
AcDbEntity
  8
0
100
AcDbLine
 10
253.6615
 20
8.89573
 30
0.0
 11
252.0783
 21
8.89573
 31
0.0
  0
LINE
  5
CED
330
1D
100
AcDbEntity
  8
0
100
AcDbLine
 10
250.1597
 20
0.1165
 30
0.0
 11
248.7732
 21
0.1165
 31
0.0
  0
LINE
  5
CEE
330
1D
100
AcDbEntity
  8
0
100
AcDbLine
 10
251.0401
 20
0.1165
 30
0.0
 11
249.8564
 21
0.1165
 31
0.0
  0
LINE
  5
CEF
330
1D
100
AcDbEntity
  8
0
100
AcDbLine
 10
248.8754
 20
0.1165
 30
0.0
 11
248.1076
 21
0.1165
 31
0.0
  0
LINE
  5
CF0
330
1D
100
AcDbEntity
  8
0
100
AcDbLine
 10
249.8564
 20
0.1165
 30
0.0
 11
248.8754
 21
0.1165
 31
0.0
  0
LINE
  5
CF1
330
1D
100
AcDbEntity
  8
0
100
AcDbLine
 10
247.5885
 20
0.1165
 30
0.0
 11
246.6154
 21
0.1165
 31
0.0
  0
LINE
  5
CF2
330
1D
100
AcDbEntity
  8
0
100
AcDbLine
 10
247.5608
 20
0.1165
 30
0.0
 11
247.2384
 21
0.1165
 31
0.0
  0
LINE
  5
CF3
330
1D
100
AcDbEntity
  8
0
100
AcDbLine
 10
248.1076
 20
0.1165
 30
0.0
 11
247.5608
 21
0.1165
 31
0.0
  0
LINE
  5
CF4
330
1D
100
AcDbEntity
  8
0
100
AcDbLine
 10
248.7732
 20
0.1165
 30
0.0
 11
247.5885
 21
0.1165
 31
0.0
  0
LINE
  5
CF5
330
1D
100
AcDbEntity
  8
0
100
AcDbLine
 10
247.2384
 20
0.1165
 30
0.0
 11
247.1536
 21
0.1165
 31
0.0
  0
LINE
  5
CF6
330
1D
100
AcDbEntity
  8
0
100
AcDbLine
 10
247.5608
 20
0.1165
 30
0.0
 11
247.2384
 21
0.1165
 31
0.0
  0
LINE
  5
CF7
330
1D
100
AcDbEntity
  8
0
100
AcDbLine
 10
248.1076
 20
0.1165
 30
0.0
 11
247.5608
 21
0.1165
 31
0.0
  0
LINE
  5
CF8
330
1D
100
AcDbEntity
  8
0
100
AcDbLine
 10
246.6154
 20
0.1165
 30
0.0
 11
245.8623
 21
0.1165
 31
0.0
  0
LINE
  5
CF9
330
1D
100
AcDbEntity
  8
0
100
AcDbLine
 10
247.2384
 20
0.1165
 30
0.0
 11
247.1536
 21
0.1165
 31
0.0
  0
LINE
  5
CFA
330
1D
100
AcDbEntity
  8
0
100
AcDbLine
 10
246.6154
 20
0.1165
 30
0.0
 11
245.8623
 21
0.1165
 31
0.0
  0
LINE
  5
CFB
330
1D
100
AcDbEntity
  8
0
100
AcDbLine
 10
248.8754
 20
0.1165
 30
0.0
 11
248.1076
 21
0.1165
 31
0.0
  0
LINE
  5
CFC
330
1D
100
AcDbEntity
  8
0
100
AcDbLine
 10
247.5885
 20
0.1165
 30
0.0
 11
246.6154
 21
0.1165
 31
0.0
  0
LINE
  5
CFD
330
1D
100
AcDbEntity
  8
0
100
AcDbLine
 10
249.8564
 20
0.1165
 30
0.0
 11
248.8754
 21
0.1165
 31
0.0
  0
LINE
  5
CFE
330
1D
100
AcDbEntity
  8
0
100
AcDbLine
 10
251.0401
 20
0.1165
 30
0.0
 11
249.8564
 21
0.1165
 31
0.0
  0
LINE
  5
CFF
330
1D
100
AcDbEntity
  8
0
100
AcDbLine
 10
250.1597
 20
0.1165
 30
0.0
 11
248.7732
 21
0.1165
 31
0.0
  0
LINE
  5
D00
330
1D
100
AcDbEntity
  8
0
100
AcDbLine
 10
248.7732
 20
0.1165
 30
0.0
 11
247.5885
 21
0.1165
 31
0.0
  0
LINE
  5
D01
330
1D
100
AcDbEntity
  8
0
100
AcDbLine
 10
246.7205
 20
8.89573
 30
0.0
 11
246.1961
 21
8.80793
 31
0.0
  0
LINE
  5
D02
330
1D
100
AcDbEntity
  8
0
100
AcDbLine
 10
247.1345
 20
8.89573
 30
0.0
 11
246.8069
 21
8.89573
 31
0.0
  0
LINE
  5
D03
330
1D
100
AcDbEntity
  8
0
100
AcDbLine
 10
247.6917
 20
8.89573
 30
0.0
 11
247.1345
 21
8.89573
 31
0.0
  0
LINE
  5
D04
330
1D
100
AcDbEntity
  8
0
100
AcDbLine
 10
248.4742
 20
8.89573
 30
0.0
 11
247.6917
 21
8.89573
 31
0.0
  0
LINE
  5
D05
330
1D
100
AcDbEntity
  8
0
100
AcDbLine
 10
245.3363
 20
0.1165
 30
0.0
 11
245.0434
 21
0.1165
 31
0.0
  0
LINE
  5
D06
330
1D
100
AcDbEntity
  8
0
100
AcDbLine
 10
245.3363
 20
0.1165
 30
0.0
 11
245.0434
 21
0.1165
 31
0.0
  0
LINE
  5
D07
330
1D
100
AcDbEntity
  8
0
100
AcDbLine
 10
245.0
 20
0.1165
 30
0.0
 11
245.0
 21
7.10405
 31
0.0
  0
LINE
  5
D08
330
1D
100
AcDbEntity
  8
0
100
AcDbLine
 10
245.0
 20
7.10405
 30
0.0
 11
245.0
 21
0.1165
 31
0.0
  0
LINE
  5
D09
330
1D
100
AcDbEntity
  8
0
100
AcDbLine
 10
245.0849
 20
7.65768
 30
0.0
 11
245.0
 21
7.10405
 31
0.0
  0
LINE
  5
D0A
330
1D
100
AcDbEntity
  8
0
100
AcDbLine
 10
245.3302
 20
8.15755
 30
0.0
 11
245.0849
 21
7.65768
 31
0.0
  0
LINE
  5
D0B
330
1D
100
AcDbEntity
  8
0
100
AcDbLine
 10
245.7136
 20
8.55352
 30
0.0
 11
245.3302
 21
8.15755
 31
0.0
  0
LINE
  5
D0C
330
1D
100
AcDbEntity
  8
0
100
AcDbLine
 10
193.4824
 20
0.1165
 30
0.0
 11
189.3529
 21
0.1165
 31
0.0
  0
LINE
  5
D0D
330
1D
100
AcDbEntity
  8
0
100
AcDbLine
 10
193.4824
 20
0.1165
 30
0.0
 11
189.3529
 21
0.1165
 31
0.0
  0
LINE
  5
D0E
330
1D
100
AcDbEntity
  8
0
100
AcDbLine
 10
193.1765
 20
7.73189
 30
0.0
 11
189.1235
 21
7.73189
 31
0.0
  0
LINE
  5
D0F
330
1D
100
AcDbEntity
  8
0
100
AcDbLine
 10
192.4882
 20
8.1165
 30
0.0
 11
188.5882
 21
8.1165
 31
0.0
  0
LINE
  5
D10
330
1D
100
AcDbEntity
  8
0
100
AcDbLine
 10
196.0824
 20
0.1165
 30
0.0
 11
193.4824
 21
0.1165
 31
0.0
  0
LINE
  5
D11
330
1D
100
AcDbEntity
  8
0
100
AcDbLine
 10
197.0
 20
0.1165
 30
0.0
 11
197.0
 21
6.96265
 31
0.0
  0
LINE
  5
D12
330
1D
100
AcDbEntity
  8
0
100
AcDbLine
 10
197.0
 20
0.1165
 30
0.0
 11
196.0824
 21
0.1165
 31
0.0
  0
LINE
  5
D13
330
1D
100
AcDbEntity
  8
0
100
AcDbLine
 10
197.0
 20
0.1165
 30
0.0
 11
196.0824
 21
0.1165
 31
0.0
  0
LINE
  5
D14
330
1D
100
AcDbEntity
  8
0
100
AcDbLine
 10
196.0824
 20
0.1165
 30
0.0
 11
193.4824
 21
0.1165
 31
0.0
  0
LINE
  5
D15
330
1D
100
AcDbEntity
  8
0
100
AcDbLine
 10
197.0
 20
6.96265
 30
0.0
 11
196.6177
 21
7.73189
 31
0.0
  0
LINE
  5
D16
330
1D
100
AcDbEntity
  8
0
100
AcDbLine
 10
197.0
 20
6.96265
 30
0.0
 11
197.0
 21
0.1165
 31
0.0
  0
LINE
  5
D17
330
1D
100
AcDbEntity
  8
0
100
AcDbLine
 10
194.9353
 20
8.1165
 30
0.0
 11
192.4882
 21
8.1165
 31
0.0
  0
LINE
  5
D18
330
1D
100
AcDbEntity
  8
0
100
AcDbLine
 10
195.8529
 20
8.1165
 30
0.0
 11
194.9353
 21
8.1165
 31
0.0
  0
LINE
  5
D19
330
1D
100
AcDbEntity
  8
0
100
AcDbLine
 10
195.7
 20
7.73189
 30
0.0
 11
193.1765
 21
7.73189
 31
0.0
  0
LINE
  5
D1A
330
1D
100
AcDbEntity
  8
0
100
AcDbLine
 10
196.6177
 20
7.73189
 30
0.0
 11
195.7
 21
7.73189
 31
0.0
  0
LINE
  5
D1B
330
1D
100
AcDbEntity
  8
0
100
AcDbLine
 10
196.6177
 20
7.73189
 30
0.0
 11
195.8529
 21
8.1165
 31
0.0
  0
LINE
  5
D1C
330
1D
100
AcDbEntity
  8
0
100
AcDbLine
 10
189.3529
 20
0.1165
 30
0.0
 11
183.9235
 21
0.1165
 31
0.0
  0
LINE
  5
D1D
330
1D
100
AcDbEntity
  8
0
100
AcDbLine
 10
183.9235
 20
0.1165
 30
0.0
 11
177.6529
 21
0.1165
 31
0.0
  0
LINE
  5
D1E
330
1D
100
AcDbEntity
  8
0
100
AcDbLine
 10
177.6529
 20
0.1165
 30
0.0
 11
171.0
 21
0.1165
 31
0.0
  0
LINE
  5
D1F
330
1D
100
AcDbEntity
  8
0
100
AcDbLine
 10
189.3529
 20
0.1165
 30
0.0
 11
183.9235
 21
0.1165
 31
0.0
  0
LINE
  5
D20
330
1D
100
AcDbEntity
  8
0
100
AcDbLine
 10
183.9235
 20
0.1165
 30
0.0
 11
177.6529
 21
0.1165
 31
0.0
  0
LINE
  5
D21
330
1D
100
AcDbEntity
  8
0
100
AcDbLine
 10
177.6529
 20
0.1165
 30
0.0
 11
171.0
 21
0.1165
 31
0.0
  0
LINE
  5
D22
330
1D
100
AcDbEntity
  8
0
100
AcDbLine
 10
191.8736
 20
8.1165
 30
0.0
 11
191.826878389026
 21
9.961745299113
 31
0.0
  0
LINE
  5
D23
330
1D
100
AcDbEntity
  8
0
100
AcDbLine
 10
189.1235
 20
7.73189
 30
0.0
 11
183.7706
 21
7.73189
 31
0.0
  0
LINE
  5
D24
330
1D
100
AcDbEntity
  8
0
100
AcDbLine
 10
183.7706
 20
7.73189
 30
0.0
 11
177.5765
 21
7.73189
 31
0.0
  0
LINE
  5
D25
330
1D
100
AcDbEntity
  8
0
100
AcDbLine
 10
177.5765
 20
7.73189
 30
0.0
 11
171.0
 21
7.73189
 31
0.0
  0
LINE
  5
D26
330
1D
100
AcDbEntity
  8
0
100
AcDbLine
 10
188.5882
 20
8.1165
 30
0.0
 11
183.3882
 21
8.1165
 31
0.0
  0
LINE
  5
D27
330
1D
100
AcDbEntity
  8
0
100
AcDbLine
 10
183.3882
 20
8.1165
 30
0.0
 11
177.4235
 21
8.1165
 31
0.0
  0
LINE
  5
D28
330
1D
100
AcDbEntity
  8
0
100
AcDbLine
 10
177.4235
 20
8.1165
 30
0.0
 11
171.0
 21
8.1165
 31
0.0
  0
LINE
  5
D29
330
1D
100
AcDbEntity
  8
0
100
AcDbLine
 10
189.7146
 20
102.4075
 30
0.0
 11
187.9708
 21
112.4815
 31
0.0
  0
LINE
  5
D2A
330
1D
100
AcDbEntity
  8
0
100
AcDbLine
 10
189.7146
 20
102.4075
 30
0.0
 11
187.9708
 21
112.4825
 31
0.0
  0
LINE
  5
D2B
330
1D
100
AcDbEntity
  8
0
100
AcDbLine
 10
187.047062351634
 20
105.699552234963
 30
0.0
 11
187.667584341936
 21
108.647031688895
 31
0.0
  0
LINE
  5
D2C
330
1D
100
AcDbEntity
  8
0
100
AcDbLine
 10
181.8356
 20
97.2071
 30
0.0
 11
181.6633
 21
96.7906
 31
0.0
  0
LINE
  5
D2D
330
1D
100
AcDbEntity
  8
0
100
AcDbLine
 10
181.8014
 20
102.0515
 30
0.0
 11
180.5226
 21
102.5565
 31
0.0
  0
LINE
  5
D2E
330
1D
100
AcDbEntity
  8
0
100
AcDbLine
 10
190.4024
 20
90.5623
 30
0.0
 11
190.0507
 21
97.0345
 31
0.0
  0
LINE
  5
D2F
330
1D
100
AcDbEntity
  8
0
100
AcDbLine
 10
186.005769289423
 20
102.546654312631
 30
0.0
 11
187.047062351634
 21
105.699552234963
 31
0.0
  0
LINE
  5
D30
330
1D
100
AcDbEntity
  8
0
100
AcDbLine
 10
190.0507
 20
97.0345
 30
0.0
 11
190.0068
 21
97.8063
 31
0.0
  0
LINE
  5
D31
330
1D
100
AcDbEntity
  8
0
100
AcDbLine
 10
190.0068
 20
97.8063
 30
0.0
 11
189.984
 21
98.19
 31
0.0
  0
LINE
  5
D32
330
1D
100
AcDbEntity
  8
0
100
AcDbLine
 10
189.984
 20
98.19
 30
0.0
 11
189.9337
 21
99.0662
 31
0.0
  0
LINE
  5
D33
330
1D
100
AcDbEntity
  8
0
100
AcDbLine
 10
189.9337
 20
99.0662
 30
0.0
 11
189.7146
 21
102.4075
 31
0.0
  0
LINE
  5
D34
330
1D
100
AcDbEntity
  8
0
100
AcDbLine
 10
184.5417
 20
100.2065
 30
0.0
 11
183.5123
 21
98.9426
 31
0.0
  0
LINE
  5
D35
330
1D
100
AcDbEntity
  8
0
100
AcDbLine
 10
182.3788
 20
100.5255
 30
0.0
 11
182.1586
 21
99.8335
 31
0.0
  0
LINE
  5
D36
330
1D
100
AcDbEntity
  8
0
100
AcDbLine
 10
182.1586
 20
99.8335
 30
0.0
 11
181.9591
 21
99.510388397962
 31
0.0
  0
LINE
  5
D37
330
1D
100
AcDbEntity
  8
0
100
AcDbLine
 10
181.8844
 20
97.358
 30
0.0
 11
181.8356
 21
97.2071
 31
0.0
  0
LINE
  5
D38
330
1D
100
AcDbEntity
  8
0
100
AcDbLine
 10
181.9528
 20
97.971992771084
 30
0.0
 11
181.9528
 21
97.8859
 31
0.0
  0
LINE
  5
D39
330
1D
100
AcDbEntity
  8
0
100
AcDbLine
 10
181.9591
 20
97.9915
 30
0.0
 11
181.9528
 21
97.8859
 31
0.0
  0
LINE
  5
D3A
330
1D
100
AcDbEntity
  8
0
100
AcDbLine
 10
181.9591
 20
97.9915
 30
0.0
 11
181.9591
 21
101.895629289512
 31
0.0
  0
LINE
  5
D3B
330
1D
100
AcDbEntity
  8
0
100
AcDbLine
 10
181.9528
 20
98.027124096386
 30
0.0
 11
181.9528
 21
101.90185621073
 31
0.0
  0
LINE
  5
D3C
330
1D
100
AcDbEntity
  8
0
100
AcDbLine
 10
181.9528
 20
97.8859
 30
0.0
 11
181.9528
 21
97.971992771084
 31
0.0
  0
LINE
  5
D3D
330
1D
100
AcDbEntity
  8
0
100
AcDbLine
 10
181.9591
 20
97.7811
 30
0.0
 11
181.8844
 21
97.358
 31
0.0
  0
LINE
  5
D3E
330
1D
100
AcDbEntity
  8
0
100
AcDbLine
 10
181.9591
 20
97.7811
 30
0.0
 11
181.9591
 21
101.895629289512
 31
0.0
  0
LINE
  5
D3F
330
1D
100
AcDbEntity
  8
0
100
AcDbLine
 10
182.0965
 20
101.2195
 30
0.0
 11
181.9591
 21
101.071608426339
 31
0.0
  0
LINE
  5
D40
330
1D
100
AcDbEntity
  8
0
100
AcDbLine
 10
181.9528
 20
101.90185621073
 30
0.0
 11
181.9528
 21
98.027124096386
 31
0.0
  0
LINE
  5
D41
330
1D
100
AcDbEntity
  8
0
100
AcDbLine
 10
181.9591
 20
101.895629289512
 30
0.0
 11
181.9591
 21
97.7811
 31
0.0
  0
LINE
  5
D42
330
1D
100
AcDbEntity
  8
0
100
AcDbLine
 10
181.9591
 20
101.895629289512
 30
0.0
 11
181.9591
 21
97.9915
 31
0.0
  0
LINE
  5
D43
330
1D
100
AcDbEntity
  8
0
100
AcDbLine
 10
182.208018553427
 20
101.649598143181
 30
0.0
 11
182.0965
 21
101.2195
 31
0.0
  0
LINE
  5
D44
330
1D
100
AcDbEntity
  8
0
100
AcDbLine
 10
182.2152
 20
101.6425
 30
0.0
 11
181.8014
 21
102.0515
 31
0.0
  0
LINE
  5
D45
330
1D
100
AcDbEntity
  8
0
100
AcDbLine
 10
182.408
 20
101.1035
 30
0.0
 11
182.2152
 21
101.6425
 31
0.0
  0
LINE
  5
D46
330
1D
100
AcDbEntity
  8
0
100
AcDbLine
 10
182.408
 20
101.1035
 30
0.0
 11
182.3788
 21
100.5255
 31
0.0
  0
LINE
  5
D47
330
1D
100
AcDbEntity
  8
0
100
AcDbLine
 10
183.5123
 20
98.9426
 30
0.0
 11
182.3696
 21
97.7845
 31
0.0
  0
LINE
  5
D48
330
1D
100
AcDbEntity
  8
0
100
AcDbLine
 10
184.5417
 20
100.2065
 30
0.0
 11
186.005769289423
 21
102.546654312631
 31
0.0
  0
LINE
  5
D49
330
1D
100
AcDbEntity
  8
0
100
AcDbLine
 10
181.3952
 20
96.3833
 30
0.0
 11
181.0322
 21
95.9878
 31
0.0
  0
LINE
  5
D4A
330
1D
100
AcDbEntity
  8
0
100
AcDbLine
 10
179.8569
 20
96.4001
 30
0.0
 11
179.488
 21
96.0247
 31
0.0
  0
LINE
  5
D4B
330
1D
100
AcDbEntity
  8
0
100
AcDbLine
 10
180.035
 20
96.6029
 30
0.0
 11
179.7455
 21
96.2367
 31
0.0
  0
LINE
  5
D4C
330
1D
100
AcDbEntity
  8
0
100
AcDbLine
 10
178.5967
 20
96.5241
 30
0.0
 11
178.2753
 21
96.209
 31
0.0
  0
LINE
  5
D4D
330
1D
100
AcDbEntity
  8
0
100
AcDbLine
 10
176.8544
 20
95.3668
 30
0.0
 11
176.2453
 21
95.1305
 31
0.0
  0
LINE
  5
D4E
330
1D
100
AcDbEntity
  8
0
100
AcDbLine
 10
177.1128
 20
94.7433
 30
0.0
 11
176.3266
 21
94.4961
 31
0.0
  0
LINE
  5
D4F
330
1D
100
AcDbEntity
  8
0
100
AcDbLine
 10
177.0416
 20
94.6796
 30
0.0
 11
176.2882
 21
94.4467
 31
0.0
  0
LINE
  5
D50
330
1D
100
AcDbEntity
  8
0
100
AcDbLine
 10
177.0416
 20
93.9941
 30
0.0
 11
176.1659
 21
93.7771
 31
0.0
  0
LINE
  5
D51
330
1D
100
AcDbEntity
  8
0
100
AcDbLine
 10
180.4601
 20
95.5227
 30
0.0
 11
179.9263
 21
95.1665
 31
0.0
  0
LINE
  5
D52
330
1D
100
AcDbEntity
  8
0
100
AcDbLine
 10
179.9263
 20
95.1665
 30
0.0
 11
179.3118
 21
94.833
 31
0.0
  0
LINE
  5
D53
330
1D
100
AcDbEntity
  8
0
100
AcDbLine
 10
178.4689
 20
95.3333
 30
0.0
 11
177.8297
 21
95.0232
 31
0.0
  0
LINE
  5
D54
330
1D
100
AcDbEntity
  8
0
100
AcDbLine
 10
178.3538
 20
95.2336
 30
0.0
 11
177.7329
 21
94.9428
 31
0.0
  0
LINE
  5
D55
330
1D
100
AcDbEntity
  8
0
100
AcDbLine
 10
179.3118
 20
94.833
 30
0.0
 11
178.6223
 21
94.5246
 31
0.0
  0
LINE
  5
D56
330
1D
100
AcDbEntity
  8
0
100
AcDbLine
 10
178.6223
 20
94.5246
 30
0.0
 11
177.8625
 21
94.2439
 31
0.0
  0
LINE
  5
D57
330
1D
100
AcDbEntity
  8
0
100
AcDbLine
 10
177.8297
 20
95.0232
 30
0.0
 11
177.1128
 21
94.7433
 31
0.0
  0
LINE
  5
D58
330
1D
100
AcDbEntity
  8
0
100
AcDbLine
 10
177.7329
 20
94.9428
 30
0.0
 11
177.0416
 21
94.6796
 31
0.0
  0
LINE
  5
D59
330
1D
100
AcDbEntity
  8
0
100
AcDbLine
 10
177.8625
 20
94.2439
 30
0.0
 11
177.0416
 21
93.9941
 31
0.0
  0
LINE
  5
D5A
330
1D
100
AcDbEntity
  8
0
100
AcDbLine
 10
181.0322
 20
95.9878
 30
0.0
 11
180.5789
 21
95.6082
 31
0.0
  0
LINE
  5
D5B
330
1D
100
AcDbEntity
  8
0
100
AcDbLine
 10
179.488
 20
96.0247
 30
0.0
 11
179.0232
 21
95.6677
 31
0.0
  0
LINE
  5
D5C
330
1D
100
AcDbEntity
  8
0
100
AcDbLine
 10
179.7455
 20
96.2367
 30
0.0
 11
179.3665
 21
95.883
 31
0.0
  0
LINE
  5
D5D
330
1D
100
AcDbEntity
  8
0
100
AcDbLine
 10
180.5789
 20
95.6082
 30
0.0
 11
180.4601
 21
95.5227
 31
0.0
  0
LINE
  5
D5E
330
1D
100
AcDbEntity
  8
0
100
AcDbLine
 10
177.8735
 20
95.9082
 30
0.0
 11
177.3986
 21
95.6266
 31
0.0
  0
LINE
  5
D5F
330
1D
100
AcDbEntity
  8
0
100
AcDbLine
 10
178.2753
 20
96.209
 30
0.0
 11
177.8735
 21
95.9082
 31
0.0
  0
LINE
  5
D60
330
1D
100
AcDbEntity
  8
0
100
AcDbLine
 10
177.3986
 20
95.6266
 30
0.0
 11
176.8544
 21
95.3668
 31
0.0
  0
LINE
  5
D61
330
1D
100
AcDbEntity
  8
0
100
AcDbLine
 10
179.0232
 20
95.6677
 30
0.0
 11
178.4689
 21
95.3333
 31
0.0
  0
LINE
  5
D62
330
1D
100
AcDbEntity
  8
0
100
AcDbLine
 10
179.3665
 20
95.883
 30
0.0
 11
178.9008
 21
95.5487
 31
0.0
  0
LINE
  5
D63
330
1D
100
AcDbEntity
  8
0
100
AcDbLine
 10
178.9008
 20
95.5487
 30
0.0
 11
178.3538
 21
95.2336
 31
0.0
  0
LINE
  5
D64
330
1D
100
AcDbEntity
  8
0
100
AcDbLine
 10
173.7076
 20
93.9807
 30
0.0
 11
172.7734
 21
93.8877
 31
0.0
  0
LINE
  5
D65
330
1D
100
AcDbEntity
  8
0
100
AcDbLine
 10
173.7368
 20
93.9472
 30
0.0
 11
172.8191
 21
93.8525
 31
0.0
  0
LINE
  5
D66
330
1D
100
AcDbEntity
  8
0
100
AcDbLine
 10
174.282
 20
93.4494
 30
0.0
 11
173.2912
 21
93.3413
 31
0.0
  0
LINE
  5
D67
330
1D
100
AcDbEntity
  8
0
100
AcDbLine
 10
174.0327
 20
94.5833
 30
0.0
 11
173.1633
 21
94.4634
 31
0.0
  0
LINE
  5
D68
330
1D
100
AcDbEntity
  8
0
100
AcDbLine
 10
176.1659
 20
93.7771
 30
0.0
 11
175.2435
 21
93.5944
 31
0.0
  0
LINE
  5
D69
330
1D
100
AcDbEntity
  8
0
100
AcDbLine
 10
175.2435
 20
93.5944
 30
0.0
 11
174.282
 21
93.4494
 31
0.0
  0
LINE
  5
D6A
330
1D
100
AcDbEntity
  8
0
100
AcDbLine
 10
176.3266
 20
94.4961
 30
0.0
 11
175.481
 21
94.2841
 31
0.0
  0
LINE
  5
D6B
330
1D
100
AcDbEntity
  8
0
100
AcDbLine
 10
176.2453
 20
95.1305
 30
0.0
 11
175.5787
 21
94.9227
 31
0.0
  0
LINE
  5
D6C
330
1D
100
AcDbEntity
  8
0
100
AcDbLine
 10
175.5787
 20
94.9227
 30
0.0
 11
174.8627
 21
94.7433
 31
0.0
  0
LINE
  5
D6D
330
1D
100
AcDbEntity
  8
0
100
AcDbLine
 10
175.481
 20
94.2841
 30
0.0
 11
174.6134
 21
94.114
 31
0.0
  0
LINE
  5
D6E
330
1D
100
AcDbEntity
  8
0
100
AcDbLine
 10
174.8627
 20
94.7433
 30
0.0
 11
174.0327
 21
94.5833
 31
0.0
  0
LINE
  5
D6F
330
1D
100
AcDbEntity
  8
0
100
AcDbLine
 10
174.6134
 20
94.114
 30
0.0
 11
173.7076
 21
93.9807
 31
0.0
  0
LINE
  5
D70
330
1D
100
AcDbEntity
  8
0
100
AcDbLine
 10
175.481
 20
94.2447
 30
0.0
 11
174.6281
 21
94.0779
 31
0.0
  0
LINE
  5
D71
330
1D
100
AcDbEntity
  8
0
100
AcDbLine
 10
174.6281
 20
94.0779
 30
0.0
 11
173.7368
 21
93.9472
 31
0.0
  0
LINE
  5
D72
330
1D
100
AcDbEntity
  8
0
100
AcDbLine
 10
176.2882
 20
94.4467
 30
0.0
 11
175.481
 21
94.2447
 31
0.0
  0
LINE
  5
D73
330
1D
100
AcDbEntity
  8
0
100
AcDbLine
 10
171.2566
 20
93.2416
 30
0.0
 11
171.0009
 21
93.2441
 31
0.0
  0
LINE
  5
D74
330
1D
100
AcDbEntity
  8
0
100
AcDbLine
 10
172.7734
 20
93.8877
 30
0.0
 11
171.8191
 21
93.8332
 31
0.0
  0
LINE
  5
D75
330
1D
100
AcDbEntity
  8
0
100
AcDbLine
 10
172.8191
 20
93.8525
 30
0.0
 11
171.8812
 21
93.7972
 31
0.0
  0
LINE
  5
D76
330
1D
100
AcDbEntity
  8
0
100
AcDbLine
 10
173.2912
 20
93.3413
 30
0.0
 11
172.2794
 21
93.2718
 31
0.0
  0
LINE
  5
D77
330
1D
100
AcDbEntity
  8
0
100
AcDbLine
 10
171.8191
 20
93.8332
 30
0.0
 11
171.0009
 21
93.8207
 31
0.0
  0
LINE
  5
D78
330
1D
100
AcDbEntity
  8
0
100
AcDbLine
 10
171.8812
 20
93.7972
 30
0.0
 11
171.0009
 21
93.7813
 31
0.0
  0
LINE
  5
D79
330
1D
100
AcDbEntity
  8
0
100
AcDbLine
 10
172.2794
 20
93.2718
 30
0.0
 11
171.2566
 21
93.2416
 31
0.0
  0
LINE
  5
D7A
330
1D
100
AcDbEntity
  8
0
100
AcDbLine
 10
173.1633
 20
94.4634
 30
0.0
 11
172.2648
 21
94.383
 31
0.0
  0
LINE
  5
D7B
330
1D
100
AcDbEntity
  8
0
100
AcDbLine
 10
172.2648
 20
94.383
 30
0.0
 11
171.3507
 21
94.3453
 31
0.0
  0
LINE
  5
D7C
330
1D
100
AcDbEntity
  8
0
100
AcDbLine
 10
171.3507
 20
94.3453
 30
0.0
 11
171.0009
 21
94.3478
 31
0.0
  0
LINE
  5
D7D
330
1D
100
AcDbEntity
  8
0
100
AcDbLine
 10
176.9831
 20
97.6454
 30
0.0
 11
176.3412
 21
97.3864
 31
0.0
  0
LINE
  5
D7E
330
1D
100
AcDbEntity
  8
0
100
AcDbLine
 10
176.8544
 20
99.8703
 30
0.0
 11
176.2453
 21
100.105
 31
0.0
  0
LINE
  5
D7F
330
1D
100
AcDbEntity
  8
0
100
AcDbLine
 10
177.0416
 20
100.4795
 30
0.0
 11
176.2882
 21
100.7125
 31
0.0
  0
LINE
  5
D80
330
1D
100
AcDbEntity
  8
0
100
AcDbLine
 10
176.4754
 20
103.0365
 30
0.0
 11
174.9166
 21
103.1105
 31
0.0
  0
LINE
  5
D81
330
1D
100
AcDbEntity
  8
0
100
AcDbLine
 10
180.287231992687
 20
97.1878
 30
0.0
 11
178.9894
 21
97.1878
 31
0.0
  0
LINE
  5
D82
330
1D
100
AcDbEntity
  8
0
100
AcDbLine
 10
180.266650600522
 20
98.0493
 30
0.0
 11
178.9894
 21
98.0493
 31
0.0
  0
LINE
  5
D83
330
1D
100
AcDbEntity
  8
0
100
AcDbLine
 10
179.3665
 20
99.2762
 30
0.0
 11
178.9008
 21
99.6114
 31
0.0
  0
LINE
  5
D84
330
1D
100
AcDbEntity
  8
0
100
AcDbLine
 10
181.6633
 20
96.7906
 30
0.0
 11
181.3952
 21
96.3833
 31
0.0
  0
LINE
  5
D85
330
1D
100
AcDbEntity
  8
0
100
AcDbLine
 10
180.1236
 20
96.7889
 30
0.0
 11
179.8569
 21
96.4001
 31
0.0
  0
LINE
  5
D86
330
1D
100
AcDbEntity
  8
0
100
AcDbLine
 10
180.282985148851
 20
97.171904432993
 30
0.0
 11
180.1236
 21
96.7889
 31
0.0
  0
LINE
  5
D87
330
1D
100
AcDbEntity
  8
0
100
AcDbLine
 10
180.2896
 20
97.196663245357
 30
0.0
 11
180.2896
 21
97.963379960899
 31
0.0
  0
LINE
  5
D88
330
1D
100
AcDbEntity
  8
0
100
AcDbLine
 10
180.3338
 20
97.3621
 30
0.0
 11
180.2315
 21
96.9792
 31
0.0
  0
LINE
  5
D89
330
1D
100
AcDbEntity
  8
0
100
AcDbLine
 10
180.2315
 20
96.9792
 30
0.0
 11
180.035
 21
96.6029
 31
0.0
  0
LINE
  5
D8A
330
1D
100
AcDbEntity
  8
0
100
AcDbLine
 10
180.3374
 20
97.58
 30
0.0
 11
180.3338
 21
97.3621
 31
0.0
  0
LINE
  5
D8B
330
1D
100
AcDbEntity
  8
0
100
AcDbLine
 10
180.3374
 20
97.58
 30
0.0
 11
180.3338
 21
97.7979
 31
0.0
  0
LINE
  5
D8C
330
1D
100
AcDbEntity
  8
0
100
AcDbLine
 10
180.3338
 20
97.7979
 30
0.0
 11
180.2315
 21
98.1809
 31
0.0
  0
LINE
  5
D8D
330
1D
100
AcDbEntity
  8
0
100
AcDbLine
 10
180.2315
 20
98.1809
 30
0.0
 11
180.035
 21
98.5563
 31
0.0
  0
LINE
  5
D8E
330
1D
100
AcDbEntity
  8
0
100
AcDbLine
 10
180.035
 20
98.5563
 30
0.0
 11
179.7455
 21
98.9242
 31
0.0
  0
LINE
  5
D8F
330
1D
100
AcDbEntity
  8
0
100
AcDbLine
 10
179.7455
 20
98.9242
 30
0.0
 11
179.3665
 21
99.2762
 31
0.0
  0
LINE
  5
D90
330
1D
100
AcDbEntity
  8
0
100
AcDbLine
 10
180.2896
 20
97.963379960899
 30
0.0
 11
180.2896
 21
97.196663245357
 31
0.0
  0
LINE
  5
D91
330
1D
100
AcDbEntity
  8
0
100
AcDbLine
 10
178.836
 20
96.8518
 30
0.0
 11
178.5967
 21
96.5241
 31
0.0
  0
LINE
  5
D92
330
1D
100
AcDbEntity
  8
0
100
AcDbLine
 10
178.9894
 20
98.0493
 30
0.0
 11
178.9894
 21
97.1878
 31
0.0
  0
LINE
  5
D93
330
1D
100
AcDbEntity
  8
0
100
AcDbLine
 10
178.9894
 20
98.0493
 30
0.0
 11
178.836
 21
98.3854
 31
0.0
  0
LINE
  5
D94
330
1D
100
AcDbEntity
  8
0
100
AcDbLine
 10
178.836
 20
98.3854
 30
0.0
 11
178.5967
 21
98.7122
 31
0.0
  0
LINE
  5
D95
330
1D
100
AcDbEntity
  8
0
100
AcDbLine
 10
178.5967
 20
98.7122
 30
0.0
 11
178.2753
 21
99.0281
 31
0.0
  0
LINE
  5
D96
330
1D
100
AcDbEntity
  8
0
100
AcDbLine
 10
178.2753
 20
99.0281
 30
0.0
 11
177.8735
 21
99.3281
 31
0.0
  0
LINE
  5
D97
330
1D
100
AcDbEntity
  8
0
100
AcDbLine
 10
178.573674078008
 20
98.734831887858
 30
0.0
 11
178.4305
 21
98.5714
 31
0.0
  0
LINE
  5
D98
330
1D
100
AcDbEntity
  8
0
100
AcDbLine
 10
178.4305
 20
98.5714
 30
0.0
 11
178.0342
 21
98.2412
 31
0.0
  0
LINE
  5
D99
330
1D
100
AcDbEntity
  8
0
100
AcDbLine
 10
178.0342
 20
98.2412
 30
0.0
 11
177.5493
 21
97.9312
 31
0.0
  0
LINE
  5
D9A
330
1D
100
AcDbEntity
  8
0
100
AcDbLine
 10
177.5493
 20
97.9312
 30
0.0
 11
176.9831
 21
97.6454
 31
0.0
  0
LINE
  5
D9B
330
1D
100
AcDbEntity
  8
0
100
AcDbLine
 10
178.9894
 20
97.1878
 30
0.0
 11
178.9894
 21
98.0493
 31
0.0
  0
LINE
  5
D9C
330
1D
100
AcDbEntity
  8
0
100
AcDbLine
 10
178.9894
 20
97.1878
 30
0.0
 11
178.836
 21
96.8518
 31
0.0
  0
LINE
  5
D9D
330
1D
100
AcDbEntity
  8
0
100
AcDbLine
 10
177.8735
 20
99.3281
 30
0.0
 11
177.3986
 21
99.6097
 31
0.0
  0
LINE
  5
D9E
330
1D
100
AcDbEntity
  8
0
100
AcDbLine
 10
177.3986
 20
99.6097
 30
0.0
 11
176.8544
 21
99.8703
 31
0.0
  0
LINE
  5
D9F
330
1D
100
AcDbEntity
  8
0
100
AcDbLine
 10
178.3538
 20
99.9256
 30
0.0
 11
177.7329
 21
100.2155
 31
0.0
  0
LINE
  5
DA0
330
1D
100
AcDbEntity
  8
0
100
AcDbLine
 10
177.7329
 20
100.2155
 30
0.0
 11
177.0416
 21
100.4795
 31
0.0
  0
LINE
  5
DA1
330
1D
100
AcDbEntity
  8
0
100
AcDbLine
 10
178.9008
 20
99.6114
 30
0.0
 11
178.3538
 21
99.9256
 31
0.0
  0
LINE
  5
DA2
330
1D
100
AcDbEntity
  8
0
100
AcDbLine
 10
180.5226
 20
102.5565
 30
0.0
 11
178.6533
 21
102.8595
 31
0.0
  0
LINE
  5
DA3
330
1D
100
AcDbEntity
  8
0
100
AcDbLine
 10
178.6533
 20
102.8595
 30
0.0
 11
176.4754
 21
103.0365
 31
0.0
  0
LINE
  5
DA4
330
1D
100
AcDbEntity
  8
0
100
AcDbLine
 10
176.3412
 20
97.3864
 30
0.0
 11
175.6307
 21
97.1585
 31
0.0
  0
LINE
  5
DA5
330
1D
100
AcDbEntity
  8
0
100
AcDbLine
 10
175.6307
 20
97.1585
 30
0.0
 11
174.8627
 21
96.9649
 31
0.0
  0
LINE
  5
DA6
330
1D
100
AcDbEntity
  8
0
100
AcDbLine
 10
174.8627
 20
96.9649
 30
0.0
 11
174.0464
 21
96.8074
 31
0.0
  0
LINE
  5
DA7
330
1D
100
AcDbEntity
  8
0
100
AcDbLine
 10
174.0464
 20
96.8074
 30
0.0
 11
173.1916
 21
96.6875
 31
0.0
  0
LINE
  5
DA8
330
1D
100
AcDbEntity
  8
0
100
AcDbLine
 10
173.1916
 20
96.6875
 30
0.0
 11
172.3086
 21
96.6071
 31
0.0
  0
LINE
  5
DA9
330
1D
100
AcDbEntity
  8
0
100
AcDbLine
 10
172.3086
 20
96.6071
 30
0.0
 11
171.4109
 21
96.5685
 31
0.0
  0
LINE
  5
DAA
330
1D
100
AcDbEntity
  8
0
100
AcDbLine
 10
171.4109
 20
96.5685
 30
0.0
 11
171.0009
 21
96.5685
 31
0.0
  0
LINE
  5
DAB
330
1D
100
AcDbEntity
  8
0
100
AcDbLine
 10
176.2453
 20
100.105
 30
0.0
 11
175.5787
 21
100.3135
 31
0.0
  0
LINE
  5
DAC
330
1D
100
AcDbEntity
  8
0
100
AcDbLine
 10
175.5787
 20
100.3135
 30
0.0
 11
174.8627
 21
100.4935
 31
0.0
  0
LINE
  5
DAD
330
1D
100
AcDbEntity
  8
0
100
AcDbLine
 10
174.8627
 20
100.4935
 30
0.0
 11
174.0327
 21
100.6525
 31
0.0
  0
LINE
  5
DAE
330
1D
100
AcDbEntity
  8
0
100
AcDbLine
 10
174.0327
 20
100.6525
 30
0.0
 11
173.1633
 21
100.7735
 31
0.0
  0
LINE
  5
DAF
330
1D
100
AcDbEntity
  8
0
100
AcDbLine
 10
175.481
 20
100.9145
 30
0.0
 11
174.6281
 21
101.0825
 31
0.0
  0
LINE
  5
DB0
330
1D
100
AcDbEntity
  8
0
100
AcDbLine
 10
174.6281
 20
101.0825
 30
0.0
 11
173.7368
 21
101.2125
 31
0.0
  0
LINE
  5
DB1
330
1D
100
AcDbEntity
  8
0
100
AcDbLine
 10
173.1633
 20
100.7735
 30
0.0
 11
172.2648
 21
100.8535
 31
0.0
  0
LINE
  5
DB2
330
1D
100
AcDbEntity
  8
0
100
AcDbLine
 10
172.2648
 20
100.8535
 30
0.0
 11
171.3507
 21
100.8905
 31
0.0
  0
LINE
  5
DB3
330
1D
100
AcDbEntity
  8
0
100
AcDbLine
 10
173.7368
 20
101.2125
 30
0.0
 11
172.8191
 21
101.3065
 31
0.0
  0
LINE
  5
DB4
330
1D
100
AcDbEntity
  8
0
100
AcDbLine
 10
172.8191
 20
101.3065
 30
0.0
 11
171.8812
 21
101.3625
 31
0.0
  0
LINE
  5
DB5
330
1D
100
AcDbEntity
  8
0
100
AcDbLine
 10
171.3507
 20
100.8905
 30
0.0
 11
171.0009
 21
100.8895
 31
0.0
  0
LINE
  5
DB6
330
1D
100
AcDbEntity
  8
0
100
AcDbLine
 10
171.8812
 20
101.3625
 30
0.0
 11
171.0009
 21
101.3775
 31
0.0
  0
LINE
  5
DB7
330
1D
100
AcDbEntity
  8
0
100
AcDbLine
 10
176.2882
 20
100.7125
 30
0.0
 11
175.481
 21
100.9145
 31
0.0
  0
LINE
  5
DB8
330
1D
100
AcDbEntity
  8
0
100
AcDbLine
 10
173.2793
 20
103.1545
 30
0.0
 11
171.0009
 21
103.1745
 31
0.0
  0
LINE
  5
DB9
330
1D
100
AcDbEntity
  8
0
100
AcDbLine
 10
174.9166
 20
103.1105
 30
0.0
 11
173.2793
 21
103.1545
 31
0.0
  0
LINE
  5
DBA
330
1D
100
AcDbEntity
  8
0
100
AcDbLine
 10
187.7863
 20
113.6125
 30
0.0
 11
187.6438
 21
114.0485
 31
0.0
  0
LINE
  5
DBB
330
1D
100
AcDbEntity
  8
0
100
AcDbLine
 10
187.8438
 20
113.4095
 30
0.0
 11
187.7863
 21
113.6125
 31
0.0
  0
LINE
  5
DBC
330
1D
100
AcDbEntity
  8
0
100
AcDbLine
 10
187.969
 20
112.5035
 30
0.0
 11
187.8438
 21
113.4095
 31
0.0
  0
LINE
  5
DBD
330
1D
100
AcDbEntity
  8
0
100
AcDbLine
 10
187.9708
 20
112.4825
 30
0.0
 11
187.8438
 21
113.4095
 31
0.0
  0
LINE
  5
DBE
330
1D
100
AcDbEntity
  8
0
100
AcDbLine
 10
186.0389
 20
115.6555
 30
0.0
 11
184.8568
 21
116.1955
 31
0.0
  0
LINE
  5
DBF
330
1D
100
AcDbEntity
  8
0
100
AcDbLine
 10
186.977
 20
114.9505
 30
0.0
 11
186.0389
 21
115.6555
 31
0.0
  0
LINE
  5
DC0
330
1D
100
AcDbEntity
  8
0
100
AcDbLine
 10
187.1368
 20
114.8035
 30
0.0
 11
186.977
 21
114.9505
 31
0.0
  0
LINE
  5
DC1
330
1D
100
AcDbEntity
  8
0
100
AcDbLine
 10
187.6438
 20
114.0485
 30
0.0
 11
187.1368
 21
114.8035
 31
0.0
  0
LINE
  5
DC2
330
1D
100
AcDbEntity
  8
0
100
AcDbLine
 10
181.5
 20
117.0715
 30
0.0
 11
181.3465
 21
117.0975
 31
0.0
  0
LINE
  5
DC3
330
1D
100
AcDbEntity
  8
0
100
AcDbLine
 10
183.2967
 20
116.6795
 30
0.0
 11
181.5
 21
117.0715
 31
0.0
  0
LINE
  5
DC4
330
1D
100
AcDbEntity
  8
0
100
AcDbLine
 10
181.3465
 20
117.0975
 30
0.0
 11
179.2944
 21
117.4125
 31
0.0
  0
LINE
  5
DC5
330
1D
100
AcDbEntity
  8
0
100
AcDbLine
 10
179.2944
 20
117.4125
 30
0.0
 11
176.2891
 21
117.7055
 31
0.0
  0
LINE
  5
DC6
330
1D
100
AcDbEntity
  8
0
100
AcDbLine
 10
174.3377
 20
117.8145
 30
0.0
 11
171.0009
 21
117.8835
 31
0.0
  0
LINE
  5
DC7
330
1D
100
AcDbEntity
  8
0
100
AcDbLine
 10
176.2891
 20
117.7055
 30
0.0
 11
174.3377
 21
117.8145
 31
0.0
  0
LINE
  5
DC8
330
1D
100
AcDbEntity
  8
0
100
AcDbLine
 10
184.8568
 20
116.1955
 30
0.0
 11
183.2967
 21
116.6795
 31
0.0
  0
LINE
  5
DC9
330
1D
100
AcDbEntity
  8
0
100
AcDbLine
 10
187.667584341936
 20
108.647031688895
 30
0.0
 11
187.9708
 21
112.4815
 31
0.0
  0
ENDSEC
  0
SECTION
  2
OBJECTS
  0
DICTIONARY
  5
C
330
0
100
AcDbDictionary
281
     1
  3
ACAD_GROUP
350
D
  3
ACAD_LAYOUT
350
1A
  3
ACAD_MLEADERSTYLE
350
BE7
  3
ACAD_MLINESTYLE
350
17
  3
ACAD_PLOTSETTINGS
350
19
  3
ACAD_PLOTSTYLENAME
350
E
  3
ACAD_SCALELIST
350
726
  3
AcDbVariableDictionary
350
DCB
  3
DWGPROPS
350
DCD
  0
DICTIONARY
  5
D
102
{ACAD_REACTORS
330
C
102
}
330
C
100
AcDbDictionary
281
     1
  0
DICTIONARY
  5
1A
102
{ACAD_REACTORS
330
C
102
}
330
C
100
AcDbDictionary
281
     1
  3
Layout1
350
1C
  3
Model
350
1E
  0
DICTIONARY
  5
BE7
102
{ACAD_REACTORS
330
C
102
}
330
C
100
AcDbDictionary
281
     1
  0
DICTIONARY
  5
17
102
{ACAD_REACTORS
330
C
102
}
330
C
100
AcDbDictionary
281
     1
  3
Standard
350
18
  0
DICTIONARY
  5
19
102
{ACAD_REACTORS
330
C
102
}
330
C
100
AcDbDictionary
281
     1
  0
ACDBDICTIONARYWDFLT
  5
E
102
{ACAD_REACTORS
330
C
102
}
330
C
100
AcDbDictionary
281
     1
  3
Normal
350
F
100
AcDbDictionaryWithDefault
340
F
  0
DICTIONARY
  5
726
102
{ACAD_REACTORS
330
C
102
}
330
C
100
AcDbDictionary
281
     1
  3
A0
350
727
  3
A1
350
728
  3
A2
350
729
  3
A3
350
72A
  3
A4
350
72B
  3
A5
350
72C
  3
A6
350
72D
  3
A7
350
72E
  3
A8
350
72F
  3
A9
350
730
  3
B0
350
731
  3
B1
350
732
  3
B2
350
733
  3
B3
350
734
  3
B4
350
735
  3
B5
350
736
  3
B6
350
737
  3
B7
350
738
  3
B8
350
739
  3
B9
350
73A
  3
C0
350
73B
  3
C1
350
73C
  3
C2
350
73D
  3
C3
350
73E
  3
C4
350
73F
  3
C5
350
740
  3
C6
350
741
  3
C7
350
742
  3
C8
350
743
  3
C9
350
744
  3
D0
350
745
  3
D1
350
746
  3
D2
350
747
  0
DICTIONARY
  5
DCB
102
{ACAD_REACTORS
330
C
102
}
330
C
100
AcDbDictionary
281
     1
  0
XRECORD
  5
DCD
102
{ACAD_REACTORS
330
C
102
}
330
C
100
AcDbXrecord
280
     1
  1
DWGPROPS COOKIE
  2

  3

  4

  6

  7

  8
MARTIN
  9

300
=
301
=
302
=
303
=
304
=
305
=
306
=
307
=
308
=
309
=
 40
0.0
 41
2455873.332490047
 42
2455873.336532651
  1

 90
        0
  0
LAYOUT
  5
1C
102
{ACAD_REACTORS
330
1A
102
}
330
1A
100
AcDbPlotSettings
  1

  2
none_device
  4

  6

 40
0.0
 41
0.0
 42
0.0
 43
0.0
 44
0.0
 45
0.0
 46
0.0
 47
0.0
 48
0.0
 49
0.0
140
0.0
141
0.0
142
1.0
143
1.0
 70
   688
 72
     0
 73
     0
 74
     5
  7

 75
    16
147
1.0
148
0.0
149
0.0
100
AcDbLayout
  1
Layout1
 70
     1
 71
     1
 10
0.0
 20
0.0
 11
12.0
 21
9.0
 12
0.0
 22
0.0
 32
0.0
 14
1.000000000000E+20
 24
1.000000000000E+20
 34
1.000000000000E+20
 15
-1.000000000000E+20
 25
-1.000000000000E+20
 35
-1.000000000000E+20
146
0.0
 13
0.0
 23
0.0
 33
0.0
 16
1.0
 26
0.0
 36
0.0
 17
0.0
 27
1.0
 37
0.0
 76
     0
330
1B
  0
LAYOUT
  5
1E
102
{ACAD_REACTORS
330
1A
102
}
330
1A
100
AcDbPlotSettings
  1

  2
none_device
  4

  6

 40
0.0
 41
0.0
 42
0.0
 43
0.0
 44
0.0
 45
0.0
 46
0.0
 47
0.0
 48
0.0
 49
0.0
140
0.0
141
0.0
142
1.0
143
1.0
 70
  1712
 72
     0
 73
     0
 74
     0
  7

 75
     0
147
1.0
148
0.0
149
0.0
100
AcDbLayout
  1
Model
 70
     1
 71
     0
 10
0.0
 20
0.0
 11
12.0
 21
9.0
 12
0.0
 22
0.0
 32
0.0
 14
0.0
 24
0.1165
 34
0.0
 15
342.0
 25
117.8835
 35
0.0
146
0.0
 13
0.0
 23
0.0
 33
0.0
 16
1.0
 26
0.0
 36
0.0
 17
0.0
 27
1.0
 37
0.0
 76
     0
330
1D
331
721
  0
MLINESTYLE
  5
18
102
{ACAD_REACTORS
330
17
102
}
330
17
100
AcDbMlineStyle
  2
Standard
 70
     0
  3

 62
   256
 51
90.0
 52
90.0
 71
     2
 49
0.5
 62
   256
  6
BYLAYER
 49
-0.5
 62
   256
  6
BYLAYER
  0
ACDBPLACEHOLDER
  5
F
102
{ACAD_REACTORS
330
E
102
}
330
E
  0
SCALE
  5
727
102
{ACAD_REACTORS
330
726
102
}
330
726
100
AcDbScale
 70
     0
300
1:1
140
1.0
141
1.0
290
     1
  0
SCALE
  5
728
102
{ACAD_REACTORS
330
726
102
}
330
726
100
AcDbScale
 70
     0
300
1:2
140
1.0
141
2.0
290
     0
  0
SCALE
  5
729
102
{ACAD_REACTORS
330
726
102
}
330
726
100
AcDbScale
 70
     0
300
1:4
140
1.0
141
4.0
290
     0
  0
SCALE
  5
72A
102
{ACAD_REACTORS
330
726
102
}
330
726
100
AcDbScale
 70
     0
300
1:5
140
1.0
141
5.0
290
     0
  0
SCALE
  5
72B
102
{ACAD_REACTORS
330
726
102
}
330
726
100
AcDbScale
 70
     0
300
1:8
140
1.0
141
8.0
290
     0
  0
SCALE
  5
72C
102
{ACAD_REACTORS
330
726
102
}
330
726
100
AcDbScale
 70
     0
300
1:10
140
1.0
141
10.0
290
     0
  0
SCALE
  5
72D
102
{ACAD_REACTORS
330
726
102
}
330
726
100
AcDbScale
 70
     0
300
1:16
140
1.0
141
16.0
290
     0
  0
SCALE
  5
72E
102
{ACAD_REACTORS
330
726
102
}
330
726
100
AcDbScale
 70
     0
300
1:20
140
1.0
141
20.0
290
     0
  0
SCALE
  5
72F
102
{ACAD_REACTORS
330
726
102
}
330
726
100
AcDbScale
 70
     0
300
1:30
140
1.0
141
30.0
290
     0
  0
SCALE
  5
730
102
{ACAD_REACTORS
330
726
102
}
330
726
100
AcDbScale
 70
     0
300
1:40
140
1.0
141
40.0
290
     0
  0
SCALE
  5
731
102
{ACAD_REACTORS
330
726
102
}
330
726
100
AcDbScale
 70
     0
300
1:50
140
1.0
141
50.0
290
     0
  0
SCALE
  5
732
102
{ACAD_REACTORS
330
726
102
}
330
726
100
AcDbScale
 70
     0
300
1:100
140
1.0
141
100.0
290
     0
  0
SCALE
  5
733
102
{ACAD_REACTORS
330
726
102
}
330
726
100
AcDbScale
 70
     0
300
2:1
140
2.0
141
1.0
290
     0
  0
SCALE
  5
734
102
{ACAD_REACTORS
330
726
102
}
330
726
100
AcDbScale
 70
     0
300
4:1
140
4.0
141
1.0
290
     0
  0
SCALE
  5
735
102
{ACAD_REACTORS
330
726
102
}
330
726
100
AcDbScale
 70
     0
300
8:1
140
8.0
141
1.0
290
     0
  0
SCALE
  5
736
102
{ACAD_REACTORS
330
726
102
}
330
726
100
AcDbScale
 70
     0
300
10:1
140
10.0
141
1.0
290
     0
  0
SCALE
  5
737
102
{ACAD_REACTORS
330
726
102
}
330
726
100
AcDbScale
 70
     0
300
100:1
140
100.0
141
1.0
290
     0
  0
SCALE
  5
738
102
{ACAD_REACTORS
330
726
102
}
330
726
100
AcDbScale
 70
     0
300
1/128" = 1'-0"
140
0.0078125
141
12.0
290
     0
  0
SCALE
  5
739
102
{ACAD_REACTORS
330
726
102
}
330
726
100
AcDbScale
 70
     0
300
1/64" = 1'-0"
140
0.015625
141
12.0
290
     0
  0
SCALE
  5
73A
102
{ACAD_REACTORS
330
726
102
}
330
726
100
AcDbScale
 70
     0
300
1/32" = 1'-0"
140
0.03125
141
12.0
290
     0
  0
SCALE
  5
73B
102
{ACAD_REACTORS
330
726
102
}
330
726
100
AcDbScale
 70
     0
300
1/16" = 1'-0"
140
0.0625
141
12.0
290
     0
  0
SCALE
  5
73C
102
{ACAD_REACTORS
330
726
102
}
330
726
100
AcDbScale
 70
     0
300
3/32" = 1'-0"
140
0.09375
141
12.0
290
     0
  0
SCALE
  5
73D
102
{ACAD_REACTORS
330
726
102
}
330
726
100
AcDbScale
 70
     0
300
1/8" = 1'-0"
140
0.125
141
12.0
290
     0
  0
SCALE
  5
73E
102
{ACAD_REACTORS
330
726
102
}
330
726
100
AcDbScale
 70
     0
300
3/16" = 1'-0"
140
0.1875
141
12.0
290
     0
  0
SCALE
  5
73F
102
{ACAD_REACTORS
330
726
102
}
330
726
100
AcDbScale
 70
     0
300
1/4" = 1'-0"
140
0.25
141
12.0
290
     0
  0
SCALE
  5
740
102
{ACAD_REACTORS
330
726
102
}
330
726
100
AcDbScale
 70
     0
300
3/8" = 1'-0"
140
0.375
141
12.0
290
     0
  0
SCALE
  5
741
102
{ACAD_REACTORS
330
726
102
}
330
726
100
AcDbScale
 70
     0
300
1/2" = 1'-0"
140
0.5
141
12.0
290
     0
  0
SCALE
  5
742
102
{ACAD_REACTORS
330
726
102
}
330
726
100
AcDbScale
 70
     0
300
3/4" = 1'-0"
140
0.75
141
12.0
290
     0
  0
SCALE
  5
743
102
{ACAD_REACTORS
330
726
102
}
330
726
100
AcDbScale
 70
     0
300
1" = 1'-0"
140
1.0
141
12.0
290
     0
  0
SCALE
  5
744
102
{ACAD_REACTORS
330
726
102
}
330
726
100
AcDbScale
 70
     0
300
1-1/2" = 1'-0"
140
1.5
141
12.0
290
     0
  0
SCALE
  5
745
102
{ACAD_REACTORS
330
726
102
}
330
726
100
AcDbScale
 70
     0
300
3" = 1'-0"
140
3.0
141
12.0
290
     0
  0
SCALE
  5
746
102
{ACAD_REACTORS
330
726
102
}
330
726
100
AcDbScale
 70
     0
300
6" = 1'-0"
140
6.0
141
12.0
290
     0
  0
SCALE
  5
747
102
{ACAD_REACTORS
330
726
102
}
330
726
100
AcDbScale
 70
     0
300
1'-0" = 1'-0"
140
12.0
141
12.0
290
     0
  0
ENDSEC
  0
SECTION
  2
THUMBNAILIMAGE
 90
    16364
310
28000000B40000005500000001000800000000000000000000000000000000000000000000000000FFFFFF000000FF0000FFFF0000FF0000FFFF0000FF000000FF00FF000000000080808000C0C0C0000000FF007F7FFF000000A5005252A50000007F003F3F7F0000004C0026264C000000260013132600003FFF007F9FFF
310
000029A5005267A500001F7F003F4F7F0000134C00262F4C000009260013172600007FFF007FBFFF000052A500527CA500003F7F003F5F7F0000264C0026394C0000132600131C260000BFFF007FDFFF00007CA5005291A500005F7F003F6F7F0000394C0026424C00001C26001321260000FFFF007FFFFF0000A5A50052A5
310
A500007F7F003F7F7F00004C4C00264C4C00002626001326260000FFBF007FFFDF0000A57C0052A59100007F5F003F7F6F00004C3900264C420000261C001326210000FF7F007FFFBF0000A5520052A57C00007F3F003F7F5F00004C2600264C39000026130013261C0000FF3F007FFF9F0000A5290052A56700007F1F003F
310
7F4F00004C1300264C2F00002609001326170000FF00007FFF7F0000A5000052A55200007F00003F7F3F00004C0000264C260000260000132613003FFF00009FFF7F0029A5000067A552001F7F00004F7F3F00134C00002F4C260009260000172613007FFF0000BFFF7F0052A500007CA552003F7F00005F7F3F00264C0000
310
394C2600132600001C261300BFFF0000DFFF7F007CA5000091A552005F7F00006F7F3F00394C0000424C26001C26000021261300FFFF0000FFFF7F00A5A50000A5A552007F7F00007F7F3F004C4C00004C4C26002626000026261300FFBF0000FFDF7F00A57C0000A59152007F5F00007F6F3F004C3900004C422600261C00
310
0026211300FF7F0000FFBF7F00A5520000A57C52007F3F00007F5F3F004C2600004C39260026130000261C1300FF3F0000FF9F7F00A5290000A56752007F1F00007F4F3F004C1300004C2F26002609000026171300FF000000FF7F7F00A5000000A55252007F0000007F3F3F004C0000004C2626002600000026131300FF00
310
3F00FF7F9F00A5002900A55267007F001F007F3F4F004C0013004C262F002600090026131700FF007F00FF7FBF00A5005200A5527C007F003F007F3F5F004C0026004C2639002600130026131C00FF00BF00FF7FDF00A5007C00A55291007F005F007F3F6F004C0039004C26420026001C0026132100FF00FF00FF7FFF00A5
310
00A500A552A5007F007F007F3F7F004C004C004C264C002600260026132600BF00FF00DF7FFF007C00A5009152A5005F007F006F3F7F0039004C0042264C001C002600211326007F00FF00BF7FFF005200A5007C52A5003F007F005F3F7F0026004C0039264C00130026001C1326003F00FF009F7FFF002900A5006752A500
310
1F007F004F3F7F0013004C002F264C000900260017132600000000002D2D2D005B5B5B0089898900B7B7B700B3B3B30000000000000000000000000000000000000000000000000000000000000000000000000000000000000000000000000000000000000000000000000000000000000000000000000000000000000000
310
00000000000000000000000000000000000000000000000000000000000000000000000000000000000000000000000000000000000000000000000000000000000000000000000000000000000000000000000000000000000000000000000000000000000000000000000000000000000000000000000000000000000000
310
00000000000000000000000000000000000000000000000000000000000000000000000000000000000000000000000000000000000000000000000000000000000000000000000000000000000000000000000000000000000000000000000000000000000000000000000000000000000000000000000000000000000000
310
00000000000000000000000000000000000000000000000000000000000000000000000000000000000000000000000000000000000000000000000000000000000000000000000000000000000000000000000000000000000000000000000000000000000000000000000000000000000000000000000000000000000000
310
00000000000000000000000000000000000000000000000000000000000000000000000000000000000000000000000000000000000000000000000000000000000000000000000000000000000000000000000000000000000000000000000000000000000000000000000000000000000000000000000000000000000000
310
00000000000000000000000000000000000000000000000000000000000000000000000000000000000000000000000000000000000000000000000000000000000000000000000000000000000000000000000000000000000000000000000000000000000000000000000000000000000000000000000000000000000000
310
00000000000000000000000000000000000000000000000000000000000000000000000000000000000000000000000000000000000000000000000000000000000000000000000000000000000000000000000000000000000000000000000000000000000000000000000000000000000000000000000000000000000000
310
00000000000000000000000000000000000000000000000000000000000000000000000000000000000000000000000000000000000000000000000000000000000000000000000000000000000000000000000000000000000000000000000000000000000000000000000000000000000000000000000000000000000000
310
00000000000000000000000000000000000000000000000000000000000000000000000000000000000000000000000000000000000000000000000000000000000000000000000000000000000000000000000000000000000000000000000000000000000000000000000000000000000000000000000000000000000000
310
00000000000000000000000000000000000000000000000000000000000000000000000000000000000000000000000000000000000000000000000000000000000000000000000000000000000000000000000000000000000000000000000000000000000000000000000000000000000000000000000000000000000000
310
00000000000000000000000000000000000000000000000000000000000000000000000000000000000000000000000000000000000000000000000000000000000000000000000000000000000000000000000000000000000000000000000000000000000000000000000000000000000000000000000000000000000000
310
00000000000000000000000000000000000000000000000000000000000000000000000000000000000000000000000000000000000000000000000000000000000000000000000000000000000000000000000000000000000000000000000000000000000000000000000000000000000000000000000000000000000000
310
00000000000000000000000000000000000000000000000000000000000000000000000000000000000000000000000000000000000000000000000000000000000000000000000000000000000000000000000000000000000000000000000000000000000000000000000000000000000000000000000000000000000000
310
00000000000000000000000000000000000000000000000000000000000000000000000000000000000000000000000000000000000000000000000000000000000000000000000000000000000000000000000000000000000000000000000000000000000000000000000000000000000000000000000000000000000000
310
00000000000000000000000000000000000000000000000000000000000000000000000000000000000000000000000000000000000000000000000000000000000000000000000000000000000000000000000000000000000000000000000000000000000000000000000000000000000000000000000000000000000000
310
00000000000000000000000000000000000000000000000000000000000000000000000000000000000000000000000000000000000000000000000000000000000000000000000000000000000000000000000000000000000000000000000000000000000000000000000000000000000000000000000000000000000000
310
00000000000000000000000000000000000000000007070707070707070707070707070707070707070707070707070707000000000000000000000000000000000000000000000000070707070707070707070707070007070707070707070707070707000000000000000000000000000000000000000000000000070707
310
07070707070707070707070707070707070707070707070707000000000000000000000000000000000000000000000000000000000000000000000000000000000000000000000000000700000000000000000000000000000000000000000000000000000700000000000000000000000000000000000000000000000007
310
00000000000000000000000000000000000000000000000000070000000000000000000000000000000000000000000000000700000000000000000000000000000000000000000000000000000700000000000000000000000000000000000000000000000000000000000000000000000000000000000000000000000000
310
07000000000000000000000000000000000000000000000000000007000000000000000000000000000000000000000000000000070000000000000000000000000000000000000000000000000007000000000000000000000000000000000000000000000000070000000000000000000000000000000000000000000000
310
00000007000000000000000000000000000000000000000000000000000000000000000000000000000000000000000000000000000700000000000000000000000000000000000000000000000000000700000000000000000000000000000000000000000000000007000000000000000000000000000000000000000000
310
00000000070000000000000000000000000000000000000000000000000700000000000000000000000000000000000000000000000000000700000000000000000000000000000000000000000000000000000000000000000000000000000000000000000000000000070000000000000000000000000000000000000000
310
00000000000707000000000000000000000000000000000000000000000000070707070707070707070707070007070707070707070707070707000000000000000000000000000000000000000000000000070700000000000000000000000000000000000000000000000000070000000000000000000000000000000000
310
00000000000000000000000000000000000000000000000000000000000000000007070707070707070707070707070707070707070707070707070000000000000000000000000000000000000000000000000000000700000000000000000000000000000000000000000007000000000000000000000000000000000000
310
00000000000000000007070707070707070707070707070707070707070707070707070000000000000000000000000000000000000000000000000000000000000000000000000000000000000000000000000000000000000000000700000000000000000000000007000000000000000000000000000000000000000000
310
00000000000000000000000007000000000000000000000000000000000000000000070000000000000000000000000000000000000000000000000000000000000000000700000000000000000000000007000000000000000000000000000000000000000000000000000000000000000000000000000000000000000000
310
00000000000000000000000000000000000007000000000000000000000000070000000000000000000000000000000000000000000000000000000000000000000700000000000000000000000000000000000000000007000000000000000000000000000000000000000000000000000000000000000000070000000000
310
00000000000000070000000000000000000000000000000000000000000000000000000000000000000000000000000000000000000000000000000000000000000000000000000700000000000000000000000007000000000000000000000000000000000000000000000000000000000000000000070000000000000000
310
00000000000000000000000000070000000000000000000000000000000000000000000000000000000000000000000700000000000000000000000007000000000000000000000000000000000000000000000000000000000000000000000000000000000000000000000000000000000000000000000000000000070000
310
00000000000000000000070000000000000000000000000000000000000000000000000000000000000000000700000000000000000000000000000000000000000007000000000000000000000000000000000000000000000000000000000000000000070000000000000000000000000700000000000000000000000000
310
00000000000000000000000000000000000000000000000000000000000000000000000000000000000000000000000000000700000000000000000000000007000000000000000000000000000000000000000000000000000000000000000000070000000000000000000000000000000000000000000700000000000000
310
00000000000000000000000000000000000000000000000000000700000000000000000000000007000000000000000000000000000000000000000000000000000000000000000000000000000000000000000000000000000000000000000000000000000000070000000000000000000000000700000000000000000000
310
00000000000000000000000000000000000000000000000700000000000000000000000000000000000000000007000000000000000000000000000000000000000000000000000000000000000000070000000000000000000000000700000000000000000000000000000000000000000000000000000000000000000000
310
00000000000000000000000000000000000000000000000000000000000700000000000000000000000007000000000000000000000000000000000000000000000000000000000000000000070000000000000000000000000000000000000000000700000000000000000000000000000000000000000000000000000000
310
00000000000700000000000000000000000007000000000000000000000000000000000000000000000000000000000000000000000000000000000000000000000000000000000000000000000000000000070000000000000000000000000700000000000000000000000000000000000000000000000000000000000000
310
00000700000000000000000000000000000000000000000007000000000000000000000000000000000000000000000000000000000000000000070000000000000000000000000700000000000000000000000000000000000000000000000000000000000000000000000000000000000000000000000000000000000000
310
00000000000000000700000000000000000000000007000000000000000000000000000000000000000000000000000000000000000000070000000000000000000000000000000000000000000700000000000000000000000000000000000000000000000000000000000000000007000000000000000000000000070000
310
00000000000000000000000000000000000000000000000000000000000000000000000000000000000000000000000000000000000000000000000000000000000000000000000000000700000000000000000000000000000000000000000000000000000000000000000007000000000000000000000000000000000000
310
00000007000000000000000000000000000000000000000000000000000000000000000000070000000000000000000000000000000000000000000000000000000000000000000000000000000000000000000000000000000000000000000000000000000000000000000000000000000007000000000000000000000000
310
07000000000000000000000000000000000000000000000000000000000000000000070000000000000000000000000000000000000000000700000000000000000000000000000000000000000000000000000000000000000007000000000000000000000000070000000000000000000000000000000000000000000000
310
00000000000000000000000000000000000000000000000000000000000000000000000000000000070000000000000000000000000700000000000000000000000000000000000000000000000000000000000000000007000000000000000000000000000000000000000000070000000000000000000000000000000000
310
00000000000000000000000000000000070000000000000000000000000700000000000000000000000000000000000000000000000000000000000000000000000000000000000000000000000000000000000000000000000000000007000000000000000000000000070000000000000000000000000000000000000000
310
00000000000000000000000000070000000000000000000000000000000000000000000700000000000000000000000000000000000000000000000000000000000000000007000000000000000000000000070000000000000000000000000000000000000000000000000000000000000000000000000000000000000000
310
00000000000000000000000000000000000000070000000000000000000000000700000000000000000000000000000000000000000000000000000000000000000007000000000000000000000000000000000000000000070000000000000000000000000000000000000000000000000000000000000000000700000000
310
00000000000000000700000000000000000000000000000000000000000000000000000000000000000000000000000000000000000000000000000000000000000000000000000007000000000000000000000000070000000000000000000000000000000000000000000000000000000000000000000700000000000000
310
00000000000000000000000000000700000000000000000000000000000000000000000000000000000000000000000007000000000000000000000000070000000000000000000000000000000000000000000000000000000000000000000000000000000000000000000000000000000000000000000000000000070000
310
00000000000000000000000700000000000000000000000000000000000000000000000000000000000000000007000000000000000000000000000000000000000000070000000000000000000000000000000000000000000000000000000000000000000700000000000000000000000000070000000000000000000000
310
00000000000000000000000000000000000000000000000000000000000000000000000000000000000000000000000000000700000000000000000000000000070000000000000000000000000000000000000000000000000000000000000000000700000000000000000000000000000000000000000007000000000000
310
00000000000000000000000000000000000000000000000000000007000000000000000000000000000700000000000000000000000000000000000000000000000000000000000000000000000000000000000000000000000000000000000000000000000000070000000000000000000000000007000000000000000000
310
00000000000000000000000000000000000000000000000007000000000000000000000000000000000000000000070000000000000000000000000000000000000000000000000000000000000000000700000000000000000000000000070000000000000000000000000000000000000000000000000000000000000000
310
00000000000000000000000000000000000000000000000000000000070000000000000000000000000000070000000000000000000000000000000000000000000000000000000000000000000700000000000000000000000000000000000000000007000000000000000000000000000000000000000000000000000000
310
00000000000007000000000000000000000000000007000000000000000000000000000000000000000000000000000000000000000000000000000000000000000000000000000000000000000000000707000000000000000000000000000007000000000000000000000000000000000000000000000000000000000000
310
00000007000000000000000000000000000000000000000000070000000000000000000000000000000000000000000000000000000000000000000700000000000000000000000000000707000000000000000000000000000000000000000000000000000000000000000000000000000000000000000000000000000000
310
00000000000707000000000000000000000000000000070000000000000000000000000000000000000000000000000000000000000000000007000000000000000000000000000000000000000700000000000000000000000000000000000000000000000000000000000000000000070000000000000000000000000000
310
00070700000000000000000000000000000000000000000000000000000000000000000000000000000000000000000000000000000000000007070000000000000000000000000000070707000000000000000000000000000000000000000000000000000000000000000000000700000000000000000000000000000000
310
00000007000000000000000000000000000000000000000000000000000000000000000000000707070000000000000000000000000000070700000000000000000000000000000000000000000000000000000000000000000000000000000000000000000000000000000007070700000000000000000000000707070700
310
00000000000000000000000000000000000000000000000000000000000000000000000007000000000000000000000000000000000000000700000000000000000000000000000000000000000000000000000000000000000000000000070707070000000000000000000000070707000000000000000000000000000000
310
00000000000000000000000000000000000000000000000000000000000000070707000000000000000000070707070700000000000000000000000000000000000000000000000000000000000000000000000000000000000700000000000000000000000000000000000000070000000000000000000000000000000000
310
00000000000000000000000000000000000000000000000007070707070000000000000000000707070000000000000000000000000000000000000000000000000000000000000000000000000000000707070700000000000000070707070700000000000000000000000000000000000000000000000000000000000000
310
00000000000000000000000000000007000000000000000000000000000000000000000700000000000000000000000000000000000000000000000000000000000000000000000000000000000000000000070707070700000000000000070707070000000000000000000000000000000000000000000000000000000000
310
07070707070700000000000000070707070000000000000000000000000000000000000000000000000000000000000000000000000000000000000000000000000000000700000000000000000000000000000000000000070000000000000000000000000000000000000000000000000000000000000000000000000000
310
00000000000000000000000000070707070000000000000007070707070700000000000000000000000000000000000007070707070000000000000000070707070700000000000000000000000000000000000000000000000000000000000000000000000000000000000000000000000000000000000000070000000000
310
00000000000000000000000000000700000000000000000000000000000000000000000000000000000000000000000000000000000000000000000000000000000000000000070707070700000000000000000707070707000000000000000000000707070700000000000000070707070700000000000000000000000000
310
00000000000000000000000000000000000000000000000000000000000000000000000000000000000000000000000700000000000000000000000000000000000000070000000000000000000000000000000000000000000000000000000000000000000000000000000000000000000000000000000000000000000000
310
00070707070700000000000000070707070000000000070700000000000000070707070000000000000000000000000000000000000000000000000000000000000000000000000000000000000000000000000000000000000000000000000000000000070000000000000000000000000000000000000007000000000000
310
00000000000000000000000000000000000000000000000000000000000000000000000000000000000000000000000000000000000000000000000707070700000000000000070700000007000000070707070700000000000000000000000000000000000000000000000000000000000000000000000000000000000000
310
00000000000000000000000000000000000000000000000000000700000000000000000000000000000000000000070000000000000000000000000000000000000000000000000000000000000000000000000000000000000000000000000000000000000000000000000000000000000000000707070707000000070000
310
00070707070000000000000000000000000000000000000000000000000000000000000000000000000000000000000000000000000000000000000000000000000000000000000000000000000000070000000000000000000000000000000000000007000000000000000000000000000000000000000000000000000000
310
00000000000000000000000000000000000000000000000000000000000000000000000000000000000000000000000707070700000000000000000000000000000000000000000000000000000000000000000000000000000000000000000000000000000000000000000000000000000000000000000000000000000000
310
00000000000700000000000000000000000000000000000000070000000000000000000000000000000000000000000000000000000000000000000000000000000000000000000000000000000000000000000000000000000000000000000000000000000000000000000000000000000000000000000000000000000000
310
00000000000000000000000000000000000000000000000000000000000000000000000000000000000000000000000000000000000000000000070000000000000000000000000000000000000007000000000000000000000000000000000000000000000000000000000000000000000000000000000000000000000000
310
00000000000000000000000000000000000000000000000000000000000000000000000000000000000000000000000000000000000000000000000000000000000000000000000000000000000000000000000000000000000000000000000000000000000000000000000000000007000000000000000000000000000000
310
00000000070000000000000000000000000000000000000000000000000000000000000000000000000000000000000000000000000000000000000000000000000000000000000000000000000000000000000000000000000000000000000000000000000000000000000000000000000000000000000000000000000000
310
00000000000000000000000000000000000000000000000000000000000000000000000000070000000000000000000000000000000000000007000000000000000000000000000000000000000000000000000000000000000000000000000000000000000000000000000000000000000000000000000000000000000000
310
00000000000000000000000000000000000000000000000000000000000000000000000000000000000000000000000000000000000000000000000000000000000000000000000000000000000000000000000000000000000007000000000000000000000000000000000000000700000000000000000000000000000000
310
00000000000000000000000000000000000000000000000000000000000000000000000000000000000000000000000000000000000000000000000000000000000000000000000000000000000000000000000000000000000000000000000000000000000000000000000000000000000000000000000000000000000000
310
00000000000000000000000000000000070000000000000000000000000000000000000007000000000000000000000000000000000000000000000000000000000000000000000000000000000000000000000000000000000000000000000000000000000000000000000000000000000000000000000000000000000000
310
00000000000000000000000000000000000000000000000000000000000000000000000000000000000000000000000000000000000000000000000000000000000000000007000000000000000000000000000000000000000700000000000000000000000000000000000000000000000000000000000000000000000000
310
00000000000000000000000000000000000000000000000000000000000000000000000000000000000000000000000000000000000000000000000000000000000000000000000000000000000000000000000000000000000000000000000000000000000000000000000000000000000000000000000000000700000000
310
00000000000000000000000000000007000000000000000000000000000000000000000000000000000000000000000000000000000000000000000000000000000000000000000000000000000000000000000000000000000000000000000000000000000000000000000000000000000000000000000000000000000000
310
00000000000000000000000000000000000000000000000000000000000000000000000000000000000000000000000007000000000000000000000000000000000000000700000000000000000000000000000000000000000000000000000000000000000000000000000000000000000000000000000000000000000000
310
00000000000000000000000000000000000000000000000000000000000000000000000000000000000000000000000000000000000000000000000000000000000000000000000000000000000000000000000000000000000000000000000000000000000700000000000000000000000000000000000000070000000000
310
00000000000000000000000000000000000000000000000000000000000000000000000000000000000000000000000000000000000000000000000000000000000000000000000000000000000000000000000000000000000000000000000000000000000000000000000000000000000000000000000000000000000000
310
00000000000000000000000000000000000000000000000000000007000000000000000000000000000000000000000700000000000000000000000000000000000000000000000000000000000000000000000000000000000000000000000000000000000000000000000000000000000000000000000000000000000000
310
00000000000000000000000000000000000000000000000000000000000000000000000000000000000000000000000000000000000000000000000000000000000000000000000000000000000000000700000000000007070707070707000000000000070000000000000000000000000000000000000000000000000000
310
00000000000000000000000000000000000000000000000000000000000000000000000000000000000000000000000000000000000000000000000000000000000000000000000000000000000000000000000000000000000000000000000000000000000000000000000000000000000000000000000000000000000000
310
00000000000007000000000707070707070707070707000000000700000000000000000000000000000000000000000000000000000000000000000000000000000000000000000000000000000000000000000000000000000000000000000000000000000000000000000000000000000000000000000000000000000000
310
00000000000000000000000000000000000000000000000000000000000000000000000000000000000000000000000000000000000000000000000700000007070707070707070707070707000000070000000000000000000000000000000000000000000000000000000000000000000000000000000000000000000000
310
00000000000000000000000000000000000000000000000000000000000000000000000000000000000000000000000000000000000000000000000000000000000000000000000000000000000000000000000000000000000000000000000000000000000000000000000000000000070000000707070700000000000707
310
07070000000700000000000000000000000000000000000000000000000000000000000000000000000000000000000000000000000000000000000000000000000000000000000000000000000000000000000000000000000000000000000000000000000000000000000000000000000000000000000000000000000000
310
00000000000000000000000000000000000000000000000000000000000000000000000000000700000707000707070707070707070007070000070000000000000000000000000000000000000000000000000000000000000000000000000000000000000000000000000000000000000000000000000000000000000000
310
00000000000000000000000000000000000000000000000000000000000000000000000000000000000000000000000000000000000000000000000000000000000000000000000000000000000000000000000000000000000000070007000707070707070007070707070700070007000000000000000000000000000000
310
00000000000000000000000000000000000000000000000000000000000000000000000000000000000000000000000000000000000000000000000000000000000000000000000000000000000000000000000000000000000000000000000000000000000000000000000000000000000000000000000000000000000000
310
00000000000000000000000000000000000700070000000000000000000000000000000700070000000000000000000000000000000000000000000000000000000000000000000000000000000000000000000000000000000000000000000000000000000000000000000000000000000000000000000000000000000000
310
00000000000000000000000000000000000000000000000000000000000000000000000000000000000000000000000000000000000000000000000000000000000000000000070007000000000000000000000000000000070007000000000000000000000000000000000000000000000000000000000000000000000000
310
00000000000000000000000000000000000000000000000000000000000000000000000000000000000000000000000000000000000000000000000000000000000000000000000000000000000000000000000000000000000000000000000000000000000000000000000000000000000000000000000000000000070000
310
00000000000000000000000000000007000000000000000000000000000000000000000000000000000000000000000000000000000000000000000000000000000000000000000000000000000000000000000000000000000000000000000000000000000000000000000000000000000000000000000000000000000000
310
00000000000000000000000000000000000000000000000000000000000000000000000000000000000000000000000000000700000000000000000000000000000000000700000000000000000000000000000000000000000000000000000000000000000000000000000000000000000000000000000000000000000000
310
00000000000000000000000000000000000000000000000000000000000000000000000000000000000000000000000000000000000000000000000000000000000000000000000000000000000000000000000000000000000000000000000000000000000000070000000000000000000000000000000000070000000000
310
00000000000000000000000000000000000000000000000000000000000000000000000000000000000000000000000000000000000000000000000000000000000000000000000000000000000000000000000000000000000000000000000000000000000000000000000000000000000000000000000000000000000000
310
00000000000000000000000000000000000000000000000000000000000707000000000000000000000000000000070700000000000000000000000000000000000000000000000000000000000000000000000000000000000000000000000000000000000000000000000000000000000000000000000000000000000000
310
00000000000000000000000000000000000000000000000000000000000000000000000000000000000000000000000000000000000000000000000000000000000000000000000000000000000000000000000707070700000000000000000007070707000000000000000000000000000000000000000000000000000000
310
00000000000000000000000000000000000000000000000000000000000000000000000000000000000000000000000000000000000000000000000000000000000000000000000000000000000000000000000000000000000000000000000000000000000000000000000000000000000000000000000000000000000000
310
00000000000000000000000007070707070007070707070000000000000000000000000000000000000000000000000000000000000000000000000000000000000000000000000000000000000000000000000000000000000000000000000000000000000000000000000000000000000000000000000000000000000000
310
00000000000000000000000000000000000000000000000000000000000000000000000000000000000000000000000000000000000000000000000000000000000000000000000000000000000000000000000000000000000000000000000000000000000000000000000000000000000000000000000000000000000000
310
00000000000000000000000000000000000000000000000000000000000000000000000000000000000000000000000000000000000000000000000000000000000000000000000000000000000000000000000000000000000000000000000000000000000000000000000000000000000000000000000000000000000000
310
00000000000000000000000000000000000000000000000000000000000000000000000000000000000000000000000000000000000000000000000000000000000000000000000000000000000000000000000000000000000000000000000000000000000000000000000000000000000000000000000000000000000000
310
00000000000000000000000000000000000000000000000000000000000000000000000000000000000000000000000000000000000000000000000000000000000000000000000000000000000000000000000000000000000000000000000000000000000000000000000000000000000000000000000000000000000000
310
00000000000000000000000000000000000000000000000000000000000000000000000000000000000000000000000000000000000000000000000000000000000000000000000000000000000000000000000000000000000000000000000000000000000000000000000000000000000000000000000000000000000000
310
00000000000000000000000000000000000000000000000000000000000000000000000000000000000000000000000000000000000000000000000000000000000000000000000000000000000000000000000000000000000000000000000000000000000000000000000000000000000000000000000000000000000000
310
00000000000000000000000000000000000000000000000000000000000000000000000000000000000000000000000000000000000000000000000000000000000000000000000000000000000000000000000000000000000000000000000000000000000000000000000000000000000000000000000000000000000000
310
00000000000000000000000000000000000000000000000000000000000000000000000000000000000000000000000000000000000000000000000000000000000000000000000000000000000000000000000000000000000000000000000000000000000000000000000000000000000000000000000000000000000000
310
00000000000000000000000000000000000000000000000000000000000000000000000000000000000000000000000000000000000000000000000000000000000000000000000000000000000000000000000000000000000000000000000000000000000000000000000000000000000000000000000000000000000000
310
00000000000000000000000000000000000000000000000000000000000000000000000000000000000000000000000000000000000000000000000000000000000000000000000000000000000000000000000000000000000000000000000000000000000000000000000000000000000000000000000000000000000000
310
00000000000000000000000000000000000000000000000000000000000000000000000000000000000000000000000000000000000000000000000000000000000000000000000000000000000000000000000000000000000000000000000000000000000000000000000000000000000000000000000000000000000000
310
00000000000000000000000000000000000000000000000000000000000000000000000000000000000000000000000000000000000000000000000000000000000000000000000000000000000000000000000000000000000000000000000000000000000000000000000000000000000000000000000000000000000000
310
00000000000000000000000000000000000000000000000000000000000000000000000000000000000000000000000000000000000000000000000000000000000000000000000000000000000000000000000000000000000000000000000000000000000000000000000000000000000000000000000000000000000000
310
00000000000000000000000000000000000000000000000000000000000000000000000000000000000000000000000000000000000000000000000000000000000000000000000000000000000000000000000000000000000000000000000000000000000000000000000000000000000000000000000000000000000000
310
00000000000000000000000000000000000000000000000000000000000000000000000000000000000000000000000000000000000000000000000000000000000000000000000000000000000000000000000000000000000000000000000000000000000000000000000000000000000000000000000000000000000000
310
00000000000000000000000000000000000000000000000000000000000000000000000000000000000000000000000000000000000000000000000000000000000000000000000000000000000000000000000000000000000000000000000000000000000000000000000000000000000000000000000000000000000000
310
000000000000000000000000000000000000000000000000000000000000000000000000000000000000000000000000000000000000000000000000000000000000000000000000000000000000000000000000000000000000000000000000000000000000000000000000
  0
ENDSEC
  0
EOF
