  0
SECTION
  2
HEADER
  9
$ACADVER
  1
AC1015
  9
$ACADMAINTVER
 70
     6
  9
$DWGCODEPAGE
  3
ANSI_1252
  9
$INSBASE
 10
0.0
 20
0.0
 30
0.0
  9
$EXTMIN
 10
-0.15
 20
-0.074
 30
0.0
  9
$EXTMAX
 10
437.85
 20
285.074
 30
0.0
  9
$LIMMIN
 10
0.0
 20
0.0
  9
$LIMMAX
 10
12.0
 20
9.0
  9
$ORTHOMODE
 70
     0
  9
$REGENMODE
 70
     1
  9
$FILLMODE
 70
     1
  9
$QTEXTMODE
 70
     0
  9
$MIRRTEXT
 70
     1
  9
$LTSCALE
 40
1.0
  9
$ATTMODE
 70
     1
  9
$TEXTSIZE
 40
0.2
  9
$TRACEWID
 40
0.05
  9
$TEXTSTYLE
  7
Standard
  9
$CLAYER
  8
0
  9
$CELTYPE
  6
ByBlock
  9
$CECOLOR
 62
   256
  9
$CELTSCALE
 40
1.0
  9
$DISPSILH
 70
     0
  9
$DIMSCALE
 40
1.0
  9
$DIMASZ
 40
0.18
  9
$DIMEXO
 40
0.0625
  9
$DIMDLI
 40
0.38
  9
$DIMRND
 40
0.0
  9
$DIMDLE
 40
0.0
  9
$DIMEXE
 40
0.18
  9
$DIMTP
 40
0.0
  9
$DIMTM
 40
0.0
  9
$DIMTXT
 40
0.18
  9
$DIMCEN
 40
0.09
  9
$DIMTSZ
 40
0.0
  9
$DIMTOL
 70
     0
  9
$DIMLIM
 70
     0
  9
$DIMTIH
 70
     1
  9
$DIMTOH
 70
     1
  9
$DIMSE1
 70
     0
  9
$DIMSE2
 70
     0
  9
$DIMTAD
 70
     0
  9
$DIMZIN
 70
     0
  9
$DIMBLK
  1

  9
$DIMASO
 70
     1
  9
$DIMSHO
 70
     1
  9
$DIMPOST
  1

  9
$DIMAPOST
  1

  9
$DIMALT
 70
     0
  9
$DIMALTD
 70
     2
  9
$DIMALTF
 40
25.4
  9
$DIMLFAC
 40
1.0
  9
$DIMTOFL
 70
     0
  9
$DIMTVP
 40
0.0
  9
$DIMTIX
 70
     0
  9
$DIMSOXD
 70
     0
  9
$DIMSAH
 70
     0
  9
$DIMBLK1
  1

  9
$DIMBLK2
  1

  9
$DIMSTYLE
  2
Standard
  9
$DIMCLRD
 70
     0
  9
$DIMCLRE
 70
     0
  9
$DIMCLRT
 70
     0
  9
$DIMTFAC
 40
1.0
  9
$DIMGAP
 40
0.09
  9
$DIMJUST
 70
     0
  9
$DIMSD1
 70
     0
  9
$DIMSD2
 70
     0
  9
$DIMTOLJ
 70
     1
  9
$DIMTZIN
 70
     0
  9
$DIMALTZ
 70
     0
  9
$DIMALTTZ
 70
     0
  9
$DIMUPT
 70
     0
  9
$DIMDEC
 70
     4
  9
$DIMTDEC
 70
     4
  9
$DIMALTU
 70
     2
  9
$DIMALTTD
 70
     2
  9
$DIMTXSTY
  7
Standard
  9
$DIMAUNIT
 70
     0
  9
$DIMADEC
 70
     0
  9
$DIMALTRND
 40
0.0
  9
$DIMAZIN
 70
     0
  9
$DIMDSEP
 70
    46
  9
$DIMATFIT
 70
     3
  9
$DIMFRAC
 70
     0
  9
$DIMLDRBLK
  1

  9
$DIMLUNIT
 70
     2
  9
$DIMLWD
 70
    -2
  9
$DIMLWE
 70
    -2
  9
$DIMTMOVE
 70
     2
  9
$LUNITS
 70
     2
  9
$LUPREC
 70
     4
  9
$SKETCHINC
 40
0.1
  9
$FILLETRAD
 40
0.5
  9
$AUNITS
 70
     0
  9
$AUPREC
 70
     0
  9
$MENU
  1
.
  9
$ELEVATION
 40
0.0
  9
$PELEVATION
 40
0.0
  9
$THICKNESS
 40
0.0
  9
$LIMCHECK
 70
     0
  9
$CHAMFERA
 40
0.5
  9
$CHAMFERB
 40
0.5
  9
$CHAMFERC
 40
1.0
  9
$CHAMFERD
 40
0.0
  9
$SKPOLY
 70
     0
  9
$TDCREATE
 40
2455873.369576632
  9
$TDUCREATE
 40
2455873.327909965
  9
$TDUPDATE
 40
2455873.372836007
  9
$TDUUPDATE
 40
2455873.33116934
  9
$TDINDWG
 40
0.0032592014
  9
$TDUSRTIMER
 40
0.0032592014
  9
$USRTIMER
 70
     1
  9
$ANGBASE
 50
0.0
  9
$ANGDIR
 70
     0
  9
$PDMODE
 70
     0
  9
$PDSIZE
 40
0.0
  9
$PLINEWID
 40
0.0
  9
$SPLFRAME
 70
     0
  9
$SPLINETYPE
 70
     6
  9
$SPLINESEGS
 70
     8
  9
$HANDSEED
  5
E81
  9
$SURFTAB1
 70
     6
  9
$SURFTAB2
 70
     6
  9
$SURFTYPE
 70
     6
  9
$SURFU
 70
     6
  9
$SURFV
 70
     6
  9
$UCSBASE
  2

  9
$UCSNAME
  2

  9
$UCSORG
 10
0.0
 20
0.0
 30
0.0
  9
$UCSXDIR
 10
1.0
 20
0.0
 30
0.0
  9
$UCSYDIR
 10
0.0
 20
1.0
 30
0.0
  9
$UCSORTHOREF
  2

  9
$UCSORTHOVIEW
 70
     0
  9
$UCSORGTOP
 10
0.0
 20
0.0
 30
0.0
  9
$UCSORGBOTTOM
 10
0.0
 20
0.0
 30
0.0
  9
$UCSORGLEFT
 10
0.0
 20
0.0
 30
0.0
  9
$UCSORGRIGHT
 10
0.0
 20
0.0
 30
0.0
  9
$UCSORGFRONT
 10
0.0
 20
0.0
 30
0.0
  9
$UCSORGBACK
 10
0.0
 20
0.0
 30
0.0
  9
$PUCSBASE
  2

  9
$PUCSNAME
  2

  9
$PUCSORG
 10
0.0
 20
0.0
 30
0.0
  9
$PUCSXDIR
 10
1.0
 20
0.0
 30
0.0
  9
$PUCSYDIR
 10
0.0
 20
1.0
 30
0.0
  9
$PUCSORTHOREF
  2

  9
$PUCSORTHOVIEW
 70
     0
  9
$PUCSORGTOP
 10
0.0
 20
0.0
 30
0.0
  9
$PUCSORGBOTTOM
 10
0.0
 20
0.0
 30
0.0
  9
$PUCSORGLEFT
 10
0.0
 20
0.0
 30
0.0
  9
$PUCSORGRIGHT
 10
0.0
 20
0.0
 30
0.0
  9
$PUCSORGFRONT
 10
0.0
 20
0.0
 30
0.0
  9
$PUCSORGBACK
 10
0.0
 20
0.0
 30
0.0
  9
$USERI1
 70
     0
  9
$USERI2
 70
     0
  9
$USERI3
 70
     0
  9
$USERI4
 70
     0
  9
$USERI5
 70
     0
  9
$USERR1
 40
0.0
  9
$USERR2
 40
0.0
  9
$USERR3
 40
0.0
  9
$USERR4
 40
0.0
  9
$USERR5
 40
0.0
  9
$WORLDVIEW
 70
     1
  9
$SHADEDGE
 70
     3
  9
$SHADEDIF
 70
    70
  9
$TILEMODE
 70
     1
  9
$MAXACTVP
 70
    64
  9
$PINSBASE
 10
0.0
 20
0.0
 30
0.0
  9
$PLIMCHECK
 70
     0
  9
$PEXTMIN
 10
1.000000000000E+20
 20
1.000000000000E+20
 30
1.000000000000E+20
  9
$PEXTMAX
 10
-1.000000000000E+20
 20
-1.000000000000E+20
 30
-1.000000000000E+20
  9
$PLIMMIN
 10
0.0
 20
0.0
  9
$PLIMMAX
 10
12.0
 20
9.0
  9
$UNITMODE
 70
     0
  9
$VISRETAIN
 70
     1
  9
$PLINEGEN
 70
     0
  9
$PSLTSCALE
 70
     1
  9
$TREEDEPTH
 70
  3020
  9
$CMLSTYLE
  2
Standard
  9
$CMLJUST
 70
     0
  9
$CMLSCALE
 40
1.0
  9
$PROXYGRAPHICS
 70
     1
  9
$MEASUREMENT
 70
     0
  9
$CELWEIGHT
370
    -1
  9
$ENDCAPS
280
     0
  9
$JOINSTYLE
280
     0
  9
$LWDISPLAY
290
     0
  9
$INSUNITS
 70
     0
  9
$HYPERLINKBASE
  1

  9
$STYLESHEET
  1

  9
$XEDIT
290
     1
  9
$CEPSNTYPE
380
     0
  9
$PSTYLEMODE
290
     1
  9
$FINGERPRINTGUID
  2
{92A101B2-FA08-4113-B8FC-B9F3BB9BC35C}
  9
$VERSIONGUID
  2
{FAEB1C32-E019-11D5-929B-00C0DF256EC4}
  9
$EXTNAMES
290
     1
  9
$PSVPSCALE
 40
0.0
  9
$OLESTARTUP
290
     0
  0
ENDSEC
  0
SECTION
  2
CLASSES
  0
CLASS
  1
ACDBDICTIONARYWDFLT
  2
AcDbDictionaryWithDefault
  3
ObjectDBX Classes
 90
        0
280
     0
281
     0
  0
CLASS
  1
SCALE
  2
AcDbScale
  3
ObjectDBX Classes
 90
     1153
280
     0
281
     0
  0
CLASS
  1
DICTIONARYVAR
  2
AcDbDictionaryVar
  3
ObjectDBX Classes
 90
        0
280
     0
281
     0
  0
CLASS
  1
ACDBPLACEHOLDER
  2
AcDbPlaceHolder
  3
ObjectDBX Classes
 90
        0
280
     0
281
     0
  0
CLASS
  1
LAYOUT
  2
AcDbLayout
  3
ObjectDBX Classes
 90
        0
280
     0
281
     0
  0
ENDSEC
  0
SECTION
  2
TABLES
  0
TABLE
  2
VPORT
  5
8
330
0
100
AcDbSymbolTable
 70
     1
  0
VPORT
  5
6CF
330
8
100
AcDbSymbolTableRecord
100
AcDbViewportTableRecord
  2
*Active
 70
     0
 10
0.0
 20
0.0
 11
1.0
 21
1.0
 12
218.85
 22
142.5
 13
0.0
 23
0.0
 14
0.5
 24
0.5
 15
0.5
 25
0.5
 16
0.0
 26
0.0
 36
1.0
 17
0.0
 27
0.0
 37
0.0
 40
290.85096
 41
2.271724137931
 42
50.0
 43
0.0
 44
0.0
 50
0.0
 51
0.0
 71
    16
 72
   100
 73
     1
 74
     3
 75
     0
 76
     0
 77
     0
 78
     0
281
     0
 65
     1
110
0.0
120
0.0
130
0.0
111
1.0
121
0.0
131
0.0
112
0.0
122
1.0
132
0.0
 79
     0
146
0.0
  0
ENDTAB
  0
TABLE
  2
LTYPE
  5
5
330
0
100
AcDbSymbolTable
 70
     1
  0
LTYPE
  5
14
330
5
100
AcDbSymbolTableRecord
100
AcDbLinetypeTableRecord
  2
ByBlock
 70
     0
  3

 72
    65
 73
     0
 40
0.0
  0
LTYPE
  5
15
330
5
100
AcDbSymbolTableRecord
100
AcDbLinetypeTableRecord
  2
ByLayer
 70
     0
  3

 72
    65
 73
     0
 40
0.0
  0
LTYPE
  5
16
330
5
100
AcDbSymbolTableRecord
100
AcDbLinetypeTableRecord
  2
Continuous
 70
     0
  3
Solid line
 72
    65
 73
     0
 40
0.0
  0
ENDTAB
  0
TABLE
  2
LAYER
  5
2
330
0
100
AcDbSymbolTable
 70
     1
  0
LAYER
  5
10
330
2
100
AcDbSymbolTableRecord
100
AcDbLayerTableRecord
  2
0
 70
     0
 62
     7
  6
Continuous
370
    -3
390
F
  0
ENDTAB
  0
TABLE
  2
STYLE
  5
3
330
0
100
AcDbSymbolTable
 70
     1
  0
STYLE
  5
11
330
3
100
AcDbSymbolTableRecord
100
AcDbTextStyleTableRecord
  2
Standard
 70
     0
 40
0.0
 41
1.0
 50
0.0
 71
     0
 42
0.2
  3
txt
  4

  0
ENDTAB
  0
TABLE
  2
VIEW
  5
6
330
0
100
AcDbSymbolTable
 70
     0
  0
ENDTAB
  0
TABLE
  2
UCS
  5
7
330
0
100
AcDbSymbolTable
 70
     0
  0
ENDTAB
  0
TABLE
  2
APPID
  5
9
330
0
100
AcDbSymbolTable
 70
     1
  0
APPID
  5
12
330
9
100
AcDbSymbolTableRecord
100
AcDbRegAppTableRecord
  2
ACAD
 70
     0
  0
ENDTAB
  0
TABLE
  2
DIMSTYLE
  5
A
330
0
100
AcDbSymbolTable
 70
     1
100
AcDbDimStyleTable
  0
DIMSTYLE
105
20
330
A
100
AcDbSymbolTableRecord
100
AcDbDimStyleTableRecord
  2
Standard
 70
     0
340
11
  0
ENDTAB
  0
TABLE
  2
BLOCK_RECORD
  5
1
330
0
100
AcDbSymbolTable
 70
     1
  0
BLOCK_RECORD
  5
1D
330
1
100
AcDbSymbolTableRecord
100
AcDbBlockTableRecord
  2
*Model_Space
340
1E
  0
BLOCK_RECORD
  5
1B
330
1
100
AcDbSymbolTableRecord
100
AcDbBlockTableRecord
  2
*Paper_Space
340
1C
  0
ENDTAB
  0
ENDSEC
  0
SECTION
  2
BLOCKS
  0
BLOCK
  5
6D2
330
1D
100
AcDbEntity
  8
0
100
AcDbBlockBegin
  2
*Model_Space
 70
     0
 10
0.0
 20
0.0
 30
0.0
  3
*Model_Space
  1
*Model_Space
  0
ENDBLK
  5
6D3
330
1D
100
AcDbEntity
  8
0
100
AcDbBlockEnd
  0
BLOCK
  5
6D0
330
1B
100
AcDbEntity
 67
     1
  8
0
100
AcDbBlockBegin
  2
*Paper_Space
 70
     0
 10
0.0
 20
0.0
 30
0.0
  3
*Paper_Space
  1
*Paper_Space
  0
ENDBLK
  5
6D1
330
1B
100
AcDbEntity
 67
     1
  8
0
100
AcDbBlockEnd
  0
ENDSEC
  0
SECTION
  2
ENTITIES
  0
LINE
  5
21
330
1D
100
AcDbEntity
  8
0
100
AcDbLine
 10
182.203
 20
34.1
 30
0.0
 11
183.15
 21
34.074
 31
0.0
  0
LINE
  5
22
330
1D
100
AcDbEntity
  8
0
100
AcDbLine
 10
181.328
 20
34.176
 30
0.0
 11
182.203
 21
34.1
 31
0.0
  0
LINE
  5
23
330
1D
100
AcDbEntity
  8
0
100
AcDbLine
 10
184.097
 20
34.1
 30
0.0
 11
184.972
 21
34.176
 31
0.0
  0
LINE
  5
24
330
1D
100
AcDbEntity
  8
0
100
AcDbLine
 10
183.15
 20
34.074
 30
0.0
 11
184.097
 21
34.1
 31
0.0
  0
LINE
  5
3FA
330
1D
100
AcDbEntity
  8
0
100
AcDbLine
 10
368.387
 20
251.2231
 30
0.0
 11
368.939
 21
254.5088
 31
0.0
  0
LINE
  5
3FB
330
1D
100
AcDbEntity
  8
0
100
AcDbLine
 10
368.15
 20
247.8994
 30
0.0
 11
368.23
 21
244.5677
 31
0.0
  0
LINE
  5
3FC
330
1D
100
AcDbEntity
  8
0
100
AcDbLine
 10
368.15
 20
247.8994
 30
0.0
 11
368.387
 21
251.2231
 31
0.0
  0
LINE
  5
3FD
330
1D
100
AcDbEntity
  8
0
100
AcDbLine
 10
368.23
 20
244.5677
 30
0.0
 11
368.626
 21
241.2591
 31
0.0
  0
LINE
  5
3FE
330
1D
100
AcDbEntity
  8
0
100
AcDbLine
 10
369.801
 20
257.7264
 30
0.0
 11
370.964
 21
260.8489
 31
0.0
  0
LINE
  5
3FF
330
1D
100
AcDbEntity
  8
0
100
AcDbLine
 10
368.939
 20
254.5088
 30
0.0
 11
369.801
 21
257.7264
 31
0.0
  0
LINE
  5
400
330
1D
100
AcDbEntity
  8
0
100
AcDbLine
 10
368.626
 20
241.2591
 30
0.0
 11
369.336
 21
238.0044
 31
0.0
  0
LINE
  5
401
330
1D
100
AcDbEntity
  8
0
100
AcDbLine
 10
369.336
 20
238.0044
 30
0.0
 11
370.351
 21
234.8309
 31
0.0
  0
LINE
  5
404
330
1D
100
AcDbEntity
  8
0
100
AcDbLine
 10
372.419
 20
263.8453
 30
0.0
 11
374.153
 21
266.6906
 31
0.0
  0
LINE
  5
405
330
1D
100
AcDbEntity
  8
0
100
AcDbLine
 10
370.964
 20
260.8489
 30
0.0
 11
372.419
 21
263.8453
 31
0.0
  0
LINE
  5
406
330
1D
100
AcDbEntity
  8
0
100
AcDbLine
 10
370.351
 20
234.8309
 30
0.0
 11
371.663
 21
231.7674
 31
0.0
  0
LINE
  5
407
330
1D
100
AcDbEntity
  8
0
100
AcDbLine
 10
371.663
 20
231.7674
 30
0.0
 11
373.26
 21
228.8441
 31
0.0
  0
LINE
  5
40D
330
1D
100
AcDbEntity
  8
0
100
AcDbLine
 10
374.982
 20
250.0181
 30
0.0
 11
375.542
 21
253.3909
 31
0.0
  0
LINE
  5
40E
330
1D
100
AcDbEntity
  8
0
100
AcDbLine
 10
375.096
 20
243.1906
 30
0.0
 11
375.769
 21
239.8369
 31
0.0
  0
LINE
  5
40F
330
1D
100
AcDbEntity
  8
0
100
AcDbLine
 10
374.833
 20
246.6004
 30
0.0
 11
375.096
 21
243.1906
 31
0.0
  0
LINE
  5
410
330
1D
100
AcDbEntity
  8
0
100
AcDbLine
 10
374.833
 20
246.6004
 30
0.0
 11
374.982
 21
250.0181
 31
0.0
  0
LINE
  5
413
330
1D
100
AcDbEntity
  8
0
100
AcDbLine
 10
374.153
 20
266.6906
 30
0.0
 11
376.149
 21
269.3587
 31
0.0
  0
LINE
  5
414
330
1D
100
AcDbEntity
  8
0
100
AcDbLine
 10
373.26
 20
228.8441
 30
0.0
 11
375.127
 21
226.0848
 31
0.0
  0
LINE
  5
415
330
1D
100
AcDbEntity
  8
0
100
AcDbLine
 10
375.127
 20
226.0848
 30
0.0
 11
377.249
 21
223.5168
 31
0.0
  0
LINE
  5
416
330
1D
100
AcDbEntity
  8
0
100
AcDbLine
 10
376.84
 20
236.5893
 30
0.0
 11
378.296
 21
233.4948
 31
0.0
  0
LINE
  5
419
330
1D
100
AcDbEntity
  8
0
100
AcDbLine
 10
375.769
 20
239.8369
 30
0.0
 11
376.84
 21
236.5893
 31
0.0
  0
LINE
  5
41B
330
1D
100
AcDbEntity
  8
0
100
AcDbLine
 10
378.296
 20
233.4948
 30
0.0
 11
380.114
 21
230.5975
 31
0.0
  0
LINE
  5
41D
330
1D
100
AcDbEntity
  8
0
100
AcDbLine
 10
377.249
 20
223.5168
 30
0.0
 11
379.606
 21
221.1609
 31
0.0
  0
LINE
  5
420
330
1D
100
AcDbEntity
  8
0
100
AcDbLine
 10
376.149
 20
269.3587
 30
0.0
 11
378.39
 21
271.8247
 31
0.0
  0
LINE
  5
421
330
1D
100
AcDbEntity
  8
0
100
AcDbLine
 10
377.856
 20
259.815
 30
0.0
 11
379.577
 21
262.7714
 31
0.0
  0
LINE
  5
422
330
1D
100
AcDbEntity
  8
0
100
AcDbLine
 10
376.506
 20
256.6735
 30
0.0
 11
377.856
 21
259.815
 31
0.0
  0
LINE
  5
423
330
1D
100
AcDbEntity
  8
0
100
AcDbLine
 10
375.542
 20
253.3909
 30
0.0
 11
376.506
 21
256.6735
 31
0.0
  0
LINE
  5
42C
330
1D
100
AcDbEntity
  8
0
100
AcDbLine
 10
378.39
 20
271.8247
 30
0.0
 11
380.854
 21
274.0665
 31
0.0
  0
LINE
  5
431
330
1D
100
AcDbEntity
  8
0
100
AcDbLine
 10
384.726
 20
225.5624
 30
0.0
 11
387.138
 21
223.736411592076
 31
0.0
  0
LINE
  5
432
330
1D
100
AcDbEntity
  8
0
100
AcDbLine
 10
382.267
 20
227.9403
 30
0.0
 11
384.726
 21
225.5624
 31
0.0
  0
LINE
  5
433
330
1D
100
AcDbEntity
  8
0
100
AcDbLine
 10
380.114
 20
230.5975
 30
0.0
 11
382.267
 21
227.9403
 31
0.0
  0
LINE
  5
434
330
1D
100
AcDbEntity
  8
0
100
AcDbLine
 10
379.606
 20
221.1609
 30
0.0
 11
382.175
 21
219.0401
 31
0.0
  0
LINE
  5
435
330
1D
100
AcDbEntity
  8
0
100
AcDbLine
 10
382.175
 20
219.0401
 30
0.0
 11
384.934
 21
217.1726
 31
0.0
  0
LINE
  5
439
330
1D
100
AcDbEntity
  8
0
100
AcDbLine
 10
384.934
 20
217.1726
 30
0.0
 11
387.162285986034
 21
215.957289014181
 31
0.0
  0
LINE
  5
43C
330
1D
100
AcDbEntity
  8
0
100
AcDbLine
 10
379.577
 20
262.7714
 30
0.0
 11
381.641
 21
265.4976
 31
0.0
  0
LINE
  5
43E
330
1D
100
AcDbEntity
  8
0
100
AcDbLine
 10
384.019
 20
267.9566
 30
0.0
 11
386.676
 21
270.1103
 31
0.0
  0
LINE
  5
43F
330
1D
100
AcDbEntity
  8
0
100
AcDbLine
 10
381.641
 20
265.4976
 30
0.0
 11
384.019
 21
267.9566
 31
0.0
  0
LINE
  5
440
330
1D
100
AcDbEntity
  8
0
100
AcDbLine
 10
386.676
 20
270.1103
 30
0.0
 11
389.572
 21
271.9288
 31
0.0
  0
LINE
  5
444
330
1D
100
AcDbEntity
  8
0
100
AcDbLine
 10
387.138
 20
242.0337
 30
0.0
 11
387.138
 21
216.1938
 31
0.0
  0
LINE
  5
446
330
1D
100
AcDbEntity
  8
0
100
AcDbLine
 10
387.922
 20
219.9849
 30
0.0
 11
388.883
 21
221.7633
 31
0.0
  0
LINE
  5
447
330
1D
100
AcDbEntity
  8
0
100
AcDbLine
 10
387.335
 20
218.1124
 30
0.0
 11
387.922
 21
219.9849
 31
0.0
  0
LINE
  5
448
330
1D
100
AcDbEntity
  8
0
100
AcDbLine
 10
387.138
 20
216.1938
 30
0.0
 11
387.335
 21
214.2753
 31
0.0
  0
LINE
  5
449
330
1D
100
AcDbEntity
  8
0
100
AcDbLine
 10
387.138
 20
216.1938
 30
0.0
 11
387.138
 21
242.0337
 31
0.0
  0
LINE
  5
44A
330
1D
100
AcDbEntity
  8
0
100
AcDbLine
 10
387.138
 20
216.1938
 30
0.0
 11
387.335
 21
218.1124
 31
0.0
  0
LINE
  5
44B
330
1D
100
AcDbEntity
  8
0
100
AcDbLine
 10
387.335
 20
214.2753
 30
0.0
 11
387.922
 21
212.4038
 31
0.0
  0
LINE
  5
44C
330
1D
100
AcDbEntity
  8
0
100
AcDbLine
 10
389.15
 20
66.175
 30
0.0
 11
389.204
 21
52.22
 31
0.0
  0
LINE
  5
44D
330
1D
100
AcDbEntity
  8
0
100
AcDbLine
 10
389.15
 20
66.175
 30
0.0
 11
389.204
 21
80.13
 31
0.0
  0
LINE
  5
44E
330
1D
100
AcDbEntity
  8
0
100
AcDbLine
 10
389.15
 20
66.147
 30
0.0
 11
389.204
 21
52.192
 31
0.0
  0
LINE
  5
44F
330
1D
100
AcDbEntity
  8
0
100
AcDbLine
 10
389.15
 20
66.147
 30
0.0
 11
389.204
 21
80.102
 31
0.0
  0
LINE
  5
450
330
1D
100
AcDbEntity
  8
0
100
AcDbLine
 10
388.613
 20
203.6767
 30
0.0
 11
389.427
 21
201.8833
 31
0.0
  0
LINE
  5
451
330
1D
100
AcDbEntity
  8
0
100
AcDbLine
 10
389.257
 20
40.041
 30
0.0
 11
389.406
 21
29.142
 31
0.0
  0
LINE
  5
452
330
1D
100
AcDbEntity
  8
0
100
AcDbLine
 10
389.257
 20
40.014
 30
0.0
 11
389.406
 21
29.114
 31
0.0
  0
LINE
  5
453
330
1D
100
AcDbEntity
  8
0
100
AcDbLine
 10
389.204
 20
52.22
 30
0.0
 11
389.257
 21
40.041
 31
0.0
  0
LINE
  5
454
330
1D
100
AcDbEntity
  8
0
100
AcDbLine
 10
389.204
 20
52.192
 30
0.0
 11
389.257
 21
40.014
 31
0.0
  0
LINE
  5
455
330
1D
100
AcDbEntity
  8
0
100
AcDbLine
 10
389.406
 20
29.142
 30
0.0
 11
389.53
 21
21.07
 31
0.0
  0
LINE
  5
456
330
1D
100
AcDbEntity
  8
0
100
AcDbLine
 10
389.406
 20
29.114
 30
0.0
 11
389.53
 21
21.043
 31
0.0
  0
LINE
  5
459
330
1D
100
AcDbEntity
  8
0
100
AcDbLine
 10
389.257
 20
92.308
 30
0.0
 11
389.406
 21
103.208
 31
0.0
  0
LINE
  5
45A
330
1D
100
AcDbEntity
  8
0
100
AcDbLine
 10
389.204
 20
80.13
 30
0.0
 11
389.257
 21
92.308
 31
0.0
  0
LINE
  5
45B
330
1D
100
AcDbEntity
  8
0
100
AcDbLine
 10
389.257
 20
92.281
 30
0.0
 11
389.406
 21
103.18
 31
0.0
  0
LINE
  5
45C
330
1D
100
AcDbEntity
  8
0
100
AcDbLine
 10
389.204
 20
80.102
 30
0.0
 11
389.257
 21
92.281
 31
0.0
  0
LINE
  5
45D
330
1D
100
AcDbEntity
  8
0
100
AcDbLine
 10
389.406
 20
103.208
 30
0.0
 11
389.53
 21
111.279
 31
0.0
  0
LINE
  5
45E
330
1D
100
AcDbEntity
  8
0
100
AcDbLine
 10
389.406
 20
103.18
 30
0.0
 11
389.53
 21
111.251
 31
0.0
  0
LINE
  5
465
330
1D
100
AcDbEntity
  8
0
100
AcDbLine
 10
389.763
 20
12.603
 30
0.0
 11
389.903
 21
9.962
 31
0.0
  0
LINE
  5
466
330
1D
100
AcDbEntity
  8
0
100
AcDbLine
 10
389.655
 20
15.759
 30
0.0
 11
389.763
 21
12.603
 31
0.0
  0
LINE
  5
467
330
1D
100
AcDbEntity
  8
0
100
AcDbLine
 10
389.53
 20
21.07
 30
0.0
 11
389.655
 21
15.787
 31
0.0
  0
LINE
  5
468
330
1D
100
AcDbEntity
  8
0
100
AcDbLine
 10
389.53
 20
21.043
 30
0.0
 11
389.655
 21
15.759
 31
0.0
  0
LINE
  5
46A
330
1D
100
AcDbEntity
  8
0
100
AcDbLine
 10
389.903
 20
9.962
 30
0.0
 11
390.136
 21
7.907
 31
0.0
  0
LINE
  5
46E
330
1D
100
AcDbEntity
  8
0
100
AcDbLine
 10
389.53
 20
111.279
 30
0.0
 11
389.655
 21
116.563
 31
0.0
  0
LINE
  5
46F
330
1D
100
AcDbEntity
  8
0
100
AcDbLine
 10
389.655
 20
116.563
 30
0.0
 11
389.763
 21
119.719
 31
0.0
  0
LINE
  5
470
330
1D
100
AcDbEntity
  8
0
100
AcDbLine
 10
389.655
 20
116.535
 30
0.0
 11
389.763
 21
119.69
 31
0.0
  0
LINE
  5
471
330
1D
100
AcDbEntity
  8
0
100
AcDbLine
 10
389.53
 20
111.251
 30
0.0
 11
389.655
 21
116.535
 31
0.0
  0
LINE
  5
472
330
1D
100
AcDbEntity
  8
0
100
AcDbLine
 10
389.763
 20
119.719
 30
0.0
 11
389.903
 21
122.36
 31
0.0
  0
LINE
  5
474
330
1D
100
AcDbEntity
  8
0
100
AcDbLine
 10
389.903
 20
122.36
 30
0.0
 11
390.136
 21
124.415
 31
0.0
  0
LINE
  5
47B
330
1D
100
AcDbEntity
  8
0
100
AcDbLine
 10
389.427
 20
201.8833
 30
0.0
 11
390.160428759665
 21
200.855451099891
 31
0.0
  0
LINE
  5
47C
330
1D
100
AcDbEntity
  8
0
100
AcDbLine
 10
389.596
 20
203.0352
 30
0.0
 11
390.159
 21
201.2558
 31
0.0
  0
LINE
  5
47D
330
1D
100
AcDbEntity
  8
0
100
AcDbLine
 10
389.582
 20
202.1315
 30
0.0
 11
390.341
 21
200.4571
 31
0.0
  0
LINE
  5
47E
330
1D
100
AcDbEntity
  8
0
100
AcDbLine
 10
389.192
 20
203.8789
 30
0.0
 11
389.582
 21
202.1315
 31
0.0
  0
LINE
  5
47F
330
1D
100
AcDbEntity
  8
0
100
AcDbLine
 10
388.195
 20
205.5493
 30
0.0
 11
388.613
 21
203.6767
 31
0.0
  0
LINE
  5
480
330
1D
100
AcDbEntity
  8
0
100
AcDbLine
 10
388.185
 20
207.4488
 30
0.0
 11
388.195
 21
205.5493
 31
0.0
  0
LINE
  5
481
330
1D
100
AcDbEntity
  8
0
100
AcDbLine
 10
388.185
 20
207.4488
 30
0.0
 11
388.584
 21
209.3233
 31
0.0
  0
LINE
  5
482
330
1D
100
AcDbEntity
  8
0
100
AcDbLine
 10
388.185
 20
207.4488
 30
0.0
 11
388.185
 21
217.0986
 31
0.0
  0
LINE
  5
483
330
1D
100
AcDbEntity
  8
0
100
AcDbLine
 10
389.183
 20
206.7452
 30
0.0
 11
389.183
 21
205.6513
 31
0.0
  0
LINE
  5
484
330
1D
100
AcDbEntity
  8
0
100
AcDbLine
 10
389.183
 20
206.7452
 30
0.0
 11
389.555
 21
208.4946
 31
0.0
  0
LINE
  5
485
330
1D
100
AcDbEntity
  8
0
100
AcDbLine
 10
389.444
 20
204.8627
 30
0.0
 11
389.708
 21
206.6822
 31
0.0
  0
LINE
  5
486
330
1D
100
AcDbEntity
  8
0
100
AcDbLine
 10
389.444
 20
204.8627
 30
0.0
 11
389.596
 21
203.0352
 31
0.0
  0
LINE
  5
487
330
1D
100
AcDbEntity
  8
0
100
AcDbLine
 10
389.183
 20
205.6513
 30
0.0
 11
389.555
 21
207.4008
 31
0.0
  0
LINE
  5
488
330
1D
100
AcDbEntity
  8
0
100
AcDbLine
 10
389.183
 20
205.6513
 30
0.0
 11
389.192
 21
203.8789
 31
0.0
  0
LINE
  5
489
330
1D
100
AcDbEntity
  8
0
100
AcDbLine
 10
389.183
 20
205.6513
 30
0.0
 11
389.183
 21
206.7452
 31
0.0
  0
LINE
  5
48A
330
1D
100
AcDbEntity
  8
0
100
AcDbLine
 10
388.185
 20
217.0986
 30
0.0
 11
388.185
 21
207.4488
 31
0.0
  0
LINE
  5
48B
330
1D
100
AcDbEntity
  8
0
100
AcDbLine
 10
388.185
 20
217.0986
 30
0.0
 11
388.584
 21
218.9731
 31
0.0
  0
LINE
  5
48C
330
1D
100
AcDbEntity
  8
0
100
AcDbLine
 10
388.584
 20
218.9731
 30
0.0
 11
389.38
 21
220.7715
 31
0.0
  0
LINE
  5
48D
330
1D
100
AcDbEntity
  8
0
100
AcDbLine
 10
389.38
 20
220.7715
 30
0.0
 11
390.551
 21
222.4459
 31
0.0
  0
LINE
  5
48E
330
1D
100
AcDbEntity
  8
0
100
AcDbLine
 10
389.38
 20
211.1218
 30
0.0
 11
390.551
 21
212.7961
 31
0.0
  0
LINE
  5
48F
330
1D
100
AcDbEntity
  8
0
100
AcDbLine
 10
388.584
 20
209.3233
 30
0.0
 11
389.38
 21
211.1218
 31
0.0
  0
LINE
  5
490
330
1D
100
AcDbEntity
  8
0
100
AcDbLine
 10
389.555
 20
208.4946
 30
0.0
 11
390.297
 21
210.174
 31
0.0
  0
LINE
  5
491
330
1D
100
AcDbEntity
  8
0
100
AcDbLine
 10
389.708
 20
206.6822
 30
0.0
 11
390.382
 21
208.4386
 31
0.0
  0
LINE
  5
492
330
1D
100
AcDbEntity
  8
0
100
AcDbLine
 10
389.555
 20
207.4008
 30
0.0
 11
390.297
 21
209.0801
 31
0.0
  0
LINE
  5
493
330
1D
100
AcDbEntity
  8
0
100
AcDbLine
 10
389.844
 20
204.3743
 30
0.0
 11
389.991
 21
206.1477
 31
0.0
  0
LINE
  5
494
330
1D
100
AcDbEntity
  8
0
100
AcDbLine
 10
389.844
 20
204.3743
 30
0.0
 11
390.1
 21
202.6069
 31
0.0
  0
LINE
  5
498
330
1D
100
AcDbEntity
  8
0
100
AcDbLine
 10
390.168530398287
 20
124.498169100234
 30
0.0
 11
390.376
 21
127.498
 31
0.0
  0
LINE
  5
499
330
1D
100
AcDbEntity
  8
0
100
AcDbLine
 10
390.136
 20
7.907
 30
0.0
 11
390.437
 21
6.016
 31
0.0
  0
LINE
  5
49A
330
1D
100
AcDbEntity
  8
0
100
AcDbLine
 10
390.159
 20
201.2558
 30
0.0
 11
391.118
 21
199.5794
 31
0.0
  0
LINE
  5
49B
330
1D
100
AcDbEntity
  8
0
100
AcDbLine
 10
390.1
 20
202.6069
 30
0.0
 11
390.754
 21
200.9015
 31
0.0
  0
LINE
  5
49E
330
1D
100
AcDbEntity
  8
0
100
AcDbLine
 10
389.991
 20
206.1477
 30
0.0
 11
390.539
 21
207.8751
 31
0.0
  0
LINE
  5
49F
330
1D
100
AcDbEntity
  8
0
100
AcDbLine
 10
389.572
 20
271.9288
 30
0.0
 11
392.667
 21
273.384
 31
0.0
  0
LINE
  5
4A1
330
1D
100
AcDbEntity
  8
0
100
AcDbLine
 10
388.883
 20
221.7633
 30
0.0
 11
390.196
 21
223.4047
 31
0.0
  0
LINE
  5
4A2
330
1D
100
AcDbEntity
  8
0
100
AcDbLine
 10
387.922
 20
212.4038
 30
0.0
 11
388.185
 21
211.917099479709
 31
0.0
  0
LINE
  5
4EA
330
1D
100
AcDbEntity
  8
0
100
AcDbLine
 10
383.52
 20
276.0632
 30
0.0
 11
386.366
 21
277.7985
 31
0.0
  0
LINE
  5
4EB
330
1D
100
AcDbEntity
  8
0
100
AcDbLine
 10
389.362
 20
279.2547
 30
0.0
 11
392.483
 21
280.4197
 31
0.0
  0
LINE
  5
4EC
330
1D
100
AcDbEntity
  8
0
100
AcDbLine
 10
386.366
 20
277.7985
 30
0.0
 11
389.362
 21
279.2547
 31
0.0
  0
LINE
  5
4ED
330
1D
100
AcDbEntity
  8
0
100
AcDbLine
 10
380.854
 20
274.0665
 30
0.0
 11
383.52
 21
276.0632
 31
0.0
  0
LINE
  5
4F4
330
1D
100
AcDbEntity
  8
0
100
AcDbLine
 10
390.437
 20
6.016
 30
0.0
 11
390.837
 21
4.589
 31
0.0
  0
LINE
  5
4F6
330
1D
100
AcDbEntity
  8
0
100
AcDbLine
 10
390.63
 20
131.662
 30
0.0
 11
390.954
 21
136.726
 31
0.0
  0
LINE
  5
4F7
330
1D
100
AcDbEntity
  8
0
100
AcDbLine
 10
390.515
 20
130.009
 30
0.0
 11
390.63
 21
131.662
 31
0.0
  0
LINE
  5
4F8
330
1D
100
AcDbEntity
  8
0
100
AcDbLine
 10
390.376
 20
127.498
 30
0.0
 11
390.515
 21
130.009
 31
0.0
  0
LINE
  5
4F9
330
1D
100
AcDbEntity
  8
0
100
AcDbLine
 10
390.341
 20
200.4571
 30
0.0
 11
391.15
 21
199.323625405405
 31
0.0
  0
LINE
  5
4FB
330
1D
100
AcDbEntity
  8
0
100
AcDbLine
 10
390.837
 20
4.589
 30
0.0
 11
391.272
 21
3.487
 31
0.0
  0
LINE
  5
4FD
330
1D
100
AcDbEntity
  8
0
100
AcDbLine
 10
390.954
 20
136.726
 30
0.0
 11
391.15
 21
144.501
 31
0.0
  0
LINE
  5
502
330
1D
100
AcDbEntity
  8
0
100
AcDbLine
 10
391.15
 20
144.501
 30
0.0
 11
391.15
 21
152.6986
 31
0.0
  0
LINE
  5
503
330
1D
100
AcDbEntity
  8
0
100
AcDbLine
 10
391.15
 20
152.6986
 30
0.0
 11
391.15
 21
144.501
 31
0.0
  0
LINE
  5
504
330
1D
100
AcDbEntity
  8
0
100
AcDbLine
 10
391.15
 20
152.6986
 30
0.0
 11
391.15
 21
160.8962
 31
0.0
  0
LINE
  5
505
330
1D
100
AcDbEntity
  8
0
100
AcDbLine
 10
391.15
 20
160.8962
 30
0.0
 11
391.15
 21
152.6986
 31
0.0
  0
LINE
  5
506
330
1D
100
AcDbEntity
  8
0
100
AcDbLine
 10
391.15
 20
160.8962
 30
0.0
 11
391.15
 21
173.7206
 31
0.0
  0
LINE
  5
507
330
1D
100
AcDbEntity
  8
0
100
AcDbLine
 10
391.15
 20
173.7206
 30
0.0
 11
391.15
 21
160.8962
 31
0.0
  0
LINE
  5
508
330
1D
100
AcDbEntity
  8
0
100
AcDbLine
 10
391.15
 20
173.7206
 30
0.0
 11
391.15
 21
189.4672
 31
0.0
  0
LINE
  5
50A
330
1D
100
AcDbEntity
  8
0
100
AcDbLine
 10
391.272
 20
3.487
 30
0.0
 11
391.83
 21
2.826
 31
0.0
  0
LINE
  5
515
330
1D
100
AcDbEntity
  8
0
100
AcDbLine
 10
391.15
 20
189.4672
 30
0.0
 11
391.15
 21
173.7206
 31
0.0
  0
LINE
  5
516
330
1D
100
AcDbEntity
  8
0
100
AcDbLine
 10
391.15
 20
189.4672
 30
0.0
 11
391.15
 21
211.5641
 31
0.0
  0
LINE
  5
51A
330
1D
100
AcDbEntity
  8
0
100
AcDbLine
 10
390.754
 20
200.9015
 30
0.0
 11
391.15
 21
200.289314757282
 31
0.0
  0
LINE
  5
51D
330
1D
100
AcDbEntity
  8
0
100
AcDbLine
 10
390.382
 20
208.4386
 30
0.0
 11
391.15
 21
209.627043773585
 31
0.0
  0
LINE
  5
51E
330
1D
100
AcDbEntity
  8
0
100
AcDbLine
 10
390.551
 20
222.4459
 30
0.0
 11
392.066
 21
223.9491
 31
0.0
  0
LINE
  5
51F
330
1D
100
AcDbEntity
  8
0
100
AcDbLine
 10
390.551
 20
212.7961
 30
0.0
 11
392.066
 21
214.2993
 31
0.0
  0
LINE
  5
520
330
1D
100
AcDbEntity
  8
0
100
AcDbLine
 10
390.297
 20
210.174
 30
0.0
 11
391.15
 21
211.393251509607
 31
0.0
  0
LINE
  5
521
330
1D
100
AcDbEntity
  8
0
100
AcDbLine
 10
390.297
 20
209.0801
 30
0.0
 11
391.15
 21
210.299351509607
 31
0.0
  0
LINE
  5
523
330
1D
100
AcDbEntity
  8
0
100
AcDbLine
 10
391.492
 20
212.2836
 30
0.0
 11
394.568
 21
213.0032
 31
0.0
  0
LINE
  5
524
330
1D
100
AcDbEntity
  8
0
100
AcDbLine
 10
391.15
 20
211.5641
 30
0.0
 11
391.15
 21
189.4672
 31
0.0
  0
LINE
  5
525
330
1D
100
AcDbEntity
  8
0
100
AcDbLine
 10
391.15
 20
211.5641
 30
0.0
 11
391.492
 21
212.2836
 31
0.0
  0
LINE
  5
527
330
1D
100
AcDbEntity
  8
0
100
AcDbLine
 10
390.539
 20
207.8751
 30
0.0
 11
391.15
 21
208.944875591398
 31
0.0
  0
LINE
  5
52A
330
1D
100
AcDbEntity
  8
0
100
AcDbLine
 10
391.83
 20
2.826
 30
0.0
 11
392.497
 21
2.313
 31
0.0
  0
LINE
  5
52B
330
1D
100
AcDbEntity
  8
0
100
AcDbLine
 10
392.497
 20
2.313
 30
0.0
 11
393.614
 21
1.725
 31
0.0
  0
LINE
  5
52F
330
1D
100
AcDbEntity
  8
0
100
AcDbLine
 10
393.614
 20
1.725
 30
0.0
 11
395.321
 21
1.137
 31
0.0
  0
LINE
  5
535
330
1D
100
AcDbEntity
  8
0
100
AcDbLine
 10
392.080231792835
 20
212.421211052706
 30
0.0
 11
392.804
 21
213.1394
 31
0.0
  0
LINE
  5
538
330
1D
100
AcDbEntity
  8
0
100
AcDbLine
 10
395.321
 20
1.137
 30
0.0
 11
397.625
 21
0.434
 31
0.0
  0
LINE
  5
53A
330
1D
100
AcDbEntity
  8
0
100
AcDbLine
 10
394.568
 20
213.0032
 30
0.0
 11
403.15
 21
213.7218
 31
0.0
  0
LINE
  5
53B
330
1D
100
AcDbEntity
  8
0
100
AcDbLine
 10
395.028297001579
 20
213.041742230871
 30
0.0
 11
396.577
 21
213.8319
 31
0.0
  0
LINE
  5
53C
330
1D
100
AcDbEntity
  8
0
100
AcDbLine
 10
393.947276983179
 20
212.857987944439
 30
0.0
 11
394.501
 21
213.2515
 31
0.0
  0
LINE
  5
53D
330
1D
100
AcDbEntity
  8
0
100
AcDbLine
 10
392.804
 20
213.1394
 30
0.0
 11
394.501
 21
214.3454
 31
0.0
  0
LINE
  5
53E
330
1D
100
AcDbEntity
  8
0
100
AcDbLine
 10
394.501
 20
213.2515
 30
0.0
 11
396.433
 21
214.2263
 31
0.0
  0
LINE
  5
542
330
1D
100
AcDbEntity
  8
0
100
AcDbLine
 10
397.625
 20
0.434
 30
0.0
 11
400.2
 21
0.179
 31
0.0
  0
LINE
  5
545
330
1D
100
AcDbEntity
  8
0
100
AcDbLine
 10
392.066
 20
223.9491
 30
0.0
 11
393.883
 21
225.2411
 31
0.0
  0
LINE
  5
546
330
1D
100
AcDbEntity
  8
0
100
AcDbLine
 10
393.883
 20
225.2411
 30
0.0
 11
395.954
 21
226.286
 31
0.0
  0
LINE
  5
547
330
1D
100
AcDbEntity
  8
0
100
AcDbLine
 10
393.883
 20
215.5914
 30
0.0
 11
395.954
 21
216.6372
 31
0.0
  0
LINE
  5
548
330
1D
100
AcDbEntity
  8
0
100
AcDbLine
 10
392.066
 20
214.2993
 30
0.0
 11
393.883
 21
215.5914
 31
0.0
  0
LINE
  5
549
330
1D
100
AcDbEntity
  8
0
100
AcDbLine
 10
396.577
 20
213.8319
 30
0.0
 11
398.766
 21
214.5665
 31
0.0
  0
LINE
  5
54A
330
1D
100
AcDbEntity
  8
0
100
AcDbLine
 10
395.954
 20
216.6372
 30
0.0
 11
398.219
 21
217.4068
 31
0.0
  0
LINE
  5
54B
330
1D
100
AcDbEntity
  8
0
100
AcDbLine
 10
396.433
 20
215.3201
 30
0.0
 11
398.549
 21
216.0387
 31
0.0
  0
LINE
  5
54C
330
1D
100
AcDbEntity
  8
0
100
AcDbLine
 10
396.433
 20
214.2263
 30
0.0
 11
398.549
 21
214.9458
 31
0.0
  0
LINE
  5
54D
330
1D
100
AcDbEntity
  8
0
100
AcDbLine
 10
394.501
 20
214.3454
 30
0.0
 11
396.433
 21
215.3201
 31
0.0
  0
LINE
  5
54F
330
1D
100
AcDbEntity
  8
0
100
AcDbLine
 10
391.828
 20
224.8678
 30
0.0
 11
393.738
 21
226.1179
 31
0.0
  0
LINE
  5
550
330
1D
100
AcDbEntity
  8
0
100
AcDbLine
 10
395.954
 20
226.286
 30
0.0
 11
398.219
 21
227.0556
 31
0.0
  0
LINE
  5
551
330
1D
100
AcDbEntity
  8
0
100
AcDbLine
 10
395.881
 20
227.1237
 30
0.0
 11
398.202
 21
227.8603
 31
0.0
  0
LINE
  5
552
330
1D
100
AcDbEntity
  8
0
100
AcDbLine
 10
393.738
 20
226.1179
 30
0.0
 11
395.881
 21
227.1237
 31
0.0
  0
LINE
  5
554
330
1D
100
AcDbEntity
  8
0
100
AcDbLine
 10
400.2
 20
0.179
 30
0.0
 11
403.15
 21
-0.074
 31
0.0
  0
LINE
  5
557
330
1D
100
AcDbEntity
  8
0
100
AcDbLine
 10
398.219
 20
227.0556
 30
0.0
 11
400.62
 21
227.53
 31
0.0
  0
LINE
  5
558
330
1D
100
AcDbEntity
  8
0
100
AcDbLine
 10
398.219
 20
217.4068
 30
0.0
 11
400.62
 21
217.8802
 31
0.0
  0
LINE
  5
559
330
1D
100
AcDbEntity
  8
0
100
AcDbLine
 10
398.549
 20
216.0387
 30
0.0
 11
400.789
 21
216.4811
 31
0.0
  0
LINE
  5
55A
330
1D
100
AcDbEntity
  8
0
100
AcDbLine
 10
398.766
 20
214.5665
 30
0.0
 11
401.089
 21
214.9989
 31
0.0
  0
LINE
  5
55C
330
1D
100
AcDbEntity
  8
0
100
AcDbLine
 10
398.549
 20
214.9458
 30
0.0
 11
400.789
 21
215.3872
 31
0.0
  0
LINE
  5
55E
330
1D
100
AcDbEntity
  8
0
100
AcDbLine
 10
400.62
 20
227.53
 30
0.0
 11
403.091
 21
227.6941
 31
0.0
  0
LINE
  5
55F
330
1D
100
AcDbEntity
  8
0
100
AcDbLine
 10
400.62
 20
217.8802
 30
0.0
 11
403.091
 21
218.0443
 31
0.0
  0
LINE
  5
560
330
1D
100
AcDbEntity
  8
0
100
AcDbLine
 10
400.789
 20
216.4811
 30
0.0
 11
403.095
 21
216.6342
 31
0.0
  0
LINE
  5
561
330
1D
100
AcDbEntity
  8
0
100
AcDbLine
 10
401.089
 20
214.9989
 30
0.0
 11
403.15
 21
215.0992
 31
0.0
  0
LINE
  5
563
330
1D
100
AcDbEntity
  8
0
100
AcDbLine
 10
400.789
 20
215.3872
 30
0.0
 11
403.095
 21
215.5403
 31
0.0
  0
LINE
  5
566
330
1D
100
AcDbEntity
  8
0
100
AcDbLine
 10
400.645
 20
228.3096
 30
0.0
 11
403.15
 21
228.4607
 31
0.0
  0
LINE
  5
567
330
1D
100
AcDbEntity
  8
0
100
AcDbLine
 10
398.202
 20
227.8603
 30
0.0
 11
400.645
 21
228.3096
 31
0.0
  0
LINE
  5
568
330
1D
100
AcDbEntity
  8
0
100
AcDbLine
 10
392.667
 20
273.384
 30
0.0
 11
395.915
 21
274.4559
 31
0.0
  0
LINE
  5
56A
330
1D
100
AcDbEntity
  8
0
100
AcDbLine
 10
395.915
 20
274.4559
 30
0.0
 11
399.268
 21
275.1284
 31
0.0
  0
LINE
  5
56E
330
1D
100
AcDbEntity
  8
0
100
AcDbLine
 10
403.091
 20
218.0443
 30
0.0
 11
403.15
 21
218.0408
 31
0.0
  0
LINE
  5
57B
330
1D
100
AcDbEntity
  8
0
100
AcDbLine
 10
403.15
 20
215.537
 30
0.0
 11
403.205
 21
215.5403
 31
0.0
  0
LINE
  5
62B
330
1D
100
AcDbEntity
  8
0
100
AcDbLine
 10
403.15
 20
216.6309
 30
0.0
 11
403.205
 21
216.6342
 31
0.0
  0
LINE
  5
62E
330
1D
100
AcDbEntity
  8
0
100
AcDbLine
 10
403.15
 20
218.0408
 30
0.0
 11
403.209
 21
218.0443
 31
0.0
  0
LINE
  5
641
330
1D
100
AcDbEntity
  8
0
100
AcDbLine
 10
403.15
 20
227.6906
 30
0.0
 11
403.209
 21
227.6941
 31
0.0
  0
LINE
  5
68E
330
1D
100
AcDbEntity
  8
0
100
AcDbLine
 10
403.095
 20
216.6342
 30
0.0
 11
403.15
 21
216.6309
 31
0.0
  0
LINE
  5
68F
330
1D
100
AcDbEntity
  8
0
100
AcDbLine
 10
403.095
 20
215.5403
 30
0.0
 11
403.15
 21
215.537
 31
0.0
  0
LINE
  5
690
330
1D
100
AcDbEntity
  8
0
100
AcDbLine
 10
403.091
 20
227.6941
 30
0.0
 11
403.15
 21
227.6906
 31
0.0
  0
LINE
  5
6A6
330
1D
100
AcDbEntity
  8
0
100
AcDbLine
 10
395.702
 20
281.2834
 30
0.0
 11
398.987
 21
281.8358
 31
0.0
  0
LINE
  5
6A7
330
1D
100
AcDbEntity
  8
0
100
AcDbLine
 10
392.483
 20
280.4197
 30
0.0
 11
395.702
 21
281.2834
 31
0.0
  0
LINE
  5
6C1
330
1D
100
AcDbEntity
  8
0
100
AcDbLine
 10
402.678
 20
275.3916
 30
0.0
 11
403.15
 21
275.371
 31
0.0
  0
LINE
  5
6C9
330
1D
100
AcDbEntity
  8
0
100
AcDbLine
 10
402.309
 20
282.074
 30
0.0
 11
403.15
 21
282.0543
 31
0.0
  0
LINE
  5
6CA
330
1D
100
AcDbEntity
  8
0
100
AcDbLine
 10
398.987
 20
281.8358
 30
0.0
 11
402.309
 21
282.074
 31
0.0
  0
LINE
  5
6CD
330
1D
100
AcDbEntity
  8
0
100
AcDbLine
 10
399.268
 20
275.1284
 30
0.0
 11
402.678
 21
275.3916
 31
0.0
  0
LINE
  5
6CE
330
1D
100
AcDbEntity
  8
0
100
AcDbLine
 10
390.196
 20
223.4047
 30
0.0
 11
391.828
 21
224.8678
 31
0.0
  0
LINE
  5
A59
330
1D
100
AcDbEntity
  8
0
100
AcDbLine
 10
164.7057
 20
56.15
 30
0.0
 11
164.8628
 21
53.862
 31
0.0
  0
LINE
  5
A5A
330
1D
100
AcDbEntity
  8
0
100
AcDbLine
 10
164.5687
 20
60.884
 30
0.0
 11
164.7057
 21
56.15
 31
0.0
  0
LINE
  5
A5B
330
1D
100
AcDbEntity
  8
0
100
AcDbLine
 10
164.5667
 20
60.995
 30
0.0
 11
164.7057
 21
56.15
 31
0.0
  0
LINE
  5
A5C
330
1D
100
AcDbEntity
  8
0
100
AcDbLine
 10
164.5667
 20
60.995
 30
0.0
 11
164.5687
 21
60.884
 31
0.0
  0
LINE
  5
A5D
330
1D
100
AcDbEntity
  8
0
100
AcDbLine
 10
165.8731
 20
48.007
 30
0.0
 11
166.4592
 21
46.186
 31
0.0
  0
LINE
  5
A5E
330
1D
100
AcDbEntity
  8
0
100
AcDbLine
 10
166.4592
 20
46.186
 30
0.0
 11
166.5643
 21
45.843
 31
0.0
  0
LINE
  5
A5F
330
1D
100
AcDbEntity
  8
0
100
AcDbLine
 10
165.4209
 20
49.9
 30
0.0
 11
165.8731
 21
48.007
 31
0.0
  0
LINE
  5
A60
330
1D
100
AcDbEntity
  8
0
100
AcDbLine
 10
166.5643
 20
45.843
 30
0.0
 11
167.6296
 21
43.416
 31
0.0
  0
LINE
  5
A61
330
1D
100
AcDbEntity
  8
0
100
AcDbLine
 10
167.6296
 20
43.416
 30
0.0
 11
168.4068
 21
42.073
 31
0.0
  0
LINE
  5
A62
330
1D
100
AcDbEntity
  8
0
100
AcDbLine
 10
164.8628
 20
53.862
 30
0.0
 11
165.4209
 21
49.9
 31
0.0
  0
LINE
  5
A63
330
1D
100
AcDbEntity
  8
0
100
AcDbLine
 10
168.4068
 20
42.073
 30
0.0
 11
169.287
 21
40.82
 31
0.0
  0
LINE
  5
A64
330
1D
100
AcDbEntity
  8
0
100
AcDbLine
 10
170.3123
 20
39.563
 30
0.0
 11
171.3866
 21
38.496
 31
0.0
  0
LINE
  5
A65
330
1D
100
AcDbEntity
  8
0
100
AcDbLine
 10
171.3866
 20
38.496
 30
0.0
 11
171.5947
 21
38.327
 31
0.0
  0
LINE
  5
A66
330
1D
100
AcDbEntity
  8
0
100
AcDbLine
 10
171.5947
 20
38.327
 30
0.0
 11
173.406
 21
36.904
 31
0.0
  0
LINE
  5
A67
330
1D
100
AcDbEntity
  8
0
100
AcDbLine
 10
182.203
 20
34.1
 30
0.0
 11
183.15
 21
34.074
 31
0.0
  0
LINE
  5
A68
330
1D
100
AcDbEntity
  8
0
100
AcDbLine
 10
181.328
 20
34.176
 30
0.0
 11
182.203
 21
34.1
 31
0.0
  0
LINE
  5
A69
330
1D
100
AcDbEntity
  8
0
100
AcDbLine
 10
177.736
 20
34.88
 30
0.0
 11
178.552
 21
34.632
 31
0.0
  0
LINE
  5
A6A
330
1D
100
AcDbEntity
  8
0
100
AcDbLine
 10
175.46
 20
35.741
 30
0.0
 11
177.736
 21
34.88
 31
0.0
  0
LINE
  5
A6B
330
1D
100
AcDbEntity
  8
0
100
AcDbLine
 10
178.552
 20
34.632
 30
0.0
 11
179.739
 21
34.428
 31
0.0
  0
LINE
  5
A6C
330
1D
100
AcDbEntity
  8
0
100
AcDbLine
 10
179.739
 20
34.428
 30
0.0
 11
180.244578886041
 21
34.347820088557
 31
0.0
  0
LINE
  5
A6D
330
1D
100
AcDbEntity
  8
0
100
AcDbLine
 10
179.739
 20
34.428
 30
0.0
 11
180.244578886041
 21
34.347820088557
 31
0.0
  0
LINE
  5
A6E
330
1D
100
AcDbEntity
  8
0
100
AcDbLine
 10
173.406
 20
36.904
 30
0.0
 11
175.46
 21
35.741
 31
0.0
  0
LINE
  5
A6F
330
1D
100
AcDbEntity
  8
0
100
AcDbLine
 10
169.3391
 20
40.732
 30
0.0
 11
170.3123
 21
39.563
 31
0.0
  0
LINE
  5
A70
330
1D
100
AcDbEntity
  8
0
100
AcDbLine
 10
169.287
 20
40.82
 30
0.0
 11
169.3391
 21
40.732
 31
0.0
  0
LINE
  5
A71
330
1D
100
AcDbEntity
  8
0
100
AcDbLine
 10
70.2623
 20
217.2771
 30
0.0
 11
73.1138
 21
217.074
 31
0.0
  0
LINE
  5
A72
330
1D
100
AcDbEntity
  8
0
100
AcDbLine
 10
62.0043
 20
219.4866
 30
0.0
 11
64.6825
 21
218.4894
 31
0.0
  0
LINE
  5
A73
330
1D
100
AcDbEntity
  8
0
100
AcDbLine
 10
67.4439
 20
217.7502
 30
0.0
 11
70.2623
 21
217.2771
 31
0.0
  0
LINE
  5
A74
330
1D
100
AcDbEntity
  8
0
100
AcDbLine
 10
64.6825
 20
218.4894
 30
0.0
 11
67.4439
 21
217.7502
 31
0.0
  0
LINE
  5
A75
330
1D
100
AcDbEntity
  8
0
100
AcDbLine
 10
78.8097
 20
217.4831
 30
0.0
 11
81.602
 21
218.0893
 31
0.0
  0
LINE
  5
A76
330
1D
100
AcDbEntity
  8
0
100
AcDbLine
 10
86.9525
 20
220.0848
 30
0.0
 11
89.4606
 21
221.4542
 31
0.0
  0
LINE
  5
A77
330
1D
100
AcDbEntity
  8
0
100
AcDbLine
 10
81.602
 20
218.0893
 30
0.0
 11
84.3253
 21
218.9595
 31
0.0
  0
LINE
  5
A78
330
1D
100
AcDbEntity
  8
0
100
AcDbLine
 10
81.602
 20
218.0893
 30
0.0
 11
84.3253
 21
218.9595
 31
0.0
  0
LINE
  5
A79
330
1D
100
AcDbEntity
  8
0
100
AcDbLine
 10
91.8274
 20
223.0546
 30
0.0
 11
94.0311
 21
224.8731
 31
0.0
  0
LINE
  5
A7A
330
1D
100
AcDbEntity
  8
0
100
AcDbLine
 10
56.9922
 20
222.2194
 30
0.0
 11
59.4332
 21
220.734
 31
0.0
  0
LINE
  5
A7B
330
1D
100
AcDbEntity
  8
0
100
AcDbLine
 10
159.5953
 20
220.7766
 30
0.0
 11
162.163
 21
218.6588
 31
0.0
  0
LINE
  5
A7C
330
1D
100
AcDbEntity
  8
0
100
AcDbLine
 10
52.5879
 20
225.8503
 30
0.0
 11
54.7035
 21
223.9308
 31
0.0
  0
LINE
  5
A7D
330
1D
100
AcDbEntity
  8
0
100
AcDbLine
 10
48.9515
 20
230.2485
 30
0.0
 11
50.6646
 21
227.9639
 31
0.0
  0
LINE
  5
A7E
330
1D
100
AcDbEntity
  8
0
100
AcDbLine
 10
50.6646
 20
227.9639
 30
0.0
 11
52.5879
 21
225.8503
 31
0.0
  0
LINE
  5
A7F
330
1D
100
AcDbEntity
  8
0
100
AcDbLine
 10
63.2028
 20
232.5951
 30
0.0
 11
69.4293
 21
232.2671
 31
0.0
  0
LINE
  5
A80
330
1D
100
AcDbEntity
  8
0
100
AcDbLine
 10
71.5829
 20
232.184
 30
0.0
 11
72.606437412695
 21
232.160786485755
 31
0.0
  0
LINE
  5
A81
330
1D
100
AcDbEntity
  8
0
100
AcDbLine
 10
69.4293
 20
232.2671
 30
0.0
 11
71.5829
 21
232.184
 31
0.0
  0
LINE
  5
A82
330
1D
100
AcDbEntity
  8
0
100
AcDbLine
 10
72.606437412699
 20
232.160786485755
 30
0.0
 11
73.341
 21
232.085
 31
0.0
  0
LINE
  5
A83
330
1D
100
AcDbEntity
  8
0
100
AcDbLine
 10
54.7035
 20
223.9308
 30
0.0
 11
56.9922
 21
222.2194
 31
0.0
  0
LINE
  5
A84
330
1D
100
AcDbEntity
  8
0
100
AcDbLine
 10
53.1446
 20
233.1413
 30
0.0
 11
60.4344
 21
232.7472
 31
0.0
  0
LINE
  5
A85
330
1D
100
AcDbEntity
  8
0
100
AcDbLine
 10
1.968
 20
240.2482
 30
0.0
 11
2.889
 21
239.1449
 31
0.0
  0
LINE
  5
A86
330
1D
100
AcDbEntity
  8
0
100
AcDbLine
 10
1.208
 20
241.4675
 30
0.0
 11
1.968
 21
240.2482
 31
0.0
  0
LINE
  5
A87
330
1D
100
AcDbEntity
  8
0
100
AcDbLine
 10
7.6695
 20
236.2201
 30
0.0
 11
8.8469
 21
235.867
 31
0.0
  0
LINE
  5
A88
330
1D
100
AcDbEntity
  8
0
100
AcDbLine
 10
6.5401
 20
236.6552
 30
0.0
 11
7.6695
 21
236.2201
 31
0.0
  0
LINE
  5
A89
330
1D
100
AcDbEntity
  8
0
100
AcDbLine
 10
11.4681
 20
235.3469
 30
0.0
 11
13.6197
 21
235.1008
 31
0.0
  0
LINE
  5
A8A
330
1D
100
AcDbEntity
  8
0
100
AcDbLine
 10
10.1405
 20
235.5719
 30
0.0
 11
11.4681
 21
235.3469
 31
0.0
  0
LINE
  5
A8B
330
1D
100
AcDbEntity
  8
0
100
AcDbLine
 10
8.8469
 20
235.867
 30
0.0
 11
10.1405
 21
235.5719
 31
0.0
  0
LINE
  5
A8C
330
1D
100
AcDbEntity
  8
0
100
AcDbLine
 10
18.0491
 20
234.8287
 30
0.0
 11
35.9417
 21
233.9815
 31
0.0
  0
LINE
  5
A8D
330
1D
100
AcDbEntity
  8
0
100
AcDbLine
 10
13.6197
 20
235.1008
 30
0.0
 11
15.0815
 21
234.9888
 31
0.0
  0
LINE
  5
A8E
330
1D
100
AcDbEntity
  8
0
100
AcDbLine
 10
15.0815
 20
234.9888
 30
0.0
 11
18.0491
 21
234.8287
 31
0.0
  0
LINE
  5
A8F
330
1D
100
AcDbEntity
  8
0
100
AcDbLine
 10
3.681
 20
238.4047
 30
0.0
 11
4.5507
 21
237.7445
 31
0.0
  0
LINE
  5
A90
330
1D
100
AcDbEntity
  8
0
100
AcDbLine
 10
4.5507
 20
237.7445
 30
0.0
 11
5.5139
 21
237.1564
 31
0.0
  0
LINE
  5
A91
330
1D
100
AcDbEntity
  8
0
100
AcDbLine
 10
2.889
 20
239.1449
 30
0.0
 11
3.681
 21
238.4047
 31
0.0
  0
LINE
  5
A92
330
1D
100
AcDbEntity
  8
0
100
AcDbLine
 10
5.5139
 20
237.1564
 30
0.0
 11
6.5401
 21
236.6552
 31
0.0
  0
LINE
  5
A93
330
1D
100
AcDbEntity
  8
0
100
AcDbLine
 10
0.614
 20
242.7839
 30
0.0
 11
1.208
 21
241.4675
 31
0.0
  0
LINE
  5
A94
330
1D
100
AcDbEntity
  8
0
100
AcDbLine
 10
0.278
 20
243.8291
 30
0.0
 11
0.614
 21
242.7839
 31
0.0
  0
LINE
  5
A95
330
1D
100
AcDbEntity
  8
0
100
AcDbLine
 10
47.097828334953
 20
233.438721758369
 30
0.0
 11
47.4637
 21
232.6872
 31
0.0
  0
LINE
  5
A96
330
1D
100
AcDbEntity
  8
0
100
AcDbLine
 10
60.4344
 20
232.7472
 30
0.0
 11
63.2028
 21
232.5951
 31
0.0
  0
LINE
  5
A97
330
1D
100
AcDbEntity
  8
0
100
AcDbLine
 10
0.038
 20
244.9054
 30
0.0
 11
0.278
 21
243.8291
 31
0.0
  0
LINE
  5
A98
330
1D
100
AcDbEntity
  8
0
100
AcDbLine
 10
-0.103
 20
245.9847
 30
0.0
 11
0.038
 21
244.9054
 31
0.0
  0
LINE
  5
A99
330
1D
100
AcDbEntity
  8
0
100
AcDbLine
 10
47.4637
 20
232.6872
 30
0.0
 11
48.9515
 21
230.2485
 31
0.0
  0
LINE
  5
A9A
330
1D
100
AcDbEntity
  8
0
100
AcDbLine
 10
73.341
 20
232.085
 30
0.0
 11
75.3745
 21
232.152
 31
0.0
  0
LINE
  5
A9B
330
1D
100
AcDbEntity
  8
0
100
AcDbLine
 10
75.3745
 20
232.152
 30
0.0
 11
77.3689
 21
232.4911
 31
0.0
  0
LINE
  5
A9C
330
1D
100
AcDbEntity
  8
0
100
AcDbLine
 10
79.7919
 20
233.3053
 30
0.0
 11
81.1155
 21
233.9425
 31
0.0
  0
LINE
  5
A9D
330
1D
100
AcDbEntity
  8
0
100
AcDbLine
 10
79.2943
 20
233.0923
 30
0.0
 11
79.7919
 21
233.3053
 31
0.0
  0
LINE
  5
A9E
330
1D
100
AcDbEntity
  8
0
100
AcDbLine
 10
77.3689
 20
232.4911
 30
0.0
 11
79.2943
 21
233.0923
 31
0.0
  0
LINE
  5
A9F
330
1D
100
AcDbEntity
  8
0
100
AcDbLine
 10
81.1155
 20
233.9425
 30
0.0
 11
82.7995
 21
235.0228
 31
0.0
  0
LINE
  5
AA0
330
1D
100
AcDbEntity
  8
0
100
AcDbLine
 10
82.7995
 20
235.0228
 30
0.0
 11
84.3203
 21
236.3131
 31
0.0
  0
LINE
  5
AA1
330
1D
100
AcDbEntity
  8
0
100
AcDbLine
 10
84.3203
 20
236.3131
 30
0.0
 11
85.654
 21
237.7885
 31
0.0
  0
LINE
  5
AA2
330
1D
100
AcDbEntity
  8
0
100
AcDbLine
 10
86.261158105565
 20
238.670632610933
 30
0.0
 11
86.2947
 21
238.7158
 31
0.0
  0
LINE
  5
AA3
330
1D
100
AcDbEntity
  8
0
100
AcDbLine
 10
85.654
 20
237.7885
 30
0.0
 11
86.7673
 21
239.406
 31
0.0
  0
LINE
  5
AA4
330
1D
100
AcDbEntity
  8
0
100
AcDbLine
 10
86.7673
 20
239.406
 30
0.0
 11
87.6584
 21
241.1514
 31
0.0
  0
LINE
  5
AA5
330
1D
100
AcDbEntity
  8
0
100
AcDbLine
 10
-0.15
 20
247.074
 30
0.0
 11
-0.103
 21
245.9847
 31
0.0
  0
LINE
  5
AA6
330
1D
100
AcDbEntity
  8
0
100
AcDbLine
 10
87.6584
 20
241.1514
 30
0.0
 11
88.3132
 21
242.9949
 31
0.0
  0
LINE
  5
AA7
330
1D
100
AcDbEntity
  8
0
100
AcDbLine
 10
88.3132
 20
242.9949
 30
0.0
 11
88.7217
 21
244.9064
 31
0.0
  0
LINE
  5
AA8
330
1D
100
AcDbEntity
  8
0
100
AcDbLine
 10
94.0311
 20
224.8731
 30
0.0
 11
96.0525
 21
226.8926
 31
0.0
  0
LINE
  5
AA9
330
1D
100
AcDbEntity
  8
0
100
AcDbLine
 10
100.8424
 20
233.9675
 30
0.0
 11
101.9667
 21
236.5922
 31
0.0
  0
LINE
  5
AAA
330
1D
100
AcDbEntity
  8
0
100
AcDbLine
 10
96.0525
 20
226.8926
 30
0.0
 11
97.8718
 21
229.0952
 31
0.0
  0
LINE
  5
AAB
330
1D
100
AcDbEntity
  8
0
100
AcDbLine
 10
103.7829
 20
244.9394
 30
0.0
 11
103.8331
 21
247.074
 31
0.0
  0
LINE
  5
AAC
330
1D
100
AcDbEntity
  8
0
100
AcDbLine
 10
101.9667
 20
236.5922
 30
0.0
 11
102.8368
 21
239.3129
 31
0.0
  0
LINE
  5
AAD
330
1D
100
AcDbEntity
  8
0
100
AcDbLine
 10
88.7217
 20
244.9064
 30
0.0
 11
88.8779
 21
246.8529
 31
0.0
  0
LINE
  5
AAE
330
1D
100
AcDbEntity
  8
0
100
AcDbLine
 10
88.8779
 20
246.8529
 30
0.0
 11
88.8799
 21
247.074
 31
0.0
  0
LINE
  5
AAF
330
1D
100
AcDbEntity
  8
0
100
AcDbLine
 10
148.6231
 20
240.8434
 30
0.0
 11
149.3313
 21
237.5933
 31
0.0
  0
LINE
  5
AB0
330
1D
100
AcDbEntity
  8
0
100
AcDbLine
 10
148.228
 20
244.1455
 30
0.0
 11
148.6231
 21
240.8434
 31
0.0
  0
LINE
  5
AB1
330
1D
100
AcDbEntity
  8
0
100
AcDbLine
 10
148.3881
 20
250.7875
 30
0.0
 11
148.9412
 21
254.0676
 31
0.0
  0
LINE
  5
AB2
330
1D
100
AcDbEntity
  8
0
100
AcDbLine
 10
148.15
 20
247.4705
 30
0.0
 11
148.228
 21
244.1455
 31
0.0
  0
LINE
  5
AB3
330
1D
100
AcDbEntity
  8
0
100
AcDbLine
 10
148.15
 20
247.4705
 30
0.0
 11
148.3881
 21
250.7875
 31
0.0
  0
LINE
  5
AB4
330
1D
100
AcDbEntity
  8
0
100
AcDbLine
 10
149.3313
 20
237.5933
 30
0.0
 11
150.3446
 21
234.4251
 31
0.0
  0
LINE
  5
AB5
330
1D
100
AcDbEntity
  8
0
100
AcDbLine
 10
150.3446
 20
234.4251
 30
0.0
 11
151.656
 21
231.3677
 31
0.0
  0
LINE
  5
AB6
330
1D
100
AcDbEntity
  8
0
100
AcDbLine
 10
149.8045
 20
257.2797
 30
0.0
 11
150.9688
 21
260.3951
 31
0.0
  0
LINE
  5
AB7
330
1D
100
AcDbEntity
  8
0
100
AcDbLine
 10
155.119
 20
225.6932
 30
0.0
 11
157.2396
 21
223.129
 31
0.0
  0
LINE
  5
AB8
330
1D
100
AcDbEntity
  8
0
100
AcDbLine
 10
153.2515
 20
228.4481
 30
0.0
 11
155.119
 21
225.6932
 31
0.0
  0
LINE
  5
AB9
330
1D
100
AcDbEntity
  8
0
100
AcDbLine
 10
151.656
 20
231.3677
 30
0.0
 11
153.2515
 21
228.4481
 31
0.0
  0
LINE
  5
ABA
330
1D
100
AcDbEntity
  8
0
100
AcDbLine
 10
150.9688
 20
260.3951
 30
0.0
 11
152.4262
 21
263.3866
 31
0.0
  0
LINE
  5
ABB
330
1D
100
AcDbEntity
  8
0
100
AcDbLine
 10
154.1607
 20
266.2263
 30
0.0
 11
156.1573
 21
268.8873
 31
0.0
  0
LINE
  5
ABC
330
1D
100
AcDbEntity
  8
0
100
AcDbLine
 10
152.4262
 20
263.3866
 30
0.0
 11
154.1607
 21
266.2263
 31
0.0
  0
LINE
  5
ABD
330
1D
100
AcDbEntity
  8
0
100
AcDbLine
 10
148.9412
 20
254.0676
 30
0.0
 11
149.8045
 21
257.2797
 31
0.0
  0
LINE
  5
ABE
330
1D
100
AcDbEntity
  8
0
100
AcDbLine
 10
157.2396
 20
223.129
 30
0.0
 11
159.5953
 21
220.7766
 31
0.0
  0
LINE
  5
ABF
330
1D
100
AcDbEntity
  8
0
100
AcDbLine
 10
161.9039
 20
246.0087
 30
0.0
 11
162.289
 21
212.3992
 31
0.0
  0
LINE
  5
AC0
330
1D
100
AcDbEntity
  8
0
100
AcDbLine
 10
160.6316
 20
243.0521
 30
0.0
 11
161.1857
 21
240.8874
 31
0.0
  0
LINE
  5
AC1
330
1D
100
AcDbEntity
  8
0
100
AcDbLine
 10
161.1857
 20
240.8874
 30
0.0
 11
161.824426511814
 21
239.118845100345
 31
0.0
  0
LINE
  5
AC2
330
1D
100
AcDbEntity
  8
0
100
AcDbLine
 10
160.2875
 20
245.2558
 30
0.0
 11
160.6316
 21
243.0521
 31
0.0
  0
LINE
  5
AC3
330
1D
100
AcDbEntity
  8
0
100
AcDbLine
 10
160.2124
 20
246.0876
 30
0.0
 11
160.2875
 21
245.2558
 31
0.0
  0
LINE
  5
AC4
330
1D
100
AcDbEntity
  8
0
100
AcDbLine
 10
162.289
 20
212.3992
 30
0.0
 11
162.3371
 21
208.3952
 31
0.0
  0
LINE
  5
AC5
330
1D
100
AcDbEntity
  8
0
100
AcDbLine
 10
162.3371
 20
208.3952
 30
0.0
 11
162.3621
 21
206.4022
 31
0.0
  0
LINE
  5
AC6
330
1D
100
AcDbEntity
  8
0
100
AcDbLine
 10
162.163
 20
218.6588
 30
0.0
 11
162.217700432827
 21
218.621850747563
 31
0.0
  0
LINE
  5
AC7
330
1D
100
AcDbEntity
  8
0
100
AcDbLine
 10
160.5265
 20
251.9887
 30
0.0
 11
160.9427
 21
253.8489
 31
0.0
  0
LINE
  5
AC8
330
1D
100
AcDbEntity
  8
0
100
AcDbLine
 10
160.9427
 20
253.8489
 30
0.0
 11
161.6208
 21
255.9677
 31
0.0
  0
LINE
  5
AC9
330
1D
100
AcDbEntity
  8
0
100
AcDbLine
 10
161.6208
 20
255.9677
 30
0.0
 11
162.5001
 21
258.0096
 31
0.0
  0
LINE
  5
ACA
330
1D
100
AcDbEntity
  8
0
100
AcDbLine
 10
160.2635
 20
250.1015
 30
0.0
 11
160.5265
 21
251.9887
 31
0.0
  0
LINE
  5
ACB
330
1D
100
AcDbEntity
  8
0
100
AcDbLine
 10
160.1544
 20
248.1984
 30
0.0
 11
160.2635
 21
250.1015
 31
0.0
  0
LINE
  5
ACC
330
1D
100
AcDbEntity
  8
0
100
AcDbLine
 10
160.1544
 20
248.1984
 30
0.0
 11
160.2124
 21
246.0876
 31
0.0
  0
LINE
  5
ACD
330
1D
100
AcDbEntity
  8
0
100
AcDbLine
 10
162.3621
 20
206.4022
 30
0.0
 11
162.4171
 21
201.86
 31
0.0
  0
LINE
  5
ACE
330
1D
100
AcDbEntity
  8
0
100
AcDbLine
 10
162.5001
 20
258.0096
 30
0.0
 11
163.5754
 21
259.9537
 31
0.0
  0
LINE
  5
ACF
330
1D
100
AcDbEntity
  8
0
100
AcDbLine
 10
163.5754
 20
259.9537
 30
0.0
 11
164.8368
 21
261.782
 31
0.0
  0
LINE
  5
AD0
330
1D
100
AcDbEntity
  8
0
100
AcDbLine
 10
166.2712
 20
263.4754
 30
0.0
 11
167.8656
 21
265.0191
 31
0.0
  0
LINE
  5
AD1
330
1D
100
AcDbEntity
  8
0
100
AcDbLine
 10
172.8271
 20
265.9357
 30
0.0
 11
175.751
 21
267.2568
 31
0.0
  0
LINE
  5
AD2
330
1D
100
AcDbEntity
  8
0
100
AcDbLine
 10
167.8656
 20
265.0191
 30
0.0
 11
169.6181
 21
266.407
 31
0.0
  0
LINE
  5
AD3
330
1D
100
AcDbEntity
  8
0
100
AcDbLine
 10
164.8368
 20
261.782
 30
0.0
 11
166.2712
 21
263.4754
 31
0.0
  0
LINE
  5
AD4
330
1D
100
AcDbEntity
  8
0
100
AcDbLine
 10
175.751
 20
267.2568
 30
0.0
 11
178.817
 21
268.2213
 31
0.0
  0
LINE
  5
AD5
330
1D
100
AcDbEntity
  8
0
100
AcDbLine
 10
178.817
 20
268.2213
 30
0.0
 11
182.04
 21
268.6127
 31
0.0
  0
LINE
  5
AD6
330
1D
100
AcDbEntity
  8
0
100
AcDbLine
 10
171.5007
 20
267.6162
 30
0.0
 11
173.491
 21
268.6327
 31
0.0
  0
LINE
  5
AD7
330
1D
100
AcDbEntity
  8
0
100
AcDbLine
 10
169.6181
 20
266.407
 30
0.0
 11
171.5007
 21
267.6162
 31
0.0
  0
LINE
  5
AD8
330
1D
100
AcDbEntity
  8
0
100
AcDbLine
 10
162.4171
 20
201.86
 30
0.0
 11
163.4934
 21
124.142
 31
0.0
  0
LINE
  5
AD9
330
1D
100
AcDbEntity
  8
0
100
AcDbLine
 10
163.4934
 20
124.142
 30
0.0
 11
164.5667
 21
60.995
 31
0.0
  0
LINE
  5
ADA
330
1D
100
AcDbEntity
  8
0
100
AcDbLine
 10
182.04
 20
268.6127
 30
0.0
 11
183.15
 21
268.6397
 31
0.0
  0
LINE
  5
ADB
330
1D
100
AcDbEntity
  8
0
100
AcDbLine
 10
173.491
 20
268.6327
 30
0.0
 11
175.57
 21
269.4515
 31
0.0
  0
LINE
  5
ADC
330
1D
100
AcDbEntity
  8
0
100
AcDbLine
 10
156.1573
 20
268.8873
 30
0.0
 11
158.3989
 21
271.3486
 31
0.0
  0
LINE
  5
ADD
330
1D
100
AcDbEntity
  8
0
100
AcDbLine
 10
180.663
 20
268.794358895706
 30
0.0
 11
180.663
 21
284.7745
 31
0.0
  0
LINE
  5
ADE
330
1D
100
AcDbEntity
  8
0
100
AcDbLine
 10
181.853
 20
268.8614
 30
0.0
 11
183.15
 21
268.8903
 31
0.0
  0
LINE
  5
ADF
330
1D
100
AcDbEntity
  8
0
100
AcDbLine
 10
181.201
 20
268.8264
 30
0.0
 11
181.853
 21
268.8614
 31
0.0
  0
LINE
  5
AE0
330
1D
100
AcDbEntity
  8
0
100
AcDbLine
 10
180.725
 20
268.7955
 30
0.0
 11
181.201
 21
268.8264
 31
0.0
  0
LINE
  5
AE1
330
1D
100
AcDbEntity
  8
0
100
AcDbLine
 10
158.3989
 20
271.3486
 30
0.0
 11
160.8646
 21
273.5843
 31
0.0
  0
LINE
  5
AE2
330
1D
100
AcDbEntity
  8
0
100
AcDbLine
 10
163.5324
 20
275.5773
 30
0.0
 11
166.3772
 21
277.3077
 31
0.0
  0
LINE
  5
AE3
330
1D
100
AcDbEntity
  8
0
100
AcDbLine
 10
160.8646
 20
273.5843
 30
0.0
 11
163.5324
 21
275.5773
 31
0.0
  0
LINE
  5
AE4
330
1D
100
AcDbEntity
  8
0
100
AcDbLine
 10
166.3772
 20
277.3077
 30
0.0
 11
169.3751
 21
278.7605
 31
0.0
  0
LINE
  5
AE5
330
1D
100
AcDbEntity
  8
0
100
AcDbLine
 10
175.715
 20
280.7825
 30
0.0
 11
179.0
 21
281.3326
 31
0.0
  0
LINE
  5
AE6
330
1D
100
AcDbEntity
  8
0
100
AcDbLine
 10
172.497
 20
279.9217
 30
0.0
 11
175.715
 21
280.7825
 31
0.0
  0
LINE
  5
AE7
330
1D
100
AcDbEntity
  8
0
100
AcDbLine
 10
169.3751
 20
278.7605
 30
0.0
 11
172.497
 21
279.9217
 31
0.0
  0
LINE
  5
AE8
330
1D
100
AcDbEntity
  8
0
100
AcDbLine
 10
180.703
 20
284.9242
 30
0.0
 11
180.813
 21
285.0341
 31
0.0
  0
LINE
  5
AE9
330
1D
100
AcDbEntity
  8
0
100
AcDbLine
 10
180.813
 20
285.0341
 30
0.0
 11
180.952
 21
285.074
 31
0.0
  0
LINE
  5
AEA
330
1D
100
AcDbEntity
  8
0
100
AcDbLine
 10
180.952
 20
285.074
 30
0.0
 11
181.046
 21
285.074
 31
0.0
  0
LINE
  5
AEB
330
1D
100
AcDbEntity
  8
0
100
AcDbLine
 10
181.046
 20
285.074
 30
0.0
 11
181.262
 21
285.074
 31
0.0
  0
LINE
  5
AEC
330
1D
100
AcDbEntity
  8
0
100
AcDbLine
 10
181.262
 20
285.074
 30
0.0
 11
181.587
 21
285.074
 31
0.0
  0
LINE
  5
AED
330
1D
100
AcDbEntity
  8
0
100
AcDbLine
 10
181.587
 20
285.074
 30
0.0
 11
182.003
 21
285.074
 31
0.0
  0
LINE
  5
AEE
330
1D
100
AcDbEntity
  8
0
100
AcDbLine
 10
183.007
 20
285.074
 30
0.0
 11
183.15
 21
285.074
 31
0.0
  0
LINE
  5
AEF
330
1D
100
AcDbEntity
  8
0
100
AcDbLine
 10
182.486
 20
285.074
 30
0.0
 11
183.007
 21
285.074
 31
0.0
  0
LINE
  5
AF0
330
1D
100
AcDbEntity
  8
0
100
AcDbLine
 10
182.003
 20
285.074
 30
0.0
 11
182.486
 21
285.074
 31
0.0
  0
LINE
  5
AF1
330
1D
100
AcDbEntity
  8
0
100
AcDbLine
 10
182.003
 20
285.074
 30
0.0
 11
183.007
 21
285.074
 31
0.0
  0
LINE
  5
AF2
330
1D
100
AcDbEntity
  8
0
100
AcDbLine
 10
180.663
 20
284.7745
 30
0.0
 11
180.663
 21
268.794358895706
 31
0.0
  0
LINE
  5
AF3
330
1D
100
AcDbEntity
  8
0
100
AcDbLine
 10
180.663
 20
284.7745
 30
0.0
 11
180.703
 21
284.9242
 31
0.0
  0
LINE
  5
AF4
330
1D
100
AcDbEntity
  8
0
100
AcDbLine
 10
179.0
 20
281.3326
 30
0.0
 11
180.663
 21
281.451021209386
 31
0.0
  0
LINE
  5
AF5
330
1D
100
AcDbEntity
  8
0
100
AcDbLine
 10
179.909
 20
270.4749
 30
0.0
 11
180.663
 21
270.529841259564
 31
0.0
  0
LINE
  5
AF6
330
1D
100
AcDbEntity
  8
0
100
AcDbLine
 10
177.716
 20
270.0665
 30
0.0
 11
179.909
 21
270.4749
 31
0.0
  0
LINE
  5
AF7
330
1D
100
AcDbEntity
  8
0
100
AcDbLine
 10
175.57
 20
269.4515
 30
0.0
 11
177.716
 21
270.0665
 31
0.0
  0
LINE
  5
AF8
330
1D
100
AcDbEntity
  8
0
100
AcDbLine
 10
181.328
 20
34.176
 30
0.0
 11
180.244578886041
 21
34.347820088557
 31
0.0
  0
LINE
  5
AF9
330
1D
100
AcDbEntity
  8
0
100
AcDbLine
 10
161.9039
 20
246.0087
 30
0.0
 11
162.479499302665
 21
250.246860846621
 31
0.0
  0
LINE
  5
AFA
330
1D
100
AcDbEntity
  8
0
100
AcDbLine
 10
162.479499302665
 20
250.246860846621
 30
0.0
 11
163.527762245268
 21
254.539747182996
 31
0.0
  0
LINE
  5
AFB
330
1D
100
AcDbEntity
  8
0
100
AcDbLine
 10
163.527762245268
 20
254.539747182996
 30
0.0
 11
165.125115300663
 21
258.133791557635
 31
0.0
  0
LINE
  5
AFC
330
1D
100
AcDbEntity
  8
0
100
AcDbLine
 10
165.125115300663
 20
258.133791557635
 30
0.0
 11
167.72081401568
 21
261.777753215255
 31
0.0
  0
LINE
  5
AFD
330
1D
100
AcDbEntity
  8
0
100
AcDbLine
 10
167.72081401568
 20
261.777753215255
 30
0.0
 11
170.017009032811
 21
264.024030949405
 31
0.0
  0
LINE
  5
AFE
330
1D
100
AcDbEntity
  8
0
100
AcDbLine
 10
170.017009032811
 20
264.024030949405
 30
0.0
 11
172.8271
 21
265.9357
 31
0.0
  0
LINE
  5
AFF
330
1D
100
AcDbEntity
  8
0
100
AcDbLine
 10
59.4332
 20
220.734
 30
0.0
 11
62.0043
 21
219.4866
 31
0.0
  0
LINE
  5
B00
330
1D
100
AcDbEntity
  8
0
100
AcDbLine
 10
73.1138
 20
217.074
 30
0.0
 11
78.8097
 21
217.4831
 31
0.0
  0
LINE
  5
B01
330
1D
100
AcDbEntity
  8
0
100
AcDbLine
 10
84.3253
 20
218.9595
 30
0.0
 11
86.9525
 21
220.0848
 31
0.0
  0
LINE
  5
B02
330
1D
100
AcDbEntity
  8
0
100
AcDbLine
 10
89.4606
 20
221.4542
 30
0.0
 11
91.8274
 21
223.0546
 31
0.0
  0
LINE
  5
B03
330
1D
100
AcDbEntity
  8
0
100
AcDbLine
 10
97.8718
 20
229.0952
 30
0.0
 11
100.8424
 21
233.9675
 31
0.0
  0
LINE
  5
B04
330
1D
100
AcDbEntity
  8
0
100
AcDbLine
 10
102.8368
 20
239.3129
 30
0.0
 11
103.7829
 21
244.9394
 31
0.0
  0
LINE
  5
B05
330
1D
100
AcDbEntity
  8
0
100
AcDbLine
 10
35.9417
 20
233.9815
 30
0.0
 11
53.1446
 21
233.1413
 31
0.0
  0
LINE
  5
B06
330
1D
100
AcDbEntity
  8
0
100
AcDbLine
 10
67.4439
 20
276.3978
 30
0.0
 11
70.2623
 21
276.8709
 31
0.0
  0
LINE
  5
B07
330
1D
100
AcDbEntity
  8
0
100
AcDbLine
 10
73.1138
 20
277.074
 30
0.0
 11
78.8097
 21
276.6649
 31
0.0
  0
LINE
  5
B08
330
1D
100
AcDbEntity
  8
0
100
AcDbLine
 10
70.2623
 20
276.8709
 30
0.0
 11
73.1138
 21
277.074
 31
0.0
  0
LINE
  5
B09
330
1D
100
AcDbEntity
  8
0
100
AcDbLine
 10
89.4606
 20
272.6938
 30
0.0
 11
91.8274
 21
271.0934
 31
0.0
  0
LINE
  5
B0A
330
1D
100
AcDbEntity
  8
0
100
AcDbLine
 10
35.9417
 20
260.1665
 30
0.0
 11
53.1446
 21
261.0067
 31
0.0
  0
LINE
  5
B0B
330
1D
100
AcDbEntity
  8
0
100
AcDbLine
 10
18.0491
 20
259.3193
 30
0.0
 11
35.9417
 21
260.1665
 31
0.0
  0
LINE
  5
B0C
330
1D
100
AcDbEntity
  8
0
100
AcDbLine
 10
1.208
 20
252.6805
 30
0.0
 11
1.968
 21
253.8998
 31
0.0
  0
LINE
  5
B0D
330
1D
100
AcDbEntity
  8
0
100
AcDbLine
 10
10.1405
 20
258.5761
 30
0.0
 11
11.4681
 21
258.8011
 31
0.0
  0
LINE
  5
B0E
330
1D
100
AcDbEntity
  8
0
100
AcDbLine
 10
5.5139
 20
256.9916
 30
0.0
 11
6.5401
 21
257.4928
 31
0.0
  0
LINE
  5
B0F
330
1D
100
AcDbEntity
  8
0
100
AcDbLine
 10
1.968
 20
253.8998
 30
0.0
 11
2.889
 21
255.0031
 31
0.0
  0
LINE
  5
B10
330
1D
100
AcDbEntity
  8
0
100
AcDbLine
 10
3.681
 20
255.7433
 30
0.0
 11
4.5507
 21
256.4035
 31
0.0
  0
LINE
  5
B11
330
1D
100
AcDbEntity
  8
0
100
AcDbLine
 10
4.5507
 20
256.4035
 30
0.0
 11
5.5139
 21
256.9916
 31
0.0
  0
LINE
  5
B12
330
1D
100
AcDbEntity
  8
0
100
AcDbLine
 10
2.889
 20
255.0031
 30
0.0
 11
3.681
 21
255.7433
 31
0.0
  0
LINE
  5
B13
330
1D
100
AcDbEntity
  8
0
100
AcDbLine
 10
7.6695
 20
257.9279
 30
0.0
 11
8.8469
 21
258.281
 31
0.0
  0
LINE
  5
B14
330
1D
100
AcDbEntity
  8
0
100
AcDbLine
 10
6.5401
 20
257.4928
 30
0.0
 11
7.6695
 21
257.9279
 31
0.0
  0
LINE
  5
B15
330
1D
100
AcDbEntity
  8
0
100
AcDbLine
 10
8.8469
 20
258.281
 30
0.0
 11
10.1405
 21
258.5761
 31
0.0
  0
LINE
  5
B16
330
1D
100
AcDbEntity
  8
0
100
AcDbLine
 10
11.4681
 20
258.8011
 30
0.0
 11
13.6197
 21
259.0472
 31
0.0
  0
LINE
  5
B17
330
1D
100
AcDbEntity
  8
0
100
AcDbLine
 10
13.6197
 20
259.0472
 30
0.0
 11
15.0815
 21
259.1592
 31
0.0
  0
LINE
  5
B18
330
1D
100
AcDbEntity
  8
0
100
AcDbLine
 10
15.0815
 20
259.1592
 30
0.0
 11
18.0491
 21
259.3193
 31
0.0
  0
LINE
  5
B19
330
1D
100
AcDbEntity
  8
0
100
AcDbLine
 10
-0.15
 20
247.074
 30
0.0
 11
-0.103
 21
248.1633
 31
0.0
  0
LINE
  5
B1A
330
1D
100
AcDbEntity
  8
0
100
AcDbLine
 10
0.614
 20
251.3641
 30
0.0
 11
1.208
 21
252.6805
 31
0.0
  0
LINE
  5
B1B
330
1D
100
AcDbEntity
  8
0
100
AcDbLine
 10
0.278
 20
250.3189
 30
0.0
 11
0.614
 21
251.3641
 31
0.0
  0
LINE
  5
B1C
330
1D
100
AcDbEntity
  8
0
100
AcDbLine
 10
0.038
 20
249.2426
 30
0.0
 11
0.278
 21
250.3189
 31
0.0
  0
LINE
  5
B1D
330
1D
100
AcDbEntity
  8
0
100
AcDbLine
 10
-0.103
 20
248.1633
 30
0.0
 11
0.038
 21
249.2426
 31
0.0
  0
LINE
  5
B1E
330
1D
100
AcDbEntity
  8
0
100
AcDbLine
 10
63.2028
 20
261.5529
 30
0.0
 11
69.4293
 21
261.8809
 31
0.0
  0
LINE
  5
B1F
330
1D
100
AcDbEntity
  8
0
100
AcDbLine
 10
62.0043
 20
274.6614
 30
0.0
 11
64.6825
 21
275.6586
 31
0.0
  0
LINE
  5
B20
330
1D
100
AcDbEntity
  8
0
100
AcDbLine
 10
64.6825
 20
275.6586
 30
0.0
 11
67.4439
 21
276.3978
 31
0.0
  0
LINE
  5
B21
330
1D
100
AcDbEntity
  8
0
100
AcDbLine
 10
56.9922
 20
271.9286
 30
0.0
 11
59.4332
 21
273.414
 31
0.0
  0
LINE
  5
B22
330
1D
100
AcDbEntity
  8
0
100
AcDbLine
 10
52.5879
 20
268.2977
 30
0.0
 11
54.7035
 21
270.2172
 31
0.0
  0
LINE
  5
B23
330
1D
100
AcDbEntity
  8
0
100
AcDbLine
 10
48.9515
 20
263.8995
 30
0.0
 11
50.6646
 21
266.1841
 31
0.0
  0
LINE
  5
B24
330
1D
100
AcDbEntity
  8
0
100
AcDbLine
 10
50.6646
 20
266.1841
 30
0.0
 11
52.5879
 21
268.2977
 31
0.0
  0
LINE
  5
B25
330
1D
100
AcDbEntity
  8
0
100
AcDbLine
 10
54.7035
 20
270.2172
 30
0.0
 11
56.9922
 21
271.9286
 31
0.0
  0
LINE
  5
B26
330
1D
100
AcDbEntity
  8
0
100
AcDbLine
 10
53.1446
 20
261.0067
 30
0.0
 11
60.4344
 21
261.4008
 31
0.0
  0
LINE
  5
B27
330
1D
100
AcDbEntity
  8
0
100
AcDbLine
 10
47.097828334953
 20
260.709278241631
 30
0.0
 11
47.4637
 21
261.4608
 31
0.0
  0
LINE
  5
B28
330
1D
100
AcDbEntity
  8
0
100
AcDbLine
 10
60.4344
 20
261.4008
 30
0.0
 11
63.2028
 21
261.5529
 31
0.0
  0
LINE
  5
B29
330
1D
100
AcDbEntity
  8
0
100
AcDbLine
 10
47.4637
 20
261.4608
 30
0.0
 11
48.9515
 21
263.8995
 31
0.0
  0
LINE
  5
B2A
330
1D
100
AcDbEntity
  8
0
100
AcDbLine
 10
59.4332
 20
273.414
 30
0.0
 11
62.0043
 21
274.6614
 31
0.0
  0
LINE
  5
B2B
330
1D
100
AcDbEntity
  8
0
100
AcDbLine
 10
86.7673
 20
254.742
 30
0.0
 11
87.6584
 21
252.9966
 31
0.0
  0
LINE
  5
B2C
330
1D
100
AcDbEntity
  8
0
100
AcDbLine
 10
78.8097
 20
276.6649
 30
0.0
 11
81.602
 21
276.0587
 31
0.0
  0
LINE
  5
B2D
330
1D
100
AcDbEntity
  8
0
100
AcDbLine
 10
79.7919
 20
260.8427
 30
0.0
 11
81.1155
 21
260.2055
 31
0.0
  0
LINE
  5
B2E
330
1D
100
AcDbEntity
  8
0
100
AcDbLine
 10
73.341
 20
262.063
 30
0.0
 11
75.3745
 21
261.996
 31
0.0
  0
LINE
  5
B2F
330
1D
100
AcDbEntity
  8
0
100
AcDbLine
 10
69.4293
 20
261.8809
 30
0.0
 11
71.5829
 21
261.964
 31
0.0
  0
LINE
  5
B30
330
1D
100
AcDbEntity
  8
0
100
AcDbLine
 10
72.606437412699
 20
261.987213514245
 30
0.0
 11
73.341
 21
262.063
 31
0.0
  0
LINE
  5
B31
330
1D
100
AcDbEntity
  8
0
100
AcDbLine
 10
71.5829
 20
261.964
 30
0.0
 11
72.606437412695
 21
261.987213514245
 31
0.0
  0
LINE
  5
B32
330
1D
100
AcDbEntity
  8
0
100
AcDbLine
 10
75.3745
 20
261.996
 30
0.0
 11
77.3689
 21
261.6569
 31
0.0
  0
LINE
  5
B33
330
1D
100
AcDbEntity
  8
0
100
AcDbLine
 10
77.3689
 20
261.6569
 30
0.0
 11
79.2943
 21
261.0557
 31
0.0
  0
LINE
  5
B34
330
1D
100
AcDbEntity
  8
0
100
AcDbLine
 10
79.2943
 20
261.0557
 30
0.0
 11
79.7919
 21
260.8427
 31
0.0
  0
LINE
  5
B35
330
1D
100
AcDbEntity
  8
0
100
AcDbLine
 10
86.9525
 20
274.0632
 30
0.0
 11
89.4606
 21
272.6938
 31
0.0
  0
LINE
  5
B36
330
1D
100
AcDbEntity
  8
0
100
AcDbLine
 10
81.602
 20
276.0587
 30
0.0
 11
84.3253
 21
275.1885
 31
0.0
  0
LINE
  5
B37
330
1D
100
AcDbEntity
  8
0
100
AcDbLine
 10
81.602
 20
276.0587
 30
0.0
 11
84.3253
 21
275.1885
 31
0.0
  0
LINE
  5
B38
330
1D
100
AcDbEntity
  8
0
100
AcDbLine
 10
81.1155
 20
260.2055
 30
0.0
 11
82.7995
 21
259.1252
 31
0.0
  0
LINE
  5
B39
330
1D
100
AcDbEntity
  8
0
100
AcDbLine
 10
82.7995
 20
259.1252
 30
0.0
 11
84.3203
 21
257.8349
 31
0.0
  0
LINE
  5
B3A
330
1D
100
AcDbEntity
  8
0
100
AcDbLine
 10
84.3203
 20
257.8349
 30
0.0
 11
85.654
 21
256.3595
 31
0.0
  0
LINE
  5
B3B
330
1D
100
AcDbEntity
  8
0
100
AcDbLine
 10
86.261158105565
 20
255.477367389067
 30
0.0
 11
86.2947
 21
255.4322
 31
0.0
  0
LINE
  5
B3C
330
1D
100
AcDbEntity
  8
0
100
AcDbLine
 10
85.654
 20
256.3595
 30
0.0
 11
86.7673
 21
254.742
 31
0.0
  0
LINE
  5
B3D
330
1D
100
AcDbEntity
  8
0
100
AcDbLine
 10
84.3253
 20
275.1885
 30
0.0
 11
86.9525
 21
274.0632
 31
0.0
  0
LINE
  5
B3E
330
1D
100
AcDbEntity
  8
0
100
AcDbLine
 10
88.7217
 20
249.2416
 30
0.0
 11
88.8779
 21
247.2951
 31
0.0
  0
LINE
  5
B3F
330
1D
100
AcDbEntity
  8
0
100
AcDbLine
 10
87.6584
 20
252.9966
 30
0.0
 11
88.3132
 21
251.1531
 31
0.0
  0
LINE
  5
B40
330
1D
100
AcDbEntity
  8
0
100
AcDbLine
 10
88.3132
 20
251.1531
 30
0.0
 11
88.7217
 21
249.2416
 31
0.0
  0
LINE
  5
B41
330
1D
100
AcDbEntity
  8
0
100
AcDbLine
 10
88.8779
 20
247.2951
 30
0.0
 11
88.8799
 21
247.074
 31
0.0
  0
LINE
  5
B42
330
1D
100
AcDbEntity
  8
0
100
AcDbLine
 10
91.8274
 20
271.0934
 30
0.0
 11
94.0311
 21
269.2749
 31
0.0
  0
LINE
  5
B43
330
1D
100
AcDbEntity
  8
0
100
AcDbLine
 10
94.0311
 20
269.2749
 30
0.0
 11
96.0525
 21
267.2554
 31
0.0
  0
LINE
  5
B44
330
1D
100
AcDbEntity
  8
0
100
AcDbLine
 10
100.8424
 20
260.1805
 30
0.0
 11
101.9667
 21
257.5558
 31
0.0
  0
LINE
  5
B45
330
1D
100
AcDbEntity
  8
0
100
AcDbLine
 10
96.0525
 20
267.2554
 30
0.0
 11
97.8718
 21
265.0528
 31
0.0
  0
LINE
  5
B46
330
1D
100
AcDbEntity
  8
0
100
AcDbLine
 10
103.7829
 20
249.2086
 30
0.0
 11
103.8331
 21
247.074
 31
0.0
  0
LINE
  5
B47
330
1D
100
AcDbEntity
  8
0
100
AcDbLine
 10
101.9667
 20
257.5558
 30
0.0
 11
102.8368
 21
254.8351
 31
0.0
  0
LINE
  5
B48
330
1D
100
AcDbEntity
  8
0
100
AcDbLine
 10
97.8718
 20
265.0528
 30
0.0
 11
100.8424
 21
260.1805
 31
0.0
  0
LINE
  5
B49
330
1D
100
AcDbEntity
  8
0
100
AcDbLine
 10
102.8368
 20
254.8351
 30
0.0
 11
103.7829
 21
249.2086
 31
0.0
  0
LINE
  5
B4A
330
1D
100
AcDbEntity
  8
0
100
AcDbLine
 10
184.097
 20
34.1
 30
0.0
 11
183.15
 21
34.074
 31
0.0
  0
LINE
  5
B4B
330
1D
100
AcDbEntity
  8
0
100
AcDbLine
 10
184.26
 20
268.6127
 30
0.0
 11
183.15
 21
268.6397
 31
0.0
  0
LINE
  5
B4C
330
1D
100
AcDbEntity
  8
0
100
AcDbLine
 10
184.447
 20
268.8614
 30
0.0
 11
183.15
 21
268.8903
 31
0.0
  0
LINE
  5
B4D
330
1D
100
AcDbEntity
  8
0
100
AcDbLine
 10
183.293
 20
285.074
 30
0.0
 11
183.15
 21
285.074
 31
0.0
  0
LINE
  5
B4E
330
1D
100
AcDbEntity
  8
0
100
AcDbLine
 10
298.8561
 20
217.7502
 30
0.0
 11
296.0377
 21
217.2771
 31
0.0
  0
LINE
  5
B4F
330
1D
100
AcDbEntity
  8
0
100
AcDbLine
 10
204.3961
 20
246.0087
 30
0.0
 11
204.011
 21
212.3992
 31
0.0
  0
LINE
  5
B50
330
1D
100
AcDbEntity
  8
0
100
AcDbLine
 10
293.1862
 20
217.074
 30
0.0
 11
287.4903
 21
217.4831
 31
0.0
  0
LINE
  5
B51
330
1D
100
AcDbEntity
  8
0
100
AcDbLine
 10
296.0377
 20
217.2771
 30
0.0
 11
293.1862
 21
217.074
 31
0.0
  0
LINE
  5
B52
330
1D
100
AcDbEntity
  8
0
100
AcDbLine
 10
203.8829
 20
201.86
 30
0.0
 11
202.8066
 21
124.142
 31
0.0
  0
LINE
  5
B53
330
1D
100
AcDbEntity
  8
0
100
AcDbLine
 10
202.8066
 20
124.142
 30
0.0
 11
201.7333
 21
60.995
 31
0.0
  0
LINE
  5
B54
330
1D
100
AcDbEntity
  8
0
100
AcDbLine
 10
201.7313
 20
60.884
 30
0.0
 11
201.5943
 21
56.15
 31
0.0
  0
LINE
  5
B55
330
1D
100
AcDbEntity
  8
0
100
AcDbLine
 10
201.7333
 20
60.995
 30
0.0
 11
201.5943
 21
56.15
 31
0.0
  0
LINE
  5
B56
330
1D
100
AcDbEntity
  8
0
100
AcDbLine
 10
194.7053
 20
38.327
 30
0.0
 11
192.894
 21
36.904
 31
0.0
  0
LINE
  5
B57
330
1D
100
AcDbEntity
  8
0
100
AcDbLine
 10
201.5943
 20
56.15
 30
0.0
 11
201.4372
 21
53.862
 31
0.0
  0
LINE
  5
B58
330
1D
100
AcDbEntity
  8
0
100
AcDbLine
 10
200.4269
 20
48.007
 30
0.0
 11
199.8408
 21
46.186
 31
0.0
  0
LINE
  5
B59
330
1D
100
AcDbEntity
  8
0
100
AcDbLine
 10
199.8408
 20
46.186
 30
0.0
 11
199.7357
 21
45.843
 31
0.0
  0
LINE
  5
B5A
330
1D
100
AcDbEntity
  8
0
100
AcDbLine
 10
200.8791
 20
49.9
 30
0.0
 11
200.4269
 21
48.007
 31
0.0
  0
LINE
  5
B5B
330
1D
100
AcDbEntity
  8
0
100
AcDbLine
 10
199.7357
 20
45.843
 30
0.0
 11
198.6704
 21
43.416
 31
0.0
  0
LINE
  5
B5C
330
1D
100
AcDbEntity
  8
0
100
AcDbLine
 10
198.6704
 20
43.416
 30
0.0
 11
197.8932
 21
42.073
 31
0.0
  0
LINE
  5
B5D
330
1D
100
AcDbEntity
  8
0
100
AcDbLine
 10
201.4372
 20
53.862
 30
0.0
 11
200.8791
 21
49.9
 31
0.0
  0
LINE
  5
B5E
330
1D
100
AcDbEntity
  8
0
100
AcDbLine
 10
197.8932
 20
42.073
 30
0.0
 11
197.013
 21
40.82
 31
0.0
  0
LINE
  5
B5F
330
1D
100
AcDbEntity
  8
0
100
AcDbLine
 10
195.9877
 20
39.563
 30
0.0
 11
194.9134
 21
38.496
 31
0.0
  0
LINE
  5
B60
330
1D
100
AcDbEntity
  8
0
100
AcDbLine
 10
194.9134
 20
38.496
 30
0.0
 11
194.7053
 21
38.327
 31
0.0
  0
LINE
  5
B61
330
1D
100
AcDbEntity
  8
0
100
AcDbLine
 10
196.9609
 20
40.732
 30
0.0
 11
195.9877
 21
39.563
 31
0.0
  0
LINE
  5
B62
330
1D
100
AcDbEntity
  8
0
100
AcDbLine
 10
197.013
 20
40.82
 30
0.0
 11
196.9609
 21
40.732
 31
0.0
  0
LINE
  5
B63
330
1D
100
AcDbEntity
  8
0
100
AcDbLine
 10
184.972
 20
34.176
 30
0.0
 11
184.097
 21
34.1
 31
0.0
  0
LINE
  5
B64
330
1D
100
AcDbEntity
  8
0
100
AcDbLine
 10
188.564
 20
34.88
 30
0.0
 11
187.748
 21
34.632
 31
0.0
  0
LINE
  5
B65
330
1D
100
AcDbEntity
  8
0
100
AcDbLine
 10
190.84
 20
35.741
 30
0.0
 11
188.564
 21
34.88
 31
0.0
  0
LINE
  5
B66
330
1D
100
AcDbEntity
  8
0
100
AcDbLine
 10
187.748
 20
34.632
 30
0.0
 11
186.561
 21
34.428
 31
0.0
  0
LINE
  5
B67
330
1D
100
AcDbEntity
  8
0
100
AcDbLine
 10
186.561
 20
34.428
 30
0.0
 11
186.055421113959
 21
34.347820088557
 31
0.0
  0
LINE
  5
B68
330
1D
100
AcDbEntity
  8
0
100
AcDbLine
 10
186.561
 20
34.428
 30
0.0
 11
186.055421113959
 21
34.347820088557
 31
0.0
  0
LINE
  5
B69
330
1D
100
AcDbEntity
  8
0
100
AcDbLine
 10
192.894
 20
36.904
 30
0.0
 11
190.84
 21
35.741
 31
0.0
  0
LINE
  5
B6A
330
1D
100
AcDbEntity
  8
0
100
AcDbLine
 10
184.972
 20
34.176
 30
0.0
 11
186.055421113959
 21
34.347820088557
 31
0.0
  0
LINE
  5
B6B
330
1D
100
AcDbEntity
  8
0
100
AcDbLine
 10
201.7333
 20
60.995
 30
0.0
 11
201.7313
 21
60.884
 31
0.0
  0
LINE
  5
B6C
330
1D
100
AcDbEntity
  8
0
100
AcDbLine
 10
204.011
 20
212.3992
 30
0.0
 11
203.9629
 21
208.3952
 31
0.0
  0
LINE
  5
B6D
330
1D
100
AcDbEntity
  8
0
100
AcDbLine
 10
203.9629
 20
208.3952
 30
0.0
 11
203.9379
 21
206.4022
 31
0.0
  0
LINE
  5
B6E
330
1D
100
AcDbEntity
  8
0
100
AcDbLine
 10
203.9379
 20
206.4022
 30
0.0
 11
203.8829
 21
201.86
 31
0.0
  0
LINE
  5
B6F
330
1D
100
AcDbEntity
  8
0
100
AcDbLine
 10
276.8394
 20
221.4542
 30
0.0
 11
274.4726
 21
223.0546
 31
0.0
  0
LINE
  5
B70
330
1D
100
AcDbEntity
  8
0
100
AcDbLine
 10
276.8394
 20
272.6938
 30
0.0
 11
274.4726
 21
271.0934
 31
0.0
  0
LINE
  5
B71
330
1D
100
AcDbEntity
  8
0
100
AcDbLine
 10
330.3583
 20
233.9815
 30
0.0
 11
313.1554
 21
233.1413
 31
0.0
  0
LINE
  5
B72
330
1D
100
AcDbEntity
  8
0
100
AcDbLine
 10
330.3583
 20
260.1665
 30
0.0
 11
313.1554
 21
261.0067
 31
0.0
  0
LINE
  5
B73
330
1D
100
AcDbEntity
  8
0
100
AcDbLine
 10
348.2509
 20
234.8287
 30
0.0
 11
330.3583
 21
233.9815
 31
0.0
  0
LINE
  5
B74
330
1D
100
AcDbEntity
  8
0
100
AcDbLine
 10
348.2509
 20
259.3193
 30
0.0
 11
330.3583
 21
260.1665
 31
0.0
  0
LINE
  5
B75
330
1D
100
AcDbEntity
  8
0
100
AcDbLine
 10
365.092
 20
241.4675
 30
0.0
 11
364.332
 21
240.2482
 31
0.0
  0
LINE
  5
B76
330
1D
100
AcDbEntity
  8
0
100
AcDbLine
 10
356.1595
 20
235.5719
 30
0.0
 11
354.8319
 21
235.3469
 31
0.0
  0
LINE
  5
B77
330
1D
100
AcDbEntity
  8
0
100
AcDbLine
 10
360.7861
 20
237.1564
 30
0.0
 11
359.7599
 21
236.6552
 31
0.0
  0
LINE
  5
B78
330
1D
100
AcDbEntity
  8
0
100
AcDbLine
 10
364.332
 20
240.2482
 30
0.0
 11
363.411
 21
239.1449
 31
0.0
  0
LINE
  5
B79
330
1D
100
AcDbEntity
  8
0
100
AcDbLine
 10
362.619
 20
238.4047
 30
0.0
 11
361.7493
 21
237.7445
 31
0.0
  0
LINE
  5
B7A
330
1D
100
AcDbEntity
  8
0
100
AcDbLine
 10
361.7493
 20
237.7445
 30
0.0
 11
360.7861
 21
237.1564
 31
0.0
  0
LINE
  5
B7B
330
1D
100
AcDbEntity
  8
0
100
AcDbLine
 10
363.411
 20
239.1449
 30
0.0
 11
362.619
 21
238.4047
 31
0.0
  0
LINE
  5
B7C
330
1D
100
AcDbEntity
  8
0
100
AcDbLine
 10
358.6305
 20
236.2201
 30
0.0
 11
357.4531
 21
235.867
 31
0.0
  0
LINE
  5
B7D
330
1D
100
AcDbEntity
  8
0
100
AcDbLine
 10
359.7599
 20
236.6552
 30
0.0
 11
358.6305
 21
236.2201
 31
0.0
  0
LINE
  5
B7E
330
1D
100
AcDbEntity
  8
0
100
AcDbLine
 10
357.4531
 20
235.867
 30
0.0
 11
356.1595
 21
235.5719
 31
0.0
  0
LINE
  5
B7F
330
1D
100
AcDbEntity
  8
0
100
AcDbLine
 10
354.8319
 20
235.3469
 30
0.0
 11
352.6803
 21
235.1008
 31
0.0
  0
LINE
  5
B80
330
1D
100
AcDbEntity
  8
0
100
AcDbLine
 10
352.6803
 20
235.1008
 30
0.0
 11
351.2185
 21
234.9888
 31
0.0
  0
LINE
  5
B81
330
1D
100
AcDbEntity
  8
0
100
AcDbLine
 10
351.2185
 20
234.9888
 30
0.0
 11
348.2509
 21
234.8287
 31
0.0
  0
LINE
  5
B82
330
1D
100
AcDbEntity
  8
0
100
AcDbLine
 10
356.1595
 20
258.5761
 30
0.0
 11
354.8319
 21
258.8011
 31
0.0
  0
LINE
  5
B83
330
1D
100
AcDbEntity
  8
0
100
AcDbLine
 10
365.686
 20
251.3641
 30
0.0
 11
365.092
 21
252.6805
 31
0.0
  0
LINE
  5
B84
330
1D
100
AcDbEntity
  8
0
100
AcDbLine
 10
366.45
 20
247.074
 30
0.0
 11
366.403
 21
245.9847
 31
0.0
  0
LINE
  5
B85
330
1D
100
AcDbEntity
  8
0
100
AcDbLine
 10
365.686
 20
242.7839
 30
0.0
 11
365.092
 21
241.4675
 31
0.0
  0
LINE
  5
B86
330
1D
100
AcDbEntity
  8
0
100
AcDbLine
 10
366.022
 20
243.8291
 30
0.0
 11
365.686
 21
242.7839
 31
0.0
  0
LINE
  5
B87
330
1D
100
AcDbEntity
  8
0
100
AcDbLine
 10
366.262
 20
244.9054
 30
0.0
 11
366.022
 21
243.8291
 31
0.0
  0
LINE
  5
B88
330
1D
100
AcDbEntity
  8
0
100
AcDbLine
 10
366.403
 20
245.9847
 30
0.0
 11
366.262
 21
244.9054
 31
0.0
  0
LINE
  5
B89
330
1D
100
AcDbEntity
  8
0
100
AcDbLine
 10
366.403
 20
248.1633
 30
0.0
 11
366.262
 21
249.2426
 31
0.0
  0
LINE
  5
B8A
330
1D
100
AcDbEntity
  8
0
100
AcDbLine
 10
366.262
 20
249.2426
 30
0.0
 11
366.022
 21
250.3189
 31
0.0
  0
LINE
  5
B8B
330
1D
100
AcDbEntity
  8
0
100
AcDbLine
 10
366.022
 20
250.3189
 30
0.0
 11
365.686
 21
251.3641
 31
0.0
  0
LINE
  5
B8C
330
1D
100
AcDbEntity
  8
0
100
AcDbLine
 10
366.45
 20
247.074
 30
0.0
 11
366.403
 21
248.1633
 31
0.0
  0
LINE
  5
B8D
330
1D
100
AcDbEntity
  8
0
100
AcDbLine
 10
357.4531
 20
258.281
 30
0.0
 11
356.1595
 21
258.5761
 31
0.0
  0
LINE
  5
B8E
330
1D
100
AcDbEntity
  8
0
100
AcDbLine
 10
359.7599
 20
257.4928
 30
0.0
 11
358.6305
 21
257.9279
 31
0.0
  0
LINE
  5
B8F
330
1D
100
AcDbEntity
  8
0
100
AcDbLine
 10
358.6305
 20
257.9279
 30
0.0
 11
357.4531
 21
258.281
 31
0.0
  0
LINE
  5
B90
330
1D
100
AcDbEntity
  8
0
100
AcDbLine
 10
363.411
 20
255.0031
 30
0.0
 11
362.619
 21
255.7433
 31
0.0
  0
LINE
  5
B91
330
1D
100
AcDbEntity
  8
0
100
AcDbLine
 10
361.7493
 20
256.4035
 30
0.0
 11
360.7861
 21
256.9916
 31
0.0
  0
LINE
  5
B92
330
1D
100
AcDbEntity
  8
0
100
AcDbLine
 10
362.619
 20
255.7433
 30
0.0
 11
361.7493
 21
256.4035
 31
0.0
  0
LINE
  5
B93
330
1D
100
AcDbEntity
  8
0
100
AcDbLine
 10
364.332
 20
253.8998
 30
0.0
 11
363.411
 21
255.0031
 31
0.0
  0
LINE
  5
B94
330
1D
100
AcDbEntity
  8
0
100
AcDbLine
 10
360.7861
 20
256.9916
 30
0.0
 11
359.7599
 21
257.4928
 31
0.0
  0
LINE
  5
B95
330
1D
100
AcDbEntity
  8
0
100
AcDbLine
 10
365.092
 20
252.6805
 30
0.0
 11
364.332
 21
253.8998
 31
0.0
  0
LINE
  5
B96
330
1D
100
AcDbEntity
  8
0
100
AcDbLine
 10
351.2185
 20
259.1592
 30
0.0
 11
348.2509
 21
259.3193
 31
0.0
  0
LINE
  5
B97
330
1D
100
AcDbEntity
  8
0
100
AcDbLine
 10
352.6803
 20
259.0472
 30
0.0
 11
351.2185
 21
259.1592
 31
0.0
  0
LINE
  5
B98
330
1D
100
AcDbEntity
  8
0
100
AcDbLine
 10
354.8319
 20
258.8011
 30
0.0
 11
352.6803
 21
259.0472
 31
0.0
  0
LINE
  5
B99
330
1D
100
AcDbEntity
  8
0
100
AcDbLine
 10
318.8363
 20
261.4608
 30
0.0
 11
317.3485
 21
263.8995
 31
0.0
  0
LINE
  5
B9A
330
1D
100
AcDbEntity
  8
0
100
AcDbLine
 10
303.0972
 20
232.5951
 30
0.0
 11
296.8707
 21
232.2671
 31
0.0
  0
LINE
  5
B9B
330
1D
100
AcDbEntity
  8
0
100
AcDbLine
 10
303.0972
 20
261.5529
 30
0.0
 11
296.8707
 21
261.8809
 31
0.0
  0
LINE
  5
B9C
330
1D
100
AcDbEntity
  8
0
100
AcDbLine
 10
304.2957
 20
219.4866
 30
0.0
 11
301.6175
 21
218.4894
 31
0.0
  0
LINE
  5
B9D
330
1D
100
AcDbEntity
  8
0
100
AcDbLine
 10
301.6175
 20
218.4894
 30
0.0
 11
298.8561
 21
217.7502
 31
0.0
  0
LINE
  5
B9E
330
1D
100
AcDbEntity
  8
0
100
AcDbLine
 10
309.3078
 20
222.2194
 30
0.0
 11
306.8668
 21
220.734
 31
0.0
  0
LINE
  5
B9F
330
1D
100
AcDbEntity
  8
0
100
AcDbLine
 10
313.7121
 20
225.8503
 30
0.0
 11
311.5965
 21
223.9308
 31
0.0
  0
LINE
  5
BA0
330
1D
100
AcDbEntity
  8
0
100
AcDbLine
 10
317.3485
 20
230.2485
 30
0.0
 11
315.6354
 21
227.9639
 31
0.0
  0
LINE
  5
BA1
330
1D
100
AcDbEntity
  8
0
100
AcDbLine
 10
315.6354
 20
227.9639
 30
0.0
 11
313.7121
 21
225.8503
 31
0.0
  0
LINE
  5
BA2
330
1D
100
AcDbEntity
  8
0
100
AcDbLine
 10
311.5965
 20
223.9308
 30
0.0
 11
309.3078
 21
222.2194
 31
0.0
  0
LINE
  5
BA3
330
1D
100
AcDbEntity
  8
0
100
AcDbLine
 10
313.1554
 20
233.1413
 30
0.0
 11
305.8656
 21
232.7472
 31
0.0
  0
LINE
  5
BA4
330
1D
100
AcDbEntity
  8
0
100
AcDbLine
 10
319.202171665048
 20
233.438721758369
 30
0.0
 11
318.8363
 21
232.6872
 31
0.0
  0
LINE
  5
BA5
330
1D
100
AcDbEntity
  8
0
100
AcDbLine
 10
305.8656
 20
232.7472
 30
0.0
 11
303.0972
 21
232.5951
 31
0.0
  0
LINE
  5
BA6
330
1D
100
AcDbEntity
  8
0
100
AcDbLine
 10
318.8363
 20
232.6872
 30
0.0
 11
317.3485
 21
230.2485
 31
0.0
  0
LINE
  5
BA7
330
1D
100
AcDbEntity
  8
0
100
AcDbLine
 10
306.8668
 20
220.734
 30
0.0
 11
304.2957
 21
219.4866
 31
0.0
  0
LINE
  5
BA8
330
1D
100
AcDbEntity
  8
0
100
AcDbLine
 10
305.8656
 20
261.4008
 30
0.0
 11
303.0972
 21
261.5529
 31
0.0
  0
LINE
  5
BA9
330
1D
100
AcDbEntity
  8
0
100
AcDbLine
 10
319.202171665048
 20
260.709278241631
 30
0.0
 11
318.8363
 21
261.4608
 31
0.0
  0
LINE
  5
BAA
330
1D
100
AcDbEntity
  8
0
100
AcDbLine
 10
313.1554
 20
261.0067
 30
0.0
 11
305.8656
 21
261.4008
 31
0.0
  0
LINE
  5
BAB
330
1D
100
AcDbEntity
  8
0
100
AcDbLine
 10
279.5327
 20
239.406
 30
0.0
 11
278.6416
 21
241.1514
 31
0.0
  0
LINE
  5
BAC
330
1D
100
AcDbEntity
  8
0
100
AcDbLine
 10
287.4903
 20
217.4831
 30
0.0
 11
284.698
 21
218.0893
 31
0.0
  0
LINE
  5
BAD
330
1D
100
AcDbEntity
  8
0
100
AcDbLine
 10
286.5081
 20
233.3053
 30
0.0
 11
285.1845
 21
233.9425
 31
0.0
  0
LINE
  5
BAE
330
1D
100
AcDbEntity
  8
0
100
AcDbLine
 10
292.959
 20
232.085
 30
0.0
 11
290.9255
 21
232.152
 31
0.0
  0
LINE
  5
BAF
330
1D
100
AcDbEntity
  8
0
100
AcDbLine
 10
296.8707
 20
232.2671
 30
0.0
 11
294.7171
 21
232.184
 31
0.0
  0
LINE
  5
BB0
330
1D
100
AcDbEntity
  8
0
100
AcDbLine
 10
293.693562587301
 20
232.160786485755
 30
0.0
 11
292.959
 21
232.085
 31
0.0
  0
LINE
  5
BB1
330
1D
100
AcDbEntity
  8
0
100
AcDbLine
 10
294.7171
 20
232.184
 30
0.0
 11
293.693562587305
 21
232.160786485755
 31
0.0
  0
LINE
  5
BB2
330
1D
100
AcDbEntity
  8
0
100
AcDbLine
 10
290.9255
 20
232.152
 30
0.0
 11
288.9311
 21
232.4911
 31
0.0
  0
LINE
  5
BB3
330
1D
100
AcDbEntity
  8
0
100
AcDbLine
 10
288.9311
 20
232.4911
 30
0.0
 11
287.0057
 21
233.0923
 31
0.0
  0
LINE
  5
BB4
330
1D
100
AcDbEntity
  8
0
100
AcDbLine
 10
287.0057
 20
233.0923
 30
0.0
 11
286.5081
 21
233.3053
 31
0.0
  0
LINE
  5
BB5
330
1D
100
AcDbEntity
  8
0
100
AcDbLine
 10
279.3475
 20
220.0848
 30
0.0
 11
276.8394
 21
221.4542
 31
0.0
  0
LINE
  5
BB6
330
1D
100
AcDbEntity
  8
0
100
AcDbLine
 10
284.698
 20
218.0893
 30
0.0
 11
281.9747
 21
218.9595
 31
0.0
  0
LINE
  5
BB7
330
1D
100
AcDbEntity
  8
0
100
AcDbLine
 10
284.698
 20
218.0893
 30
0.0
 11
281.9747
 21
218.9595
 31
0.0
  0
LINE
  5
BB8
330
1D
100
AcDbEntity
  8
0
100
AcDbLine
 10
285.1845
 20
233.9425
 30
0.0
 11
283.5005
 21
235.0228
 31
0.0
  0
LINE
  5
BB9
330
1D
100
AcDbEntity
  8
0
100
AcDbLine
 10
283.5005
 20
235.0228
 30
0.0
 11
281.9797
 21
236.3131
 31
0.0
  0
LINE
  5
BBA
330
1D
100
AcDbEntity
  8
0
100
AcDbLine
 10
281.9797
 20
236.3131
 30
0.0
 11
280.646
 21
237.7885
 31
0.0
  0
LINE
  5
BBB
330
1D
100
AcDbEntity
  8
0
100
AcDbLine
 10
280.038841894435
 20
238.670632610933
 30
0.0
 11
280.0053
 21
238.7158
 31
0.0
  0
LINE
  5
BBC
330
1D
100
AcDbEntity
  8
0
100
AcDbLine
 10
280.646
 20
237.7885
 30
0.0
 11
279.5327
 21
239.406
 31
0.0
  0
LINE
  5
BBD
330
1D
100
AcDbEntity
  8
0
100
AcDbLine
 10
281.9747
 20
218.9595
 30
0.0
 11
279.3475
 21
220.0848
 31
0.0
  0
LINE
  5
BBE
330
1D
100
AcDbEntity
  8
0
100
AcDbLine
 10
286.5081
 20
260.8427
 30
0.0
 11
285.1845
 21
260.2055
 31
0.0
  0
LINE
  5
BBF
330
1D
100
AcDbEntity
  8
0
100
AcDbLine
 10
287.0057
 20
261.0557
 30
0.0
 11
286.5081
 21
260.8427
 31
0.0
  0
LINE
  5
BC0
330
1D
100
AcDbEntity
  8
0
100
AcDbLine
 10
288.9311
 20
261.6569
 30
0.0
 11
287.0057
 21
261.0557
 31
0.0
  0
LINE
  5
BC1
330
1D
100
AcDbEntity
  8
0
100
AcDbLine
 10
290.9255
 20
261.996
 30
0.0
 11
288.9311
 21
261.6569
 31
0.0
  0
LINE
  5
BC2
330
1D
100
AcDbEntity
  8
0
100
AcDbLine
 10
294.7171
 20
261.964
 30
0.0
 11
293.693562587305
 21
261.987213514245
 31
0.0
  0
LINE
  5
BC3
330
1D
100
AcDbEntity
  8
0
100
AcDbLine
 10
293.693562587301
 20
261.987213514245
 30
0.0
 11
292.959
 21
262.063
 31
0.0
  0
LINE
  5
BC4
330
1D
100
AcDbEntity
  8
0
100
AcDbLine
 10
296.8707
 20
261.8809
 30
0.0
 11
294.7171
 21
261.964
 31
0.0
  0
LINE
  5
BC5
330
1D
100
AcDbEntity
  8
0
100
AcDbLine
 10
292.959
 20
262.063
 30
0.0
 11
290.9255
 21
261.996
 31
0.0
  0
LINE
  5
BC6
330
1D
100
AcDbEntity
  8
0
100
AcDbLine
 10
278.6416
 20
252.9966
 30
0.0
 11
277.9868
 21
251.1531
 31
0.0
  0
LINE
  5
BC7
330
1D
100
AcDbEntity
  8
0
100
AcDbLine
 10
277.5783
 20
244.9064
 30
0.0
 11
277.4221
 21
246.8529
 31
0.0
  0
LINE
  5
BC8
330
1D
100
AcDbEntity
  8
0
100
AcDbLine
 10
278.6416
 20
241.1514
 30
0.0
 11
277.9868
 21
242.9949
 31
0.0
  0
LINE
  5
BC9
330
1D
100
AcDbEntity
  8
0
100
AcDbLine
 10
277.9868
 20
242.9949
 30
0.0
 11
277.5783
 21
244.9064
 31
0.0
  0
LINE
  5
BCA
330
1D
100
AcDbEntity
  8
0
100
AcDbLine
 10
277.4221
 20
246.8529
 30
0.0
 11
277.4201
 21
247.074
 31
0.0
  0
LINE
  5
BCB
330
1D
100
AcDbEntity
  8
0
100
AcDbLine
 10
277.4221
 20
247.2951
 30
0.0
 11
277.4201
 21
247.074
 31
0.0
  0
LINE
  5
BCC
330
1D
100
AcDbEntity
  8
0
100
AcDbLine
 10
277.9868
 20
251.1531
 30
0.0
 11
277.5783
 21
249.2416
 31
0.0
  0
LINE
  5
BCD
330
1D
100
AcDbEntity
  8
0
100
AcDbLine
 10
277.5783
 20
249.2416
 30
0.0
 11
277.4221
 21
247.2951
 31
0.0
  0
LINE
  5
BCE
330
1D
100
AcDbEntity
  8
0
100
AcDbLine
 10
280.646
 20
256.3595
 30
0.0
 11
279.5327
 21
254.742
 31
0.0
  0
LINE
  5
BCF
330
1D
100
AcDbEntity
  8
0
100
AcDbLine
 10
280.038841894435
 20
255.477367389067
 30
0.0
 11
280.0053
 21
255.4322
 31
0.0
  0
LINE
  5
BD0
330
1D
100
AcDbEntity
  8
0
100
AcDbLine
 10
281.9797
 20
257.8349
 30
0.0
 11
280.646
 21
256.3595
 31
0.0
  0
LINE
  5
BD1
330
1D
100
AcDbEntity
  8
0
100
AcDbLine
 10
283.5005
 20
259.1252
 30
0.0
 11
281.9797
 21
257.8349
 31
0.0
  0
LINE
  5
BD2
330
1D
100
AcDbEntity
  8
0
100
AcDbLine
 10
285.1845
 20
260.2055
 30
0.0
 11
283.5005
 21
259.1252
 31
0.0
  0
LINE
  5
BD3
330
1D
100
AcDbEntity
  8
0
100
AcDbLine
 10
279.5327
 20
254.742
 30
0.0
 11
278.6416
 21
252.9966
 31
0.0
  0
LINE
  5
BD4
330
1D
100
AcDbEntity
  8
0
100
AcDbLine
 10
281.9747
 20
275.1885
 30
0.0
 11
279.3475
 21
274.0632
 31
0.0
  0
LINE
  5
BD5
330
1D
100
AcDbEntity
  8
0
100
AcDbLine
 10
284.698
 20
276.0587
 30
0.0
 11
281.9747
 21
275.1885
 31
0.0
  0
LINE
  5
BD6
330
1D
100
AcDbEntity
  8
0
100
AcDbLine
 10
284.698
 20
276.0587
 30
0.0
 11
281.9747
 21
275.1885
 31
0.0
  0
LINE
  5
BD7
330
1D
100
AcDbEntity
  8
0
100
AcDbLine
 10
279.3475
 20
274.0632
 30
0.0
 11
276.8394
 21
272.6938
 31
0.0
  0
LINE
  5
BD8
330
1D
100
AcDbEntity
  8
0
100
AcDbLine
 10
287.4903
 20
276.6649
 30
0.0
 11
284.698
 21
276.0587
 31
0.0
  0
LINE
  5
BD9
330
1D
100
AcDbEntity
  8
0
100
AcDbLine
 10
306.8668
 20
273.414
 30
0.0
 11
304.2957
 21
274.6614
 31
0.0
  0
LINE
  5
BDA
330
1D
100
AcDbEntity
  8
0
100
AcDbLine
 10
311.5965
 20
270.2172
 30
0.0
 11
309.3078
 21
271.9286
 31
0.0
  0
LINE
  5
BDB
330
1D
100
AcDbEntity
  8
0
100
AcDbLine
 10
315.6354
 20
266.1841
 30
0.0
 11
313.7121
 21
268.2977
 31
0.0
  0
LINE
  5
BDC
330
1D
100
AcDbEntity
  8
0
100
AcDbLine
 10
317.3485
 20
263.8995
 30
0.0
 11
315.6354
 21
266.1841
 31
0.0
  0
LINE
  5
BDD
330
1D
100
AcDbEntity
  8
0
100
AcDbLine
 10
313.7121
 20
268.2977
 30
0.0
 11
311.5965
 21
270.2172
 31
0.0
  0
LINE
  5
BDE
330
1D
100
AcDbEntity
  8
0
100
AcDbLine
 10
309.3078
 20
271.9286
 30
0.0
 11
306.8668
 21
273.414
 31
0.0
  0
LINE
  5
BDF
330
1D
100
AcDbEntity
  8
0
100
AcDbLine
 10
301.6175
 20
275.6586
 30
0.0
 11
298.8561
 21
276.3978
 31
0.0
  0
LINE
  5
BE0
330
1D
100
AcDbEntity
  8
0
100
AcDbLine
 10
304.2957
 20
274.6614
 30
0.0
 11
301.6175
 21
275.6586
 31
0.0
  0
LINE
  5
BE1
330
1D
100
AcDbEntity
  8
0
100
AcDbLine
 10
296.0377
 20
276.8709
 30
0.0
 11
293.1862
 21
277.074
 31
0.0
  0
LINE
  5
BE2
330
1D
100
AcDbEntity
  8
0
100
AcDbLine
 10
293.1862
 20
277.074
 30
0.0
 11
287.4903
 21
276.6649
 31
0.0
  0
LINE
  5
BE3
330
1D
100
AcDbEntity
  8
0
100
AcDbLine
 10
298.8561
 20
276.3978
 30
0.0
 11
296.0377
 21
276.8709
 31
0.0
  0
LINE
  5
BE4
330
1D
100
AcDbEntity
  8
0
100
AcDbLine
 10
274.4726
 20
223.0546
 30
0.0
 11
272.2689
 21
224.8731
 31
0.0
  0
LINE
  5
BE5
330
1D
100
AcDbEntity
  8
0
100
AcDbLine
 10
272.2689
 20
224.8731
 30
0.0
 11
270.2475
 21
226.8926
 31
0.0
  0
LINE
  5
BE6
330
1D
100
AcDbEntity
  8
0
100
AcDbLine
 10
265.4576
 20
233.9675
 30
0.0
 11
264.3333
 21
236.5922
 31
0.0
  0
LINE
  5
BE7
330
1D
100
AcDbEntity
  8
0
100
AcDbLine
 10
270.2475
 20
226.8926
 30
0.0
 11
268.4282
 21
229.0952
 31
0.0
  0
LINE
  5
BE8
330
1D
100
AcDbEntity
  8
0
100
AcDbLine
 10
262.5171
 20
244.9394
 30
0.0
 11
262.4669
 21
247.074
 31
0.0
  0
LINE
  5
BE9
330
1D
100
AcDbEntity
  8
0
100
AcDbLine
 10
264.3333
 20
236.5922
 30
0.0
 11
263.4632
 21
239.3129
 31
0.0
  0
LINE
  5
BEA
330
1D
100
AcDbEntity
  8
0
100
AcDbLine
 10
268.4282
 20
229.0952
 30
0.0
 11
265.4576
 21
233.9675
 31
0.0
  0
LINE
  5
BEB
330
1D
100
AcDbEntity
  8
0
100
AcDbLine
 10
263.4632
 20
239.3129
 30
0.0
 11
262.5171
 21
244.9394
 31
0.0
  0
LINE
  5
BEC
330
1D
100
AcDbEntity
  8
0
100
AcDbLine
 10
263.4632
 20
254.8351
 30
0.0
 11
262.5171
 21
249.2086
 31
0.0
  0
LINE
  5
BED
330
1D
100
AcDbEntity
  8
0
100
AcDbLine
 10
268.4282
 20
265.0528
 30
0.0
 11
265.4576
 21
260.1805
 31
0.0
  0
LINE
  5
BEE
330
1D
100
AcDbEntity
  8
0
100
AcDbLine
 10
264.3333
 20
257.5558
 30
0.0
 11
263.4632
 21
254.8351
 31
0.0
  0
LINE
  5
BEF
330
1D
100
AcDbEntity
  8
0
100
AcDbLine
 10
262.5171
 20
249.2086
 30
0.0
 11
262.4669
 21
247.074
 31
0.0
  0
LINE
  5
BF0
330
1D
100
AcDbEntity
  8
0
100
AcDbLine
 10
270.2475
 20
267.2554
 30
0.0
 11
268.4282
 21
265.0528
 31
0.0
  0
LINE
  5
BF1
330
1D
100
AcDbEntity
  8
0
100
AcDbLine
 10
265.4576
 20
260.1805
 30
0.0
 11
264.3333
 21
257.5558
 31
0.0
  0
LINE
  5
BF2
330
1D
100
AcDbEntity
  8
0
100
AcDbLine
 10
272.2689
 20
269.2749
 30
0.0
 11
270.2475
 21
267.2554
 31
0.0
  0
LINE
  5
BF3
330
1D
100
AcDbEntity
  8
0
100
AcDbLine
 10
274.4726
 20
271.0934
 30
0.0
 11
272.2689
 21
269.2749
 31
0.0
  0
LINE
  5
BF4
330
1D
100
AcDbEntity
  8
0
100
AcDbLine
 10
215.3312
 20
260.3951
 30
0.0
 11
213.8738
 21
263.3866
 31
0.0
  0
LINE
  5
BF5
330
1D
100
AcDbEntity
  8
0
100
AcDbLine
 10
201.4632
 20
261.782
 30
0.0
 11
200.0288
 21
263.4754
 31
0.0
  0
LINE
  5
BF6
330
1D
100
AcDbEntity
  8
0
100
AcDbLine
 10
198.57918598432
 20
261.777753215255
 30
0.0
 11
196.282990967189
 21
264.024030949405
 31
0.0
  0
LINE
  5
BF7
330
1D
100
AcDbEntity
  8
0
100
AcDbLine
 10
206.7047
 20
220.7766
 30
0.0
 11
204.137
 21
218.6588
 31
0.0
  0
LINE
  5
BF8
330
1D
100
AcDbEntity
  8
0
100
AcDbLine
 10
206.0876
 20
246.0876
 30
0.0
 11
206.0125
 21
245.2558
 31
0.0
  0
LINE
  5
BF9
330
1D
100
AcDbEntity
  8
0
100
AcDbLine
 10
206.1456
 20
248.1984
 30
0.0
 11
206.0365
 21
250.1015
 31
0.0
  0
LINE
  5
BFA
330
1D
100
AcDbEntity
  8
0
100
AcDbLine
 10
217.6769
 20
240.8434
 30
0.0
 11
216.9687
 21
237.5933
 31
0.0
  0
LINE
  5
BFB
330
1D
100
AcDbEntity
  8
0
100
AcDbLine
 10
218.072
 20
244.1455
 30
0.0
 11
217.6769
 21
240.8434
 31
0.0
  0
LINE
  5
BFC
330
1D
100
AcDbEntity
  8
0
100
AcDbLine
 10
217.9119
 20
250.7875
 30
0.0
 11
217.3588
 21
254.0676
 31
0.0
  0
LINE
  5
BFD
330
1D
100
AcDbEntity
  8
0
100
AcDbLine
 10
218.15
 20
247.4705
 30
0.0
 11
218.072
 21
244.1455
 31
0.0
  0
LINE
  5
BFE
330
1D
100
AcDbEntity
  8
0
100
AcDbLine
 10
218.15
 20
247.4705
 30
0.0
 11
217.9119
 21
250.7875
 31
0.0
  0
LINE
  5
BFF
330
1D
100
AcDbEntity
  8
0
100
AcDbLine
 10
216.9687
 20
237.5933
 30
0.0
 11
215.9554
 21
234.4251
 31
0.0
  0
LINE
  5
C00
330
1D
100
AcDbEntity
  8
0
100
AcDbLine
 10
215.9554
 20
234.4251
 30
0.0
 11
214.644
 21
231.3677
 31
0.0
  0
LINE
  5
C01
330
1D
100
AcDbEntity
  8
0
100
AcDbLine
 10
216.4955
 20
257.2797
 30
0.0
 11
215.3312
 21
260.3951
 31
0.0
  0
LINE
  5
C02
330
1D
100
AcDbEntity
  8
0
100
AcDbLine
 10
211.181
 20
225.6932
 30
0.0
 11
209.0604
 21
223.129
 31
0.0
  0
LINE
  5
C03
330
1D
100
AcDbEntity
  8
0
100
AcDbLine
 10
213.0485
 20
228.4481
 30
0.0
 11
211.181
 21
225.6932
 31
0.0
  0
LINE
  5
C04
330
1D
100
AcDbEntity
  8
0
100
AcDbLine
 10
214.644
 20
231.3677
 30
0.0
 11
213.0485
 21
228.4481
 31
0.0
  0
LINE
  5
C05
330
1D
100
AcDbEntity
  8
0
100
AcDbLine
 10
217.3588
 20
254.0676
 30
0.0
 11
216.4955
 21
257.2797
 31
0.0
  0
LINE
  5
C06
330
1D
100
AcDbEntity
  8
0
100
AcDbLine
 10
209.0604
 20
223.129
 30
0.0
 11
206.7047
 21
220.7766
 31
0.0
  0
LINE
  5
C07
330
1D
100
AcDbEntity
  8
0
100
AcDbLine
 10
206.1456
 20
248.1984
 30
0.0
 11
206.0876
 21
246.0876
 31
0.0
  0
LINE
  5
C08
330
1D
100
AcDbEntity
  8
0
100
AcDbLine
 10
205.6684
 20
243.0521
 30
0.0
 11
205.1143
 21
240.8874
 31
0.0
  0
LINE
  5
C09
330
1D
100
AcDbEntity
  8
0
100
AcDbLine
 10
205.1143
 20
240.8874
 30
0.0
 11
204.475573488186
 21
239.118845100345
 31
0.0
  0
LINE
  5
C0A
330
1D
100
AcDbEntity
  8
0
100
AcDbLine
 10
206.0125
 20
245.2558
 30
0.0
 11
205.6684
 21
243.0521
 31
0.0
  0
LINE
  5
C0B
330
1D
100
AcDbEntity
  8
0
100
AcDbLine
 10
204.137
 20
218.6588
 30
0.0
 11
204.082299567173
 21
218.621850747563
 31
0.0
  0
LINE
  5
C0C
330
1D
100
AcDbEntity
  8
0
100
AcDbLine
 10
205.7735
 20
251.9887
 30
0.0
 11
205.3573
 21
253.8489
 31
0.0
  0
LINE
  5
C0D
330
1D
100
AcDbEntity
  8
0
100
AcDbLine
 10
205.3573
 20
253.8489
 30
0.0
 11
204.6792
 21
255.9677
 31
0.0
  0
LINE
  5
C0E
330
1D
100
AcDbEntity
  8
0
100
AcDbLine
 10
204.6792
 20
255.9677
 30
0.0
 11
203.7999
 21
258.0096
 31
0.0
  0
LINE
  5
C0F
330
1D
100
AcDbEntity
  8
0
100
AcDbLine
 10
206.0365
 20
250.1015
 30
0.0
 11
205.7735
 21
251.9887
 31
0.0
  0
LINE
  5
C10
330
1D
100
AcDbEntity
  8
0
100
AcDbLine
 10
203.7999
 20
258.0096
 30
0.0
 11
202.7246
 21
259.9537
 31
0.0
  0
LINE
  5
C11
330
1D
100
AcDbEntity
  8
0
100
AcDbLine
 10
202.7246
 20
259.9537
 30
0.0
 11
201.4632
 21
261.782
 31
0.0
  0
LINE
  5
C12
330
1D
100
AcDbEntity
  8
0
100
AcDbLine
 10
204.3961
 20
246.0087
 30
0.0
 11
203.820500697335
 21
250.246860846621
 31
0.0
  0
LINE
  5
C13
330
1D
100
AcDbEntity
  8
0
100
AcDbLine
 10
203.820500697335
 20
250.246860846621
 30
0.0
 11
202.772237754732
 21
254.539747182996
 31
0.0
  0
LINE
  5
C14
330
1D
100
AcDbEntity
  8
0
100
AcDbLine
 10
202.772237754732
 20
254.539747182996
 30
0.0
 11
201.174884699337
 21
258.133791557635
 31
0.0
  0
LINE
  5
C15
330
1D
100
AcDbEntity
  8
0
100
AcDbLine
 10
201.174884699337
 20
258.133791557635
 30
0.0
 11
198.57918598432
 21
261.777753215255
 31
0.0
  0
LINE
  5
C16
330
1D
100
AcDbEntity
  8
0
100
AcDbLine
 10
207.9011
 20
271.3486
 30
0.0
 11
205.4354
 21
273.5843
 31
0.0
  0
LINE
  5
C17
330
1D
100
AcDbEntity
  8
0
100
AcDbLine
 10
212.1393
 20
266.2263
 30
0.0
 11
210.1427
 21
268.8873
 31
0.0
  0
LINE
  5
C18
330
1D
100
AcDbEntity
  8
0
100
AcDbLine
 10
213.8738
 20
263.3866
 30
0.0
 11
212.1393
 21
266.2263
 31
0.0
  0
LINE
  5
C19
330
1D
100
AcDbEntity
  8
0
100
AcDbLine
 10
210.1427
 20
268.8873
 30
0.0
 11
207.9011
 21
271.3486
 31
0.0
  0
LINE
  5
C1A
330
1D
100
AcDbEntity
  8
0
100
AcDbLine
 10
194.7993
 20
267.6162
 30
0.0
 11
192.809
 21
268.6327
 31
0.0
  0
LINE
  5
C1B
330
1D
100
AcDbEntity
  8
0
100
AcDbLine
 10
196.9249
 20
278.7605
 30
0.0
 11
193.803
 21
279.9217
 31
0.0
  0
LINE
  5
C1C
330
1D
100
AcDbEntity
  8
0
100
AcDbLine
 10
196.282990967189
 20
264.024030949405
 30
0.0
 11
193.4729
 21
265.9357
 31
0.0
  0
LINE
  5
C1D
330
1D
100
AcDbEntity
  8
0
100
AcDbLine
 10
200.0288
 20
263.4754
 30
0.0
 11
198.4344
 21
265.0191
 31
0.0
  0
LINE
  5
C1E
330
1D
100
AcDbEntity
  8
0
100
AcDbLine
 10
198.4344
 20
265.0191
 30
0.0
 11
196.6819
 21
266.407
 31
0.0
  0
LINE
  5
C1F
330
1D
100
AcDbEntity
  8
0
100
AcDbLine
 10
196.6819
 20
266.407
 30
0.0
 11
194.7993
 21
267.6162
 31
0.0
  0
LINE
  5
C20
330
1D
100
AcDbEntity
  8
0
100
AcDbLine
 10
202.7676
 20
275.5773
 30
0.0
 11
199.9228
 21
277.3077
 31
0.0
  0
LINE
  5
C21
330
1D
100
AcDbEntity
  8
0
100
AcDbLine
 10
205.4354
 20
273.5843
 30
0.0
 11
202.7676
 21
275.5773
 31
0.0
  0
LINE
  5
C22
330
1D
100
AcDbEntity
  8
0
100
AcDbLine
 10
199.9228
 20
277.3077
 30
0.0
 11
196.9249
 21
278.7605
 31
0.0
  0
LINE
  5
C23
330
1D
100
AcDbEntity
  8
0
100
AcDbLine
 10
185.637
 20
268.794358895706
 30
0.0
 11
185.637
 21
284.7745
 31
0.0
  0
LINE
  5
C24
330
1D
100
AcDbEntity
  8
0
100
AcDbLine
 10
185.637
 20
284.7745
 30
0.0
 11
185.637
 21
268.794358895706
 31
0.0
  0
LINE
  5
C25
330
1D
100
AcDbEntity
  8
0
100
AcDbLine
 10
190.73
 20
269.4515
 30
0.0
 11
188.584
 21
270.0665
 31
0.0
  0
LINE
  5
C26
330
1D
100
AcDbEntity
  8
0
100
AcDbLine
 10
190.549
 20
267.2568
 30
0.0
 11
187.483
 21
268.2213
 31
0.0
  0
LINE
  5
C27
330
1D
100
AcDbEntity
  8
0
100
AcDbLine
 10
193.4729
 20
265.9357
 30
0.0
 11
190.549
 21
267.2568
 31
0.0
  0
LINE
  5
C28
330
1D
100
AcDbEntity
  8
0
100
AcDbLine
 10
192.809
 20
268.6327
 30
0.0
 11
190.73
 21
269.4515
 31
0.0
  0
LINE
  5
C29
330
1D
100
AcDbEntity
  8
0
100
AcDbLine
 10
187.483
 20
268.2213
 30
0.0
 11
184.26
 21
268.6127
 31
0.0
  0
LINE
  5
C2A
330
1D
100
AcDbEntity
  8
0
100
AcDbLine
 10
185.099
 20
268.8264
 30
0.0
 11
184.447
 21
268.8614
 31
0.0
  0
LINE
  5
C2B
330
1D
100
AcDbEntity
  8
0
100
AcDbLine
 10
185.575
 20
268.7955
 30
0.0
 11
185.099
 21
268.8264
 31
0.0
  0
LINE
  5
C2C
330
1D
100
AcDbEntity
  8
0
100
AcDbLine
 10
186.391
 20
270.4749
 30
0.0
 11
185.637
 21
270.529841259564
 31
0.0
  0
LINE
  5
C2D
330
1D
100
AcDbEntity
  8
0
100
AcDbLine
 10
188.584
 20
270.0665
 30
0.0
 11
186.391
 21
270.4749
 31
0.0
  0
LINE
  5
C2E
330
1D
100
AcDbEntity
  8
0
100
AcDbLine
 10
190.585
 20
280.7825
 30
0.0
 11
187.3
 21
281.3326
 31
0.0
  0
LINE
  5
C2F
330
1D
100
AcDbEntity
  8
0
100
AcDbLine
 10
193.803
 20
279.9217
 30
0.0
 11
190.585
 21
280.7825
 31
0.0
  0
LINE
  5
C30
330
1D
100
AcDbEntity
  8
0
100
AcDbLine
 10
185.597
 20
284.9242
 30
0.0
 11
185.487
 21
285.0341
 31
0.0
  0
LINE
  5
C31
330
1D
100
AcDbEntity
  8
0
100
AcDbLine
 10
185.487
 20
285.0341
 30
0.0
 11
185.348
 21
285.074
 31
0.0
  0
LINE
  5
C32
330
1D
100
AcDbEntity
  8
0
100
AcDbLine
 10
185.348
 20
285.074
 30
0.0
 11
185.254
 21
285.074
 31
0.0
  0
LINE
  5
C33
330
1D
100
AcDbEntity
  8
0
100
AcDbLine
 10
185.254
 20
285.074
 30
0.0
 11
185.038
 21
285.074
 31
0.0
  0
LINE
  5
C34
330
1D
100
AcDbEntity
  8
0
100
AcDbLine
 10
185.038
 20
285.074
 30
0.0
 11
184.713
 21
285.074
 31
0.0
  0
LINE
  5
C35
330
1D
100
AcDbEntity
  8
0
100
AcDbLine
 10
184.713
 20
285.074
 30
0.0
 11
184.297
 21
285.074
 31
0.0
  0
LINE
  5
C36
330
1D
100
AcDbEntity
  8
0
100
AcDbLine
 10
183.814
 20
285.074
 30
0.0
 11
183.293
 21
285.074
 31
0.0
  0
LINE
  5
C37
330
1D
100
AcDbEntity
  8
0
100
AcDbLine
 10
184.297
 20
285.074
 30
0.0
 11
183.814
 21
285.074
 31
0.0
  0
LINE
  5
C38
330
1D
100
AcDbEntity
  8
0
100
AcDbLine
 10
184.297
 20
285.074
 30
0.0
 11
183.293
 21
285.074
 31
0.0
  0
LINE
  5
C39
330
1D
100
AcDbEntity
  8
0
100
AcDbLine
 10
185.637
 20
284.7745
 30
0.0
 11
185.597
 21
284.9242
 31
0.0
  0
LINE
  5
C3A
330
1D
100
AcDbEntity
  8
0
100
AcDbLine
 10
187.3
 20
281.3326
 30
0.0
 11
185.637
 21
281.451021209386
 31
0.0
  0
LINE
  5
DB9
330
1D
100
AcDbEntity
  8
0
100
AcDbLine
 10
412.386
 20
1.725
 30
0.0
 11
410.679
 21
1.137
 31
0.0
  0
LINE
  5
DBA
330
1D
100
AcDbEntity
  8
0
100
AcDbLine
 10
426.394
 20
221.1609
 30
0.0
 11
423.825
 21
219.0401
 31
0.0
  0
LINE
  5
DBB
330
1D
100
AcDbEntity
  8
0
100
AcDbLine
 10
418.862
 20
242.0337
 30
0.0
 11
418.862
 21
216.1938
 31
0.0
  0
LINE
  5
DBC
330
1D
100
AcDbEntity
  8
0
100
AcDbLine
 10
418.665
 20
218.1124
 30
0.0
 11
418.078
 21
219.9849
 31
0.0
  0
LINE
  5
DBD
330
1D
100
AcDbEntity
  8
0
100
AcDbLine
 10
418.862
 20
216.1938
 30
0.0
 11
418.862
 21
242.0337
 31
0.0
  0
LINE
  5
DBE
330
1D
100
AcDbEntity
  8
0
100
AcDbLine
 10
417.416
 20
218.9731
 30
0.0
 11
416.62
 21
220.7715
 31
0.0
  0
LINE
  5
DBF
330
1D
100
AcDbEntity
  8
0
100
AcDbLine
 10
416.594
 20
103.208
 30
0.0
 11
416.47
 21
111.279
 31
0.0
  0
LINE
  5
DC0
330
1D
100
AcDbEntity
  8
0
100
AcDbLine
 10
416.594
 20
103.18
 30
0.0
 11
416.47
 21
111.251
 31
0.0
  0
LINE
  5
DC1
330
1D
100
AcDbEntity
  8
0
100
AcDbLine
 10
416.85
 20
66.175
 30
0.0
 11
416.796
 21
52.22
 31
0.0
  0
LINE
  5
DC2
330
1D
100
AcDbEntity
  8
0
100
AcDbLine
 10
416.85
 20
66.147
 30
0.0
 11
416.796
 21
52.192
 31
0.0
  0
LINE
  5
DC3
330
1D
100
AcDbEntity
  8
0
100
AcDbLine
 10
416.594
 20
29.142
 30
0.0
 11
416.47
 21
21.07
 31
0.0
  0
LINE
  5
DC4
330
1D
100
AcDbEntity
  8
0
100
AcDbLine
 10
416.594
 20
29.114
 30
0.0
 11
416.47
 21
21.043
 31
0.0
  0
LINE
  5
DC5
330
1D
100
AcDbEntity
  8
0
100
AcDbLine
 10
410.679
 20
1.137
 30
0.0
 11
408.375
 21
0.434
 31
0.0
  0
LINE
  5
DC6
330
1D
100
AcDbEntity
  8
0
100
AcDbLine
 10
416.345
 20
15.759
 30
0.0
 11
416.237
 21
12.603
 31
0.0
  0
LINE
  5
DC7
330
1D
100
AcDbEntity
  8
0
100
AcDbLine
 10
415.864
 20
7.907
 30
0.0
 11
415.563
 21
6.016
 31
0.0
  0
LINE
  5
DC8
330
1D
100
AcDbEntity
  8
0
100
AcDbLine
 10
416.237
 20
12.603
 30
0.0
 11
416.097
 21
9.962
 31
0.0
  0
LINE
  5
DC9
330
1D
100
AcDbEntity
  8
0
100
AcDbLine
 10
416.097
 20
9.962
 30
0.0
 11
415.864
 21
7.907
 31
0.0
  0
LINE
  5
DCA
330
1D
100
AcDbEntity
  8
0
100
AcDbLine
 10
415.563
 20
6.016
 30
0.0
 11
415.163
 21
4.589
 31
0.0
  0
LINE
  5
DCB
330
1D
100
AcDbEntity
  8
0
100
AcDbLine
 10
415.163
 20
4.589
 30
0.0
 11
414.728
 21
3.487
 31
0.0
  0
LINE
  5
DCC
330
1D
100
AcDbEntity
  8
0
100
AcDbLine
 10
414.728
 20
3.487
 30
0.0
 11
414.17
 21
2.826
 31
0.0
  0
LINE
  5
DCD
330
1D
100
AcDbEntity
  8
0
100
AcDbLine
 10
414.17
 20
2.826
 30
0.0
 11
413.503
 21
2.313
 31
0.0
  0
LINE
  5
DCE
330
1D
100
AcDbEntity
  8
0
100
AcDbLine
 10
413.503
 20
2.313
 30
0.0
 11
412.386
 21
1.725
 31
0.0
  0
LINE
  5
DCF
330
1D
100
AcDbEntity
  8
0
100
AcDbLine
 10
416.47
 20
21.07
 30
0.0
 11
416.345
 21
15.787
 31
0.0
  0
LINE
  5
DD0
330
1D
100
AcDbEntity
  8
0
100
AcDbLine
 10
416.47
 20
21.043
 30
0.0
 11
416.345
 21
15.759
 31
0.0
  0
LINE
  5
DD1
330
1D
100
AcDbEntity
  8
0
100
AcDbLine
 10
408.375
 20
0.434
 30
0.0
 11
405.8
 21
0.179
 31
0.0
  0
LINE
  5
DD2
330
1D
100
AcDbEntity
  8
0
100
AcDbLine
 10
405.8
 20
0.179
 30
0.0
 11
402.85
 21
-0.074
 31
0.0
  0
LINE
  5
DD3
330
1D
100
AcDbEntity
  8
0
100
AcDbLine
 10
416.743
 20
40.041
 30
0.0
 11
416.594
 21
29.142
 31
0.0
  0
LINE
  5
DD4
330
1D
100
AcDbEntity
  8
0
100
AcDbLine
 10
416.743
 20
40.014
 30
0.0
 11
416.594
 21
29.114
 31
0.0
  0
LINE
  5
DD5
330
1D
100
AcDbEntity
  8
0
100
AcDbLine
 10
416.796
 20
52.22
 30
0.0
 11
416.743
 21
40.041
 31
0.0
  0
LINE
  5
DD6
330
1D
100
AcDbEntity
  8
0
100
AcDbLine
 10
416.796
 20
52.192
 30
0.0
 11
416.743
 21
40.014
 31
0.0
  0
LINE
  5
DD7
330
1D
100
AcDbEntity
  8
0
100
AcDbLine
 10
416.85
 20
66.175
 30
0.0
 11
416.796
 21
80.13
 31
0.0
  0
LINE
  5
DD8
330
1D
100
AcDbEntity
  8
0
100
AcDbLine
 10
416.85
 20
66.147
 30
0.0
 11
416.796
 21
80.102
 31
0.0
  0
LINE
  5
DD9
330
1D
100
AcDbEntity
  8
0
100
AcDbLine
 10
416.743
 20
92.308
 30
0.0
 11
416.594
 21
103.208
 31
0.0
  0
LINE
  5
DDA
330
1D
100
AcDbEntity
  8
0
100
AcDbLine
 10
416.796
 20
80.13
 30
0.0
 11
416.743
 21
92.308
 31
0.0
  0
LINE
  5
DDB
330
1D
100
AcDbEntity
  8
0
100
AcDbLine
 10
416.743
 20
92.281
 30
0.0
 11
416.594
 21
103.18
 31
0.0
  0
LINE
  5
DDC
330
1D
100
AcDbEntity
  8
0
100
AcDbLine
 10
416.796
 20
80.102
 30
0.0
 11
416.743
 21
92.281
 31
0.0
  0
LINE
  5
DDD
330
1D
100
AcDbEntity
  8
0
100
AcDbLine
 10
423.825
 20
219.0401
 30
0.0
 11
421.066
 21
217.1726
 31
0.0
  0
LINE
  5
DDE
330
1D
100
AcDbEntity
  8
0
100
AcDbLine
 10
414.85
 20
160.8962
 30
0.0
 11
414.85
 21
173.7206
 31
0.0
  0
LINE
  5
DDF
330
1D
100
AcDbEntity
  8
0
100
AcDbLine
 10
414.85
 20
173.7206
 30
0.0
 11
414.85
 21
160.8962
 31
0.0
  0
LINE
  5
DE0
330
1D
100
AcDbEntity
  8
0
100
AcDbLine
 10
415.046
 20
136.726
 30
0.0
 11
414.85
 21
144.501
 31
0.0
  0
LINE
  5
DE1
330
1D
100
AcDbEntity
  8
0
100
AcDbLine
 10
416.097
 20
122.36
 30
0.0
 11
415.864
 21
124.415
 31
0.0
  0
LINE
  5
DE2
330
1D
100
AcDbEntity
  8
0
100
AcDbLine
 10
416.47
 20
111.279
 30
0.0
 11
416.345
 21
116.563
 31
0.0
  0
LINE
  5
DE3
330
1D
100
AcDbEntity
  8
0
100
AcDbLine
 10
416.345
 20
116.563
 30
0.0
 11
416.237
 21
119.719
 31
0.0
  0
LINE
  5
DE4
330
1D
100
AcDbEntity
  8
0
100
AcDbLine
 10
416.345
 20
116.535
 30
0.0
 11
416.237
 21
119.69
 31
0.0
  0
LINE
  5
DE5
330
1D
100
AcDbEntity
  8
0
100
AcDbLine
 10
416.47
 20
111.251
 30
0.0
 11
416.345
 21
116.535
 31
0.0
  0
LINE
  5
DE6
330
1D
100
AcDbEntity
  8
0
100
AcDbLine
 10
416.237
 20
119.719
 30
0.0
 11
416.097
 21
122.36
 31
0.0
  0
LINE
  5
DE7
330
1D
100
AcDbEntity
  8
0
100
AcDbLine
 10
415.831469601713
 20
124.498169100234
 30
0.0
 11
415.624
 21
127.498
 31
0.0
  0
LINE
  5
DE8
330
1D
100
AcDbEntity
  8
0
100
AcDbLine
 10
415.37
 20
131.662
 30
0.0
 11
415.046
 21
136.726
 31
0.0
  0
LINE
  5
DE9
330
1D
100
AcDbEntity
  8
0
100
AcDbLine
 10
415.485
 20
130.009
 30
0.0
 11
415.37
 21
131.662
 31
0.0
  0
LINE
  5
DEA
330
1D
100
AcDbEntity
  8
0
100
AcDbLine
 10
415.624
 20
127.498
 30
0.0
 11
415.485
 21
130.009
 31
0.0
  0
LINE
  5
DEB
330
1D
100
AcDbEntity
  8
0
100
AcDbLine
 10
414.85
 20
144.501
 30
0.0
 11
414.85
 21
152.6986
 31
0.0
  0
LINE
  5
DEC
330
1D
100
AcDbEntity
  8
0
100
AcDbLine
 10
414.85
 20
152.6986
 30
0.0
 11
414.85
 21
144.501
 31
0.0
  0
LINE
  5
DED
330
1D
100
AcDbEntity
  8
0
100
AcDbLine
 10
414.85
 20
152.6986
 30
0.0
 11
414.85
 21
160.8962
 31
0.0
  0
LINE
  5
DEE
330
1D
100
AcDbEntity
  8
0
100
AcDbLine
 10
414.85
 20
160.8962
 30
0.0
 11
414.85
 21
152.6986
 31
0.0
  0
LINE
  5
DEF
330
1D
100
AcDbEntity
  8
0
100
AcDbLine
 10
414.85
 20
189.4672
 30
0.0
 11
414.85
 21
211.5641
 31
0.0
  0
LINE
  5
DF0
330
1D
100
AcDbEntity
  8
0
100
AcDbLine
 10
414.85
 20
211.5641
 30
0.0
 11
414.85
 21
189.4672
 31
0.0
  0
LINE
  5
DF1
330
1D
100
AcDbEntity
  8
0
100
AcDbLine
 10
414.85
 20
173.7206
 30
0.0
 11
414.85
 21
189.4672
 31
0.0
  0
LINE
  5
DF2
330
1D
100
AcDbEntity
  8
0
100
AcDbLine
 10
414.85
 20
189.4672
 30
0.0
 11
414.85
 21
173.7206
 31
0.0
  0
LINE
  5
DF3
330
1D
100
AcDbEntity
  8
0
100
AcDbLine
 10
411.432
 20
213.0032
 30
0.0
 11
402.85
 21
213.7218
 31
0.0
  0
LINE
  5
DF4
330
1D
100
AcDbEntity
  8
0
100
AcDbLine
 10
409.423
 20
213.8319
 30
0.0
 11
407.234
 21
214.5665
 31
0.0
  0
LINE
  5
DF5
330
1D
100
AcDbEntity
  8
0
100
AcDbLine
 10
410.046
 20
216.6372
 30
0.0
 11
407.781
 21
217.4068
 31
0.0
  0
LINE
  5
DF6
330
1D
100
AcDbEntity
  8
0
100
AcDbLine
 10
409.567
 20
215.3201
 30
0.0
 11
407.451
 21
216.0387
 31
0.0
  0
LINE
  5
DF7
330
1D
100
AcDbEntity
  8
0
100
AcDbLine
 10
409.567
 20
214.2263
 30
0.0
 11
407.451
 21
214.9458
 31
0.0
  0
LINE
  5
DF8
330
1D
100
AcDbEntity
  8
0
100
AcDbLine
 10
417.805
 20
205.5493
 30
0.0
 11
417.387
 21
203.6767
 31
0.0
  0
LINE
  5
DF9
330
1D
100
AcDbEntity
  8
0
100
AcDbLine
 10
416.556
 20
204.8627
 30
0.0
 11
416.292
 21
206.6822
 31
0.0
  0
LINE
  5
DFA
330
1D
100
AcDbEntity
  8
0
100
AcDbLine
 10
416.817
 20
205.6513
 30
0.0
 11
416.808
 21
203.8789
 31
0.0
  0
LINE
  5
DFB
330
1D
100
AcDbEntity
  8
0
100
AcDbLine
 10
416.156
 20
204.3743
 30
0.0
 11
416.009
 21
206.1477
 31
0.0
  0
LINE
  5
DFC
330
1D
100
AcDbEntity
  8
0
100
AcDbLine
 10
417.387
 20
203.6767
 30
0.0
 11
416.573
 21
201.8833
 31
0.0
  0
LINE
  5
DFD
330
1D
100
AcDbEntity
  8
0
100
AcDbLine
 10
416.573
 20
201.8833
 30
0.0
 11
415.839571240335
 21
200.855451099891
 31
0.0
  0
LINE
  5
DFE
330
1D
100
AcDbEntity
  8
0
100
AcDbLine
 10
416.404
 20
203.0352
 30
0.0
 11
415.841
 21
201.2558
 31
0.0
  0
LINE
  5
DFF
330
1D
100
AcDbEntity
  8
0
100
AcDbLine
 10
416.418
 20
202.1315
 30
0.0
 11
415.659
 21
200.4571
 31
0.0
  0
LINE
  5
E00
330
1D
100
AcDbEntity
  8
0
100
AcDbLine
 10
416.808
 20
203.8789
 30
0.0
 11
416.418
 21
202.1315
 31
0.0
  0
LINE
  5
E01
330
1D
100
AcDbEntity
  8
0
100
AcDbLine
 10
416.556
 20
204.8627
 30
0.0
 11
416.404
 21
203.0352
 31
0.0
  0
LINE
  5
E02
330
1D
100
AcDbEntity
  8
0
100
AcDbLine
 10
416.156
 20
204.3743
 30
0.0
 11
415.9
 21
202.6069
 31
0.0
  0
LINE
  5
E03
330
1D
100
AcDbEntity
  8
0
100
AcDbLine
 10
415.841
 20
201.2558
 30
0.0
 11
414.882
 21
199.5794
 31
0.0
  0
LINE
  5
E04
330
1D
100
AcDbEntity
  8
0
100
AcDbLine
 10
415.9
 20
202.6069
 30
0.0
 11
415.246
 21
200.9015
 31
0.0
  0
LINE
  5
E05
330
1D
100
AcDbEntity
  8
0
100
AcDbLine
 10
415.659
 20
200.4571
 30
0.0
 11
414.85
 21
199.323625405405
 31
0.0
  0
LINE
  5
E06
330
1D
100
AcDbEntity
  8
0
100
AcDbLine
 10
415.246
 20
200.9015
 30
0.0
 11
414.85
 21
200.289314757282
 31
0.0
  0
LINE
  5
E07
330
1D
100
AcDbEntity
  8
0
100
AcDbLine
 10
416.62
 20
211.1218
 30
0.0
 11
415.449
 21
212.7961
 31
0.0
  0
LINE
  5
E08
330
1D
100
AcDbEntity
  8
0
100
AcDbLine
 10
416.445
 20
208.4946
 30
0.0
 11
415.703
 21
210.174
 31
0.0
  0
LINE
  5
E09
330
1D
100
AcDbEntity
  8
0
100
AcDbLine
 10
416.292
 20
206.6822
 30
0.0
 11
415.618
 21
208.4386
 31
0.0
  0
LINE
  5
E0A
330
1D
100
AcDbEntity
  8
0
100
AcDbLine
 10
416.445
 20
207.4008
 30
0.0
 11
415.703
 21
209.0801
 31
0.0
  0
LINE
  5
E0B
330
1D
100
AcDbEntity
  8
0
100
AcDbLine
 10
416.009
 20
206.1477
 30
0.0
 11
415.461
 21
207.8751
 31
0.0
  0
LINE
  5
E0C
330
1D
100
AcDbEntity
  8
0
100
AcDbLine
 10
421.066
 20
217.1726
 30
0.0
 11
418.837714013966
 21
215.957289014181
 31
0.0
  0
LINE
  5
E0D
330
1D
100
AcDbEntity
  8
0
100
AcDbLine
 10
418.862
 20
216.1938
 30
0.0
 11
418.665
 21
214.2753
 31
0.0
  0
LINE
  5
E0E
330
1D
100
AcDbEntity
  8
0
100
AcDbLine
 10
418.862
 20
216.1938
 30
0.0
 11
418.665
 21
218.1124
 31
0.0
  0
LINE
  5
E0F
330
1D
100
AcDbEntity
  8
0
100
AcDbLine
 10
418.665
 20
214.2753
 30
0.0
 11
418.078
 21
212.4038
 31
0.0
  0
LINE
  5
E10
330
1D
100
AcDbEntity
  8
0
100
AcDbLine
 10
417.815
 20
207.4488
 30
0.0
 11
417.805
 21
205.5493
 31
0.0
  0
LINE
  5
E11
330
1D
100
AcDbEntity
  8
0
100
AcDbLine
 10
417.815
 20
207.4488
 30
0.0
 11
417.416
 21
209.3233
 31
0.0
  0
LINE
  5
E12
330
1D
100
AcDbEntity
  8
0
100
AcDbLine
 10
417.815
 20
207.4488
 30
0.0
 11
417.815
 21
217.0986
 31
0.0
  0
LINE
  5
E13
330
1D
100
AcDbEntity
  8
0
100
AcDbLine
 10
416.817
 20
206.7452
 30
0.0
 11
416.817
 21
205.6513
 31
0.0
  0
LINE
  5
E14
330
1D
100
AcDbEntity
  8
0
100
AcDbLine
 10
416.817
 20
206.7452
 30
0.0
 11
416.445
 21
208.4946
 31
0.0
  0
LINE
  5
E15
330
1D
100
AcDbEntity
  8
0
100
AcDbLine
 10
416.817
 20
205.6513
 30
0.0
 11
416.445
 21
207.4008
 31
0.0
  0
LINE
  5
E16
330
1D
100
AcDbEntity
  8
0
100
AcDbLine
 10
416.817
 20
205.6513
 30
0.0
 11
416.817
 21
206.7452
 31
0.0
  0
LINE
  5
E17
330
1D
100
AcDbEntity
  8
0
100
AcDbLine
 10
417.815
 20
217.0986
 30
0.0
 11
417.815
 21
207.4488
 31
0.0
  0
LINE
  5
E18
330
1D
100
AcDbEntity
  8
0
100
AcDbLine
 10
417.815
 20
217.0986
 30
0.0
 11
417.416
 21
218.9731
 31
0.0
  0
LINE
  5
E19
330
1D
100
AcDbEntity
  8
0
100
AcDbLine
 10
417.416
 20
209.3233
 30
0.0
 11
416.62
 21
211.1218
 31
0.0
  0
LINE
  5
E1A
330
1D
100
AcDbEntity
  8
0
100
AcDbLine
 10
418.078
 20
212.4038
 30
0.0
 11
417.815
 21
211.917099479709
 31
0.0
  0
LINE
  5
E1B
330
1D
100
AcDbEntity
  8
0
100
AcDbLine
 10
415.618
 20
208.4386
 30
0.0
 11
414.85
 21
209.627043773585
 31
0.0
  0
LINE
  5
E1C
330
1D
100
AcDbEntity
  8
0
100
AcDbLine
 10
415.449
 20
212.7961
 30
0.0
 11
413.934
 21
214.2993
 31
0.0
  0
LINE
  5
E1D
330
1D
100
AcDbEntity
  8
0
100
AcDbLine
 10
415.703
 20
210.174
 30
0.0
 11
414.85
 21
211.393251509607
 31
0.0
  0
LINE
  5
E1E
330
1D
100
AcDbEntity
  8
0
100
AcDbLine
 10
415.703
 20
209.0801
 30
0.0
 11
414.85
 21
210.299351509607
 31
0.0
  0
LINE
  5
E1F
330
1D
100
AcDbEntity
  8
0
100
AcDbLine
 10
414.508
 20
212.2836
 30
0.0
 11
411.432
 21
213.0032
 31
0.0
  0
LINE
  5
E20
330
1D
100
AcDbEntity
  8
0
100
AcDbLine
 10
414.85
 20
211.5641
 30
0.0
 11
414.508
 21
212.2836
 31
0.0
  0
LINE
  5
E21
330
1D
100
AcDbEntity
  8
0
100
AcDbLine
 10
415.461
 20
207.8751
 30
0.0
 11
414.85
 21
208.944875591398
 31
0.0
  0
LINE
  5
E22
330
1D
100
AcDbEntity
  8
0
100
AcDbLine
 10
413.919768207165
 20
212.421211052706
 30
0.0
 11
413.196
 21
213.1394
 31
0.0
  0
LINE
  5
E23
330
1D
100
AcDbEntity
  8
0
100
AcDbLine
 10
410.971702998421
 20
213.041742230871
 30
0.0
 11
409.423
 21
213.8319
 31
0.0
  0
LINE
  5
E24
330
1D
100
AcDbEntity
  8
0
100
AcDbLine
 10
412.052723016821
 20
212.857987944439
 30
0.0
 11
411.499
 21
213.2515
 31
0.0
  0
LINE
  5
E25
330
1D
100
AcDbEntity
  8
0
100
AcDbLine
 10
413.196
 20
213.1394
 30
0.0
 11
411.499
 21
214.3454
 31
0.0
  0
LINE
  5
E26
330
1D
100
AcDbEntity
  8
0
100
AcDbLine
 10
411.499
 20
213.2515
 30
0.0
 11
409.567
 21
214.2263
 31
0.0
  0
LINE
  5
E27
330
1D
100
AcDbEntity
  8
0
100
AcDbLine
 10
412.117
 20
215.5914
 30
0.0
 11
410.046
 21
216.6372
 31
0.0
  0
LINE
  5
E28
330
1D
100
AcDbEntity
  8
0
100
AcDbLine
 10
413.934
 20
214.2993
 30
0.0
 11
412.117
 21
215.5914
 31
0.0
  0
LINE
  5
E29
330
1D
100
AcDbEntity
  8
0
100
AcDbLine
 10
411.499
 20
214.3454
 30
0.0
 11
409.567
 21
215.3201
 31
0.0
  0
LINE
  5
E2A
330
1D
100
AcDbEntity
  8
0
100
AcDbLine
 10
407.781
 20
217.4068
 30
0.0
 11
405.38
 21
217.8802
 31
0.0
  0
LINE
  5
E2B
330
1D
100
AcDbEntity
  8
0
100
AcDbLine
 10
407.451
 20
216.0387
 30
0.0
 11
405.211
 21
216.4811
 31
0.0
  0
LINE
  5
E2C
330
1D
100
AcDbEntity
  8
0
100
AcDbLine
 10
407.234
 20
214.5665
 30
0.0
 11
404.911
 21
214.9989
 31
0.0
  0
LINE
  5
E2D
330
1D
100
AcDbEntity
  8
0
100
AcDbLine
 10
407.451
 20
214.9458
 30
0.0
 11
405.211
 21
215.3872
 31
0.0
  0
LINE
  5
E2E
330
1D
100
AcDbEntity
  8
0
100
AcDbLine
 10
405.38
 20
217.8802
 30
0.0
 11
402.909
 21
218.0443
 31
0.0
  0
LINE
  5
E2F
330
1D
100
AcDbEntity
  8
0
100
AcDbLine
 10
405.211
 20
216.4811
 30
0.0
 11
402.905
 21
216.6342
 31
0.0
  0
LINE
  5
E30
330
1D
100
AcDbEntity
  8
0
100
AcDbLine
 10
404.911
 20
214.9989
 30
0.0
 11
402.85
 21
215.0992
 31
0.0
  0
LINE
  5
E31
330
1D
100
AcDbEntity
  8
0
100
AcDbLine
 10
405.211
 20
215.3872
 30
0.0
 11
402.905
 21
215.5403
 31
0.0
  0
LINE
  5
E32
330
1D
100
AcDbEntity
  8
0
100
AcDbLine
 10
402.909
 20
218.0443
 30
0.0
 11
402.85
 21
218.0408
 31
0.0
  0
LINE
  5
E33
330
1D
100
AcDbEntity
  8
0
100
AcDbLine
 10
402.85
 20
215.537
 30
0.0
 11
402.795
 21
215.5403
 31
0.0
  0
LINE
  5
E34
330
1D
100
AcDbEntity
  8
0
100
AcDbLine
 10
402.85
 20
216.6309
 30
0.0
 11
402.795
 21
216.6342
 31
0.0
  0
LINE
  5
E35
330
1D
100
AcDbEntity
  8
0
100
AcDbLine
 10
402.85
 20
218.0408
 30
0.0
 11
402.791
 21
218.0443
 31
0.0
  0
LINE
  5
E36
330
1D
100
AcDbEntity
  8
0
100
AcDbLine
 10
402.905
 20
216.6342
 30
0.0
 11
402.85
 21
216.6309
 31
0.0
  0
LINE
  5
E37
330
1D
100
AcDbEntity
  8
0
100
AcDbLine
 10
402.905
 20
215.5403
 30
0.0
 11
402.85
 21
215.537
 31
0.0
  0
LINE
  5
E38
330
1D
100
AcDbEntity
  8
0
100
AcDbLine
 10
423.733
 20
227.9403
 30
0.0
 11
421.274
 21
225.5624
 31
0.0
  0
LINE
  5
E39
330
1D
100
AcDbEntity
  8
0
100
AcDbLine
 10
424.359
 20
265.4976
 30
0.0
 11
421.981
 21
267.9566
 31
0.0
  0
LINE
  5
E3A
330
1D
100
AcDbEntity
  8
0
100
AcDbLine
 10
425.146
 20
274.0665
 30
0.0
 11
422.48
 21
276.0632
 31
0.0
  0
LINE
  5
E3B
330
1D
100
AcDbEntity
  8
0
100
AcDbLine
 10
427.61
 20
271.8247
 30
0.0
 11
425.146
 21
274.0665
 31
0.0
  0
LINE
  5
E3C
330
1D
100
AcDbEntity
  8
0
100
AcDbLine
 10
437.85
 20
247.8994
 30
0.0
 11
437.77
 21
244.5677
 31
0.0
  0
LINE
  5
E3D
330
1D
100
AcDbEntity
  8
0
100
AcDbLine
 10
431.167
 20
246.6004
 30
0.0
 11
430.904
 21
243.1906
 31
0.0
  0
LINE
  5
E3E
330
1D
100
AcDbEntity
  8
0
100
AcDbLine
 10
436.664
 20
238.0044
 30
0.0
 11
435.649
 21
234.8309
 31
0.0
  0
LINE
  5
E3F
330
1D
100
AcDbEntity
  8
0
100
AcDbLine
 10
437.374
 20
241.2591
 30
0.0
 11
436.664
 21
238.0044
 31
0.0
  0
LINE
  5
E40
330
1D
100
AcDbEntity
  8
0
100
AcDbLine
 10
437.77
 20
244.5677
 30
0.0
 11
437.374
 21
241.2591
 31
0.0
  0
LINE
  5
E41
330
1D
100
AcDbEntity
  8
0
100
AcDbLine
 10
435.649
 20
234.8309
 30
0.0
 11
434.337
 21
231.7674
 31
0.0
  0
LINE
  5
E42
330
1D
100
AcDbEntity
  8
0
100
AcDbLine
 10
427.704
 20
233.4948
 30
0.0
 11
425.886
 21
230.5975
 31
0.0
  0
LINE
  5
E43
330
1D
100
AcDbEntity
  8
0
100
AcDbLine
 10
434.337
 20
231.7674
 30
0.0
 11
432.74
 21
228.8441
 31
0.0
  0
LINE
  5
E44
330
1D
100
AcDbEntity
  8
0
100
AcDbLine
 10
432.74
 20
228.8441
 30
0.0
 11
430.873
 21
226.0848
 31
0.0
  0
LINE
  5
E45
330
1D
100
AcDbEntity
  8
0
100
AcDbLine
 10
430.873
 20
226.0848
 30
0.0
 11
428.751
 21
223.5168
 31
0.0
  0
LINE
  5
E46
330
1D
100
AcDbEntity
  8
0
100
AcDbLine
 10
428.751
 20
223.5168
 30
0.0
 11
426.394
 21
221.1609
 31
0.0
  0
LINE
  5
E47
330
1D
100
AcDbEntity
  8
0
100
AcDbLine
 10
425.886
 20
230.5975
 30
0.0
 11
423.733
 21
227.9403
 31
0.0
  0
LINE
  5
E48
330
1D
100
AcDbEntity
  8
0
100
AcDbLine
 10
430.904
 20
243.1906
 30
0.0
 11
430.231
 21
239.8369
 31
0.0
  0
LINE
  5
E49
330
1D
100
AcDbEntity
  8
0
100
AcDbLine
 10
429.16
 20
236.5893
 30
0.0
 11
427.704
 21
233.4948
 31
0.0
  0
LINE
  5
E4A
330
1D
100
AcDbEntity
  8
0
100
AcDbLine
 10
430.231
 20
239.8369
 30
0.0
 11
429.16
 21
236.5893
 31
0.0
  0
LINE
  5
E4B
330
1D
100
AcDbEntity
  8
0
100
AcDbLine
 10
437.061
 20
254.5088
 30
0.0
 11
436.199
 21
257.7264
 31
0.0
  0
LINE
  5
E4C
330
1D
100
AcDbEntity
  8
0
100
AcDbLine
 10
437.613
 20
251.2231
 30
0.0
 11
437.061
 21
254.5088
 31
0.0
  0
LINE
  5
E4D
330
1D
100
AcDbEntity
  8
0
100
AcDbLine
 10
437.85
 20
247.8994
 30
0.0
 11
437.613
 21
251.2231
 31
0.0
  0
LINE
  5
E4E
330
1D
100
AcDbEntity
  8
0
100
AcDbLine
 10
436.199
 20
257.7264
 30
0.0
 11
435.036
 21
260.8489
 31
0.0
  0
LINE
  5
E4F
330
1D
100
AcDbEntity
  8
0
100
AcDbLine
 10
433.581
 20
263.8453
 30
0.0
 11
431.847
 21
266.6906
 31
0.0
  0
LINE
  5
E50
330
1D
100
AcDbEntity
  8
0
100
AcDbLine
 10
435.036
 20
260.8489
 30
0.0
 11
433.581
 21
263.8453
 31
0.0
  0
LINE
  5
E51
330
1D
100
AcDbEntity
  8
0
100
AcDbLine
 10
431.018
 20
250.0181
 30
0.0
 11
430.458
 21
253.3909
 31
0.0
  0
LINE
  5
E52
330
1D
100
AcDbEntity
  8
0
100
AcDbLine
 10
431.167
 20
246.6004
 30
0.0
 11
431.018
 21
250.0181
 31
0.0
  0
LINE
  5
E53
330
1D
100
AcDbEntity
  8
0
100
AcDbLine
 10
431.847
 20
266.6906
 30
0.0
 11
429.851
 21
269.3587
 31
0.0
  0
LINE
  5
E54
330
1D
100
AcDbEntity
  8
0
100
AcDbLine
 10
429.851
 20
269.3587
 30
0.0
 11
427.61
 21
271.8247
 31
0.0
  0
LINE
  5
E55
330
1D
100
AcDbEntity
  8
0
100
AcDbLine
 10
428.144
 20
259.815
 30
0.0
 11
426.423
 21
262.7714
 31
0.0
  0
LINE
  5
E56
330
1D
100
AcDbEntity
  8
0
100
AcDbLine
 10
429.494
 20
256.6735
 30
0.0
 11
428.144
 21
259.815
 31
0.0
  0
LINE
  5
E57
330
1D
100
AcDbEntity
  8
0
100
AcDbLine
 10
430.458
 20
253.3909
 30
0.0
 11
429.494
 21
256.6735
 31
0.0
  0
LINE
  5
E58
330
1D
100
AcDbEntity
  8
0
100
AcDbLine
 10
426.423
 20
262.7714
 30
0.0
 11
424.359
 21
265.4976
 31
0.0
  0
LINE
  5
E59
330
1D
100
AcDbEntity
  8
0
100
AcDbLine
 10
413.333
 20
273.384
 30
0.0
 11
410.085
 21
274.4559
 31
0.0
  0
LINE
  5
E5A
330
1D
100
AcDbEntity
  8
0
100
AcDbLine
 10
410.046
 20
226.286
 30
0.0
 11
407.781
 21
227.0556
 31
0.0
  0
LINE
  5
E5B
330
1D
100
AcDbEntity
  8
0
100
AcDbLine
 10
410.119
 20
227.1237
 30
0.0
 11
407.798
 21
227.8603
 31
0.0
  0
LINE
  5
E5C
330
1D
100
AcDbEntity
  8
0
100
AcDbLine
 10
421.274
 20
225.5624
 30
0.0
 11
418.862
 21
223.736411592076
 31
0.0
  0
LINE
  5
E5D
330
1D
100
AcDbEntity
  8
0
100
AcDbLine
 10
418.078
 20
219.9849
 30
0.0
 11
417.117
 21
221.7633
 31
0.0
  0
LINE
  5
E5E
330
1D
100
AcDbEntity
  8
0
100
AcDbLine
 10
416.62
 20
220.7715
 30
0.0
 11
415.449
 21
222.4459
 31
0.0
  0
LINE
  5
E5F
330
1D
100
AcDbEntity
  8
0
100
AcDbLine
 10
417.117
 20
221.7633
 30
0.0
 11
415.804
 21
223.4047
 31
0.0
  0
LINE
  5
E60
330
1D
100
AcDbEntity
  8
0
100
AcDbLine
 10
415.449
 20
222.4459
 30
0.0
 11
413.934
 21
223.9491
 31
0.0
  0
LINE
  5
E61
330
1D
100
AcDbEntity
  8
0
100
AcDbLine
 10
413.934
 20
223.9491
 30
0.0
 11
412.117
 21
225.2411
 31
0.0
  0
LINE
  5
E62
330
1D
100
AcDbEntity
  8
0
100
AcDbLine
 10
412.117
 20
225.2411
 30
0.0
 11
410.046
 21
226.286
 31
0.0
  0
LINE
  5
E63
330
1D
100
AcDbEntity
  8
0
100
AcDbLine
 10
414.172
 20
224.8678
 30
0.0
 11
412.262
 21
226.1179
 31
0.0
  0
LINE
  5
E64
330
1D
100
AcDbEntity
  8
0
100
AcDbLine
 10
412.262
 20
226.1179
 30
0.0
 11
410.119
 21
227.1237
 31
0.0
  0
LINE
  5
E65
330
1D
100
AcDbEntity
  8
0
100
AcDbLine
 10
415.804
 20
223.4047
 30
0.0
 11
414.172
 21
224.8678
 31
0.0
  0
LINE
  5
E66
330
1D
100
AcDbEntity
  8
0
100
AcDbLine
 10
407.781
 20
227.0556
 30
0.0
 11
405.38
 21
227.53
 31
0.0
  0
LINE
  5
E67
330
1D
100
AcDbEntity
  8
0
100
AcDbLine
 10
405.38
 20
227.53
 30
0.0
 11
402.909
 21
227.6941
 31
0.0
  0
LINE
  5
E68
330
1D
100
AcDbEntity
  8
0
100
AcDbLine
 10
405.355
 20
228.3096
 30
0.0
 11
402.85
 21
228.4607
 31
0.0
  0
LINE
  5
E69
330
1D
100
AcDbEntity
  8
0
100
AcDbLine
 10
407.798
 20
227.8603
 30
0.0
 11
405.355
 21
228.3096
 31
0.0
  0
LINE
  5
E6A
330
1D
100
AcDbEntity
  8
0
100
AcDbLine
 10
402.85
 20
227.6906
 30
0.0
 11
402.791
 21
227.6941
 31
0.0
  0
LINE
  5
E6B
330
1D
100
AcDbEntity
  8
0
100
AcDbLine
 10
402.909
 20
227.6941
 30
0.0
 11
402.85
 21
227.6906
 31
0.0
  0
LINE
  5
E6C
330
1D
100
AcDbEntity
  8
0
100
AcDbLine
 10
421.981
 20
267.9566
 30
0.0
 11
419.324
 21
270.1103
 31
0.0
  0
LINE
  5
E6D
330
1D
100
AcDbEntity
  8
0
100
AcDbLine
 10
419.324
 20
270.1103
 30
0.0
 11
416.428
 21
271.9288
 31
0.0
  0
LINE
  5
E6E
330
1D
100
AcDbEntity
  8
0
100
AcDbLine
 10
416.428
 20
271.9288
 30
0.0
 11
413.333
 21
273.384
 31
0.0
  0
LINE
  5
E6F
330
1D
100
AcDbEntity
  8
0
100
AcDbLine
 10
410.085
 20
274.4559
 30
0.0
 11
406.732
 21
275.1284
 31
0.0
  0
LINE
  5
E70
330
1D
100
AcDbEntity
  8
0
100
AcDbLine
 10
410.298
 20
281.2834
 30
0.0
 11
407.013
 21
281.8358
 31
0.0
  0
LINE
  5
E71
330
1D
100
AcDbEntity
  8
0
100
AcDbLine
 10
422.48
 20
276.0632
 30
0.0
 11
419.634
 21
277.7985
 31
0.0
  0
LINE
  5
E72
330
1D
100
AcDbEntity
  8
0
100
AcDbLine
 10
416.638
 20
279.2547
 30
0.0
 11
413.517
 21
280.4197
 31
0.0
  0
LINE
  5
E73
330
1D
100
AcDbEntity
  8
0
100
AcDbLine
 10
419.634
 20
277.7985
 30
0.0
 11
416.638
 21
279.2547
 31
0.0
  0
LINE
  5
E74
330
1D
100
AcDbEntity
  8
0
100
AcDbLine
 10
413.517
 20
280.4197
 30
0.0
 11
410.298
 21
281.2834
 31
0.0
  0
LINE
  5
E75
330
1D
100
AcDbEntity
  8
0
100
AcDbLine
 10
403.322
 20
275.3916
 30
0.0
 11
402.85
 21
275.371
 31
0.0
  0
LINE
  5
E76
330
1D
100
AcDbEntity
  8
0
100
AcDbLine
 10
403.691
 20
282.074
 30
0.0
 11
402.85
 21
282.0543
 31
0.0
  0
LINE
  5
E77
330
1D
100
AcDbEntity
  8
0
100
AcDbLine
 10
407.013
 20
281.8358
 30
0.0
 11
403.691
 21
282.074
 31
0.0
  0
LINE
  5
E78
330
1D
100
AcDbEntity
  8
0
100
AcDbLine
 10
406.732
 20
275.1284
 30
0.0
 11
403.322
 21
275.3916
 31
0.0
  0
ENDSEC
  0
SECTION
  2
OBJECTS
  0
DICTIONARY
  5
C
330
0
100
AcDbDictionary
281
     1
  3
ACAD_GROUP
350
D
  3
ACAD_LAYOUT
350
1A
  3
ACAD_MLEADERSTYLE
350
E7B
  3
ACAD_MLINESTYLE
350
17
  3
ACAD_PLOTSETTINGS
350
19
  3
ACAD_PLOTSTYLENAME
350
E
  3
ACAD_SCALELIST
350
6D4
  3
AcDbVariableDictionary
350
E79
  3
DWGPROPS
350
E80
  0
DICTIONARY
  5
D
102
{ACAD_REACTORS
330
C
102
}
330
C
100
AcDbDictionary
281
     1
  0
DICTIONARY
  5
1A
102
{ACAD_REACTORS
330
C
102
}
330
C
100
AcDbDictionary
281
     1
  3
Layout1
350
1C
  3
Model
350
1E
  0
DICTIONARY
  5
E7B
102
{ACAD_REACTORS
330
C
102
}
330
C
100
AcDbDictionary
281
     1
  0
DICTIONARY
  5
17
102
{ACAD_REACTORS
330
C
102
}
330
C
100
AcDbDictionary
281
     1
  3
Standard
350
18
  0
DICTIONARY
  5
19
102
{ACAD_REACTORS
330
C
102
}
330
C
100
AcDbDictionary
281
     1
  0
ACDBDICTIONARYWDFLT
  5
E
102
{ACAD_REACTORS
330
C
102
}
330
C
100
AcDbDictionary
281
     1
  3
Normal
350
F
100
AcDbDictionaryWithDefault
340
F
  0
DICTIONARY
  5
6D4
102
{ACAD_REACTORS
330
C
102
}
330
C
100
AcDbDictionary
281
     1
  3
A0
350
6D5
  3
A1
350
6D6
  3
A2
350
6D7
  3
A3
350
6D8
  3
A4
350
6D9
  3
A5
350
6DA
  3
A6
350
6DB
  3
A7
350
6DC
  3
A8
350
6DD
  3
A9
350
6DE
  3
B0
350
6DF
  3
B1
350
6E0
  3
B2
350
6E1
  3
B3
350
6E2
  3
B4
350
6E3
  3
B5
350
6E4
  3
B6
350
6E5
  3
B7
350
6E6
  3
B8
350
6E7
  3
B9
350
6E8
  3
C0
350
6E9
  3
C1
350
6EA
  3
C2
350
6EB
  3
C3
350
6EC
  3
C4
350
6ED
  3
C5
350
6EE
  3
C6
350
6EF
  3
C7
350
6F0
  3
C8
350
6F1
  3
C9
350
6F2
  3
D0
350
6F3
  3
D1
350
6F4
  3
D2
350
6F5
  0
DICTIONARY
  5
E79
102
{ACAD_REACTORS
330
C
102
}
330
C
100
AcDbDictionary
281
     1
  3
CANNOSCALE
350
E7C
  0
XRECORD
  5
E80
102
{ACAD_REACTORS
330
C
102
}
330
C
100
AcDbXrecord
280
     1
  1
DWGPROPS COOKIE
  2

  3

  4

  6

  7

  8
MARTIN
  9

300
=
301
=
302
=
303
=
304
=
305
=
306
=
307
=
308
=
309
=
 40
0.0
 41
2455873.327909965
 42
2455873.33116934
  1

 90
        0
  0
LAYOUT
  5
1C
102
{ACAD_REACTORS
330
1A
102
}
330
1A
100
AcDbPlotSettings
  1

  2
none_device
  4

  6

 40
0.0
 41
0.0
 42
0.0
 43
0.0
 44
0.0
 45
0.0
 46
0.0
 47
0.0
 48
0.0
 49
0.0
140
0.0
141
0.0
142
1.0
143
1.0
 70
   688
 72
     0
 73
     0
 74
     5
  7

 75
    16
147
1.0
148
0.0
149
0.0
100
AcDbLayout
  1
Layout1
 70
     1
 71
     1
 10
0.0
 20
0.0
 11
12.0
 21
9.0
 12
0.0
 22
0.0
 32
0.0
 14
1.000000000000E+20
 24
1.000000000000E+20
 34
1.000000000000E+20
 15
-1.000000000000E+20
 25
-1.000000000000E+20
 35
-1.000000000000E+20
146
0.0
 13
0.0
 23
0.0
 33
0.0
 16
1.0
 26
0.0
 36
0.0
 17
0.0
 27
1.0
 37
0.0
 76
     0
330
1B
  0
LAYOUT
  5
1E
102
{ACAD_REACTORS
330
1A
102
}
330
1A
100
AcDbPlotSettings
  1

  2
none_device
  4

  6

 40
0.0
 41
0.0
 42
0.0
 43
0.0
 44
0.0
 45
0.0
 46
0.0
 47
0.0
 48
0.0
 49
0.0
140
0.0
141
0.0
142
1.0
143
1.0
 70
  1712
 72
     0
 73
     0
 74
     0
  7

 75
     0
147
1.0
148
0.0
149
0.0
100
AcDbLayout
  1
Model
 70
     1
 71
     0
 10
0.0
 20
0.0
 11
12.0
 21
9.0
 12
0.0
 22
0.0
 32
0.0
 14
-0.15
 24
-0.074
 34
0.0
 15
437.85
 25
285.074
 35
0.0
146
0.0
 13
0.0
 23
0.0
 33
0.0
 16
1.0
 26
0.0
 36
0.0
 17
0.0
 27
1.0
 37
0.0
 76
     0
330
1D
331
6CF
  0
MLINESTYLE
  5
18
102
{ACAD_REACTORS
330
17
102
}
330
17
100
AcDbMlineStyle
  2
Standard
 70
     0
  3

 62
   256
 51
90.0
 52
90.0
 71
     2
 49
0.5
 62
   256
  6
BYLAYER
 49
-0.5
 62
   256
  6
BYLAYER
  0
ACDBPLACEHOLDER
  5
F
102
{ACAD_REACTORS
330
E
102
}
330
E
  0
SCALE
  5
6D5
102
{ACAD_REACTORS
330
6D4
102
}
330
6D4
100
AcDbScale
 70
     0
300
1:1
140
1.0
141
1.0
290
     1
  0
SCALE
  5
6D6
102
{ACAD_REACTORS
330
6D4
102
}
330
6D4
100
AcDbScale
 70
     0
300
1:2
140
1.0
141
2.0
290
     0
  0
SCALE
  5
6D7
102
{ACAD_REACTORS
330
6D4
102
}
330
6D4
100
AcDbScale
 70
     0
300
1:4
140
1.0
141
4.0
290
     0
  0
SCALE
  5
6D8
102
{ACAD_REACTORS
330
6D4
102
}
330
6D4
100
AcDbScale
 70
     0
300
1:5
140
1.0
141
5.0
290
     0
  0
SCALE
  5
6D9
102
{ACAD_REACTORS
330
6D4
102
}
330
6D4
100
AcDbScale
 70
     0
300
1:8
140
1.0
141
8.0
290
     0
  0
SCALE
  5
6DA
102
{ACAD_REACTORS
330
6D4
102
}
330
6D4
100
AcDbScale
 70
     0
300
1:10
140
1.0
141
10.0
290
     0
  0
SCALE
  5
6DB
102
{ACAD_REACTORS
330
6D4
102
}
330
6D4
100
AcDbScale
 70
     0
300
1:16
140
1.0
141
16.0
290
     0
  0
SCALE
  5
6DC
102
{ACAD_REACTORS
330
6D4
102
}
330
6D4
100
AcDbScale
 70
     0
300
1:20
140
1.0
141
20.0
290
     0
  0
SCALE
  5
6DD
102
{ACAD_REACTORS
330
6D4
102
}
330
6D4
100
AcDbScale
 70
     0
300
1:30
140
1.0
141
30.0
290
     0
  0
SCALE
  5
6DE
102
{ACAD_REACTORS
330
6D4
102
}
330
6D4
100
AcDbScale
 70
     0
300
1:40
140
1.0
141
40.0
290
     0
  0
SCALE
  5
6DF
102
{ACAD_REACTORS
330
6D4
102
}
330
6D4
100
AcDbScale
 70
     0
300
1:50
140
1.0
141
50.0
290
     0
  0
SCALE
  5
6E0
102
{ACAD_REACTORS
330
6D4
102
}
330
6D4
100
AcDbScale
 70
     0
300
1:100
140
1.0
141
100.0
290
     0
  0
SCALE
  5
6E1
102
{ACAD_REACTORS
330
6D4
102
}
330
6D4
100
AcDbScale
 70
     0
300
2:1
140
2.0
141
1.0
290
     0
  0
SCALE
  5
6E2
102
{ACAD_REACTORS
330
6D4
102
}
330
6D4
100
AcDbScale
 70
     0
300
4:1
140
4.0
141
1.0
290
     0
  0
SCALE
  5
6E3
102
{ACAD_REACTORS
330
6D4
102
}
330
6D4
100
AcDbScale
 70
     0
300
8:1
140
8.0
141
1.0
290
     0
  0
SCALE
  5
6E4
102
{ACAD_REACTORS
330
6D4
102
}
330
6D4
100
AcDbScale
 70
     0
300
10:1
140
10.0
141
1.0
290
     0
  0
SCALE
  5
6E5
102
{ACAD_REACTORS
330
6D4
102
}
330
6D4
100
AcDbScale
 70
     0
300
100:1
140
100.0
141
1.0
290
     0
  0
SCALE
  5
6E6
102
{ACAD_REACTORS
330
6D4
102
}
330
6D4
100
AcDbScale
 70
     0
300
1/128" = 1'-0"
140
0.0078125
141
12.0
290
     0
  0
SCALE
  5
6E7
102
{ACAD_REACTORS
330
6D4
102
}
330
6D4
100
AcDbScale
 70
     0
300
1/64" = 1'-0"
140
0.015625
141
12.0
290
     0
  0
SCALE
  5
6E8
102
{ACAD_REACTORS
330
6D4
102
}
330
6D4
100
AcDbScale
 70
     0
300
1/32" = 1'-0"
140
0.03125
141
12.0
290
     0
  0
SCALE
  5
6E9
102
{ACAD_REACTORS
330
6D4
102
}
330
6D4
100
AcDbScale
 70
     0
300
1/16" = 1'-0"
140
0.0625
141
12.0
290
     0
  0
SCALE
  5
6EA
102
{ACAD_REACTORS
330
6D4
102
}
330
6D4
100
AcDbScale
 70
     0
300
3/32" = 1'-0"
140
0.09375
141
12.0
290
     0
  0
SCALE
  5
6EB
102
{ACAD_REACTORS
330
6D4
102
}
330
6D4
100
AcDbScale
 70
     0
300
1/8" = 1'-0"
140
0.125
141
12.0
290
     0
  0
SCALE
  5
6EC
102
{ACAD_REACTORS
330
6D4
102
}
330
6D4
100
AcDbScale
 70
     0
300
3/16" = 1'-0"
140
0.1875
141
12.0
290
     0
  0
SCALE
  5
6ED
102
{ACAD_REACTORS
330
6D4
102
}
330
6D4
100
AcDbScale
 70
     0
300
1/4" = 1'-0"
140
0.25
141
12.0
290
     0
  0
SCALE
  5
6EE
102
{ACAD_REACTORS
330
6D4
102
}
330
6D4
100
AcDbScale
 70
     0
300
3/8" = 1'-0"
140
0.375
141
12.0
290
     0
  0
SCALE
  5
6EF
102
{ACAD_REACTORS
330
6D4
102
}
330
6D4
100
AcDbScale
 70
     0
300
1/2" = 1'-0"
140
0.5
141
12.0
290
     0
  0
SCALE
  5
6F0
102
{ACAD_REACTORS
330
6D4
102
}
330
6D4
100
AcDbScale
 70
     0
300
3/4" = 1'-0"
140
0.75
141
12.0
290
     0
  0
SCALE
  5
6F1
102
{ACAD_REACTORS
330
6D4
102
}
330
6D4
100
AcDbScale
 70
     0
300
1" = 1'-0"
140
1.0
141
12.0
290
     0
  0
SCALE
  5
6F2
102
{ACAD_REACTORS
330
6D4
102
}
330
6D4
100
AcDbScale
 70
     0
300
1-1/2" = 1'-0"
140
1.5
141
12.0
290
     0
  0
SCALE
  5
6F3
102
{ACAD_REACTORS
330
6D4
102
}
330
6D4
100
AcDbScale
 70
     0
300
3" = 1'-0"
140
3.0
141
12.0
290
     0
  0
SCALE
  5
6F4
102
{ACAD_REACTORS
330
6D4
102
}
330
6D4
100
AcDbScale
 70
     0
300
6" = 1'-0"
140
6.0
141
12.0
290
     0
  0
SCALE
  5
6F5
102
{ACAD_REACTORS
330
6D4
102
}
330
6D4
100
AcDbScale
 70
     0
300
1'-0" = 1'-0"
140
12.0
141
12.0
290
     0
  0
DICTIONARYVAR
  5
E7C
102
{ACAD_REACTORS
330
E79
102
}
330
E79
100
DictionaryVariables
280
     0
  1
1:1
  0
ENDSEC
  0
SECTION
  2
THUMBNAILIMAGE
 90
    16364
310
28000000B40000005500000001000800000000000000000000000000000000000000000000000000FFFFFF000000FF0000FFFF0000FF0000FFFF0000FF000000FF00FF000000000080808000C0C0C0000000FF007F7FFF000000A5005252A50000007F003F3F7F0000004C0026264C000000260013132600003FFF007F9FFF
310
000029A5005267A500001F7F003F4F7F0000134C00262F4C000009260013172600007FFF007FBFFF000052A500527CA500003F7F003F5F7F0000264C0026394C0000132600131C260000BFFF007FDFFF00007CA5005291A500005F7F003F6F7F0000394C0026424C00001C26001321260000FFFF007FFFFF0000A5A50052A5
310
A500007F7F003F7F7F00004C4C00264C4C00002626001326260000FFBF007FFFDF0000A57C0052A59100007F5F003F7F6F00004C3900264C420000261C001326210000FF7F007FFFBF0000A5520052A57C00007F3F003F7F5F00004C2600264C39000026130013261C0000FF3F007FFF9F0000A5290052A56700007F1F003F
310
7F4F00004C1300264C2F00002609001326170000FF00007FFF7F0000A5000052A55200007F00003F7F3F00004C0000264C260000260000132613003FFF00009FFF7F0029A5000067A552001F7F00004F7F3F00134C00002F4C260009260000172613007FFF0000BFFF7F0052A500007CA552003F7F00005F7F3F00264C0000
310
394C2600132600001C261300BFFF0000DFFF7F007CA5000091A552005F7F00006F7F3F00394C0000424C26001C26000021261300FFFF0000FFFF7F00A5A50000A5A552007F7F00007F7F3F004C4C00004C4C26002626000026261300FFBF0000FFDF7F00A57C0000A59152007F5F00007F6F3F004C3900004C422600261C00
310
0026211300FF7F0000FFBF7F00A5520000A57C52007F3F00007F5F3F004C2600004C39260026130000261C1300FF3F0000FF9F7F00A5290000A56752007F1F00007F4F3F004C1300004C2F26002609000026171300FF000000FF7F7F00A5000000A55252007F0000007F3F3F004C0000004C2626002600000026131300FF00
310
3F00FF7F9F00A5002900A55267007F001F007F3F4F004C0013004C262F002600090026131700FF007F00FF7FBF00A5005200A5527C007F003F007F3F5F004C0026004C2639002600130026131C00FF00BF00FF7FDF00A5007C00A55291007F005F007F3F6F004C0039004C26420026001C0026132100FF00FF00FF7FFF00A5
310
00A500A552A5007F007F007F3F7F004C004C004C264C002600260026132600BF00FF00DF7FFF007C00A5009152A5005F007F006F3F7F0039004C0042264C001C002600211326007F00FF00BF7FFF005200A5007C52A5003F007F005F3F7F0026004C0039264C00130026001C1326003F00FF009F7FFF002900A5006752A500
310
1F007F004F3F7F0013004C002F264C000900260017132600000000002D2D2D005B5B5B0089898900B7B7B700B3B3B30000000000000000000000000000000000000000000000000000000000000000000000000000000000000000000000000000000000000000000000000000000000000000000000000000000000000000
310
00000000000000000000000000000000000000000000000000000000000000000000000000000000000000000000000000000000000000000000000000000000000000000000000000000000000000000000000000000000000000000000000000000000000000000000000000000000000000000000000000000000000000
310
00000000000000000000000000000000000000000000000000000000000000000000000000000000000000000000000000000000000000000000000000000000000000000000000000000000000000000000000000000000000000000000000000000000000000000000000000000000000000000000000000000000000000
310
00000000000000000000000000000000000000000000000000000000000000000000000000000000000000000000000000000000000000000000000000000000000000000000000000000000000000000000000000000000000000000000000000000000000000000000000000000000000000000000000000000000000000
310
00000000000000000000000000000000000000000000000000000000000000000000000000000000000000000000000000000000000000000000000000000000000000000000000000000000000000000000000000000000000000000000000000000000000000000000000000000000000000000000000000000000000000
310
00000000000000000000000000000000000000000000000000000000000000000000000000000000000000000000000000000000000000000000000000000000000000000000000000000000000000000000000000000000000007070700070707000000000000000000000000000000000000000000000000000000000000
310
00000000000000000000000000000000000000000000000000000000000000000000000000000000000000000000000000000000000000000000000000000000000000000000000000000000000000000000000000000000000000000000000000000000000000000000000000000000000000000000000000000000000000
310
00000000000000000000000000000000070000000000070700000000000000000000000000000000000000000000000000000000000000000000000000000000000000000000000000000000000000000000000000000000000000000000000000000000000000000000000000000000000000000000000000000000000000
310
00000000000000000000000000000000000000000000000000000000000000000000000000000000000000000000000000000000000000000000000000000000000000000007000000000000070000000000000000000000000000000000000000000000000000000000000000000000000000000000000000000000000000
310
00000000000000000000000000000000000000000000000000000000000000000000000000000000000000000000000000000000000000000000000000000000000000000000000000000000000000000000000000000000000000000000000000000000000000000000000000000000000000000000000000000700000000
310
00000700000000000000000000000000000000000000000000000000000000000000000000000000000000000000000000000000000000000000000000000000000000000000000000000000000000000000000000000000000000000000000000000000000000000000000000000000000000000000000000000000000000
310
00000000000000000000000000000000000000000000000000000000000000000000000000000000000000000000000007000000000000070000000000000000000000000000000000000000000000000000000000000000000000000000000000000000000000000000000000000000000000000000000000000000000000
310
00000000000000000000000000000000000000000000000000000000000000000000000000000000000000000000000000000000000000000000000000000000000000000000000000000000000000000000000000000000000000000000000000000000070000000000000007000000000000000000000000000000000000
310
00000000000000000000000000000000000000000000000000000000000000000000000000000000000000000000000000000000000000000000000000000000000000000000000000000000000000000000000000000000000000000000000000000000000000000000000000000000000000000000000000000000000000
310
00000000000000000000000000000000000000000000000000000700000000000000070000000000000000000000000000000000000000000000000000000000000000000000000000000000000000000000000000000000000000000000000000000000000000000000000000000000000000000000000000000000000000
310
00000000000000000000000000000000000000000000000000000000000000000000000000000000000000000000000000000000000000000000000000000000000000000000000000000000000000070000000000000007000000000000000000000000000000000000000000000000000000000000000000000000000000
310
00000000000000000000000000000000000000000000000000000000000000000000000000000000000000000000000000000000000000000000000000000000000000000000000000000000000000000000000000000000000000000000000000000000000000000000000000000000000000000000000000000000000000
310
00000000000700000000000000070000000000000000000000000000000000000000000000000000000000000000000000000000000000000000000000000000000000000000000000000000000000000000000000000000000000000000000000000000000000000000000000000000000000000000000000000000000000
310
07070707070000000000000000000000000000000000000000000000000000000000000000000000000000000000000000000000000000000000070000000000000007000000000000000000000000000000000000000000000000000000000000000000000000000000000000000000000000000000000000000000000000
310
00000000000000000000000000000000000000000000000000000000000000000000000000000000000000000000000000000000070700000000070700000000000000000000000000000000000000000000000000000000000000000000000000000000000000000000000000000007000000000000000700000000000000
310
00000000000000000000000000000000000000000000000000000000000000000000000000000000000000000000000000000000000000000000000000000000000000000000000000000000000000000000000000000000000000000000000000000000000000000707000000000000070000000000000000000000000000
310
00000000000000000000000000000000000000000000000000000000000000000000000000070000000000000007000000000000000000000000000000000000000000000000000000000000000000000000000000000000000000000000000000000000000000000000000000000000000000000000000000000000000000
310
00000000000000000000000000000000000000000000000000000000000007000000000000000007000000000000000000000000000000000000000000000000000000000000000000000000000000000000000000000000000007000000000000000700000000000000000000000000000000000000000000000000000000
310
00000000000000000000000000000000000000000000000000000000000000000000000000000000000000000000000000000000000000000000000000000000000000000000000000000000000000000000070700000000000000000700000000000000000000000000000000000000000000000000000000000000000000
310
00000000000000000000000000000000070000000000000007000000000000000000000000000000000000000000000000000000000000000000000000000000000000000000000000000000000000000000000000000000000000000000000000000000000000000000000000000000000000000000000000000000000000
310
00000000000000000700000000000000000007000000000000000000000000000000000000000000000000000000000000000000000000000000000000000000000000000007000000000000000700000000000000000000000000000000000000000000000000000000000000000000000000000000000000000000000000
310
00000000000000000000000000000000000000000000000000000000000000000000000000000000000000000000000000000000000000000000000000070000000000000000000700000000000000000000000000000000000000000000000000000000000000000000000000000000000000000000000000000700000000
310
00000007000000000000000000000000000000000000000000000000000000000000000000000000000000000000000000000000000000000000000000000000000000000000000000000000000000000000000000000000000000000000000000000000000000000000000000000000000007000000000000000000070000
310
00000000000000000000000000000000000000000000000000000000000000000000000000000000000000000000000007000000000000000700000000000000000000000000000000000000000000000000000000000000000000000000000000000000000000000000000000000000000000000000000000000000000000
310
00000000000000000000000000000000000000000000000000000000000000000000000000000000070000000000000000000700000000000000000000000000000000000000000000000000000000000000000000000000000000000000000000000000000700000000000000070000000000000000000000000000000000
310
00000000000000000000000000000000000000000000000000000000000000000000000000000000000000000000000000000000000000000000000000000000000000000000000000000000000000000000000000000000000000000007000000000000000000070000000000000000000000000000000000000000000000
310
00000000000000000000000000000000000000000000000000000007000000000000000700000000000000000000000000000000000000000000000000000000000000000000000000000000000000000000000000000000000000000000000000000000000000000000000000000000000000000000000000000000000000
310
00000000000000000000000000000000000000070000000000000000000700000000000000000000000000000000000000000000000000000000000000000000000000000000000000000000000000000700000000000000070000000000000000000000000000000000000000000000000000000000000000000000000000
310
00000000000000000000000000000000000000000000000000000000000000000000000000000000000000000000000000000000000000000000000000000000000000000000000007000000000000000000070000000000000000000000000000000000000000000000000000000000000000000000000000000000000000
310
00000000000007000000000000000700000000000000000000000000000000000000000000000000000000000000000000000000000000000000000000000000000000000000000000000000000000000000000000000000000000000000000000000000000000000000000000000000000000000000000000000000000700
310
00000000000000000700000000000000000000000000000000000000000000000000000000000000000000000000000000000000000000000000000700000000000000070000000000000000000000000000000000000000000000000000000000000000000000000000000000000000000000000000000000000000000000
310
00000000000000000000000000000000000000000000000000000000000000000000000000000000000000000000000000000007000000000000000000070000000000000000000000000000000000000000000000000000000000000000000000000000000000000000000000000000070000000000000007000000000000
310
00000000000000000000000000000000000000000000000000000000000000000000000000000000000000000000000000000000000000000000000000000000000000000000000000000000000000000000000000000000000000000000000000000000000000000700000000000000000007000000000000000000000000
310
00000000000000000000000000000000000000000000000000000000000000000000000000000700000000000000070000000000000000000000000000000000000000000000000000000000000000000000000000000000000000000000000000000000000000000000000000000000000000000000000000000000000000
310
00000000000000000000000000000000000000000000000000000000000007000000000000000000070000000000000000000000000000000000000000000000000000000000000000000000000000000000000000000000000000070000000000000007000000000000000000000000000000000000000000000000000000
310
00000000000000000000000000000000000000000000000000000000000000000000000000000000000000000000000000000000000000000000000000000000000000000000000000000000000000000000000700000000000000000000070000000000000000000000000000000000000000000000000000000000000000
310
00000000000000000000000000000000000700000000000000070000000000000000000000000000000000000000000000000000000000000000000000000000000000000000000000000000000000000000000000000000000000000000000000000000000000000000000000000000000000000000000000000000000000
310
00000000000000000007000000000000000000000700000000000000000000000000000000000000000000000000000000000000000000000000000000000000000000000000070000000000000007000000000000000000000000000000000000000000000000000000000000000000000000000000000000000000000000
310
00000000000000000000000000000000000000000000000000000000000000000000000000000000000000000000000000000000000000000000000000000700000000000000000000070000000000000000000000000000000000000000000000000000000000000000000000000000000000000000000000000007000000
310
00000000070000000000000000000000000000000000000000000000000000000000000000000000000000000000000000000000000000000000000000000000000000000000000000000000000000000000000000000000000000000000000000000000000000000000000000000000000000070000000000000000000007
310
00000000000000000000000000000000000000000000000000000000000000000000000000000000000000000000000000070000000000000007000000000000000000000000000000000000000000000000000000000000000000000000000000000000000000000000000000000000000000000000000000000000000000
310
00000000000000000000000000000000000000000000000000000000000000000000000000000000000700000000000000000000070000000000000000000000000000000000000000000000000000000000000000000000000000000000000000000000000007000000000000000700000000000000000000000000000000
310
00000000000000000000000000000000000000000000000000000000000000000000000000000000000000000000000000000000000000000000000000000000000000000000000000000000000000000000000000000000000000000000070000000000000000000007000000000000000000000000000000000000000000
310
00000000000000000000000000000000000000000000000000000000070000000000000007000000000000000000000000000000000000000000000000000000000000000000000000000000000000000000000000000000000000000000000000000000000000000000000000000000000000000000000000000000000000
310
00000000000000000000000000000000000000000700000000000000000000070000000000000000000000000000000000000000000000000000000000000000000000000000000000000000000000000000070000000000000700000000000000000000000000000000000000000000000000000000000000000000000000
310
00000000000000000000000000000000000000000000000000000000000000000000000000000000000000000000000000000000000000000000000000000000000000000000000000070000000000000000000007000000000000000000000000000000000000000000000000000000000000000000000000000000000000
310
00000000000000000700000000000007000000000000000000000000000000000000000000000000000000000000000000000000000000000000000000000000000000000000000000000000000000000000000000000000000000000000000000000000000000000000000000000000000000000000000000000000000007
310
00000000000000000000070000000000000000000000000000000000000000000000000000000000000000000000000000000000000000000000000000070000000000000700000000000000000000000000000000000000000000000000000000000000000000000000000000000000000000000000000000000000000000
310
00000000000000000000000000000000000000000000000000000000000000000000000000000000000000000000000000000000070000000000000000000007000000000000000000000000000000000000000000000000000000000000000000000000000000000000000000000000000007000000000000070000000000
310
00000000000000000000000000000000000000000000000000000000000000000000000000000000000000000000000000000000000000000000000000000000000000000000000000000000000000000000000000000000000000000000000000000000000000000007000000000000000000000700000000000000000000
310
00000000000000000000000000000000000000000000000000000000000000000000000000000000070000000000000700000000000000000000000000000000000000000000000000000000000000000000000000000000000000000000000000000000000000000000000000000000000000000000000000000000000000
310
00000000000000000000000000000000000000000000000000000000000000070000000000000000000007000000000000000000000000000000000000000000000000000000000000000000000000000000000000000000000000000007000000000000070000000000000000000000000000000000000000000000000000
310
00000000000000000000000000000000000000000000000000000000000000000000000000000000000000000000000000000000000000000000000000000000000000000000000000000000000000000000000007000000000000000000000700000000000000000000000000000000000000000000000000000000000000
310
00000000000000000000000000000000000000070000000000070000000000000000000000000000000000000000000000000000000000000000000000000000000000000000000000000000000000000000000000000000000000000000000000000000000000000000000000000000000000000000000000000000000000
310
00000000000000000000070000000000000000000007000000000000000000000000000000000000000000000000000000000000000000000000000000000000000000000000000007000000000007000000000000000000000000000000000000000000000000000000000000000000000000000000000000000000000000
310
00000000000000000000000000000000000000000000000000000000000000000000000000000000000000000000000000000000000000000000000000000007000000000000000000000700000000000000000000000000000000000000000000000000000000000000000000000000000000000000000000000000000700
310
00000000070000000000000000000000000000000000000000000000000000000000000000000000000000000000000000000000000000000000000000000000000000000000000000000000000000000000000000000000000000000000000000000000000000000000000000000000000000000700000000000000000000
310
07000000000000000000000000000000000000000000000000000000000000000000000000000000000000000000000000000007000000000007000000000000000000000000000000000000000000000000000000000000000000000000000000000000000000000000000000000000000000000000000000000000000000
310
00000000000000000000000000000000000000000000000000000000000000000000000000000000000007000000000000000000000700000000000000000000000000000000000000000000000000000000000000000000000000000000000000000000000000000700000000000700000000000000000000000000000000
310
00000000000000000000000000000000000000000000000000000000000000000000000000000000000000000000000000000000000000000000000000000000000000000000000000000000000000000000000000000000000000000000000700000000000000000000070000000000000000000000000000000000000000
310
00000000000000000000000000000000000000000000000000000000000007000000000007000000000000000000000000000000000000000000000000000000000000000000000000000000000000000000000000000000000000000000000000000000000000000000000000000000000000000000000000000000000000
310
00000000000000000000000000000000000000000007000000000000000000000700000000000000000000000000000000000000000000000000000000000000000000000000000000000000000000000000000700000000000700000000000000000000000000000000000000000000000000000000000000000000000000
310
00000000000000000000000000000000000000000000000000000000000000000000000000000000000000000000000000000000000000000000000000000000000000000000000000000700000000000000000000070000000000000000000000000000000000000000000000000000000000000000000000000000000000
310
00000000000000000007000000000007000000000000000000000000000000000000000000000000000000000000000000000000000000000000000000000000000000000000000000000000000000000000000000000000000000000000000000000000000000000000000000000000000000000000000000000000000000
310
07000000000000000000000700000000000000000000000000000000000000000000000000000000000000000000000000000000000000000000000000000700000000000700000000000000000000000000000000000000000000000000000000000000000000000000000000000000000000000000000000000000000000
310
00000000000000000000000000000000000000000000000000000000000000000000000000000000000000000000000000000000000700000000000000000000070000000000000000000000000000000000000000000000000000000000000000000000000000000000000000000000000000070000000000070000000000
310
00000000000000000000000000000000000000000000000000000000000000000000000000000000000000000000000000000000000000000000000000000000000000000000000000000000000000000000000000000000000000000000000000000000000000000000070000000000000000000007000000000000000000
310
00000000000000000000000000000000000000000000000000000000000000000000000000000000000700000000000700000000000000000000000000000000000000000000000000000000000000000000000000000000000000000000000000000000000000000000000000000000000000000000000000000000000000
310
00000000000000000000000000000000000000000000000000000000000000000700000000000000000000070000000000000000000000000000000000000000000000000000000000000000000000000000000000000000000000000000070000000000070000000000000000000000000000000000000000000000000000
310
00000000000000000000000000000000000000000000000000000000000000000000000000000000000000000000000000000000000000000000000000000000000000000000000000000000000000000000000000070000000000000000000007000000000000000000000000000000000000000000000000000000000000
310
00000000000000000000000000000000000000000700000000000700000000000000000000000000000000000000000000000000000000000000000000000000000000000000000000000000000000000000000000000000000000000000000000000000000000000000000000000000000000000000000000000000000000
310
00000000000000000000000700000000000000000000070000000000000000000000000000000000000000000000000000000000000000000000000000000000000000000000000000070000000000070000000000000000000000000000000000000000000000000000000000000000000000000000000000000000000000
310
00000000000000000000000000000000000000000000000000000000000000000000000000000000000000000000000000000000000000000000000000000000070000000000000000000007000000000000000000000000000000000000000000000000000000000000000000000000000000000000000000000000000007
310
00000000000700000000000000000000000000000000000000000000000000000000000000000000000000000000000000000000000000000000000000000000000000000000000000000000000000000000000000000000000000000000000000000000000000000000000000000000000000000007000000000000000000
310
00070000000000000000000000000000000000000000000000000000000000000000000000000000000000000000000000000000070000000000070000000000000000000000000000000000000000000000000000000000000000000000000000000000000000000000000000000000000000000000000000000000000000
310
00000000000000000000000000000000000000000000000000000000000000000000000000000000000000070000000000000000000007000000000000000000000000000000000000000000000000000000000000000000000000000000000000000000000000000007000000000007000000000000000000000000000000
310
00000000000000000000000000000000000000000000000000000000000000000000000000000000000000000000000000000000000000000000000000000000000000000000000000000000000000000000000000000000000000000000000007000000000000000000000700000000000000000000000000000000000000
310
00000000000000000000000000000000000000000000000000000000000000070000000000070700000000000000000000000000000000000000000000000000000000000000000000000000000000000000000000000000000000000000000000000000000000000000000000000000000000000000000000000000000000
310
00000000000000000000000000000000000000000000070000000000000000000007000000000000000000000000000000000000000000000000000000000000000000000000000000000000000000000000000707000000000007070000000000000000000000000000000000000000000000000000000000000000000000
310
00000000000000000000000000000000000000000000000000000000000000000000000000000000000000000000000000000000000000000000000000000000000000000000000000000007000000000000000000000700000000000000000000000000000000000000000000000000000000000000000000000000000000
310
00000000000000000007070000000000070700000000000000000000000000000000000000000000000000000000000000000000000000000000000000000000000000000000000000000000000000000000000000000000000000000000000000000000000000000000000000000000000000000000000000000000000000
310
00070000000000000000000007000000000000000000000000000000000000000000000000000000000000000000000000000000000000000000000000000707000000000007070000000000000000000000000000000000000000000000000000000000000000000000000000000000000000000000000000000000000000
310
00000000000000000000000000000000000000000000000000000000000000000000000000000000000000000000000000000000000007000000000000000000000700000000000000000000000000000000000000000000000000000000000000000000000000000000000000000000000000070707070707070707000000
310
00000000000000000000000000000000000000000000000000000000000000000000000000000000000000000000000000000000000000000000000000000000000000000000000000000000000000070707070707070000000000000000000000000000000000000000000700000000000000000000070000000000000000
310
00000000000000000000000007070707070707000000000000000000000000000000000000000007070700070707070700070707000000000000000000000000000000000000000000000000000000000000000000000000000000000000000000000000000000000000000000000000000000000000000000000000000000
310
00000000070700000000000007070000000000000000000000000000000000070707000000000000000000000707000000000000000000000000000000000007070000000000000007070000000000000000000000000000000000000700070700000000000007000007000000000000000000000000000000000000000000
310
00000000000000000000000000000000000000000000000000000000000000000000000000000000000000000000000000000000000000000700000000000000000000070700000000000000000000000000000007000700000000000000000000070007000000000000000000000000000000070700000000000000000007
310
07000000000000000000000000000000000700070707070000000707070700070700000000000000000000000000000000000000000000000000000000000000000000000000000000000000000000000000000000000000000000000000000000000000000000000000000007000000000000000000000000070000000000
310
00000000000000000007000007000000000000000000000700070000000000000000000000000000000700000000000000000000000707000000000000000000000000000007000707070007070707070007000700070000000000000000000000000000000000000000000000000000000000000000000000000000000000
310
00000000000000000000000000000000000000000000000000000000070707070707070707070707070707000000000007000000000000000000000000000700070000000000000000000000070000070000000000000000000000000007000000000707070707070707070707070707070000000000000000000707000007
310
00000000000000070000070007000000000000000000000000000000000000000000000000000000000000000000000000000000000000000000000000000000000000000000000000000007070707070700000000000000000000000000000007070000000700000000000000000000000007000007000000000000000000
310
00000700000700000000000000000000000007000000000707000000000000000000000000000007070707070707000700070000070000000000000007000007000700000000000000000000000000000000000000000000000000000000000000000000000000000000000000000000000000000000000000000000000000
310
07000000000000000000000000000000000000000000000700000007070707000000000000000707070000070000000000000000000000070000000707000000000000000707070700000007070000000000000000000000000000000000000000000707070007000007000000000000000700000007070700000000000000
310
00000000000000000000000000000000000000000000000000000000000000000000000000000000000000000000000000000000070700000000000000000000000000000000000000000000070700000007000707070707070707070007000007000000000000000000000007070000070707070707070707070000070000
310
00070000000000000000000000000000000000000000000000070700070000070000000000000007000000070007000000000000000000000000000000000000000000000000000000000000000000000000000000000000000000000000000000000000000000000007000000000000000000000000000000000000000000
310
00000007000000070007000000000000000700070000070000000000000000000000070700000707000000000000000700000700000007000000000000000000000000000000000000000000000007070700000000000000000000000000000007000700000000000000000000000000000000000000000000000000000000
310
00000000000000000000000000000000000000000000000000000000000000070700000000000000000000000000000000000000000000070700000007000700000000000000070007000007070000000000000000000007070000070700000000000000070000070000000700000000000000000000000000000000000000
310
00000000070700070000000000000000000000000000070007000000000000000000000000000000000000000000000000000000000000000000000000000000000000000000000000000000000000000000000000070000000000000000000000000000000000000000000007000000070707070707070707070707070700
310
00070700000000000000000000070000000707070707070707070707070700000007070000000000000000000000000000000000000000000707070007000000000000000000000000000007070000000000000000000000000000000000000000000000000000000000000000000000000000000000000000000000000000
310
00000000000000000000000007070707070700000000000000000000000000000007070000000700000000000000000000000007000000070000000000000000000707000007000000000000000000000000070000000007070000000000000000000000000000070707070707070007000700000000000000000000000000
310
07000700000000000000000000000000000000000000000000000000000000000000000000000000000000000000000000000000000000000000000000000000000000000000000707070707070707070707070707070000000000070000000000000000000000000007000007070000000000000007070000000700000000
310
00000000000000000007000000000707070707070707070707070707070000000000000000070000070000000000000000000000000700070000000000000000000000000000000000000000000000000000000000000000000000000000000000000000000000000000000000000000000000000000000000000000000000
310
00000007000000000000000000000000070000000000000000000000000000070000000707070000000707070000000700000000000000000000000000000007000000000000000000000007070000000000000000000000000000070007000000000000000000000007000700000000000000000000000000000000000000
310
00000000000000000000000000000000000000000000000000000000000000000000000000000000000000000000000000000000000000000007000000000000000000000700000000000000000000000000000000070000000707070707070700000000070000000000000000000000000000000007000000000000000000
310
07070000000000000000000000000000000007000707000000000000000007000700000000000000000000000000000000000000000000000000000000000000000000000000000000000000000000000000000000000000000000000000000000000000000000000000000000000007070000000000000707000000000000
310
00000000000000000000000007000000000007070000000007070000000000000000000000000000000000070700000000000000070700000000000000000000000000000000000707000007070000000707070007070000000000000000000000000000000000000000000000000000000000000000000000000000000000
310
00000000000000000000000000000000000000000000000000000000000000000000000000000707070707070700000000000000000000000000000000000000000007070000000707000000070700000000000000000000000000000000000000000707070707070700000000000000000000000000000000000000000007
310
07000007070700000007000000000000000000000000000000000000000000000000000000000000000000000000000000000000000000000000000000000000000000000000000000000000000000000000000000000000000000000000000000000000000000000000000000000000000000000000000000070707070707
310
07070000000000000000000000000000000000000000000000000000000000000000000000000000000000000000000000000000000707070700070707070000000000000000000000000000000000000000000000000000000000000000000000000000000000000000000000000000000000000000000000000000000000
310
00000000000000000000000000000000000000000000000000000000000000000000000000000000000000000000000000000707000000000000000000000000000000000000000000000000000000000000000000000000000000000000000000000000000000000000000000000700000000000000000000000000000000
310
00000000000000000000000000000000000000000000000000000000000000000000000000000000000000000000000000000000000000000000000000000000000000000000000000000000000000000000000000000000000000000000000000000000000000000000000000000000000000000000000000000000000000
310
00000000000000000000000000000000000000000000000000000000000000000000000000000000000000000000000000000000000000000000000000000000000000000000000000000000000000000000000000000000000000000000000000000000000000000000000000000000000000000000000000000000000000
310
00000000000000000000000000000000000000000000000000000000000000000000000000000000000000000000000000000000000000000000000000000000000000000000000000000000000000000000000000000000000000000000000000000000000000000000000000000000000000000000000000000000000000
310
00000000000000000000000000000000000000000000000000000000000000000000000000000000000000000000000000000000000000000000000000000000000000000000000000000000000000000000000000000000000000000000000000000000000000000000000000000000000000000000000000000000000000
310
00000000000000000000000000000000000000000000000000000000000000000000000000000000000000000000000000000000000000000000000000000000000000000000000000000000000000000000000000000000000000000000000000000000000000000000000000000000000000000000000000000000000000
310
000000000000000000000000000000000000000000000000000000000000000000000000000000000000000000000000000000000000000000000000000000000000000000000000000000000000000000000000000000000000000000000000000000000000000000000000
  0
ENDSEC
  0
EOF
