  0
SECTION
  2
HEADER
  9
$ACADVER
  1
AC1015
  9
$ACADMAINTVER
 70
     6
  9
$DWGCODEPAGE
  3
ANSI_1252
  9
$INSBASE
 10
0.0
 20
0.0
 30
0.0
  9
$EXTMIN
 10
-0.06
 20
0.1355
 30
0.0
  9
$EXTMAX
 10
285.074
 20
217.8645
 30
0.0
  9
$LIMMIN
 10
0.0
 20
0.0
  9
$LIMMAX
 10
12.0
 20
9.0
  9
$ORTHOMODE
 70
     0
  9
$REGENMODE
 70
     1
  9
$FILLMODE
 70
     1
  9
$QTEXTMODE
 70
     0
  9
$MIRRTEXT
 70
     1
  9
$LTSCALE
 40
1.0
  9
$ATTMODE
 70
     1
  9
$TEXTSIZE
 40
0.2
  9
$TRACEWID
 40
0.05
  9
$TEXTSTYLE
  7
Standard
  9
$CLAYER
  8
0
  9
$CELTYPE
  6
ByBlock
  9
$CECOLOR
 62
   256
  9
$CELTSCALE
 40
1.0
  9
$DISPSILH
 70
     0
  9
$DIMSCALE
 40
1.0
  9
$DIMASZ
 40
0.18
  9
$DIMEXO
 40
0.0625
  9
$DIMDLI
 40
0.38
  9
$DIMRND
 40
0.0
  9
$DIMDLE
 40
0.0
  9
$DIMEXE
 40
0.18
  9
$DIMTP
 40
0.0
  9
$DIMTM
 40
0.0
  9
$DIMTXT
 40
0.18
  9
$DIMCEN
 40
0.09
  9
$DIMTSZ
 40
0.0
  9
$DIMTOL
 70
     0
  9
$DIMLIM
 70
     0
  9
$DIMTIH
 70
     1
  9
$DIMTOH
 70
     1
  9
$DIMSE1
 70
     0
  9
$DIMSE2
 70
     0
  9
$DIMTAD
 70
     0
  9
$DIMZIN
 70
     0
  9
$DIMBLK
  1

  9
$DIMASO
 70
     1
  9
$DIMSHO
 70
     1
  9
$DIMPOST
  1

  9
$DIMAPOST
  1

  9
$DIMALT
 70
     0
  9
$DIMALTD
 70
     2
  9
$DIMALTF
 40
25.4
  9
$DIMLFAC
 40
1.0
  9
$DIMTOFL
 70
     0
  9
$DIMTVP
 40
0.0
  9
$DIMTIX
 70
     0
  9
$DIMSOXD
 70
     0
  9
$DIMSAH
 70
     0
  9
$DIMBLK1
  1

  9
$DIMBLK2
  1

  9
$DIMSTYLE
  2
Standard
  9
$DIMCLRD
 70
     0
  9
$DIMCLRE
 70
     0
  9
$DIMCLRT
 70
     0
  9
$DIMTFAC
 40
1.0
  9
$DIMGAP
 40
0.09
  9
$DIMJUST
 70
     0
  9
$DIMSD1
 70
     0
  9
$DIMSD2
 70
     0
  9
$DIMTOLJ
 70
     1
  9
$DIMTZIN
 70
     0
  9
$DIMALTZ
 70
     0
  9
$DIMALTTZ
 70
     0
  9
$DIMUPT
 70
     0
  9
$DIMDEC
 70
     4
  9
$DIMTDEC
 70
     4
  9
$DIMALTU
 70
     2
  9
$DIMALTTD
 70
     2
  9
$DIMTXSTY
  7
Standard
  9
$DIMAUNIT
 70
     0
  9
$DIMADEC
 70
     0
  9
$DIMALTRND
 40
0.0
  9
$DIMAZIN
 70
     0
  9
$DIMDSEP
 70
    46
  9
$DIMATFIT
 70
     3
  9
$DIMFRAC
 70
     0
  9
$DIMLDRBLK
  1

  9
$DIMLUNIT
 70
     2
  9
$DIMLWD
 70
    -2
  9
$DIMLWE
 70
    -2
  9
$DIMTMOVE
 70
     2
  9
$LUNITS
 70
     2
  9
$LUPREC
 70
     4
  9
$SKETCHINC
 40
0.1
  9
$FILLETRAD
 40
0.5
  9
$AUNITS
 70
     0
  9
$AUPREC
 70
     0
  9
$MENU
  1
.
  9
$ELEVATION
 40
0.0
  9
$PELEVATION
 40
0.0
  9
$THICKNESS
 40
0.0
  9
$LIMCHECK
 70
     0
  9
$CHAMFERA
 40
0.5
  9
$CHAMFERB
 40
0.5
  9
$CHAMFERC
 40
1.0
  9
$CHAMFERD
 40
0.0
  9
$SKPOLY
 70
     0
  9
$TDCREATE
 40
2455873.351922199
  9
$TDUCREATE
 40
2455873.310255533
  9
$TDUPDATE
 40
2455873.357418611
  9
$TDUUPDATE
 40
2455873.315751945
  9
$TDINDWG
 40
0.00549625
  9
$TDUSRTIMER
 40
0.00549625
  9
$USRTIMER
 70
     1
  9
$ANGBASE
 50
0.0
  9
$ANGDIR
 70
     0
  9
$PDMODE
 70
     0
  9
$PDSIZE
 40
0.0
  9
$PLINEWID
 40
0.0
  9
$SPLFRAME
 70
     0
  9
$SPLINETYPE
 70
     6
  9
$SPLINESEGS
 70
     8
  9
$HANDSEED
  5
662
  9
$SURFTAB1
 70
     6
  9
$SURFTAB2
 70
     6
  9
$SURFTYPE
 70
     6
  9
$SURFU
 70
     6
  9
$SURFV
 70
     6
  9
$UCSBASE
  2

  9
$UCSNAME
  2

  9
$UCSORG
 10
0.0
 20
0.0
 30
0.0
  9
$UCSXDIR
 10
1.0
 20
0.0
 30
0.0
  9
$UCSYDIR
 10
0.0
 20
1.0
 30
0.0
  9
$UCSORTHOREF
  2

  9
$UCSORTHOVIEW
 70
     0
  9
$UCSORGTOP
 10
0.0
 20
0.0
 30
0.0
  9
$UCSORGBOTTOM
 10
0.0
 20
0.0
 30
0.0
  9
$UCSORGLEFT
 10
0.0
 20
0.0
 30
0.0
  9
$UCSORGRIGHT
 10
0.0
 20
0.0
 30
0.0
  9
$UCSORGFRONT
 10
0.0
 20
0.0
 30
0.0
  9
$UCSORGBACK
 10
0.0
 20
0.0
 30
0.0
  9
$PUCSBASE
  2

  9
$PUCSNAME
  2

  9
$PUCSORG
 10
0.0
 20
0.0
 30
0.0
  9
$PUCSXDIR
 10
1.0
 20
0.0
 30
0.0
  9
$PUCSYDIR
 10
0.0
 20
1.0
 30
0.0
  9
$PUCSORTHOREF
  2

  9
$PUCSORTHOVIEW
 70
     0
  9
$PUCSORGTOP
 10
0.0
 20
0.0
 30
0.0
  9
$PUCSORGBOTTOM
 10
0.0
 20
0.0
 30
0.0
  9
$PUCSORGLEFT
 10
0.0
 20
0.0
 30
0.0
  9
$PUCSORGRIGHT
 10
0.0
 20
0.0
 30
0.0
  9
$PUCSORGFRONT
 10
0.0
 20
0.0
 30
0.0
  9
$PUCSORGBACK
 10
0.0
 20
0.0
 30
0.0
  9
$USERI1
 70
     0
  9
$USERI2
 70
     0
  9
$USERI3
 70
     0
  9
$USERI4
 70
     0
  9
$USERI5
 70
     0
  9
$USERR1
 40
0.0
  9
$USERR2
 40
0.0
  9
$USERR3
 40
0.0
  9
$USERR4
 40
0.0
  9
$USERR5
 40
0.0
  9
$WORLDVIEW
 70
     1
  9
$SHADEDGE
 70
     3
  9
$SHADEDIF
 70
    70
  9
$TILEMODE
 70
     1
  9
$MAXACTVP
 70
    64
  9
$PINSBASE
 10
0.0
 20
0.0
 30
0.0
  9
$PLIMCHECK
 70
     0
  9
$PEXTMIN
 10
1.000000000000E+20
 20
1.000000000000E+20
 30
1.000000000000E+20
  9
$PEXTMAX
 10
-1.000000000000E+20
 20
-1.000000000000E+20
 30
-1.000000000000E+20
  9
$PLIMMIN
 10
0.0
 20
0.0
  9
$PLIMMAX
 10
12.0
 20
9.0
  9
$UNITMODE
 70
     0
  9
$VISRETAIN
 70
     1
  9
$PLINEGEN
 70
     0
  9
$PSLTSCALE
 70
     1
  9
$TREEDEPTH
 70
  3020
  9
$CMLSTYLE
  2
Standard
  9
$CMLJUST
 70
     0
  9
$CMLSCALE
 40
1.0
  9
$PROXYGRAPHICS
 70
     1
  9
$MEASUREMENT
 70
     0
  9
$CELWEIGHT
370
    -1
  9
$ENDCAPS
280
     0
  9
$JOINSTYLE
280
     0
  9
$LWDISPLAY
290
     0
  9
$INSUNITS
 70
     0
  9
$HYPERLINKBASE
  1

  9
$STYLESHEET
  1

  9
$XEDIT
290
     1
  9
$CEPSNTYPE
380
     0
  9
$PSTYLEMODE
290
     1
  9
$FINGERPRINTGUID
  2
{6F72CF0A-D829-4999-A32F-41ED4A8D4A89}
  9
$VERSIONGUID
  2
{FAEB1C32-E019-11D5-929B-00C0DF256EC4}
  9
$EXTNAMES
290
     1
  9
$PSVPSCALE
 40
0.0
  9
$OLESTARTUP
290
     0
  0
ENDSEC
  0
SECTION
  2
CLASSES
  0
CLASS
  1
ACDBDICTIONARYWDFLT
  2
AcDbDictionaryWithDefault
  3
ObjectDBX Classes
 90
        0
280
     0
281
     0
  0
CLASS
  1
SCALE
  2
AcDbScale
  3
ObjectDBX Classes
 90
     1153
280
     0
281
     0
  0
CLASS
  1
DICTIONARYVAR
  2
AcDbDictionaryVar
  3
ObjectDBX Classes
 90
        0
280
     0
281
     0
  0
CLASS
  1
ACDBPLACEHOLDER
  2
AcDbPlaceHolder
  3
ObjectDBX Classes
 90
        0
280
     0
281
     0
  0
CLASS
  1
LAYOUT
  2
AcDbLayout
  3
ObjectDBX Classes
 90
        0
280
     0
281
     0
  0
ENDSEC
  0
SECTION
  2
TABLES
  0
TABLE
  2
VPORT
  5
8
330
0
100
AcDbSymbolTable
 70
     1
  0
VPORT
  5
627
330
8
100
AcDbSymbolTableRecord
100
AcDbViewportTableRecord
  2
*Active
 70
     0
 10
0.0
 20
0.0
 11
1.0
 21
1.0
 12
142.507
 22
108.93225
 13
0.0
 23
0.0
 14
0.5
 24
0.5
 15
0.5
 25
0.5
 16
0.0
 26
0.0
 36
1.0
 17
0.0
 27
0.0
 37
0.0
 40
222.22179
 41
2.271724137931
 42
50.0
 43
0.0
 44
0.0
 50
0.0
 51
0.0
 71
    16
 72
   100
 73
     1
 74
     3
 75
     0
 76
     0
 77
     0
 78
     0
281
     0
 65
     1
110
0.0
120
0.0
130
0.0
111
1.0
121
0.0
131
0.0
112
0.0
122
1.0
132
0.0
 79
     0
146
0.0
  0
ENDTAB
  0
TABLE
  2
LTYPE
  5
5
330
0
100
AcDbSymbolTable
 70
     1
  0
LTYPE
  5
14
330
5
100
AcDbSymbolTableRecord
100
AcDbLinetypeTableRecord
  2
ByBlock
 70
     0
  3

 72
    65
 73
     0
 40
0.0
  0
LTYPE
  5
15
330
5
100
AcDbSymbolTableRecord
100
AcDbLinetypeTableRecord
  2
ByLayer
 70
     0
  3

 72
    65
 73
     0
 40
0.0
  0
LTYPE
  5
16
330
5
100
AcDbSymbolTableRecord
100
AcDbLinetypeTableRecord
  2
Continuous
 70
     0
  3
Solid line
 72
    65
 73
     0
 40
0.0
  0
ENDTAB
  0
TABLE
  2
LAYER
  5
2
330
0
100
AcDbSymbolTable
 70
     1
  0
LAYER
  5
10
330
2
100
AcDbSymbolTableRecord
100
AcDbLayerTableRecord
  2
0
 70
     0
 62
     7
  6
Continuous
370
    -3
390
F
  0
ENDTAB
  0
TABLE
  2
STYLE
  5
3
330
0
100
AcDbSymbolTable
 70
     1
  0
STYLE
  5
11
330
3
100
AcDbSymbolTableRecord
100
AcDbTextStyleTableRecord
  2
Standard
 70
     0
 40
0.0
 41
1.0
 50
0.0
 71
     0
 42
0.2
  3
txt
  4

  0
ENDTAB
  0
TABLE
  2
VIEW
  5
6
330
0
100
AcDbSymbolTable
 70
     0
  0
ENDTAB
  0
TABLE
  2
UCS
  5
7
330
0
100
AcDbSymbolTable
 70
     0
  0
ENDTAB
  0
TABLE
  2
APPID
  5
9
330
0
100
AcDbSymbolTable
 70
     1
  0
APPID
  5
12
330
9
100
AcDbSymbolTableRecord
100
AcDbRegAppTableRecord
  2
ACAD
 70
     0
  0
ENDTAB
  0
TABLE
  2
DIMSTYLE
  5
A
330
0
100
AcDbSymbolTable
 70
     1
100
AcDbDimStyleTable
  0
DIMSTYLE
105
20
330
A
100
AcDbSymbolTableRecord
100
AcDbDimStyleTableRecord
  2
Standard
 70
     0
340
11
  0
ENDTAB
  0
TABLE
  2
BLOCK_RECORD
  5
1
330
0
100
AcDbSymbolTable
 70
     0
  0
BLOCK_RECORD
  5
1D
330
1
100
AcDbSymbolTableRecord
100
AcDbBlockTableRecord
  2
*Model_Space
340
1E
  0
BLOCK_RECORD
  5
1B
330
1
100
AcDbSymbolTableRecord
100
AcDbBlockTableRecord
  2
*Paper_Space
340
1C
  0
ENDTAB
  0
ENDSEC
  0
SECTION
  2
BLOCKS
  0
BLOCK
  5
62A
330
1D
100
AcDbEntity
  8
0
100
AcDbBlockBegin
  2
*Model_Space
 70
     0
 10
0.0
 20
0.0
 30
0.0
  3
*Model_Space
  1
*Model_Space
  0
ENDBLK
  5
62B
330
1D
100
AcDbEntity
  8
0
100
AcDbBlockEnd
  0
BLOCK
  5
628
330
1B
100
AcDbEntity
 67
     1
  8
0
100
AcDbBlockBegin
  2
*Paper_Space
 70
     0
 10
0.0
 20
0.0
 30
0.0
  3
*Paper_Space
  1
*Paper_Space
  0
ENDBLK
  5
629
330
1B
100
AcDbEntity
 67
     1
  8
0
100
AcDbBlockEnd
  0
ENDSEC
  0
SECTION
  2
ENTITIES
  0
LINE
  5
21
330
1D
100
AcDbEntity
  8
0
100
AcDbLine
 10
203.927
 20
34.7176
 30
0.0
 11
221.1348
 21
14.2933
 31
0.0
  0
LINE
  5
22
330
1D
100
AcDbEntity
  8
0
100
AcDbLine
 10
203.927
 20
34.7176
 30
0.0
 11
204.0781
 21
34.8432
 31
0.0
  0
LINE
  5
25
330
1D
100
AcDbEntity
  8
0
100
AcDbLine
 10
204.772605728647
 20
35.423859766075
 30
0.0
 11
204.8437
 21
35.4833
 31
0.0
  0
LINE
  5
26
330
1D
100
AcDbEntity
  8
0
100
AcDbLine
 10
204.772605728647
 20
35.423859766075
 30
0.0
 11
204.8437
 21
35.4833
 31
0.0
  0
LINE
  5
30
330
1D
100
AcDbEntity
  8
0
100
AcDbLine
 10
204.5274
 20
35.2191
 30
0.0
 11
204.697633423798
 21
35.361253922044
 31
0.0
  0
LINE
  5
32
330
1D
100
AcDbEntity
  8
0
100
AcDbLine
 10
204.0781
 20
34.8432
 30
0.0
 11
204.5274
 21
35.2191
 31
0.0
  0
LINE
  5
33
330
1D
100
AcDbEntity
  8
0
100
AcDbLine
 10
211.714
 20
0.1355
 30
0.0
 11
211.7741
 21
0.1355
 31
0.0
  0
LINE
  5
34
330
1D
100
AcDbEntity
  8
0
100
AcDbLine
 10
211.714
 20
0.1355
 30
0.0
 11
211.714
 21
7.82786
 31
0.0
  0
LINE
  5
35
330
1D
100
AcDbEntity
  8
0
100
AcDbLine
 10
211.7741
 20
0.1355
 30
0.0
 11
212.1695
 21
0.1355
 31
0.0
  0
LINE
  5
36
330
1D
100
AcDbEntity
  8
0
100
AcDbLine
 10
212.1695
 20
0.1355
 30
0.0
 11
212.8774
 21
0.1355
 31
0.0
  0
LINE
  5
37
330
1D
100
AcDbEntity
  8
0
100
AcDbLine
 10
212.8774
 20
0.1355
 30
0.0
 11
213.8899
 21
0.1355
 31
0.0
  0
LINE
  5
38
330
1D
100
AcDbEntity
  8
0
100
AcDbLine
 10
213.5417
 20
0.1361
 30
0.0
 11
214.5475
 21
0.1361
 31
0.0
  0
LINE
  5
39
330
1D
100
AcDbEntity
  8
0
100
AcDbLine
 10
215.2938
 20
0.1355
 30
0.0
 11
216.5469
 21
0.1355
 31
0.0
  0
LINE
  5
3A
330
1D
100
AcDbEntity
  8
0
100
AcDbLine
 10
214.3233
 20
0.1355
 30
0.0
 11
215.2938
 21
0.1355
 31
0.0
  0
LINE
  5
3B
330
1D
100
AcDbEntity
  8
0
100
AcDbLine
 10
213.8899
 20
0.1355
 30
0.0
 11
215.2
 21
0.1355
 31
0.0
  0
LINE
  5
3C
330
1D
100
AcDbEntity
  8
0
100
AcDbLine
 10
215.2
 20
0.1355
 30
0.0
 11
216.7946
 21
0.1355
 31
0.0
  0
LINE
  5
3D
330
1D
100
AcDbEntity
  8
0
100
AcDbLine
 10
217.7512
 20
0.1355
 30
0.0
 11
218.4894
 21
0.1355
 31
0.0
  0
LINE
  5
3E
330
1D
100
AcDbEntity
  8
0
100
AcDbLine
 10
218.4894
 20
0.1355
 30
0.0
 11
219.4866
 21
0.1355
 31
0.0
  0
LINE
  5
3F
330
1D
100
AcDbEntity
  8
0
100
AcDbLine
 10
217.074
 20
0.1355
 30
0.0
 11
217.2781
 21
0.1355
 31
0.0
  0
LINE
  5
40
330
1D
100
AcDbEntity
  8
0
100
AcDbLine
 10
217.2781
 20
0.1355
 30
0.0
 11
217.7512
 21
0.1355
 31
0.0
  0
LINE
  5
41
330
1D
100
AcDbEntity
  8
0
100
AcDbLine
 10
216.7946
 20
0.1355
 30
0.0
 11
218.0893
 21
0.1355
 31
0.0
  0
LINE
  5
42
330
1D
100
AcDbEntity
  8
0
100
AcDbLine
 10
214.5475
 20
0.1361
 30
0.0
 11
215.8476
 21
0.1361
 31
0.0
  0
LINE
  5
43
330
1D
100
AcDbEntity
  8
0
100
AcDbLine
 10
215.8476
 20
0.1361
 30
0.0
 11
217.4288
 21
0.1361
 31
0.0
  0
LINE
  5
44
330
1D
100
AcDbEntity
  8
0
100
AcDbLine
 10
217.4288
 20
0.1361
 30
0.0
 11
219.2803
 21
0.1361
 31
0.0
  0
LINE
  5
45
330
1D
100
AcDbEntity
  8
0
100
AcDbLine
 10
220.679
 20
0.1355
 30
0.0
 11
220.734
 21
0.1355
 31
0.0
  0
LINE
  5
46
330
1D
100
AcDbEntity
  8
0
100
AcDbLine
 10
220.7776
 20
0.1355
 30
0.0
 11
221.4542
 21
0.1355
 31
0.0
  0
LINE
  5
47
330
1D
100
AcDbEntity
  8
0
100
AcDbLine
 10
219.4866
 20
0.1355
 30
0.0
 11
220.734
 21
0.1355
 31
0.0
  0
LINE
  5
48
330
1D
100
AcDbEntity
  8
0
100
AcDbLine
 10
219.6757
 20
0.1355
 30
0.0
 11
220.0468
 21
0.1355
 31
0.0
  0
LINE
  5
49
330
1D
100
AcDbEntity
  8
0
100
AcDbLine
 10
220.734
 20
0.1355
 30
0.0
 11
222.2194
 21
0.1355
 31
0.0
  0
LINE
  5
4A
330
1D
100
AcDbEntity
  8
0
100
AcDbLine
 10
220.734
 20
0.1355
 30
0.0
 11
221.4542
 21
0.1355
 31
0.0
  0
LINE
  5
4B
330
1D
100
AcDbEntity
  8
0
100
AcDbLine
 10
223.0546
 20
0.1355
 30
0.0
 11
223.129
 21
0.1355
 31
0.0
  0
LINE
  5
4C
330
1D
100
AcDbEntity
  8
0
100
AcDbLine
 10
223.0546
 20
0.1355
 30
0.0
 11
223.9308
 21
0.1355
 31
0.0
  0
LINE
  5
4D
330
1D
100
AcDbEntity
  8
0
100
AcDbLine
 10
221.4542
 20
0.1355
 30
0.0
 11
223.0546
 21
0.1355
 31
0.0
  0
LINE
  5
4E
330
1D
100
AcDbEntity
  8
0
100
AcDbLine
 10
222.2194
 20
0.1355
 30
0.0
 11
224.1365
 21
0.1355
 31
0.0
  0
LINE
  5
4F
330
1D
100
AcDbEntity
  8
0
100
AcDbLine
 10
222.2194
 20
0.1355
 30
0.0
 11
223.129
 21
0.1355
 31
0.0
  0
LINE
  5
50
330
1D
100
AcDbEntity
  8
0
100
AcDbLine
 10
222.2194
 20
0.1355
 30
0.0
 11
223.9308
 21
0.1355
 31
0.0
  0
LINE
  5
51
330
1D
100
AcDbEntity
  8
0
100
AcDbLine
 10
221.383
 20
0.1361
 30
0.0
 11
223.7179
 21
0.1361
 31
0.0
  0
LINE
  5
52
330
1D
100
AcDbEntity
  8
0
100
AcDbLine
 10
220.069
 20
0.1361
 30
0.0
 11
222.1116
 21
0.1361
 31
0.0
  0
LINE
  5
53
330
1D
100
AcDbEntity
  8
0
100
AcDbLine
 10
219.2803
 20
0.1361
 30
0.0
 11
220.069
 21
0.1361
 31
0.0
  0
LINE
  5
54
330
1D
100
AcDbEntity
  8
0
100
AcDbLine
 10
219.2803
 20
0.1361
 30
0.0
 11
221.383
 21
0.1361
 31
0.0
  0
LINE
  5
55
330
1D
100
AcDbEntity
  8
0
100
AcDbLine
 10
214.4935
 20
0.1361
 30
0.0
 11
214.5475
 21
0.1361
 31
0.0
  0
LINE
  5
56
330
1D
100
AcDbEntity
  8
0
100
AcDbLine
 10
213.8109
 20
0.1361
 30
0.0
 11
214.4935
 21
0.1361
 31
0.0
  0
LINE
  5
57
330
1D
100
AcDbEntity
  8
0
100
AcDbLine
 10
212.0912
 20
0.4512
 30
0.0
 11
212.4455
 21
7.1978
 31
0.0
  0
LINE
  5
58
330
1D
100
AcDbEntity
  8
0
100
AcDbLine
 10
212.1262
 20
0.2946
 30
0.0
 11
212.2363
 21
0.179
 31
0.0
  0
LINE
  5
59
330
1D
100
AcDbEntity
  8
0
100
AcDbLine
 10
212.3904
 20
0.1361
 30
0.0
 11
212.4488
 21
0.1361
 31
0.0
  0
LINE
  5
5A
330
1D
100
AcDbEntity
  8
0
100
AcDbLine
 10
212.2363
 20
0.179
 30
0.0
 11
212.3904
 21
0.1361
 31
0.0
  0
LINE
  5
5B
330
1D
100
AcDbEntity
  8
0
100
AcDbLine
 10
212.2979
 20
9.24045
 30
0.0
 11
212.9454
 21
9.67402
 31
0.0
  0
LINE
  5
5C
330
1D
100
AcDbEntity
  8
0
100
AcDbLine
 10
211.8655
 20
8.5921
 30
0.0
 11
212.2979
 21
9.24045
 31
0.0
  0
LINE
  5
5D
330
1D
100
AcDbEntity
  8
0
100
AcDbLine
 10
211.714
 20
7.82786
 30
0.0
 11
211.714
 21
0.1355
 31
0.0
  0
LINE
  5
5E
330
1D
100
AcDbEntity
  8
0
100
AcDbLine
 10
211.714
 20
7.82786
 30
0.0
 11
211.8655
 21
8.5921
 31
0.0
  0
LINE
  5
61
330
1D
100
AcDbEntity
  8
0
100
AcDbLine
 10
212.0912
 20
0.4512
 30
0.0
 11
212.4455
 21
7.1978
 31
0.0
  0
LINE
  5
62
330
1D
100
AcDbEntity
  8
0
100
AcDbLine
 10
212.0912
 20
0.4512
 30
0.0
 11
212.1262
 21
0.2946
 31
0.0
  0
LINE
  5
63
330
1D
100
AcDbEntity
  8
0
100
AcDbLine
 10
212.4488
 20
0.1361
 30
0.0
 11
212.8401
 21
0.1361
 31
0.0
  0
LINE
  5
64
330
1D
100
AcDbEntity
  8
0
100
AcDbLine
 10
212.8401
 20
0.1361
 30
0.0
 11
213.5417
 21
0.1361
 31
0.0
  0
LINE
  5
69
330
1D
100
AcDbEntity
  8
0
100
AcDbLine
 10
212.6156
 20
7.9046
 30
0.0
 11
213.0287
 21
8.5028
 31
0.0
  0
LINE
  5
6C
330
1D
100
AcDbEntity
  8
0
100
AcDbLine
 10
213.6297
 20
8.9146
 30
0.0
 11
214.2415
 21
9.0652
 31
0.0
  0
LINE
  5
6D
330
1D
100
AcDbEntity
  8
0
100
AcDbLine
 10
214.2415
 20
9.0652
 30
0.0
 11
214.3233
 21
9.0841
 31
0.0
  0
LINE
  5
6F
330
1D
100
AcDbEntity
  8
0
100
AcDbLine
 10
217.617785744615
 20
9.256893909159
 30
0.0
 11
217.8982
 21
9.53675
 31
0.0
  0
LINE
  5
70
330
1D
100
AcDbEntity
  8
0
100
AcDbLine
 10
214.3233
 20
9.0841
 30
0.0
 11
218.5998
 21
9.3084
 31
0.0
  0
LINE
  5
72
330
1D
100
AcDbEntity
  8
0
100
AcDbLine
 10
219.4635
 20
9.3084
 30
0.0
 11
220.4273
 21
9.3084
 31
0.0
  0
LINE
  5
73
330
1D
100
AcDbEntity
  8
0
100
AcDbLine
 10
219.1672
 20
9.3084
 30
0.0
 11
219.8718
 21
9.3084
 31
0.0
  0
LINE
  5
74
330
1D
100
AcDbEntity
  8
0
100
AcDbLine
 10
218.7745
 20
9.3084
 30
0.0
 11
218.903
 21
9.3084
 31
0.0
  0
LINE
  5
75
330
1D
100
AcDbEntity
  8
0
100
AcDbLine
 10
218.7419
 20
9.3084
 30
0.0
 11
219.1672
 21
9.3084
 31
0.0
  0
LINE
  5
76
330
1D
100
AcDbEntity
  8
0
100
AcDbLine
 10
218.903
 20
9.3084
 30
0.0
 11
219.4635
 21
9.3084
 31
0.0
  0
LINE
  5
77
330
1D
100
AcDbEntity
  8
0
100
AcDbLine
 10
218.5998
 20
9.3084
 30
0.0
 11
218.7419
 21
9.3084
 31
0.0
  0
LINE
  5
78
330
1D
100
AcDbEntity
  8
0
100
AcDbLine
 10
212.9454
 20
9.67402
 30
0.0
 11
213.475
 21
9.78425
 31
0.0
  0
LINE
  5
79
330
1D
100
AcDbEntity
  8
0
100
AcDbLine
 10
213.475
 20
9.78425
 30
0.0
 11
213.6822
 21
9.82587
 31
0.0
  0
LINE
  5
7A
330
1D
100
AcDbEntity
  8
0
100
AcDbLine
 10
213.475
 20
9.78425
 30
0.0
 11
213.6942
 21
9.82587
 31
0.0
  0
LINE
  5
7D
330
1D
100
AcDbEntity
  8
0
100
AcDbLine
 10
213.8709
 20
9.82587
 30
0.0
 11
214.3742
 21
9.82587
 31
0.0
  0
LINE
  5
7E
330
1D
100
AcDbEntity
  8
0
100
AcDbLine
 10
215.189
 20
9.82587
 30
0.0
 11
216.3063
 21
9.82587
 31
0.0
  0
LINE
  5
7F
330
1D
100
AcDbEntity
  8
0
100
AcDbLine
 10
214.3742
 20
9.82587
 30
0.0
 11
215.189
 21
9.82587
 31
0.0
  0
LINE
  5
80
330
1D
100
AcDbEntity
  8
0
100
AcDbLine
 10
217.8982
 20
9.53675
 30
0.0
 11
218.4564
 21
9.82024
 31
0.0
  0
LINE
  5
81
330
1D
100
AcDbEntity
  8
0
100
AcDbLine
 10
216.3063
 20
9.82587
 30
0.0
 11
217.7152
 21
9.82587
 31
0.0
  0
LINE
  5
82
330
1D
100
AcDbEntity
  8
0
100
AcDbLine
 10
218.724121302113
 20
9.856556105083
 30
0.0
 11
219.0675
 21
9.91807
 31
0.0
  0
LINE
  5
83
330
1D
100
AcDbEntity
  8
0
100
AcDbLine
 10
219.0675
 20
9.91807
 30
0.0
 11
219.1776
 21
9.91807
 31
0.0
  0
LINE
  5
84
330
1D
100
AcDbEntity
  8
0
100
AcDbLine
 10
217.7152
 20
9.82587
 30
0.0
 11
218.491568077277
 21
9.82587
 31
0.0
  0
LINE
  5
85
330
1D
100
AcDbEntity
  8
0
100
AcDbLine
 10
213.6822
 20
9.82587
 30
0.0
 11
213.8709
 21
9.82587
 31
0.0
  0
LINE
  5
86
330
1D
100
AcDbEntity
  8
0
100
AcDbLine
 10
219.8516
 20
9.3084
 30
0.0
 11
220.3184
 21
9.343
 31
0.0
  0
LINE
  5
87
330
1D
100
AcDbEntity
  8
0
100
AcDbLine
 10
222.0856
 20
9.3084
 30
0.0
 11
223.6048
 21
9.3084
 31
0.0
  0
LINE
  5
88
330
1D
100
AcDbEntity
  8
0
100
AcDbLine
 10
220.8476
 20
9.3084
 30
0.0
 11
222.0856
 21
9.3084
 31
0.0
  0
LINE
  5
89
330
1D
100
AcDbEntity
  8
0
100
AcDbLine
 10
221.7784
 20
9.3084
 30
0.0
 11
223.4987
 21
9.3084
 31
0.0
  0
LINE
  5
8A
330
1D
100
AcDbEntity
  8
0
100
AcDbLine
 10
220.4273
 20
9.3084
 30
0.0
 11
221.7784
 21
9.3084
 31
0.0
  0
LINE
  5
8B
330
1D
100
AcDbEntity
  8
0
100
AcDbLine
 10
221.3414
 20
10.0031
 30
0.0
 11
221.6348
 21
10.4874
 31
0.0
  0
LINE
  5
8C
330
1D
100
AcDbEntity
  8
0
100
AcDbLine
 10
221.6348
 20
10.4874
 30
0.0
 11
221.6795
 21
10.5986
 31
0.0
  0
LINE
  5
8D
330
1D
100
AcDbEntity
  8
0
100
AcDbLine
 10
221.6795
 20
10.5986
 30
0.0
 11
221.7396
 21
10.7919
 31
0.0
  0
LINE
  5
8F
330
1D
100
AcDbEntity
  8
0
100
AcDbLine
 10
221.7396
 20
10.7919
 30
0.0
 11
221.8424
 21
11.0651
 31
0.0
  0
LINE
  5
90
330
1D
100
AcDbEntity
  8
0
100
AcDbLine
 10
221.7087
 20
13.4566
 30
0.0
 11
221.854
 21
12.988
 31
0.0
  0
LINE
  5
95
330
1D
100
AcDbEntity
  8
0
100
AcDbLine
 10
221.3647
 20
14.0006
 30
0.0
 11
221.4441
 21
13.9082
 31
0.0
  0
LINE
  5
96
330
1D
100
AcDbEntity
  8
0
100
AcDbLine
 10
221.1348
 20
14.2933
 30
0.0
 11
221.3647
 21
14.0006
 31
0.0
  0
LINE
  5
97
330
1D
100
AcDbEntity
  8
0
100
AcDbLine
 10
221.4441
 20
13.9082
 30
0.0
 11
221.7087
 21
13.4566
 31
0.0
  0
LINE
  5
9A
330
1D
100
AcDbEntity
  8
0
100
AcDbLine
 10
221.8424
 20
11.0651
 30
0.0
 11
221.9825
 21
11.9065
 31
0.0
  0
LINE
  5
9C
330
1D
100
AcDbEntity
  8
0
100
AcDbLine
 10
221.9355
 20
12.733
 30
0.0
 11
221.9825
 21
11.9065
 31
0.0
  0
LINE
  5
9E
330
1D
100
AcDbEntity
  8
0
100
AcDbLine
 10
221.854
 20
12.988
 30
0.0
 11
221.9355
 21
12.733
 31
0.0
  0
LINE
  5
A0
330
1D
100
AcDbEntity
  8
0
100
AcDbLine
 10
220.8713
 20
9.5537
 30
0.0
 11
221.3414
 21
10.0031
 31
0.0
  0
LINE
  5
A2
330
1D
100
AcDbEntity
  8
0
100
AcDbLine
 10
220.3184
 20
9.343
 30
0.0
 11
220.8713
 21
9.5537
 31
0.0
  0
LINE
  5
A6
330
1D
100
AcDbEntity
  8
0
100
AcDbLine
 10
219.8718
 20
9.3084
 30
0.0
 11
220.8476
 21
9.3084
 31
0.0
  0
LINE
  5
A7
330
1D
100
AcDbEntity
  8
0
100
AcDbLine
 10
213.0287
 20
8.5028
 30
0.0
 11
213.6297
 21
8.9146
 31
0.0
  0
LINE
  5
A8
330
1D
100
AcDbEntity
  8
0
100
AcDbLine
 10
212.4455
 20
7.1978
 30
0.0
 11
212.6156
 21
7.9046
 31
0.0
  0
LINE
  5
A9
330
1D
100
AcDbEntity
  8
0
100
AcDbLine
 10
213.3745
 20
0.1361
 30
0.0
 11
213.4306
 21
0.1361
 31
0.0
  0
LINE
  5
B2
330
1D
100
AcDbEntity
  8
0
100
AcDbLine
 10
194.114
 20
49.9406
 30
0.0
 11
194.3162
 21
50.1101
 31
0.0
  0
LINE
  5
B3
330
1D
100
AcDbEntity
  8
0
100
AcDbLine
 10
194.2141
 20
49.6335
 30
0.0
 11
194.6425
 21
49.9914
 31
0.0
  0
LINE
  5
B4
330
1D
100
AcDbEntity
  8
0
100
AcDbLine
 10
194.0798
 20
49.5785
 30
0.0
 11
194.114
 21
49.9406
 31
0.0
  0
LINE
  5
B6
330
1D
100
AcDbEntity
  8
0
100
AcDbLine
 10
194.6425
 20
49.9914
 30
0.0
 11
195.348
 21
50.5816
 31
0.0
  0
LINE
  5
B7
330
1D
100
AcDbEntity
  8
0
100
AcDbLine
 10
195.1712
 20
48.2216
 30
0.0
 11
195.307
 21
48.3354
 31
0.0
  0
LINE
  5
B8
330
1D
100
AcDbEntity
  8
0
100
AcDbLine
 10
195.6523
 20
47.3225
 30
0.0
 11
196.4089
 21
47.9546
 31
0.0
  0
LINE
  5
B9
330
1D
100
AcDbEntity
  8
0
100
AcDbLine
 10
195.7353
 20
48.6933
 30
0.0
 11
196.4409
 21
49.2836
 31
0.0
  0
LINE
  5
BA
330
1D
100
AcDbEntity
  8
0
100
AcDbLine
 10
195.307
 20
48.3354
 30
0.0
 11
195.7353
 21
48.6933
 31
0.0
  0
LINE
  5
BB
330
1D
100
AcDbEntity
  8
0
100
AcDbLine
 10
196.4409
 20
49.2836
 30
0.0
 11
197.4047
 21
50.0891
 31
0.0
  0
LINE
  5
BC
330
1D
100
AcDbEntity
  8
0
100
AcDbLine
 10
197.4047
 20
50.0891
 30
0.0
 11
198.6006
 21
51.0881
 31
0.0
  0
LINE
  5
BD
330
1D
100
AcDbEntity
  8
0
100
AcDbLine
 10
198.7218
 20
49.8877
 30
0.0
 11
200.217
 21
51.1369
 31
0.0
  0
LINE
  5
BE
330
1D
100
AcDbEntity
  8
0
100
AcDbLine
 10
197.4417
 20
48.818
 30
0.0
 11
198.7218
 21
49.8877
 31
0.0
  0
LINE
  5
BF
330
1D
100
AcDbEntity
  8
0
100
AcDbLine
 10
196.4089
 20
47.9546
 30
0.0
 11
197.4417
 21
48.818
 31
0.0
  0
LINE
  5
C0
330
1D
100
AcDbEntity
  8
0
100
AcDbLine
 10
195.1939
 20
46.9386
 30
0.0
 11
195.6523
 21
47.3225
 31
0.0
  0
LINE
  5
C1
330
1D
100
AcDbEntity
  8
0
100
AcDbLine
 10
194.742444024491
 20
50.46560600571
 30
0.0
 11
194.838493445887
 21
50.545986978683
 31
0.0
  0
LINE
  5
C6
330
1D
100
AcDbEntity
  8
0
100
AcDbLine
 10
195.0483
 20
46.817
 30
0.0
 11
195.1712
 21
48.2216
 31
0.0
  0
LINE
  5
C7
330
1D
100
AcDbEntity
  8
0
100
AcDbLine
 10
195.0483
 20
46.817
 30
0.0
 11
204.697633423798
 21
35.361253922044
 31
0.0
  0
LINE
  5
C8
330
1D
100
AcDbEntity
  8
0
100
AcDbLine
 10
195.0483
 20
46.817
 30
0.0
 11
195.1939
 21
46.9386
 31
0.0
  0
LINE
  5
C9
330
1D
100
AcDbEntity
  8
0
100
AcDbLine
 10
194.0773
 20
49.5196
 30
0.0
 11
195.1712
 21
48.2216
 31
0.0
  0
LINE
  5
CA
330
1D
100
AcDbEntity
  8
0
100
AcDbLine
 10
194.0773
 20
49.5196
 30
0.0
 11
194.0798
 21
49.5785
 31
0.0
  0
LINE
  5
CB
330
1D
100
AcDbEntity
  8
0
100
AcDbLine
 10
194.0773
 20
49.5196
 30
0.0
 11
194.2141
 21
49.6335
 31
0.0
  0
LINE
  5
D0
330
1D
100
AcDbEntity
  8
0
100
AcDbLine
 10
195.348
 20
50.5816
 30
0.0
 11
196.3118
 21
51.3872
 31
0.0
  0
LINE
  5
D3
330
1D
100
AcDbEntity
  8
0
100
AcDbLine
 10
196.3118
 20
51.3872
 30
0.0
 11
197.5068
 21
52.3862
 31
0.0
  0
LINE
  5
D7
330
1D
100
AcDbEntity
  8
0
100
AcDbLine
 10
199.9948
 20
52.2536
 30
0.0
 11
201.551
 21
53.5536
 31
0.0
  0
LINE
  5
D8
330
1D
100
AcDbEntity
  8
0
100
AcDbLine
 10
198.6006
 20
51.0881
 30
0.0
 11
199.9948
 21
52.2536
 31
0.0
  0
LINE
  5
DA
330
1D
100
AcDbEntity
  8
0
100
AcDbLine
 10
3.38
 20
209.3345
 30
0.0
 11
5.845
 21
206.8155
 31
0.0
  0
LINE
  5
DB
330
1D
100
AcDbEntity
  8
0
100
AcDbLine
 10
5.845
 20
206.8155
 30
0.0
 11
9.297
 21
203.7715
 31
0.0
  0
LINE
  5
DC
330
1D
100
AcDbEntity
  8
0
100
AcDbLine
 10
1.166
 20
212.3245
 30
0.0
 11
3.38
 21
209.3345
 31
0.0
  0
LINE
  5
DD
330
1D
100
AcDbEntity
  8
0
100
AcDbLine
 10
9.297
 20
203.7715
 30
0.0
 11
12.828336725281
 21
200.855727889552
 31
0.0
  0
LINE
  5
E4
330
1D
100
AcDbEntity
  8
0
100
AcDbLine
 10
8.472
 20
213.7555
 30
0.0
 11
10.531
 21
212.6615
 31
0.0
  0
LINE
  5
E6
330
1D
100
AcDbEntity
  8
0
100
AcDbLine
 10
13.149
 20
200.3865
 30
0.0
 11
13.953
 21
199.6615
 31
0.0
  0
LINE
  5
E7
330
1D
100
AcDbEntity
  8
0
100
AcDbLine
 10
13.038
 20
201.1365
 30
0.0
 11
13.149
 21
200.3865
 31
0.0
  0
LINE
  5
E8
330
1D
100
AcDbEntity
  8
0
100
AcDbLine
 10
13.038
 20
201.1365
 30
0.0
 11
13.276605816548
 21
201.5849789955
 31
0.0
  0
LINE
  5
E9
330
1D
100
AcDbEntity
  8
0
100
AcDbLine
 10
13.038
 20
201.1365
 30
0.0
 11
13.722
 21
201.4645
 31
0.0
  0
LINE
  5
EA
330
1D
100
AcDbEntity
  8
0
100
AcDbLine
 10
12.844
 20
200.0285
 30
0.0
 11
13.133154808168
 21
200.493562106974
 31
0.0
  0
LINE
  5
EB
330
1D
100
AcDbEntity
  8
0
100
AcDbLine
 10
12.844
 20
200.0285
 30
0.0
 11
13.808
 21
199.5905
 31
0.0
  0
LINE
  5
EC
330
1D
100
AcDbEntity
  8
0
100
AcDbLine
 10
12.505
 20
199.4855
 30
0.0
 11
13.324
 21
198.8135
 31
0.0
  0
LINE
  5
ED
330
1D
100
AcDbEntity
  8
0
100
AcDbLine
 10
12.292
 20
199.9945
 30
0.0
 11
12.505
 21
199.4855
 31
0.0
  0
LINE
  5
EE
330
1D
100
AcDbEntity
  8
0
100
AcDbLine
 10
12.292
 20
199.9945
 30
0.0
 11
12.874833584266
 21
200.93039067106
 31
0.0
  0
LINE
  5
EF
330
1D
100
AcDbEntity
  8
0
100
AcDbLine
 10
12.292
 20
199.9945
 30
0.0
 11
12.844
 21
200.0285
 31
0.0
  0
LINE
  5
F0
330
1D
100
AcDbEntity
  8
0
100
AcDbLine
 10
12.292
 20
199.9945
 30
0.0
 11
12.828336725281
 21
200.855727889552
 31
0.0
  0
LINE
  5
F3
330
1D
100
AcDbEntity
  8
0
100
AcDbLine
 10
14.84
 20
198.4095
 30
0.0
 11
15.214246495579
 21
199.011419313963
 31
0.0
  0
LINE
  5
F4
330
1D
100
AcDbEntity
  8
0
100
AcDbLine
 10
14.288
 20
198.3755
 30
0.0
 11
14.84
 21
198.4095
 31
0.0
  0
LINE
  5
F5
330
1D
100
AcDbEntity
  8
0
100
AcDbLine
 10
14.627
 20
198.9195
 30
0.0
 11
14.84
 21
198.4095
 31
0.0
  0
LINE
  5
F6
330
1D
100
AcDbEntity
  8
0
100
AcDbLine
 10
14.627
 20
198.9195
 30
0.0
 11
14.919182001716
 21
199.389140454051
 31
0.0
  0
LINE
  5
F7
330
1D
100
AcDbEntity
  8
0
100
AcDbLine
 10
13.324
 20
198.8135
 30
0.0
 11
14.288
 21
198.3755
 31
0.0
  0
LINE
  5
F8
330
1D
100
AcDbEntity
  8
0
100
AcDbLine
 10
15.162603208925
 20
198.928358839007
 30
0.0
 11
15.464
 21
198.6795
 31
0.0
  0
LINE
  5
F9
330
1D
100
AcDbEntity
  8
0
100
AcDbLine
 10
13.722
 20
201.4645
 30
0.0
 11
13.831734679132
 21
201.6707552346
 31
0.0
  0
LINE
  5
FA
330
1D
100
AcDbEntity
  8
0
100
AcDbLine
 10
13.722
 20
201.4645
 30
0.0
 11
14.773
 21
201.2035
 31
0.0
  0
LINE
  5
FB
330
1D
100
AcDbEntity
  8
0
100
AcDbLine
 10
15.003
 20
199.4005
 30
0.0
 11
15.687
 21
199.7285
 31
0.0
  0
LINE
  5
FC
330
1D
100
AcDbEntity
  8
0
100
AcDbLine
 10
14.773
 20
201.2035
 30
0.0
 11
14.954554655544
 21
201.545193951981
 31
0.0
  0
LINE
  5
FD
330
1D
100
AcDbEntity
  8
0
100
AcDbLine
 10
14.773
 20
201.2035
 30
0.0
 11
15.577
 21
200.4785
 31
0.0
  0
LINE
  5
FE
330
1D
100
AcDbEntity
  8
0
100
AcDbLine
 10
13.953
 20
199.6615
 30
0.0
 11
15.003
 21
199.4005
 31
0.0
  0
LINE
  5
FF
330
1D
100
AcDbEntity
  8
0
100
AcDbLine
 10
13.808
 20
199.5905
 30
0.0
 11
13.888408399847
 21
199.719744913074
 31
0.0
  0
LINE
  5
100
330
1D
100
AcDbEntity
  8
0
100
AcDbLine
 10
13.808
 20
199.5905
 30
0.0
 11
14.627
 21
198.9195
 31
0.0
  0
LINE
  5
101
330
1D
100
AcDbEntity
  8
0
100
AcDbLine
 10
15.162603208925
 20
198.928358839007
 30
0.0
 11
15.464
 21
198.6795
 31
0.0
  0
LINE
  5
102
330
1D
100
AcDbEntity
  8
0
100
AcDbLine
 10
15.577
 20
200.4785
 30
0.0
 11
15.687
 21
199.7285
 31
0.0
  0
LINE
  5
103
330
1D
100
AcDbEntity
  8
0
100
AcDbLine
 10
15.577
 20
200.4785
 30
0.0
 11
15.608326961811
 21
200.537499795705
 31
0.0
  0
LINE
  5
104
330
1D
100
AcDbEntity
  8
0
100
AcDbLine
 10
15.687
 20
199.7285
 30
0.0
 11
15.745220287394
 21
199.83792975484
 31
0.0
  0
LINE
  5
105
330
1D
100
AcDbEntity
  8
0
100
AcDbLine
 10
15.464
 20
198.6795
 30
0.0
 11
20.828143023909
 21
194.635153491734
 31
0.0
  0
LINE
  5
10D
330
1D
100
AcDbEntity
  8
0
100
AcDbLine
 10
38.332
 20
132.5875
 30
0.0
 11
38.803358114512
 21
133.541700036909
 31
0.0
  0
LINE
  5
10E
330
1D
100
AcDbEntity
  8
0
100
AcDbLine
 10
38.29
 20
132.3805
 30
0.0
 11
38.357
 21
132.1815
 31
0.0
  0
LINE
  5
10F
330
1D
100
AcDbEntity
  8
0
100
AcDbLine
 10
38.29
 20
132.3805
 30
0.0
 11
38.332
 21
132.5875
 31
0.0
  0
LINE
  5
113
330
1D
100
AcDbEntity
  8
0
100
AcDbLine
 10
35.126
 20
139.3365
 30
0.0
 11
36.026
 21
137.3215
 31
0.0
  0
LINE
  5
114
330
1D
100
AcDbEntity
  8
0
100
AcDbLine
 10
36.026
 20
137.3215
 30
0.0
 11
36.507
 21
136.2425
 31
0.0
  0
LINE
  5
115
330
1D
100
AcDbEntity
  8
0
100
AcDbLine
 10
36.507
 20
136.2425
 30
0.0
 11
38.353
 21
133.5835
 31
0.0
  0
LINE
  5
122
330
1D
100
AcDbEntity
  8
0
100
AcDbLine
 10
38.357
 20
132.1815
 30
0.0
 11
38.513
 21
132.0435
 31
0.0
  0
LINE
  5
144
330
1D
100
AcDbEntity
  8
0
100
AcDbLine
 10
38.622
 20
133.5595
 30
0.0
 11
39.162
 21
133.5065
 31
0.0
  0
LINE
  5
145
330
1D
100
AcDbEntity
  8
0
100
AcDbLine
 10
38.622
 20
133.5595
 30
0.0
 11
38.803358114512
 21
133.541700036909
 31
0.0
  0
LINE
  5
146
330
1D
100
AcDbEntity
  8
0
100
AcDbLine
 10
41.772
 20
133.2075
 30
0.0
 11
44.253
 21
132.8455
 31
0.0
  0
LINE
  5
147
330
1D
100
AcDbEntity
  8
0
100
AcDbLine
 10
39.983
 20
133.4185
 30
0.0
 11
41.772
 21
133.2075
 31
0.0
  0
LINE
  5
148
330
1D
100
AcDbEntity
  8
0
100
AcDbLine
 10
39.162
 20
133.5065
 30
0.0
 11
39.983
 21
133.4185
 31
0.0
  0
LINE
  5
149
330
1D
100
AcDbEntity
  8
0
100
AcDbLine
 10
44.253
 20
132.8455
 30
0.0
 11
47.132
 21
132.2435
 31
0.0
  0
LINE
  5
152
330
1D
100
AcDbEntity
  8
0
100
AcDbLine
 10
48.794
 20
131.7555
 30
0.0
 11
50.488
 21
131.1125
 31
0.0
  0
LINE
  5
153
330
1D
100
AcDbEntity
  8
0
100
AcDbLine
 10
47.132
 20
132.2435
 30
0.0
 11
48.794
 21
131.7555
 31
0.0
  0
LINE
  5
154
330
1D
100
AcDbEntity
  8
0
100
AcDbLine
 10
38.353
 20
133.5835
 30
0.0
 11
38.622
 21
133.5595
 31
0.0
  0
LINE
  5
155
330
1D
100
AcDbEntity
  8
0
100
AcDbLine
 10
34.482
 20
150.7355
 30
0.0
 11
34.596
 21
150.9715
 31
0.0
  0
LINE
  5
156
330
1D
100
AcDbEntity
  8
0
100
AcDbLine
 10
34.074
 20
146.9005
 30
0.0
 11
34.29
 21
142.8865
 31
0.0
  0
LINE
  5
157
330
1D
100
AcDbEntity
  8
0
100
AcDbLine
 10
34.074
 20
146.9005
 30
0.0
 11
34.482
 21
150.7355
 31
0.0
  0
LINE
  5
158
330
1D
100
AcDbEntity
  8
0
100
AcDbLine
 10
43.726
 20
149.3125
 30
0.0
 11
61.005
 21
145.4365
 31
0.0
  0
LINE
  5
159
330
1D
100
AcDbEntity
  8
0
100
AcDbLine
 10
49.106
 20
177.4615
 30
0.0
 11
49.423643029813
 21
178.059478992367
 31
0.0
  0
LINE
  5
15A
330
1D
100
AcDbEntity
  8
0
100
AcDbLine
 10
48.558
 20
177.3905
 30
0.0
 11
49.106
 21
177.4615
 31
0.0
  0
LINE
  5
15B
330
1D
100
AcDbEntity
  8
0
100
AcDbLine
 10
35.073
 20
151.1355
 30
0.0
 11
43.726
 21
149.3125
 31
0.0
  0
LINE
  5
15C
330
1D
100
AcDbEntity
  8
0
100
AcDbLine
 10
34.813
 20
151.1185
 30
0.0
 11
35.073
 21
151.1355
 31
0.0
  0
LINE
  5
15D
330
1D
100
AcDbEntity
  8
0
100
AcDbLine
 10
34.596
 20
150.9715
 30
0.0
 11
34.813
 21
151.1185
 31
0.0
  0
LINE
  5
15E
330
1D
100
AcDbEntity
  8
0
100
AcDbLine
 10
34.29
 20
142.8865
 30
0.0
 11
35.126
 21
139.3365
 31
0.0
  0
LINE
  5
167
330
1D
100
AcDbEntity
  8
0
100
AcDbLine
 10
50.488
 20
131.1125
 30
0.0
 11
51.92
 21
130.4225
 31
0.0
  0
LINE
  5
168
330
1D
100
AcDbEntity
  8
0
100
AcDbLine
 10
51.92
 20
130.4225
 30
0.0
 11
53.306
 21
129.5965
 31
0.0
  0
LINE
  5
189
330
1D
100
AcDbEntity
  8
0
100
AcDbLine
 10
57.738
 20
125.6115
 30
0.0
 11
58.789
 21
124.3255
 31
0.0
  0
LINE
  5
18A
330
1D
100
AcDbEntity
  8
0
100
AcDbLine
 10
56.784
 20
126.6655
 30
0.0
 11
57.738
 21
125.6115
 31
0.0
  0
LINE
  5
18B
330
1D
100
AcDbEntity
  8
0
100
AcDbLine
 10
55.689
 20
127.7375
 30
0.0
 11
56.784
 21
126.6655
 31
0.0
  0
LINE
  5
18C
330
1D
100
AcDbEntity
  8
0
100
AcDbLine
 10
53.306
 20
129.5965
 30
0.0
 11
55.689
 21
127.7375
 31
0.0
  0
LINE
  5
18D
330
1D
100
AcDbEntity
  8
0
100
AcDbLine
 10
56.396
 20
173.0685
 30
0.0
 11
57.388
 21
172.6965
 31
0.0
  0
LINE
  5
18E
330
1D
100
AcDbEntity
  8
0
100
AcDbLine
 10
55.533
 20
173.6825
 30
0.0
 11
56.396
 21
173.0685
 31
0.0
  0
LINE
  5
18F
330
1D
100
AcDbEntity
  8
0
100
AcDbLine
 10
55.834
 20
174.2465
 30
0.0
 11
56.22069427149
 21
174.974038886629
 31
0.0
  0
LINE
  5
190
330
1D
100
AcDbEntity
  8
0
100
AcDbLine
 10
55.834
 20
174.2465
 30
0.0
 11
56.825
 21
173.8745
 31
0.0
  0
LINE
  5
191
330
1D
100
AcDbEntity
  8
0
100
AcDbLine
 10
55.286
 20
174.1755
 30
0.0
 11
55.533
 21
173.6825
 31
0.0
  0
LINE
  5
192
330
1D
100
AcDbEntity
  8
0
100
AcDbLine
 10
55.286
 20
174.1755
 30
0.0
 11
55.600955798922
 21
174.76740575842
 31
0.0
  0
LINE
  5
193
330
1D
100
AcDbEntity
  8
0
100
AcDbLine
 10
55.286
 20
174.1755
 30
0.0
 11
55.834
 21
174.2465
 31
0.0
  0
LINE
  5
194
330
1D
100
AcDbEntity
  8
0
100
AcDbLine
 10
55.286
 20
174.1755
 30
0.0
 11
55.313791196747
 21
174.227728818915
 31
0.0
  0
LINE
  5
195
330
1D
100
AcDbEntity
  8
0
100
AcDbLine
 10
56.825
 20
173.8745
 30
0.0
 11
57.213168205603
 21
174.604429709531
 31
0.0
  0
LINE
  5
196
330
1D
100
AcDbEntity
  8
0
100
AcDbLine
 10
56.825
 20
173.8745
 30
0.0
 11
57.688
 21
173.2605
 31
0.0
  0
LINE
  5
197
330
1D
100
AcDbEntity
  8
0
100
AcDbLine
 10
57.388
 20
172.6965
 30
0.0
 11
57.935
 21
172.7675
 31
0.0
  0
LINE
  5
198
330
1D
100
AcDbEntity
  8
0
100
AcDbLine
 10
57.688
 20
173.2605
 30
0.0
 11
57.935
 21
172.7675
 31
0.0
  0
LINE
  5
199
330
1D
100
AcDbEntity
  8
0
100
AcDbLine
 10
57.688
 20
173.2605
 30
0.0
 11
57.917431226049
 21
173.692159197109
 31
0.0
  0
LINE
  5
19A
330
1D
100
AcDbEntity
  8
0
100
AcDbLine
 10
57.935
 20
172.7675
 30
0.0
 11
58.314318642944
 21
173.481162144778
 31
0.0
  0
LINE
  5
19B
330
1D
100
AcDbEntity
  8
0
100
AcDbLine
 10
57.664
 20
175.3665
 30
0.0
 11
58.714
 21
175.1055
 31
0.0
  0
LINE
  5
19C
330
1D
100
AcDbEntity
  8
0
100
AcDbLine
 10
57.433
 20
177.1705
 30
0.0
 11
57.850607208351
 21
177.955426637686
 31
0.0
  0
LINE
  5
19D
330
1D
100
AcDbEntity
  8
0
100
AcDbLine
 10
57.433
 20
177.1705
 30
0.0
 11
58.483
 21
176.9095
 31
0.0
  0
LINE
  5
19E
330
1D
100
AcDbEntity
  8
0
100
AcDbLine
 10
56.859
 20
176.0915
 30
0.0
 11
57.664
 21
175.3665
 31
0.0
  0
LINE
  5
19F
330
1D
100
AcDbEntity
  8
0
100
AcDbLine
 10
56.749
 20
176.8425
 30
0.0
 11
56.859
 21
176.0915
 31
0.0
  0
LINE
  5
1A0
330
1D
100
AcDbEntity
  8
0
100
AcDbLine
 10
56.749
 20
176.8425
 30
0.0
 11
57.053039540102
 21
177.413966988988
 31
0.0
  0
LINE
  5
1A1
330
1D
100
AcDbEntity
  8
0
100
AcDbLine
 10
56.749
 20
176.8425
 30
0.0
 11
57.433
 21
177.1705
 31
0.0
  0
LINE
  5
1A4
330
1D
100
AcDbEntity
  8
0
100
AcDbLine
 10
49.161427916872
 20
177.565845843507
 30
0.0
 11
55.31355072544
 21
174.227276894068
 31
0.0
  0
LINE
  5
1A5
330
1D
100
AcDbEntity
  8
0
100
AcDbLine
 10
47.567
 20
177.7625
 30
0.0
 11
48.558
 21
177.3905
 31
0.0
  0
LINE
  5
1A6
330
1D
100
AcDbEntity
  8
0
100
AcDbLine
 10
46.704
 20
178.3765
 30
0.0
 11
47.567
 21
177.7625
 31
0.0
  0
LINE
  5
1A7
330
1D
100
AcDbEntity
  8
0
100
AcDbLine
 10
47.004
 20
178.9425
 30
0.0
 11
47.310559193022
 21
179.5182832441
 31
0.0
  0
LINE
  5
1A8
330
1D
100
AcDbEntity
  8
0
100
AcDbLine
 10
47.004
 20
178.9425
 30
0.0
 11
47.996
 21
178.5695
 31
0.0
  0
LINE
  5
1A9
330
1D
100
AcDbEntity
  8
0
100
AcDbLine
 10
46.457
 20
178.8705
 30
0.0
 11
46.704
 21
178.3765
 31
0.0
  0
LINE
  5
1AA
330
1D
100
AcDbEntity
  8
0
100
AcDbLine
 10
46.457
 20
178.8705
 30
0.0
 11
46.83617588253
 21
179.583893550801
 31
0.0
  0
LINE
  5
1AB
330
1D
100
AcDbEntity
  8
0
100
AcDbLine
 10
46.457
 20
178.8705
 30
0.0
 11
47.004
 21
178.9425
 31
0.0
  0
LINE
  5
1AC
330
1D
100
AcDbEntity
  8
0
100
AcDbLine
 10
46.457
 20
178.8705
 30
0.0
 11
46.524867579259
 21
178.998188219591
 31
0.0
  0
LINE
  5
1AD
330
1D
100
AcDbEntity
  8
0
100
AcDbLine
 10
47.996
 20
178.5695
 30
0.0
 11
48.214437837592
 21
178.980475886834
 31
0.0
  0
LINE
  5
1AE
330
1D
100
AcDbEntity
  8
0
100
AcDbLine
 10
47.996
 20
178.5695
 30
0.0
 11
48.859
 21
177.9565
 31
0.0
  0
LINE
  5
1AF
330
1D
100
AcDbEntity
  8
0
100
AcDbLine
 10
48.859
 20
177.9565
 30
0.0
 11
49.106
 21
177.4615
 31
0.0
  0
LINE
  5
1B0
330
1D
100
AcDbEntity
  8
0
100
AcDbLine
 10
48.859
 20
177.9565
 30
0.0
 11
49.239795721228
 21
178.672515220787
 31
0.0
  0
LINE
  5
1B1
330
1D
100
AcDbEntity
  8
0
100
AcDbLine
 10
49.884
 20
179.8005
 30
0.0
 11
50.568
 21
180.1285
 31
0.0
  0
LINE
  5
1B2
330
1D
100
AcDbEntity
  8
0
100
AcDbLine
 10
48.834
 20
180.0615
 30
0.0
 11
49.884
 21
179.8005
 31
0.0
  0
LINE
  5
1B3
330
1D
100
AcDbEntity
  8
0
100
AcDbLine
 10
49.654
 20
181.6035
 30
0.0
 11
49.948095055681
 21
182.156999999945
 31
0.0
  0
LINE
  5
1B4
330
1D
100
AcDbEntity
  8
0
100
AcDbLine
 10
49.654
 20
181.6035
 30
0.0
 11
50.458
 21
180.8785
 31
0.0
  0
LINE
  5
1B5
330
1D
100
AcDbEntity
  8
0
100
AcDbLine
 10
50.458
 20
180.8785
 30
0.0
 11
50.568
 21
180.1285
 31
0.0
  0
LINE
  5
1B6
330
1D
100
AcDbEntity
  8
0
100
AcDbLine
 10
50.458
 20
180.8785
 30
0.0
 11
50.817680498919
 21
181.555019472444
 31
0.0
  0
LINE
  5
1B7
330
1D
100
AcDbEntity
  8
0
100
AcDbLine
 10
48.03
 20
180.7865
 30
0.0
 11
48.834
 21
180.0615
 31
0.0
  0
LINE
  5
1B8
330
1D
100
AcDbEntity
  8
0
100
AcDbLine
 10
47.92
 20
181.5365
 30
0.0
 11
48.03
 21
180.7865
 31
0.0
  0
LINE
  5
1B9
330
1D
100
AcDbEntity
  8
0
100
AcDbLine
 10
47.92
 20
181.5365
 30
0.0
 11
48.327299272247
 21
182.303055380009
 31
0.0
  0
LINE
  5
1BA
330
1D
100
AcDbEntity
  8
0
100
AcDbLine
 10
47.92
 20
181.5365
 30
0.0
 11
48.604
 21
181.8645
 31
0.0
  0
LINE
  5
1BB
330
1D
100
AcDbEntity
  8
0
100
AcDbLine
 10
49.161427916872
 20
177.565845843507
 30
0.0
 11
55.31355072544
 21
174.227276894068
 31
0.0
  0
LINE
  5
1BD
330
1D
100
AcDbEntity
  8
0
100
AcDbLine
 10
59.513
 20
121.7305
 30
0.0
 11
59.712
 21
121.7995
 31
0.0
  0
LINE
  5
1C5
330
1D
100
AcDbEntity
  8
0
100
AcDbLine
 10
59.308
 20
121.7715
 30
0.0
 11
59.513
 21
121.7305
 31
0.0
  0
LINE
  5
1C6
330
1D
100
AcDbEntity
  8
0
100
AcDbLine
 10
59.712
 20
121.7995
 30
0.0
 11
59.851
 21
121.9585
 31
0.0
  0
LINE
  5
1C8
330
1D
100
AcDbEntity
  8
0
100
AcDbLine
 10
59.851
 20
121.9585
 30
0.0
 11
60.138736083824
 21
122.541197445972
 31
0.0
  0
LINE
  5
1C9
330
1D
100
AcDbEntity
  8
0
100
AcDbLine
 10
60.844
 20
121.9665
 30
0.0
 11
102.693
 21
108.0355
 31
0.0
  0
LINE
  5
1CA
330
1D
100
AcDbEntity
  8
0
100
AcDbLine
 10
60.727
 20
122.0055
 30
0.0
 11
60.844
 21
121.9665
 31
0.0
  0
LINE
  5
1CB
330
1D
100
AcDbEntity
  8
0
100
AcDbLine
 10
60.509
 20
122.0785
 30
0.0
 11
60.844
 21
121.9665
 31
0.0
  0
LINE
  5
1CC
330
1D
100
AcDbEntity
  8
0
100
AcDbLine
 10
60.509
 20
122.0785
 30
0.0
 11
60.727
 21
122.0055
 31
0.0
  0
LINE
  5
1CD
330
1D
100
AcDbEntity
  8
0
100
AcDbLine
 10
60.396
 20
122.2115
 30
0.0
 11
60.509
 21
122.0785
 31
0.0
  0
LINE
  5
1CE
330
1D
100
AcDbEntity
  8
0
100
AcDbLine
 10
60.087
 20
122.6075
 30
0.0
 11
60.396
 21
122.2115
 31
0.0
  0
LINE
  5
1CF
330
1D
100
AcDbEntity
  8
0
100
AcDbLine
 10
59.595
 20
123.2655
 30
0.0
 11
60.087
 21
122.6075
 31
0.0
  0
LINE
  5
1D0
330
1D
100
AcDbEntity
  8
0
100
AcDbLine
 10
58.789
 20
124.3255
 30
0.0
 11
59.595
 21
123.2655
 31
0.0
  0
LINE
  5
1D8
330
1D
100
AcDbEntity
  8
0
100
AcDbLine
 10
65.788
 20
168.5915
 30
0.0
 11
66.102838524148
 21
169.183185360466
 31
0.0
  0
LINE
  5
1D9
330
1D
100
AcDbEntity
  8
0
100
AcDbLine
 10
65.241
 20
168.5205
 30
0.0
 11
65.788
 21
168.5915
 31
0.0
  0
LINE
  5
1DA
330
1D
100
AcDbEntity
  8
0
100
AcDbLine
 10
61.005
 20
145.4365
 30
0.0
 11
130.904918299751
 21
129.4639398372
 31
0.0
  0
LINE
  5
1DB
330
1D
100
AcDbEntity
  8
0
100
AcDbLine
 10
61.005
 20
145.4365
 30
0.0
 11
130.904918299751
 21
129.4639398372
 31
0.0
  0
LINE
  5
1DF
330
1D
100
AcDbEntity
  8
0
100
AcDbLine
 10
58.483
 20
176.9095
 30
0.0
 11
58.777478848898
 21
177.462611450483
 31
0.0
  0
LINE
  5
1E0
330
1D
100
AcDbEntity
  8
0
100
AcDbLine
 10
58.483
 20
176.9095
 30
0.0
 11
59.287
 21
176.1845
 31
0.0
  0
LINE
  5
1E1
330
1D
100
AcDbEntity
  8
0
100
AcDbLine
 10
59.287
 20
176.1845
 30
0.0
 11
59.398
 21
175.4335
 31
0.0
  0
LINE
  5
1E2
330
1D
100
AcDbEntity
  8
0
100
AcDbLine
 10
59.287
 20
176.1845
 30
0.0
 11
59.477121798563
 21
176.541849349132
 31
0.0
  0
LINE
  5
1E3
330
1D
100
AcDbEntity
  8
0
100
AcDbLine
 10
58.714
 20
175.1055
 30
0.0
 11
59.398
 21
175.4335
 31
0.0
  0
LINE
  5
1E4
330
1D
100
AcDbEntity
  8
0
100
AcDbLine
 10
63.687
 20
170.0715
 30
0.0
 11
63.916366745427
 21
170.502299440294
 31
0.0
  0
LINE
  5
1E5
330
1D
100
AcDbEntity
  8
0
100
AcDbLine
 10
63.687
 20
170.0715
 30
0.0
 11
64.679
 21
169.6995
 31
0.0
  0
LINE
  5
1E6
330
1D
100
AcDbEntity
  8
0
100
AcDbLine
 10
63.14
 20
169.9995
 30
0.0
 11
63.387
 21
169.5065
 31
0.0
  0
LINE
  5
1E7
330
1D
100
AcDbEntity
  8
0
100
AcDbLine
 10
63.14
 20
169.9995
 30
0.0
 11
63.519445298522
 21
170.713400438606
 31
0.0
  0
LINE
  5
1E8
330
1D
100
AcDbEntity
  8
0
100
AcDbLine
 10
63.14
 20
169.9995
 30
0.0
 11
63.687
 21
170.0715
 31
0.0
  0
LINE
  5
1E9
330
1D
100
AcDbEntity
  8
0
100
AcDbLine
 10
63.387
 20
169.5065
 30
0.0
 11
64.249
 21
168.8925
 31
0.0
  0
LINE
  5
1EA
330
1D
100
AcDbEntity
  8
0
100
AcDbLine
 10
65.541
 20
169.0855
 30
0.0
 11
65.92796352499
 21
169.812299648613
 31
0.0
  0
LINE
  5
1EB
330
1D
100
AcDbEntity
  8
0
100
AcDbLine
 10
65.541
 20
169.0855
 30
0.0
 11
65.788
 21
168.5915
 31
0.0
  0
LINE
  5
1EC
330
1D
100
AcDbEntity
  8
0
100
AcDbLine
 10
64.679
 20
169.6995
 30
0.0
 11
65.066664052051
 21
170.42842983389
 31
0.0
  0
LINE
  5
1ED
330
1D
100
AcDbEntity
  8
0
100
AcDbLine
 10
64.679
 20
169.6995
 30
0.0
 11
65.541
 21
169.0855
 31
0.0
  0
LINE
  5
1EE
330
1D
100
AcDbEntity
  8
0
100
AcDbLine
 10
64.249
 20
168.8925
 30
0.0
 11
65.241
 21
168.5205
 31
0.0
  0
LINE
  5
1EF
330
1D
100
AcDbEntity
  8
0
100
AcDbLine
 10
64.532
 20
172.7035
 30
0.0
 11
64.643
 21
171.9535
 31
0.0
  0
LINE
  5
1F0
330
1D
100
AcDbEntity
  8
0
100
AcDbLine
 10
64.532
 20
172.7035
 30
0.0
 11
65.217
 21
173.0315
 31
0.0
  0
LINE
  5
1F1
330
1D
100
AcDbEntity
  8
0
100
AcDbLine
 10
67.071
 20
172.0455
 30
0.0
 11
67.488256396326
 21
172.83134199413
 31
0.0
  0
LINE
  5
1F2
330
1D
100
AcDbEntity
  8
0
100
AcDbLine
 10
67.071
 20
172.0455
 30
0.0
 11
67.181
 21
171.2955
 31
0.0
  0
LINE
  5
1F3
330
1D
100
AcDbEntity
  8
0
100
AcDbLine
 10
66.266
 20
172.7705
 30
0.0
 11
66.560886971067
 21
173.324378015027
 31
0.0
  0
LINE
  5
1F4
330
1D
100
AcDbEntity
  8
0
100
AcDbLine
 10
66.266
 20
172.7705
 30
0.0
 11
67.071
 21
172.0455
 31
0.0
  0
LINE
  5
1F5
330
1D
100
AcDbEntity
  8
0
100
AcDbLine
 10
65.217
 20
173.0315
 30
0.0
 11
65.406726597232
 21
173.388822569099
 31
0.0
  0
LINE
  5
1F6
330
1D
100
AcDbEntity
  8
0
100
AcDbLine
 10
65.217
 20
173.0315
 30
0.0
 11
66.266
 21
172.7705
 31
0.0
  0
LINE
  5
1F7
330
1D
100
AcDbEntity
  8
0
100
AcDbLine
 10
64.643
 20
171.9535
 30
0.0
 11
65.447
 21
171.2285
 31
0.0
  0
LINE
  5
1F8
330
1D
100
AcDbEntity
  8
0
100
AcDbLine
 10
65.447
 20
171.2285
 30
0.0
 11
66.497
 21
170.9675
 31
0.0
  0
LINE
  5
1F9
330
1D
100
AcDbEntity
  8
0
100
AcDbLine
 10
67.181
 20
171.2955
 30
0.0
 11
67.485202820842
 21
171.866875717157
 31
0.0
  0
LINE
  5
1FA
330
1D
100
AcDbEntity
  8
0
100
AcDbLine
 10
66.497
 20
170.9675
 30
0.0
 11
67.181
 21
171.2955
 31
0.0
  0
LINE
  5
1FB
330
1D
100
AcDbEntity
  8
0
100
AcDbLine
 10
60.541
 20
171.3905
 30
0.0
 11
63.155556085568
 21
170.028767713563
 31
0.0
  0
LINE
  5
1FC
330
1D
100
AcDbEntity
  8
0
100
AcDbLine
 10
60.541
 20
171.3905
 30
0.0
 11
63.155556085568
 21
170.028767713563
 31
0.0
  0
LINE
  5
1FD
330
1D
100
AcDbEntity
  8
0
100
AcDbLine
 10
65.815589427815
 20
168.643349628585
 30
0.0
 11
72.025483326037
 21
165.409067119508
 31
0.0
  0
LINE
  5
1FE
330
1D
100
AcDbEntity
  8
0
100
AcDbLine
 10
65.815589427815
 20
168.643349628585
 30
0.0
 11
72.025483326037
 21
165.409067119508
 31
0.0
  0
LINE
  5
1FF
330
1D
100
AcDbEntity
  8
0
100
AcDbLine
 10
57.950344459494
 20
172.796369553544
 30
0.0
 11
60.541
 21
171.3905
 31
0.0
  0
LINE
  5
200
330
1D
100
AcDbEntity
  8
0
100
AcDbLine
 10
48.604
 20
181.8645
 30
0.0
 11
48.766769000781
 21
182.171051840266
 31
0.0
  0
LINE
  5
201
330
1D
100
AcDbEntity
  8
0
100
AcDbLine
 10
48.604
 20
181.8645
 30
0.0
 11
49.654
 21
181.6035
 31
0.0
  0
LINE
  5
202
330
1D
100
AcDbEntity
  8
0
100
AcDbLine
 10
31.447
 20
186.8515
 30
0.0
 11
31.803817627456
 21
187.522828019442
 31
0.0
  0
LINE
  5
203
330
1D
100
AcDbEntity
  8
0
100
AcDbLine
 10
30.899
 20
186.7795
 30
0.0
 11
31.447
 21
186.8515
 31
0.0
  0
LINE
  5
204
330
1D
100
AcDbEntity
  8
0
100
AcDbLine
 10
29.908
 20
187.1515
 30
0.0
 11
30.899
 21
186.7795
 31
0.0
  0
LINE
  5
205
330
1D
100
AcDbEntity
  8
0
100
AcDbLine
 10
40.276
 20
182.1565
 30
0.0
 11
40.56650351903
 21
182.703062549226
 31
0.0
  0
LINE
  5
206
330
1D
100
AcDbEntity
  8
0
100
AcDbLine
 10
39.729
 20
182.0855
 30
0.0
 11
40.276
 21
182.1565
 31
0.0
  0
LINE
  5
207
330
1D
100
AcDbEntity
  8
0
100
AcDbLine
 10
40.029
 20
182.6505
 30
0.0
 11
40.276
 21
182.1565
 31
0.0
  0
LINE
  5
208
330
1D
100
AcDbEntity
  8
0
100
AcDbLine
 10
40.029
 20
182.6505
 30
0.0
 11
40.499610108791
 21
183.53592080871
 31
0.0
  0
LINE
  5
209
330
1D
100
AcDbEntity
  8
0
100
AcDbLine
 10
38.737
 20
182.4575
 30
0.0
 11
39.729
 21
182.0855
 31
0.0
  0
LINE
  5
20A
330
1D
100
AcDbEntity
  8
0
100
AcDbLine
 10
38.175
 20
183.6365
 30
0.0
 11
38.403714176224
 21
184.066810116787
 31
0.0
  0
LINE
  5
20B
330
1D
100
AcDbEntity
  8
0
100
AcDbLine
 10
38.175
 20
183.6365
 30
0.0
 11
39.166
 21
183.2645
 31
0.0
  0
LINE
  5
20C
330
1D
100
AcDbEntity
  8
0
100
AcDbLine
 10
40.005
 20
184.7565
 30
0.0
 11
41.055
 21
184.4945
 31
0.0
  0
LINE
  5
20D
330
1D
100
AcDbEntity
  8
0
100
AcDbLine
 10
39.166
 20
183.2645
 30
0.0
 11
39.692729779002
 21
184.254398869588
 31
0.0
  0
LINE
  5
20E
330
1D
100
AcDbEntity
  8
0
100
AcDbLine
 10
39.166
 20
183.2645
 30
0.0
 11
40.029
 21
182.6505
 31
0.0
  0
LINE
  5
20F
330
1D
100
AcDbEntity
  8
0
100
AcDbLine
 10
37.874
 20
183.0715
 30
0.0
 11
38.737
 21
182.4575
 31
0.0
  0
LINE
  5
210
330
1D
100
AcDbEntity
  8
0
100
AcDbLine
 10
37.627
 20
183.5645
 30
0.0
 11
37.874
 21
183.0715
 31
0.0
  0
LINE
  5
211
330
1D
100
AcDbEntity
  8
0
100
AcDbLine
 10
37.627
 20
183.5645
 30
0.0
 11
38.00642293681
 21
184.2779846957
 31
0.0
  0
LINE
  5
212
330
1D
100
AcDbEntity
  8
0
100
AcDbLine
 10
37.627
 20
183.5645
 30
0.0
 11
38.175
 21
183.6365
 31
0.0
  0
LINE
  5
213
330
1D
100
AcDbEntity
  8
0
100
AcDbLine
 10
37.627
 20
183.5645
 30
0.0
 11
37.735648604517
 21
183.768807934527
 31
0.0
  0
LINE
  5
214
330
1D
100
AcDbEntity
  8
0
100
AcDbLine
 10
39.774
 20
186.5595
 30
0.0
 11
39.975099811104
 21
186.937483414588
 31
0.0
  0
LINE
  5
215
330
1D
100
AcDbEntity
  8
0
100
AcDbLine
 10
39.774
 20
186.5595
 30
0.0
 11
40.824
 21
186.2985
 31
0.0
  0
LINE
  5
216
330
1D
100
AcDbEntity
  8
0
100
AcDbLine
 10
39.2
 20
185.4805
 30
0.0
 11
40.005
 21
184.7565
 31
0.0
  0
LINE
  5
217
330
1D
100
AcDbEntity
  8
0
100
AcDbLine
 10
39.09
 20
186.2315
 30
0.0
 11
39.2
 21
185.4805
 31
0.0
  0
LINE
  5
218
330
1D
100
AcDbEntity
  8
0
100
AcDbLine
 10
39.09
 20
186.2315
 30
0.0
 11
39.517279554141
 21
187.034606596527
 31
0.0
  0
LINE
  5
219
330
1D
100
AcDbEntity
  8
0
100
AcDbLine
 10
39.09
 20
186.2315
 30
0.0
 11
39.774
 21
186.5595
 31
0.0
  0
LINE
  5
21A
330
1D
100
AcDbEntity
  8
0
100
AcDbLine
 10
40.824
 20
186.2985
 30
0.0
 11
41.117982872148
 21
186.851064665451
 31
0.0
  0
LINE
  5
21B
330
1D
100
AcDbEntity
  8
0
100
AcDbLine
 10
40.824
 20
186.2985
 30
0.0
 11
41.628
 21
185.5735
 31
0.0
  0
LINE
  5
21C
330
1D
100
AcDbEntity
  8
0
100
AcDbLine
 10
41.628
 20
185.5735
 30
0.0
 11
41.739
 21
184.8225
 31
0.0
  0
LINE
  5
21D
330
1D
100
AcDbEntity
  8
0
100
AcDbLine
 10
41.628
 20
185.5735
 30
0.0
 11
41.924431586858
 21
186.130667223466
 31
0.0
  0
LINE
  5
21E
330
1D
100
AcDbEntity
  8
0
100
AcDbLine
 10
41.739
 20
184.8225
 30
0.0
 11
42.21235204268
 21
185.713990020093
 31
0.0
  0
LINE
  5
21F
330
1D
100
AcDbEntity
  8
0
100
AcDbLine
 10
41.055
 20
184.4945
 30
0.0
 11
41.739
 21
184.8225
 31
0.0
  0
LINE
  5
220
330
1D
100
AcDbEntity
  8
0
100
AcDbLine
 10
40.3713738673
 20
182.335939423713
 30
0.0
 11
46.5242233435
 21
178.996976133968
 31
0.0
  0
LINE
  5
221
330
1D
100
AcDbEntity
  8
0
100
AcDbLine
 10
40.3713738673
 20
182.335939423713
 30
0.0
 11
46.5242233435
 21
178.996976133968
 31
0.0
  0
LINE
  5
222
330
1D
100
AcDbEntity
  8
0
100
AcDbLine
 10
32.992
 20
186.3405
 30
0.0
 11
37.734599956161
 21
183.766836006948
 31
0.0
  0
LINE
  5
223
330
1D
100
AcDbEntity
  8
0
100
AcDbLine
 10
30.337
 20
187.9595
 30
0.0
 11
30.792224406831
 21
188.815464460719
 31
0.0
  0
LINE
  5
224
330
1D
100
AcDbEntity
  8
0
100
AcDbLine
 10
30.337
 20
187.9595
 30
0.0
 11
31.2
 21
187.3455
 31
0.0
  0
LINE
  5
225
330
1D
100
AcDbEntity
  8
0
100
AcDbLine
 10
29.045
 20
187.7655
 30
0.0
 11
29.908
 21
187.1515
 31
0.0
  0
LINE
  5
226
330
1D
100
AcDbEntity
  8
0
100
AcDbLine
 10
29.345
 20
188.3315
 30
0.0
 11
29.773027197676
 21
189.135425943344
 31
0.0
  0
LINE
  5
227
330
1D
100
AcDbEntity
  8
0
100
AcDbLine
 10
29.345
 20
188.3315
 30
0.0
 11
30.337
 21
187.9595
 31
0.0
  0
LINE
  5
228
330
1D
100
AcDbEntity
  8
0
100
AcDbLine
 10
28.798
 20
188.2605
 30
0.0
 11
29.045
 21
187.7655
 31
0.0
  0
LINE
  5
229
330
1D
100
AcDbEntity
  8
0
100
AcDbLine
 10
28.798
 20
188.2605
 30
0.0
 11
29.176854475992
 21
188.972865071747
 31
0.0
  0
LINE
  5
22A
330
1D
100
AcDbEntity
  8
0
100
AcDbLine
 10
28.798
 20
188.2605
 30
0.0
 11
29.176854475992
 21
188.972865071747
 31
0.0
  0
LINE
  5
22B
330
1D
100
AcDbEntity
  8
0
100
AcDbLine
 10
28.798
 20
188.2605
 30
0.0
 11
29.345
 21
188.3315
 31
0.0
  0
LINE
  5
22C
330
1D
100
AcDbEntity
  8
0
100
AcDbLine
 10
28.798
 20
188.2605
 30
0.0
 11
29.098426160954
 21
188.825395275799
 31
0.0
  0
LINE
  5
22D
330
1D
100
AcDbEntity
  8
0
100
AcDbLine
 10
31.2
 20
187.3455
 30
0.0
 11
31.447
 21
186.8515
 31
0.0
  0
LINE
  5
22E
330
1D
100
AcDbEntity
  8
0
100
AcDbLine
 10
31.2
 20
187.3455
 30
0.0
 11
31.636270421232
 21
188.166313029655
 31
0.0
  0
LINE
  5
22F
330
1D
100
AcDbEntity
  8
0
100
AcDbLine
 10
32.909
 20
189.5175
 30
0.0
 11
33.460108648518
 21
190.553353428366
 31
0.0
  0
LINE
  5
230
330
1D
100
AcDbEntity
  8
0
100
AcDbLine
 10
32.225
 20
189.1895
 30
0.0
 11
32.909
 21
189.5175
 31
0.0
  0
LINE
  5
231
330
1D
100
AcDbEntity
  8
0
100
AcDbLine
 10
31.175
 20
189.4505
 30
0.0
 11
32.225
 21
189.1895
 31
0.0
  0
LINE
  5
232
330
1D
100
AcDbEntity
  8
0
100
AcDbLine
 10
31.585
 20
190.2225
 30
0.0
 11
32.799
 21
190.2695
 31
0.0
  0
LINE
  5
233
330
1D
100
AcDbEntity
  8
0
100
AcDbLine
 10
32.799
 20
190.2695
 30
0.0
 11
32.909
 21
189.5175
 31
0.0
  0
LINE
  5
234
330
1D
100
AcDbEntity
  8
0
100
AcDbLine
 10
32.799
 20
190.2695
 30
0.0
 11
33.139589056633
 21
190.91005740009
 31
0.0
  0
LINE
  5
235
330
1D
100
AcDbEntity
  8
0
100
AcDbLine
 10
30.371
 20
190.1755
 30
0.0
 11
31.175
 21
189.4505
 31
0.0
  0
LINE
  5
236
330
1D
100
AcDbEntity
  8
0
100
AcDbLine
 10
27.312
 20
189.9655
 30
0.0
 11
29.098426160954
 21
188.825395275799
 31
0.0
  0
LINE
  5
237
330
1D
100
AcDbEntity
  8
0
100
AcDbLine
 10
27.312
 20
189.9655
 30
0.0
 11
29.098426160954
 21
188.825395275799
 31
0.0
  0
LINE
  5
238
330
1D
100
AcDbEntity
  8
0
100
AcDbLine
 10
31.635529426293
 20
187.206205251706
 30
0.0
 11
32.992
 21
186.3405
 31
0.0
  0
LINE
  5
23B
330
1D
100
AcDbEntity
  8
0
100
AcDbLine
 10
22.752
 20
192.8995
 30
0.0
 11
22.965
 21
192.3905
 31
0.0
  0
LINE
  5
23C
330
1D
100
AcDbEntity
  8
0
100
AcDbLine
 10
22.752
 20
192.8995
 30
0.0
 11
23.020153213241
 21
193.330784193861
 31
0.0
  0
LINE
  5
23D
330
1D
100
AcDbEntity
  8
0
100
AcDbLine
 10
22.965
 20
192.3905
 30
0.0
 11
23.353372698576
 21
193.014753134789
 31
0.0
  0
LINE
  5
23E
330
1D
100
AcDbEntity
  8
0
100
AcDbLine
 10
22.414
 20
192.3565
 30
0.0
 11
22.965
 21
192.3905
 31
0.0
  0
LINE
  5
23F
330
1D
100
AcDbEntity
  8
0
100
AcDbLine
 10
21.45
 20
192.7955
 30
0.0
 11
22.414
 21
192.3565
 31
0.0
  0
LINE
  5
240
330
1D
100
AcDbEntity
  8
0
100
AcDbLine
 10
21.933
 20
193.5715
 30
0.0
 11
22.197233920163
 21
193.996217941256
 31
0.0
  0
LINE
  5
241
330
1D
100
AcDbEntity
  8
0
100
AcDbLine
 10
21.933
 20
193.5715
 30
0.0
 11
22.752
 21
192.8995
 31
0.0
  0
LINE
  5
242
330
1D
100
AcDbEntity
  8
0
100
AcDbLine
 10
21.933
 20
193.5715
 30
0.0
 11
22.197233920163
 21
193.996217941256
 31
0.0
  0
LINE
  5
243
330
1D
100
AcDbEntity
  8
0
100
AcDbLine
 10
20.631
 20
193.4655
 30
0.0
 11
21.45
 21
192.7955
 31
0.0
  0
LINE
  5
244
330
1D
100
AcDbEntity
  8
0
100
AcDbLine
 10
22.548
 20
194.5255
 30
0.0
 11
23.598
 21
194.2635
 31
0.0
  0
LINE
  5
245
330
1D
100
AcDbEntity
  8
0
100
AcDbLine
 10
21.743
 20
195.2495
 30
0.0
 11
22.548
 21
194.5255
 31
0.0
  0
LINE
  5
246
330
1D
100
AcDbEntity
  8
0
100
AcDbLine
 10
22.317
 20
196.3295
 30
0.0
 11
22.532498976262
 21
196.734265747298
 31
0.0
  0
LINE
  5
247
330
1D
100
AcDbEntity
  8
0
100
AcDbLine
 10
22.317
 20
196.3295
 30
0.0
 11
23.367
 21
196.0665
 31
0.0
  0
LINE
  5
248
330
1D
100
AcDbEntity
  8
0
100
AcDbLine
 10
21.633
 20
196.0005
 30
0.0
 11
21.743
 21
195.2495
 31
0.0
  0
LINE
  5
249
330
1D
100
AcDbEntity
  8
0
100
AcDbLine
 10
21.633
 20
196.0005
 30
0.0
 11
21.783119964426
 21
196.283032462537
 31
0.0
  0
LINE
  5
24A
330
1D
100
AcDbEntity
  8
0
100
AcDbLine
 10
21.633
 20
196.0005
 30
0.0
 11
22.317
 21
196.3295
 31
0.0
  0
LINE
  5
24B
330
1D
100
AcDbEntity
  8
0
100
AcDbLine
 10
20.969
 20
194.0095
 30
0.0
 11
21.323408723368
 21
194.579160940046
 31
0.0
  0
LINE
  5
24C
330
1D
100
AcDbEntity
  8
0
100
AcDbLine
 10
20.969
 20
194.0095
 30
0.0
 11
21.933
 21
193.5715
 31
0.0
  0
LINE
  5
24D
330
1D
100
AcDbEntity
  8
0
100
AcDbLine
 10
20.418
 20
193.9755
 30
0.0
 11
20.631
 21
193.4655
 31
0.0
  0
LINE
  5
24E
330
1D
100
AcDbEntity
  8
0
100
AcDbLine
 10
20.418
 20
193.9755
 30
0.0
 11
20.899374264641
 21
194.749718250685
 31
0.0
  0
LINE
  5
24F
330
1D
100
AcDbEntity
  8
0
100
AcDbLine
 10
20.418
 20
193.9755
 30
0.0
 11
20.969
 21
194.0095
 31
0.0
  0
LINE
  5
250
330
1D
100
AcDbEntity
  8
0
100
AcDbLine
 10
20.418
 20
193.9755
 30
0.0
 11
20.828143023909
 21
194.635153491734
 31
0.0
  0
LINE
  5
251
330
1D
100
AcDbEntity
  8
0
100
AcDbLine
 10
23.367
 20
196.0665
 30
0.0
 11
23.459917847014
 21
196.241268254135
 31
0.0
  0
LINE
  5
252
330
1D
100
AcDbEntity
  8
0
100
AcDbLine
 10
23.367
 20
196.0665
 30
0.0
 11
24.171
 21
195.3435
 31
0.0
  0
LINE
  5
253
330
1D
100
AcDbEntity
  8
0
100
AcDbLine
 10
30.945
 20
191.2545
 30
0.0
 11
31.362221578216
 21
192.039729601991
 31
0.0
  0
LINE
  5
254
330
1D
100
AcDbEntity
  8
0
100
AcDbLine
 10
30.945
 20
191.2545
 30
0.0
 11
31.995
 21
190.9925
 31
0.0
  0
LINE
  5
255
330
1D
100
AcDbEntity
  8
0
100
AcDbLine
 10
31.995
 20
190.9925
 30
0.0
 11
32.289455252526
 21
191.546677906458
 31
0.0
  0
LINE
  5
256
330
1D
100
AcDbEntity
  8
0
100
AcDbLine
 10
31.995
 20
190.9925
 30
0.0
 11
32.799
 21
190.2695
 31
0.0
  0
LINE
  5
257
330
1D
100
AcDbEntity
  8
0
100
AcDbLine
 10
30.261
 20
190.9255
 30
0.0
 11
30.371
 21
190.1755
 31
0.0
  0
LINE
  5
258
330
1D
100
AcDbEntity
  8
0
100
AcDbLine
 10
30.261
 20
190.9255
 30
0.0
 11
30.945
 21
191.2545
 31
0.0
  0
LINE
  5
259
330
1D
100
AcDbEntity
  8
0
100
AcDbLine
 10
24.171
 20
195.3435
 30
0.0
 11
24.282
 21
194.5915
 31
0.0
  0
LINE
  5
25A
330
1D
100
AcDbEntity
  8
0
100
AcDbLine
 10
24.171
 20
195.3435
 30
0.0
 11
24.386685850964
 21
195.748616748865
 31
0.0
  0
LINE
  5
25B
330
1D
100
AcDbEntity
  8
0
100
AcDbLine
 10
24.282
 20
194.5915
 30
0.0
 11
24.395425528015
 21
194.804971898073
 31
0.0
  0
LINE
  5
25C
330
1D
100
AcDbEntity
  8
0
100
AcDbLine
 10
23.598
 20
194.2635
 30
0.0
 11
24.282
 21
194.5915
 31
0.0
  0
LINE
  5
25D
330
1D
100
AcDbEntity
  8
0
100
AcDbLine
 10
23.267590184262
 20
192.876870107309
 30
0.0
 11
27.312
 21
189.9655
 31
0.0
  0
LINE
  5
264
330
1D
100
AcDbEntity
  8
0
100
AcDbLine
 10
29.693
 20
202.4715
 30
0.0
 11
40.476
 21
196.7385
 31
0.0
  0
LINE
  5
265
330
1D
100
AcDbEntity
  8
0
100
AcDbLine
 10
40.476
 20
196.7385
 30
0.0
 11
52.574
 21
190.3055
 31
0.0
  0
LINE
  5
266
330
1D
100
AcDbEntity
  8
0
100
AcDbLine
 10
52.574
 20
190.3055
 30
0.0
 11
66.626
 21
182.8345
 31
0.0
  0
LINE
  5
26A
330
1D
100
AcDbEntity
  8
0
100
AcDbLine
 10
66.626
 20
182.8345
 30
0.0
 11
80.678
 21
175.3625
 31
0.0
  0
LINE
  5
26B
330
1D
100
AcDbEntity
  8
0
100
AcDbLine
 10
100.146
 20
150.9515
 30
0.0
 11
101.16
 21
150.6475
 31
0.0
  0
LINE
  5
26C
330
1D
100
AcDbEntity
  8
0
100
AcDbLine
 10
101.421
 20
151.2315
 30
0.0
 11
101.695436904684
 21
151.844491289024
 31
0.0
  0
LINE
  5
26D
330
1D
100
AcDbEntity
  8
0
100
AcDbLine
 10
101.421
 20
151.2315
 30
0.0
 11
101.702
 21
150.7555
 31
0.0
  0
LINE
  5
26E
330
1D
100
AcDbEntity
  8
0
100
AcDbLine
 10
101.702
 20
150.7555
 30
0.0
 11
102.074365565185
 21
151.588297022393
 31
0.0
  0
LINE
  5
26F
330
1D
100
AcDbEntity
  8
0
100
AcDbLine
 10
101.16
 20
150.6475
 30
0.0
 11
101.702
 21
150.7555
 31
0.0
  0
LINE
  5
272
330
1D
100
AcDbEntity
  8
0
100
AcDbLine
 10
102.693
 20
108.0355
 30
0.0
 11
136.871
 21
96.7198
 31
0.0
  0
LINE
  5
274
330
1D
100
AcDbEntity
  8
0
100
AcDbLine
 10
98.963
 20
151.9815
 30
0.0
 11
99.244
 21
151.5055
 31
0.0
  0
LINE
  5
275
330
1D
100
AcDbEntity
  8
0
100
AcDbLine
 10
98.963
 20
151.9815
 30
0.0
 11
99.263506686194
 21
152.652335850181
 31
0.0
  0
LINE
  5
276
330
1D
100
AcDbEntity
  8
0
100
AcDbLine
 10
98.963
 20
151.9815
 30
0.0
 11
99.505
 21
152.0895
 31
0.0
  0
LINE
  5
277
330
1D
100
AcDbEntity
  8
0
100
AcDbLine
 10
98.963
 20
151.9815
 30
0.0
 11
99.197219307942
 21
152.504359276651
 31
0.0
  0
LINE
  5
278
330
1D
100
AcDbEntity
  8
0
100
AcDbLine
 10
100.519
 20
151.7855
 30
0.0
 11
100.723695265322
 21
152.24271407145
 31
0.0
  0
LINE
  5
279
330
1D
100
AcDbEntity
  8
0
100
AcDbLine
 10
100.519
 20
151.7855
 30
0.0
 11
101.421
 21
151.2315
 31
0.0
  0
LINE
  5
27A
330
1D
100
AcDbEntity
  8
0
100
AcDbLine
 10
100.162
 20
153.5535
 30
0.0
 11
100.967
 21
152.8295
 31
0.0
  0
LINE
  5
27B
330
1D
100
AcDbEntity
  8
0
100
AcDbLine
 10
100.967
 20
152.8295
 30
0.0
 11
102.016
 21
152.5675
 31
0.0
  0
LINE
  5
27C
330
1D
100
AcDbEntity
  8
0
100
AcDbLine
 10
102.59
 20
153.6465
 30
0.0
 11
102.805969861107
 21
154.0524328803
 31
0.0
  0
LINE
  5
27D
330
1D
100
AcDbEntity
  8
0
100
AcDbLine
 10
102.59
 20
153.6465
 30
0.0
 11
102.701
 21
152.8955
 31
0.0
  0
LINE
  5
27E
330
1D
100
AcDbEntity
  8
0
100
AcDbLine
 10
102.701
 20
152.8955
 30
0.0
 11
102.851574701823
 21
153.178714458795
 31
0.0
  0
LINE
  5
27F
330
1D
100
AcDbEntity
  8
0
100
AcDbLine
 10
102.016
 20
152.5675
 30
0.0
 11
102.701
 21
152.8955
 31
0.0
  0
LINE
  5
280
330
1D
100
AcDbEntity
  8
0
100
AcDbLine
 10
99.505
 20
152.0895
 30
0.0
 11
99.712267926581
 21
152.552789105815
 31
0.0
  0
LINE
  5
281
330
1D
100
AcDbEntity
  8
0
100
AcDbLine
 10
99.505
 20
152.0895
 30
0.0
 11
100.519
 21
151.7855
 31
0.0
  0
LINE
  5
282
330
1D
100
AcDbEntity
  8
0
100
AcDbLine
 10
99.244
 20
151.5055
 30
0.0
 11
100.146
 21
150.9515
 31
0.0
  0
LINE
  5
283
330
1D
100
AcDbEntity
  8
0
100
AcDbLine
 10
102.002400514499
 20
151.427346909033
 30
0.0
 11
109.593
 21
147.0445
 31
0.0
  0
LINE
  5
284
330
1D
100
AcDbEntity
  8
0
100
AcDbLine
 10
115.169
 20
143.3395
 30
0.0
 11
120.502
 21
139.4275
 31
0.0
  0
LINE
  5
285
330
1D
100
AcDbEntity
  8
0
100
AcDbLine
 10
109.593
 20
147.0445
 30
0.0
 11
115.169
 21
143.3395
 31
0.0
  0
LINE
  5
286
330
1D
100
AcDbEntity
  8
0
100
AcDbLine
 10
92.03
 20
155.0005
 30
0.0
 11
92.458158285121
 21
155.806529523332
 31
0.0
  0
LINE
  5
287
330
1D
100
AcDbEntity
  8
0
100
AcDbLine
 10
92.03
 20
155.0005
 30
0.0
 11
92.277
 21
154.5075
 31
0.0
  0
LINE
  5
288
330
1D
100
AcDbEntity
  8
0
100
AcDbLine
 10
90.738
 20
154.8085
 30
0.0
 11
91.729
 21
154.4365
 31
0.0
  0
LINE
  5
289
330
1D
100
AcDbEntity
  8
0
100
AcDbLine
 10
92.277
 20
154.5075
 30
0.0
 11
92.656270921365
 21
155.220275072331
 31
0.0
  0
LINE
  5
28A
330
1D
100
AcDbEntity
  8
0
100
AcDbLine
 10
91.729
 20
154.4365
 30
0.0
 11
92.277
 21
154.5075
 31
0.0
  0
LINE
  5
28B
330
1D
100
AcDbEntity
  8
0
100
AcDbLine
 10
101.786
 20
154.3715
 30
0.0
 11
101.878497591102
 21
154.545356728825
 31
0.0
  0
LINE
  5
28C
330
1D
100
AcDbEntity
  8
0
100
AcDbLine
 10
101.786
 20
154.3715
 30
0.0
 11
102.59
 21
153.6465
 31
0.0
  0
LINE
  5
28D
330
1D
100
AcDbEntity
  8
0
100
AcDbLine
 10
100.736
 20
154.6325
 30
0.0
 11
100.951478329027
 21
155.038039817147
 31
0.0
  0
LINE
  5
28E
330
1D
100
AcDbEntity
  8
0
100
AcDbLine
 10
100.736
 20
154.6325
 30
0.0
 11
101.786
 21
154.3715
 31
0.0
  0
LINE
  5
28F
330
1D
100
AcDbEntity
  8
0
100
AcDbLine
 10
100.052
 20
154.3045
 30
0.0
 11
100.162
 21
153.5535
 31
0.0
  0
LINE
  5
290
330
1D
100
AcDbEntity
  8
0
100
AcDbLine
 10
100.052
 20
154.3045
 30
0.0
 11
100.165407628965
 21
154.517658841876
 31
0.0
  0
LINE
  5
291
330
1D
100
AcDbEntity
  8
0
100
AcDbLine
 10
100.052
 20
154.3045
 30
0.0
 11
100.736
 21
154.6325
 31
0.0
  0
LINE
  5
292
330
1D
100
AcDbEntity
  8
0
100
AcDbLine
 10
92.577636059825
 20
155.072494248744
 30
0.0
 11
94.522
 21
154.2285
 31
0.0
  0
LINE
  5
293
330
1D
100
AcDbEntity
  8
0
100
AcDbLine
 10
94.522
 20
154.2285
 30
0.0
 11
99.197219307942
 21
152.504359276651
 31
0.0
  0
LINE
  5
296
330
1D
100
AcDbEntity
  8
0
100
AcDbLine
 10
89.875
 20
155.4225
 30
0.0
 11
90.738
 21
154.8085
 31
0.0
  0
LINE
  5
299
330
1D
100
AcDbEntity
  8
0
100
AcDbLine
 10
120.502
 20
139.4275
 30
0.0
 11
122.731
 21
137.5555
 31
0.0
  0
LINE
  5
29A
330
1D
100
AcDbEntity
  8
0
100
AcDbLine
 10
122.731
 20
137.5555
 30
0.0
 11
129.296
 21
131.2375
 31
0.0
  0
LINE
  5
29F
330
1D
100
AcDbEntity
  8
0
100
AcDbLine
 10
122.721
 20
153.0085
 30
0.0
 11
124.78
 21
151.9145
 31
0.0
  0
LINE
  5
2A0
330
1D
100
AcDbEntity
  8
0
100
AcDbLine
 10
120.075
 20
154.4145
 30
0.0
 11
122.721
 21
153.0085
 31
0.0
  0
LINE
  5
2A1
330
1D
100
AcDbEntity
  8
0
100
AcDbLine
 10
91.168
 20
155.6145
 30
0.0
 11
91.622528297503
 21
156.471130598765
 31
0.0
  0
LINE
  5
2A2
330
1D
100
AcDbEntity
  8
0
100
AcDbLine
 10
91.168
 20
155.6145
 30
0.0
 11
92.03
 21
155.0005
 31
0.0
  0
LINE
  5
2A3
330
1D
100
AcDbEntity
  8
0
100
AcDbLine
 10
90.176
 20
155.9865
 30
0.0
 11
90.612332447748
 21
156.807917795927
 31
0.0
  0
LINE
  5
2A4
330
1D
100
AcDbEntity
  8
0
100
AcDbLine
 10
90.176
 20
155.9865
 30
0.0
 11
91.168
 21
155.6145
 31
0.0
  0
LINE
  5
2A5
330
1D
100
AcDbEntity
  8
0
100
AcDbLine
 10
89.628
 20
155.9155
 30
0.0
 11
89.875
 21
155.4225
 31
0.0
  0
LINE
  5
2A6
330
1D
100
AcDbEntity
  8
0
100
AcDbLine
 10
89.628
 20
155.9155
 30
0.0
 11
89.984846060662
 21
156.587280671246
 31
0.0
  0
LINE
  5
2A7
330
1D
100
AcDbEntity
  8
0
100
AcDbLine
 10
89.628
 20
155.9155
 30
0.0
 11
90.176
 21
155.9865
 31
0.0
  0
LINE
  5
2A8
330
1D
100
AcDbEntity
  8
0
100
AcDbLine
 10
89.628
 20
155.9155
 30
0.0
 11
89.816787398862
 21
156.27090178108
 31
0.0
  0
LINE
  5
2A9
330
1D
100
AcDbEntity
  8
0
100
AcDbLine
 10
116.988
 20
156.0575
 30
0.0
 11
120.075
 21
154.4145
 31
0.0
  0
LINE
  5
2AA
330
1D
100
AcDbEntity
  8
0
100
AcDbLine
 10
122.175
 20
155.6085
 30
0.0
 11
123.668
 21
154.8145
 31
0.0
  0
LINE
  5
2AF
330
1D
100
AcDbEntity
  8
0
100
AcDbLine
 10
124.78
 20
151.9145
 30
0.0
 11
126.495
 21
151.0015
 31
0.0
  0
LINE
  5
2B0
330
1D
100
AcDbEntity
  8
0
100
AcDbLine
 10
126.495
 20
151.0015
 30
0.0
 11
127.986
 21
150.1655
 31
0.0
  0
LINE
  5
2B1
330
1D
100
AcDbEntity
  8
0
100
AcDbLine
 10
127.986
 20
150.1655
 30
0.0
 11
130.646
 21
148.1765
 31
0.0
  0
LINE
  5
2B3
330
1D
100
AcDbEntity
  8
0
100
AcDbLine
 10
123.668
 20
154.8145
 30
0.0
 11
128.749
 21
151.7225
 31
0.0
  0
LINE
  5
2B4
330
1D
100
AcDbEntity
  8
0
100
AcDbLine
 10
91.131
 20
157.8685
 30
0.0
 11
91.935
 21
157.1435
 31
0.0
  0
LINE
  5
2B5
330
1D
100
AcDbEntity
  8
0
100
AcDbLine
 10
91.935
 20
157.1435
 30
0.0
 11
92.985
 21
156.8825
 31
0.0
  0
LINE
  5
2B6
330
1D
100
AcDbEntity
  8
0
100
AcDbLine
 10
92.985
 20
156.8825
 30
0.0
 11
93.67
 21
157.2105
 31
0.0
  0
LINE
  5
2B7
330
1D
100
AcDbEntity
  8
0
100
AcDbLine
 10
88.341
 20
156.9115
 30
0.0
 11
89.816787398862
 21
156.27090178108
 31
0.0
  0
LINE
  5
2B8
330
1D
100
AcDbEntity
  8
0
100
AcDbLine
 10
80.798
 20
160.6105
 30
0.0
 11
81.046
 21
160.1175
 31
0.0
  0
LINE
  5
2B9
330
1D
100
AcDbEntity
  8
0
100
AcDbLine
 10
80.798
 20
160.6105
 30
0.0
 11
81.088787121556
 21
161.156984847439
 31
0.0
  0
LINE
  5
2BA
330
1D
100
AcDbEntity
  8
0
100
AcDbLine
 10
80.798
 20
160.6105
 30
0.0
 11
81.346
 21
160.6815
 31
0.0
  0
LINE
  5
2BB
330
1D
100
AcDbEntity
  8
0
100
AcDbLine
 10
80.798
 20
160.6105
 30
0.0
 11
80.894455126347
 21
160.791770974877
 31
0.0
  0
LINE
  5
2BC
330
1D
100
AcDbEntity
  8
0
100
AcDbLine
 10
83.2
 20
159.6965
 30
0.0
 11
83.42892654589
 21
160.126472652112
 31
0.0
  0
LINE
  5
2BD
330
1D
100
AcDbEntity
  8
0
100
AcDbLine
 10
83.2
 20
159.6965
 30
0.0
 11
83.447
 21
159.2025
 31
0.0
  0
LINE
  5
2BE
330
1D
100
AcDbEntity
  8
0
100
AcDbLine
 10
82.338
 20
160.3095
 30
0.0
 11
82.864174396051
 21
161.299461223891
 31
0.0
  0
LINE
  5
2BF
330
1D
100
AcDbEntity
  8
0
100
AcDbLine
 10
82.338
 20
160.3095
 30
0.0
 11
83.2
 21
159.6965
 31
0.0
  0
LINE
  5
2C0
330
1D
100
AcDbEntity
  8
0
100
AcDbLine
 10
81.346
 20
160.6815
 30
0.0
 11
81.816991664136
 21
161.566648579974
 31
0.0
  0
LINE
  5
2C1
330
1D
100
AcDbEntity
  8
0
100
AcDbLine
 10
81.346
 20
160.6815
 30
0.0
 11
82.338
 21
160.3095
 31
0.0
  0
LINE
  5
2C2
330
1D
100
AcDbEntity
  8
0
100
AcDbLine
 10
81.046
 20
160.1175
 30
0.0
 11
81.908
 21
159.5025
 31
0.0
  0
LINE
  5
2C3
330
1D
100
AcDbEntity
  8
0
100
AcDbLine
 10
81.908
 20
159.5025
 30
0.0
 11
82.9
 21
159.1315
 31
0.0
  0
LINE
  5
2C4
330
1D
100
AcDbEntity
  8
0
100
AcDbLine
 10
83.447
 20
159.2025
 30
0.0
 11
83.826235804578
 21
159.915209076313
 31
0.0
  0
LINE
  5
2C5
330
1D
100
AcDbEntity
  8
0
100
AcDbLine
 10
82.9
 20
159.1315
 30
0.0
 11
83.447
 21
159.2025
 31
0.0
  0
LINE
  5
2C6
330
1D
100
AcDbEntity
  8
0
100
AcDbLine
 10
93.559
 20
157.9625
 30
0.0
 11
93.976287642525
 21
158.747307034107
 31
0.0
  0
LINE
  5
2C7
330
1D
100
AcDbEntity
  8
0
100
AcDbLine
 10
93.559
 20
157.9625
 30
0.0
 11
93.67
 21
157.2105
 31
0.0
  0
LINE
  5
2C8
330
1D
100
AcDbEntity
  8
0
100
AcDbLine
 10
92.755
 20
158.6855
 30
0.0
 11
93.049848935358
 21
159.240078429463
 31
0.0
  0
LINE
  5
2C9
330
1D
100
AcDbEntity
  8
0
100
AcDbLine
 10
92.755
 20
158.6855
 30
0.0
 11
93.559
 21
157.9625
 31
0.0
  0
LINE
  5
2CA
330
1D
100
AcDbEntity
  8
0
100
AcDbLine
 10
91.705
 20
158.9485
 30
0.0
 11
92.045658463235
 21
159.589187935442
 31
0.0
  0
LINE
  5
2CB
330
1D
100
AcDbEntity
  8
0
100
AcDbLine
 10
91.705
 20
158.9485
 30
0.0
 11
92.755
 21
158.6855
 31
0.0
  0
LINE
  5
2CC
330
1D
100
AcDbEntity
  8
0
100
AcDbLine
 10
91.021
 20
158.6195
 30
0.0
 11
91.131
 21
157.8685
 31
0.0
  0
LINE
  5
2CD
330
1D
100
AcDbEntity
  8
0
100
AcDbLine
 10
91.021
 20
158.6195
 30
0.0
 11
91.571353031965
 21
159.655288930408
 31
0.0
  0
LINE
  5
2CE
330
1D
100
AcDbEntity
  8
0
100
AcDbLine
 10
91.021
 20
158.6195
 30
0.0
 11
91.705
 21
158.9485
 31
0.0
  0
LINE
  5
2D0
330
1D
100
AcDbEntity
  8
0
100
AcDbLine
 10
83.554463386143
 20
159.404459123455
 30
0.0
 11
88.341
 21
156.9115
 31
0.0
  0
LINE
  5
2D3
330
1D
100
AcDbEntity
  8
0
100
AcDbLine
 10
71.97
 20
165.3045
 30
0.0
 11
72.217
 21
164.8115
 31
0.0
  0
LINE
  5
2D4
330
1D
100
AcDbEntity
  8
0
100
AcDbLine
 10
71.97
 20
165.3045
 30
0.0
 11
72.287374615483
 21
165.90264275236
 31
0.0
  0
LINE
  5
2D5
330
1D
100
AcDbEntity
  8
0
100
AcDbLine
 10
71.97
 20
165.3045
 30
0.0
 11
72.516
 21
165.3775
 31
0.0
  0
LINE
  5
2D6
330
1D
100
AcDbEntity
  8
0
100
AcDbLine
 10
71.97
 20
165.3045
 30
0.0
 11
72.025930626583
 21
165.409910128263
 31
0.0
  0
LINE
  5
2D7
330
1D
100
AcDbEntity
  8
0
100
AcDbLine
 10
73.508
 20
165.0055
 30
0.0
 11
73.726215618091
 21
165.415813706947
 31
0.0
  0
LINE
  5
2D8
330
1D
100
AcDbEntity
  8
0
100
AcDbLine
 10
73.508
 20
165.0055
 30
0.0
 11
74.371
 21
164.3905
 31
0.0
  0
LINE
  5
2D9
330
1D
100
AcDbEntity
  8
0
100
AcDbLine
 10
72.516
 20
165.3775
 30
0.0
 11
72.897332388624
 21
166.093723179081
 31
0.0
  0
LINE
  5
2DA
330
1D
100
AcDbEntity
  8
0
100
AcDbLine
 10
72.516
 20
165.3775
 30
0.0
 11
73.508
 21
165.0055
 31
0.0
  0
LINE
  5
2DB
330
1D
100
AcDbEntity
  8
0
100
AcDbLine
 10
72.217
 20
164.8115
 30
0.0
 11
73.079
 21
164.1975
 31
0.0
  0
LINE
  5
2DC
330
1D
100
AcDbEntity
  8
0
100
AcDbLine
 10
73.079
 20
164.1975
 30
0.0
 11
74.071
 21
163.8255
 31
0.0
  0
LINE
  5
2DD
330
1D
100
AcDbEntity
  8
0
100
AcDbLine
 10
74.371
 20
164.3905
 30
0.0
 11
74.677330821485
 21
164.966840538856
 31
0.0
  0
LINE
  5
2DE
330
1D
100
AcDbEntity
  8
0
100
AcDbLine
 10
74.371
 20
164.3905
 30
0.0
 11
74.618
 21
163.8965
 31
0.0
  0
LINE
  5
2DF
330
1D
100
AcDbEntity
  8
0
100
AcDbLine
 10
74.618
 20
163.8965
 30
0.0
 11
74.997374333674
 21
164.610266923086
 31
0.0
  0
LINE
  5
2E0
330
1D
100
AcDbEntity
  8
0
100
AcDbLine
 10
74.071
 20
163.8255
 30
0.0
 11
74.618
 21
163.8965
 31
0.0
  0
LINE
  5
2E1
330
1D
100
AcDbEntity
  8
0
100
AcDbLine
 10
73.361
 20
168.0095
 30
0.0
 11
73.472
 21
167.2575
 31
0.0
  0
LINE
  5
2E2
330
1D
100
AcDbEntity
  8
0
100
AcDbLine
 10
73.361
 20
168.0095
 30
0.0
 11
74.046
 21
168.3375
 31
0.0
  0
LINE
  5
2E3
330
1D
100
AcDbEntity
  8
0
100
AcDbLine
 10
74.046
 20
168.3375
 30
0.0
 11
74.40576465745
 21
169.013706869238
 31
0.0
  0
LINE
  5
2E4
330
1D
100
AcDbEntity
  8
0
100
AcDbLine
 10
74.046
 20
168.3375
 30
0.0
 11
75.096
 21
168.0765
 31
0.0
  0
LINE
  5
2E5
330
1D
100
AcDbEntity
  8
0
100
AcDbLine
 10
73.472
 20
167.2575
 30
0.0
 11
74.276
 21
166.5345
 31
0.0
  0
LINE
  5
2E6
330
1D
100
AcDbEntity
  8
0
100
AcDbLine
 10
74.276
 20
166.5345
 30
0.0
 11
75.326
 21
166.2715
 31
0.0
  0
LINE
  5
2E7
330
1D
100
AcDbEntity
  8
0
100
AcDbLine
 10
75.096
 20
168.0765
 30
0.0
 11
75.39027578064
 21
168.629954449828
 31
0.0
  0
LINE
  5
2E8
330
1D
100
AcDbEntity
  8
0
100
AcDbLine
 10
75.096
 20
168.0765
 30
0.0
 11
75.901
 21
167.3515
 31
0.0
  0
LINE
  5
2E9
330
1D
100
AcDbEntity
  8
0
100
AcDbLine
 10
75.901
 20
167.3515
 30
0.0
 11
76.063649111442
 21
167.657612875532
 31
0.0
  0
LINE
  5
2EA
330
1D
100
AcDbEntity
  8
0
100
AcDbLine
 10
75.901
 20
167.3515
 30
0.0
 11
76.011
 21
166.6005
 31
0.0
  0
LINE
  5
2EB
330
1D
100
AcDbEntity
  8
0
100
AcDbLine
 10
76.011
 20
166.6005
 30
0.0
 11
76.418471691606
 21
167.367379880926
 31
0.0
  0
LINE
  5
2EC
330
1D
100
AcDbEntity
  8
0
100
AcDbLine
 10
75.326
 20
166.2715
 30
0.0
 11
76.011
 21
166.6005
 31
0.0
  0
LINE
  5
2ED
330
1D
100
AcDbEntity
  8
0
100
AcDbLine
 10
74.685567050025
 20
164.023622794342
 30
0.0
 11
80.893660665771
 21
160.790277921594
 31
0.0
  0
LINE
  5
2F0
330
1D
100
AcDbEntity
  8
0
100
AcDbLine
 10
82.191
 20
163.3145
 30
0.0
 11
82.301
 21
162.5635
 31
0.0
  0
LINE
  5
2F1
330
1D
100
AcDbEntity
  8
0
100
AcDbLine
 10
82.191
 20
163.3145
 30
0.0
 11
82.665345744733
 21
164.205450449858
 31
0.0
  0
LINE
  5
2F2
330
1D
100
AcDbEntity
  8
0
100
AcDbLine
 10
82.191
 20
163.3145
 30
0.0
 11
82.876
 21
163.6425
 31
0.0
  0
LINE
  5
2F3
330
1D
100
AcDbEntity
  8
0
100
AcDbLine
 10
84.73
 20
162.6565
 30
0.0
 11
84.930805312627
 21
163.034424546437
 31
0.0
  0
LINE
  5
2F4
330
1D
100
AcDbEntity
  8
0
100
AcDbLine
 10
84.73
 20
162.6565
 30
0.0
 11
84.84
 21
161.9055
 31
0.0
  0
LINE
  5
2F5
330
1D
100
AcDbEntity
  8
0
100
AcDbLine
 10
83.925
 20
163.3805
 30
0.0
 11
84.219630323905
 21
163.93428160357
 31
0.0
  0
LINE
  5
2F6
330
1D
100
AcDbEntity
  8
0
100
AcDbLine
 10
83.925
 20
163.3805
 30
0.0
 11
84.73
 21
162.6565
 31
0.0
  0
LINE
  5
2F7
330
1D
100
AcDbEntity
  8
0
100
AcDbLine
 10
82.876
 20
163.6425
 30
0.0
 11
83.17171397974
 21
164.199777263657
 31
0.0
  0
LINE
  5
2F8
330
1D
100
AcDbEntity
  8
0
100
AcDbLine
 10
82.876
 20
163.6425
 30
0.0
 11
83.925
 21
163.3805
 31
0.0
  0
LINE
  5
2F9
330
1D
100
AcDbEntity
  8
0
100
AcDbLine
 10
82.301
 20
162.5635
 30
0.0
 11
83.106
 21
161.8395
 31
0.0
  0
LINE
  5
2FA
330
1D
100
AcDbEntity
  8
0
100
AcDbLine
 10
83.106
 20
161.8395
 30
0.0
 11
84.155
 21
161.5775
 31
0.0
  0
LINE
  5
2FB
330
1D
100
AcDbEntity
  8
0
100
AcDbLine
 10
84.84
 20
161.9055
 30
0.0
 11
85.267453410618
 21
162.708933373884
 31
0.0
  0
LINE
  5
2FC
330
1D
100
AcDbEntity
  8
0
100
AcDbLine
 10
84.155
 20
161.5775
 30
0.0
 11
84.84
 21
161.9055
 31
0.0
  0
LINE
  5
302
330
1D
100
AcDbEntity
  8
0
100
AcDbLine
 10
92.775
 20
168.9305
 30
0.0
 11
103.558
 21
163.1965
 31
0.0
  0
LINE
  5
303
330
1D
100
AcDbEntity
  8
0
100
AcDbLine
 10
80.678
 20
175.3625
 30
0.0
 11
92.775
 21
168.9305
 31
0.0
  0
LINE
  5
30C
330
1D
100
AcDbEntity
  8
0
100
AcDbLine
 10
21.508
 20
206.8245
 30
0.0
 11
29.693
 21
202.4715
 31
0.0
  0
LINE
  5
312
330
1D
100
AcDbEntity
  8
0
100
AcDbLine
 10
-0.06
 20
214.7875
 30
0.0
 11
1.166
 21
212.3245
 31
0.0
  0
LINE
  5
313
330
1D
100
AcDbEntity
  8
0
100
AcDbLine
 10
-0.06
 20
214.7875
 30
0.0
 11
-0.046
 21
217.1965
 31
0.0
  0
LINE
  5
323
330
1D
100
AcDbEntity
  8
0
100
AcDbLine
 10
4.209
 20
216.0215
 30
0.0
 11
5.287
 21
215.4495
 31
0.0
  0
LINE
  5
324
330
1D
100
AcDbEntity
  8
0
100
AcDbLine
 10
3.522
 20
216.3865
 30
0.0
 11
4.209
 21
216.0215
 31
0.0
  0
LINE
  5
325
330
1D
100
AcDbEntity
  8
0
100
AcDbLine
 10
2.983
 20
216.6735
 30
0.0
 11
3.522
 21
216.3865
 31
0.0
  0
LINE
  5
326
330
1D
100
AcDbEntity
  8
0
100
AcDbLine
 10
2.493
 20
216.9345
 30
0.0
 11
2.983
 21
216.6735
 31
0.0
  0
LINE
  5
327
330
1D
100
AcDbEntity
  8
0
100
AcDbLine
 10
1.856
 20
217.2735
 30
0.0
 11
2.493
 21
216.9345
 31
0.0
  0
LINE
  5
328
330
1D
100
AcDbEntity
  8
0
100
AcDbLine
 10
1.08
 20
217.6865
 30
0.0
 11
1.856
 21
217.2735
 31
0.0
  0
LINE
  5
329
330
1D
100
AcDbEntity
  8
0
100
AcDbLine
 10
0.911
 20
217.7765
 30
0.0
 11
1.08
 21
217.6865
 31
0.0
  0
LINE
  5
32A
330
1D
100
AcDbEntity
  8
0
100
AcDbLine
 10
-0.046
 20
217.1965
 30
0.0
 11
0.743
 21
217.8645
 31
0.0
  0
LINE
  5
32C
330
1D
100
AcDbEntity
  8
0
100
AcDbLine
 10
0.743
 20
217.8645
 30
0.0
 11
4.262
 21
217.1475
 31
0.0
  0
LINE
  5
32D
330
1D
100
AcDbEntity
  8
0
100
AcDbLine
 10
0.743
 20
217.8645
 30
0.0
 11
0.911
 21
217.7765
 31
0.0
  0
LINE
  5
32F
330
1D
100
AcDbEntity
  8
0
100
AcDbLine
 10
6.757
 20
214.6675
 30
0.0
 11
8.472
 21
213.7555
 31
0.0
  0
LINE
  5
331
330
1D
100
AcDbEntity
  8
0
100
AcDbLine
 10
5.287
 20
215.4495
 30
0.0
 11
6.757
 21
214.6675
 31
0.0
  0
LINE
  5
332
330
1D
100
AcDbEntity
  8
0
100
AcDbLine
 10
4.262
 20
217.1475
 30
0.0
 11
11.498
 21
214.4555
 31
0.0
  0
LINE
  5
335
330
1D
100
AcDbEntity
  8
0
100
AcDbLine
 10
136.871
 20
96.7198
 30
0.0
 11
158.259150927249
 21
89.638829537553
 31
0.0
  0
LINE
  5
336
330
1D
100
AcDbEntity
  8
0
100
AcDbLine
 10
136.871
 20
96.7198
 30
0.0
 11
158.259150927249
 21
89.638829537554
 31
0.0
  0
LINE
  5
337
330
1D
100
AcDbEntity
  8
0
100
AcDbLine
 10
149.175
 20
104.8065
 30
0.0
 11
159.3904
 21
91.3956
 31
0.0
  0
LINE
  5
338
330
1D
100
AcDbEntity
  8
0
100
AcDbLine
 10
159.3904
 20
91.3956
 30
0.0
 11
173.8592
 21
73.4566
 31
0.0
  0
LINE
  5
339
330
1D
100
AcDbEntity
  8
0
100
AcDbLine
 10
173.8592
 20
73.4566
 30
0.0
 11
194.838493445887
 21
50.545986978683
 31
0.0
  0
LINE
  5
33A
330
1D
100
AcDbEntity
  8
0
100
AcDbLine
 10
174.4401
 20
105.5275
 30
0.0
 11
190.1868
 21
89.0431
 31
0.0
  0
LINE
  5
33B
330
1D
100
AcDbEntity
  8
0
100
AcDbLine
 10
142.06
 20
114.6665
 30
0.0
 11
149.175
 21
104.8065
 31
0.0
  0
LINE
  5
33C
330
1D
100
AcDbEntity
  8
0
100
AcDbLine
 10
135.56
 20
124.3325
 30
0.0
 11
142.06
 21
114.6665
 31
0.0
  0
LINE
  5
33D
330
1D
100
AcDbEntity
  8
0
100
AcDbLine
 10
159.919175034864
 20
122.834004172708
 30
0.0
 11
246.1904
 21
103.1205
 31
0.0
  0
LINE
  5
33E
330
1D
100
AcDbEntity
  8
0
100
AcDbLine
 10
159.919175034864
 20
122.834004172708
 30
0.0
 11
246.1904
 21
103.1205
 31
0.0
  0
LINE
  5
33F
330
1D
100
AcDbEntity
  8
0
100
AcDbLine
 10
161.6158
 20
118.3495
 30
0.0
 11
174.4401
 21
105.5275
 31
0.0
  0
LINE
  5
340
330
1D
100
AcDbEntity
  8
0
100
AcDbLine
 10
153.4181
 20
126.4405
 30
0.0
 11
161.6158
 21
118.3495
 31
0.0
  0
LINE
  5
341
330
1D
100
AcDbEntity
  8
0
100
AcDbLine
 10
129.296
 20
131.2375
 30
0.0
 11
135.56
 21
124.3325
 31
0.0
  0
LINE
  5
342
330
1D
100
AcDbEntity
  8
0
100
AcDbLine
 10
137.435
 20
141.8725
 30
0.0
 11
145.22
 21
134.5295
 31
0.0
  0
LINE
  5
343
330
1D
100
AcDbEntity
  8
0
100
AcDbLine
 10
145.22
 20
134.5295
 30
0.0
 11
153.4181
 21
126.4405
 31
0.0
  0
LINE
  5
344
330
1D
100
AcDbEntity
  8
0
100
AcDbLine
 10
130.646
 20
148.1765
 30
0.0
 11
132.45
 21
146.7465
 31
0.0
  0
LINE
  5
345
330
1D
100
AcDbEntity
  8
0
100
AcDbLine
 10
132.45
 20
146.7465
 30
0.0
 11
137.435
 21
141.8725
 31
0.0
  0
LINE
  5
346
330
1D
100
AcDbEntity
  8
0
100
AcDbLine
 10
133.458
 20
148.2625
 30
0.0
 11
138.777
 21
143.3555
 31
0.0
  0
LINE
  5
347
330
1D
100
AcDbEntity
  8
0
100
AcDbLine
 10
138.777
 20
143.3555
 30
0.0
 11
146.659
 21
135.9185
 31
0.0
  0
LINE
  5
348
330
1D
100
AcDbEntity
  8
0
100
AcDbLine
 10
146.659
 20
135.9185
 30
0.0
 11
154.8598
 21
127.8265
 31
0.0
  0
LINE
  5
349
330
1D
100
AcDbEntity
  8
0
100
AcDbLine
 10
154.8598
 20
127.8265
 30
0.0
 11
163.0602
 21
119.7345
 31
0.0
  0
LINE
  5
34A
330
1D
100
AcDbEntity
  8
0
100
AcDbLine
 10
163.0602
 20
119.7345
 30
0.0
 11
175.8828
 21
106.9145
 31
0.0
  0
LINE
  5
34B
330
1D
100
AcDbEntity
  8
0
100
AcDbLine
 10
175.8828
 20
106.9145
 30
0.0
 11
191.6267
 21
90.4312
 31
0.0
  0
LINE
  5
34C
330
1D
100
AcDbEntity
  8
0
100
AcDbLine
 10
191.6267
 20
90.4312
 30
0.0
 11
213.7218
 21
67.2543
 31
0.0
  0
LINE
  5
34D
330
1D
100
AcDbEntity
  8
0
100
AcDbLine
 10
190.1868
 20
89.0431
 30
0.0
 11
212.283439076985
 21
65.86506879846
 31
0.0
  0
LINE
  5
34E
330
1D
100
AcDbEntity
  8
0
100
AcDbLine
 10
190.1868
 20
89.0431
 30
0.0
 11
212.2836
 21
65.8649
 31
0.0
  0
LINE
  5
34F
330
1D
100
AcDbEntity
  8
0
100
AcDbLine
 10
131.584
 20
149.7435
 30
0.0
 11
133.458
 21
148.2625
 31
0.0
  0
LINE
  5
350
330
1D
100
AcDbEntity
  8
0
100
AcDbLine
 10
128.749
 20
151.7225
 30
0.0
 11
131.584
 21
149.7435
 31
0.0
  0
LINE
  5
356
330
1D
100
AcDbEntity
  8
0
100
AcDbLine
 10
201.551
 20
53.5536
 30
0.0
 11
203.2254
 21
54.9534
 31
0.0
  0
LINE
  5
35B
330
1D
100
AcDbEntity
  8
0
100
AcDbLine
 10
203.2254
 20
54.9534
 30
0.0
 11
204.9728
 21
56.414
 31
0.0
  0
LINE
  5
360
330
1D
100
AcDbEntity
  8
0
100
AcDbLine
 10
204.8627
 20
58.9254
 30
0.0
 11
206.6822
 21
60.4458
 31
0.0
  0
LINE
  5
361
330
1D
100
AcDbEntity
  8
0
100
AcDbLine
 10
204.9728
 20
56.414
 30
0.0
 11
206.7452
 21
57.8965
 31
0.0
  0
LINE
  5
363
330
1D
100
AcDbEntity
  8
0
100
AcDbLine
 10
203.6767
 20
54.0302
 30
0.0
 11
205.5493
 21
55.5955
 31
0.0
  0
LINE
  5
364
330
1D
100
AcDbEntity
  8
0
100
AcDbLine
 10
206.7452
 20
57.8965
 30
0.0
 11
208.4946
 21
59.3581
 31
0.0
  0
LINE
  5
365
330
1D
100
AcDbEntity
  8
0
100
AcDbLine
 10
205.6513
 20
59.1946
 30
0.0
 11
207.4008
 21
60.6572
 31
0.0
  0
LINE
  5
366
330
1D
100
AcDbEntity
  8
0
100
AcDbLine
 10
207.4488
 20
57.1827
 30
0.0
 11
209.3233
 21
58.7499
 31
0.0
  0
LINE
  5
367
330
1D
100
AcDbEntity
  8
0
100
AcDbLine
 10
205.5493
 20
55.5955
 30
0.0
 11
207.4488
 21
57.1827
 31
0.0
  0
LINE
  5
368
330
1D
100
AcDbEntity
  8
0
100
AcDbLine
 10
206.059795618835
 20
59.925710073579
 30
0.0
 11
206.1477
 21
59.9992
 31
0.0
  0
LINE
  5
369
330
1D
100
AcDbEntity
  8
0
100
AcDbLine
 10
206.059795618835
 20
59.925710073579
 30
0.0
 11
206.1477
 21
59.9992
 31
0.0
  0
LINE
  5
36A
330
1D
100
AcDbEntity
  8
0
100
AcDbLine
 10
206.1477
 20
59.9992
 30
0.0
 11
206.87818902314
 21
60.609674675122
 31
0.0
  0
LINE
  5
36C
330
1D
100
AcDbEntity
  8
0
100
AcDbLine
 10
206.6822
 20
60.4458
 30
0.0
 11
208.4386
 21
61.9144
 31
0.0
  0
LINE
  5
36E
330
1D
100
AcDbEntity
  8
0
100
AcDbLine
 10
208.4386
 20
61.9144
 30
0.0
 11
210.0789
 21
63.2862
 31
0.0
  0
LINE
  5
36F
330
1D
100
AcDbEntity
  8
0
100
AcDbLine
 10
207.4008
 20
60.6572
 30
0.0
 11
209.0801
 21
62.0599
 31
0.0
  0
LINE
  5
370
330
1D
100
AcDbEntity
  8
0
100
AcDbLine
 10
208.4946
 20
59.3581
 30
0.0
 11
210.174
 21
60.7619
 31
0.0
  0
LINE
  5
371
330
1D
100
AcDbEntity
  8
0
100
AcDbLine
 10
209.3233
 20
58.7499
 30
0.0
 11
211.1218
 21
60.2534
 31
0.0
  0
LINE
  5
372
330
1D
100
AcDbEntity
  8
0
100
AcDbLine
 10
210.174
 20
60.7619
 30
0.0
 11
211.7363
 21
62.0679
 31
0.0
  0
LINE
  5
373
330
1D
100
AcDbEntity
  8
0
100
AcDbLine
 10
209.0801
 20
62.0599
 30
0.0
 11
210.6424
 21
63.366
 31
0.0
  0
LINE
  5
374
330
1D
100
AcDbEntity
  8
0
100
AcDbLine
 10
210.0789
 20
63.2862
 30
0.0
 11
211.5541
 21
64.5185
 31
0.0
  0
LINE
  5
375
330
1D
100
AcDbEntity
  8
0
100
AcDbLine
 10
211.534065956539
 20
65.141632839294
 30
0.0
 11
211.875849721293
 21
64.787720194349
 31
0.0
  0
LINE
  5
376
330
1D
100
AcDbEntity
  8
0
100
AcDbLine
 10
211.5641
 20
65.1703
 30
0.0
 11
212.2836
 21
65.8649
 31
0.0
  0
LINE
  5
377
330
1D
100
AcDbEntity
  8
0
100
AcDbLine
 10
211.5541
 20
64.5185
 30
0.0
 11
212.8171
 21
65.5753
 31
0.0
  0
LINE
  5
378
330
1D
100
AcDbEntity
  8
0
100
AcDbLine
 10
211.1218
 20
60.2534
 30
0.0
 11
212.7961
 21
61.6522
 31
0.0
  0
LINE
  5
379
330
1D
100
AcDbEntity
  8
0
100
AcDbLine
 10
210.6424
 20
63.366
 30
0.0
 11
212.0455
 21
64.5394
 31
0.0
  0
LINE
  5
37A
330
1D
100
AcDbEntity
  8
0
100
AcDbLine
 10
201.8833
 20
52.5307
 30
0.0
 11
203.6767
 21
54.0302
 31
0.0
  0
LINE
  5
37B
330
1D
100
AcDbEntity
  8
0
100
AcDbLine
 10
200.217
 20
51.1369
 30
0.0
 11
201.8833
 21
52.5307
 31
0.0
  0
LINE
  5
37C
330
1D
100
AcDbEntity
  8
0
100
AcDbLine
 10
194.742444024491
 20
50.46560600571
 30
0.0
 11
194.838493445887
 21
50.545986978683
 31
0.0
  0
LINE
  5
37E
330
1D
100
AcDbEntity
  8
0
100
AcDbLine
 10
211.7363
 20
62.0679
 30
0.0
 11
213.1394
 21
63.2404
 31
0.0
  0
LINE
  5
380
330
1D
100
AcDbEntity
  8
0
100
AcDbLine
 10
212.7961
 20
61.6522
 30
0.0
 11
214.2993
 21
62.9094
 31
0.0
  0
LINE
  5
381
330
1D
100
AcDbEntity
  8
0
100
AcDbLine
 10
213.2515
 20
65.5474
 30
0.0
 11
214.2263
 21
66.3619
 31
0.0
  0
LINE
  5
382
330
1D
100
AcDbEntity
  8
0
100
AcDbLine
 10
212.0455
 20
64.5394
 30
0.0
 11
213.2515
 21
65.5474
 31
0.0
  0
LINE
  5
383
330
1D
100
AcDbEntity
  8
0
100
AcDbLine
 10
213.1394
 20
63.2404
 30
0.0
 11
214.3454
 21
64.2483
 31
0.0
  0
LINE
  5
384
330
1D
100
AcDbEntity
  8
0
100
AcDbLine
 10
211.875849721293
 20
64.787720194349
 30
0.0
 11
212.8171
 21
65.5753
 31
0.0
  0
LINE
  5
385
330
1D
100
AcDbEntity
  8
0
100
AcDbLine
 10
213.0102
 20
66.4406
 30
0.0
 11
213.375195006125
 21
66.041363884645
 31
0.0
  0
LINE
  5
386
330
1D
100
AcDbEntity
  8
0
100
AcDbLine
 10
212.940777878823
 20
66.499246518386
 30
0.0
 11
213.0102
 21
66.4406
 31
0.0
  0
LINE
  5
387
330
1D
100
AcDbEntity
  8
0
100
AcDbLine
 10
212.2836
 20
65.8649
 30
0.0
 11
213.0032
 21
66.5595
 31
0.0
  0
LINE
  5
388
330
1D
100
AcDbEntity
  8
0
100
AcDbLine
 10
213.0032
 20
66.5595
 30
0.0
 11
213.7218
 21
67.2543
 31
0.0
  0
LINE
  5
389
330
1D
100
AcDbEntity
  8
0
100
AcDbLine
 10
214.2263
 20
66.3619
 30
0.0
 11
214.9458
 21
66.9631
 31
0.0
  0
LINE
  5
38A
330
1D
100
AcDbEntity
  8
0
100
AcDbLine
 10
213.8319
 20
66.4227
 30
0.0
 11
214.6116
 21
67.0748
 31
0.0
  0
LINE
  5
38B
330
1D
100
AcDbEntity
  8
0
100
AcDbLine
 10
213.8319
 20
66.4227
 30
0.0
 11
214.380247086619
 21
66.881173700791
 31
0.0
  0
LINE
  5
38C
330
1D
100
AcDbEntity
  8
0
100
AcDbLine
 10
213.8319
 20
66.4227
 30
0.0
 11
214.380247086619
 21
66.881173700791
 31
0.0
  0
LINE
  5
38D
330
1D
100
AcDbEntity
  8
0
100
AcDbLine
 10
213.8319
 20
66.4227
 30
0.0
 11
214.5665
 21
67.0369
 31
0.0
  0
LINE
  5
38E
330
1D
100
AcDbEntity
  8
0
100
AcDbLine
 10
212.8171
 20
65.5753
 30
0.0
 11
213.888896951779
 21
66.470355224316
 31
0.0
  0
LINE
  5
38F
330
1D
100
AcDbEntity
  8
0
100
AcDbLine
 10
212.8171
 20
65.5753
 30
0.0
 11
213.888896951779
 21
66.470355224316
 31
0.0
  0
LINE
  5
390
330
1D
100
AcDbEntity
  8
0
100
AcDbLine
 10
212.8171
 20
65.5753
 30
0.0
 11
213.8319
 21
66.4227
 31
0.0
  0
LINE
  5
396
330
1D
100
AcDbEntity
  8
0
100
AcDbLine
 10
214.3454
 20
64.2483
 30
0.0
 11
215.3201
 21
65.0639
 31
0.0
  0
LINE
  5
397
330
1D
100
AcDbEntity
  8
0
100
AcDbLine
 10
214.380247086619
 20
66.881173700791
 30
0.0
 11
214.6116
 21
67.0748
 31
0.0
  0
LINE
  5
398
330
1D
100
AcDbEntity
  8
0
100
AcDbLine
 10
214.5665
 20
67.0369
 30
0.0
 11
214.9989
 21
67.3978
 31
0.0
  0
LINE
  5
399
330
1D
100
AcDbEntity
  8
0
100
AcDbLine
 10
214.5665
 20
67.0369
 30
0.0
 11
214.8087
 21
67.2393
 31
0.0
  0
LINE
  5
39A
330
1D
100
AcDbEntity
  8
0
100
AcDbLine
 10
214.380247086619
 20
66.881173700791
 30
0.0
 11
214.6116
 21
67.0748
 31
0.0
  0
LINE
  5
39B
330
1D
100
AcDbEntity
  8
0
100
AcDbLine
 10
214.2993
 20
62.9094
 30
0.0
 11
215.5914
 21
63.9891
 31
0.0
  0
LINE
  5
39C
330
1D
100
AcDbEntity
  8
0
100
AcDbLine
 10
215.3201
 20
65.0639
 30
0.0
 11
216.0387
 21
65.665
 31
0.0
  0
LINE
  5
39D
330
1D
100
AcDbEntity
  8
0
100
AcDbLine
 10
216.6372
 20
64.8625
 30
0.0
 11
217.4068
 21
65.5065
 31
0.0
  0
LINE
  5
39E
330
1D
100
AcDbEntity
  8
0
100
AcDbLine
 10
215.5914
 20
63.9891
 30
0.0
 11
216.6372
 21
64.8625
 31
0.0
  0
LINE
  5
39F
330
1D
100
AcDbEntity
  8
0
100
AcDbLine
 10
216.4811
 20
66.0339
 30
0.0
 11
216.6342
 21
66.1625
 31
0.0
  0
LINE
  5
3A0
330
1D
100
AcDbEntity
  8
0
100
AcDbLine
 10
216.0387
 20
65.665
 30
0.0
 11
216.4811
 21
66.0339
 31
0.0
  0
LINE
  5
3A1
330
1D
100
AcDbEntity
  8
0
100
AcDbLine
 10
217.8802
 20
65.9023
 30
0.0
 11
218.0443
 21
66.0399
 31
0.0
  0
LINE
  5
3A2
330
1D
100
AcDbEntity
  8
0
100
AcDbLine
 10
217.4068
 20
65.5065
 30
0.0
 11
217.8802
 21
65.9023
 31
0.0
  0
LINE
  5
3A4
330
1D
100
AcDbEntity
  8
0
100
AcDbLine
 10
218.0443
 20
66.0399
 30
0.0
 11
227.6941
 21
54.5835
 31
0.0
  0
LINE
  5
3A6
330
1D
100
AcDbEntity
  8
0
100
AcDbLine
 10
218.0408
 20
66.0369
 30
0.0
 11
227.6906
 21
54.5806
 31
0.0
  0
LINE
  5
3A7
330
1D
100
AcDbEntity
  8
0
100
AcDbLine
 10
214.9458
 20
66.9631
 30
0.0
 11
215.3872
 21
67.332
 31
0.0
  0
LINE
  5
3A8
330
1D
100
AcDbEntity
  8
0
100
AcDbLine
 10
216.6342
 20
66.1625
 30
0.0
 11
218.0443
 21
66.0399
 31
0.0
  0
LINE
  5
3A9
330
1D
100
AcDbEntity
  8
0
100
AcDbLine
 10
216.6309
 20
66.1597
 30
0.0
 11
218.0408
 21
66.0369
 31
0.0
  0
LINE
  5
3AA
330
1D
100
AcDbEntity
  8
0
100
AcDbLine
 10
214.6116
 20
67.0748
 30
0.0
 11
214.8087
 21
67.2393
 31
0.0
  0
LINE
  5
3AB
330
1D
100
AcDbEntity
  8
0
100
AcDbLine
 10
215.3872
 20
67.332
 30
0.0
 11
215.5403
 21
67.4606
 31
0.0
  0
LINE
  5
3AC
330
1D
100
AcDbEntity
  8
0
100
AcDbLine
 10
214.8087
 20
67.2393
 30
0.0
 11
214.9989
 21
67.3978
 31
0.0
  0
LINE
  5
3AD
330
1D
100
AcDbEntity
  8
0
100
AcDbLine
 10
215.0992
 20
67.4823
 30
0.0
 11
215.4784
 21
67.4657
 31
0.0
  0
LINE
  5
3AE
330
1D
100
AcDbEntity
  8
0
100
AcDbLine
 10
215.4784
 20
67.4657
 30
0.0
 11
215.5403
 21
67.4606
 31
0.0
  0
LINE
  5
3AF
330
1D
100
AcDbEntity
  8
0
100
AcDbLine
 10
215.4784
 20
67.4657
 30
0.0
 11
215.537
 21
67.4578
 31
0.0
  0
LINE
  5
3B0
330
1D
100
AcDbEntity
  8
0
100
AcDbLine
 10
214.9989
 20
67.3978
 30
0.0
 11
215.0992
 21
67.4823
 31
0.0
  0
LINE
  5
3B1
330
1D
100
AcDbEntity
  8
0
100
AcDbLine
 10
215.5403
 20
67.4606
 30
0.0
 11
216.6342
 21
66.1625
 31
0.0
  0
LINE
  5
3B2
330
1D
100
AcDbEntity
  8
0
100
AcDbLine
 10
215.537
 20
67.4578
 30
0.0
 11
216.6309
 21
66.1597
 31
0.0
  0
LINE
  5
3B3
330
1D
100
AcDbEntity
  8
0
100
AcDbLine
 10
214.808676401768
 20
67.239031043937
 30
0.0
 11
214.9989
 21
67.3978
 31
0.0
  0
LINE
  5
3BE
330
1D
100
AcDbEntity
  8
0
100
AcDbLine
 10
223.9308
 20
0.1355
 30
0.0
 11
225.8503
 21
0.1355
 31
0.0
  0
LINE
  5
3BF
330
1D
100
AcDbEntity
  8
0
100
AcDbLine
 10
224.1365
 20
0.1355
 30
0.0
 11
225.6932
 21
0.1355
 31
0.0
  0
LINE
  5
3C0
330
1D
100
AcDbEntity
  8
0
100
AcDbLine
 10
223.7179
 20
0.1361
 30
0.0
 11
226.265
 21
0.1361
 31
0.0
  0
LINE
  5
3C1
330
1D
100
AcDbEntity
  8
0
100
AcDbLine
 10
227.8019
 20
0.1355
 30
0.0
 11
229.8184
 21
0.1355
 31
0.0
  0
LINE
  5
3C2
330
1D
100
AcDbEntity
  8
0
100
AcDbLine
 10
225.6523
 20
0.1355
 30
0.0
 11
227.4468
 21
0.1355
 31
0.0
  0
LINE
  5
3C3
330
1D
100
AcDbEntity
  8
0
100
AcDbLine
 10
225.8503
 20
0.1355
 30
0.0
 11
227.9639
 21
0.1355
 31
0.0
  0
LINE
  5
3C4
330
1D
100
AcDbEntity
  8
0
100
AcDbLine
 10
225.9704
 20
0.1355
 30
0.0
 11
227.8019
 21
0.1355
 31
0.0
  0
LINE
  5
3C5
330
1D
100
AcDbEntity
  8
0
100
AcDbLine
 10
227.4468
 20
0.1355
 30
0.0
 11
229.4303
 21
0.1355
 31
0.0
  0
LINE
  5
3C6
330
1D
100
AcDbEntity
  8
0
100
AcDbLine
 10
226.8936
 20
0.1355
 30
0.0
 11
229.0952
 21
0.1355
 31
0.0
  0
LINE
  5
3C7
330
1D
100
AcDbEntity
  8
0
100
AcDbLine
 10
227.9639
 20
0.1355
 30
0.0
 11
230.2495
 21
0.1355
 31
0.0
  0
LINE
  5
3C8
330
1D
100
AcDbEntity
  8
0
100
AcDbLine
 10
229.4303
 20
0.1355
 30
0.0
 11
231.4608
 21
0.1355
 31
0.0
  0
LINE
  5
3C9
330
1D
100
AcDbEntity
  8
0
100
AcDbLine
 10
229.4303
 20
0.1355
 30
0.0
 11
231.5839
 21
0.1355
 31
0.0
  0
LINE
  5
3CA
330
1D
100
AcDbEntity
  8
0
100
AcDbLine
 10
229.0952
 20
0.1355
 30
0.0
 11
231.4608
 21
0.1355
 31
0.0
  0
LINE
  5
3CB
330
1D
100
AcDbEntity
  8
0
100
AcDbLine
 10
229.2279
 20
0.1355
 30
0.0
 11
231.4608
 21
0.1355
 31
0.0
  0
LINE
  5
3CC
330
1D
100
AcDbEntity
  8
0
100
AcDbLine
 10
228.4481
 20
0.1355
 30
0.0
 11
229.0952
 21
0.1355
 31
0.0
  0
LINE
  5
3CD
330
1D
100
AcDbEntity
  8
0
100
AcDbLine
 10
228.4481
 20
0.1355
 30
0.0
 11
229.2279
 21
0.1355
 31
0.0
  0
LINE
  5
3CE
330
1D
100
AcDbEntity
  8
0
100
AcDbLine
 10
225.6932
 20
0.1355
 30
0.0
 11
228.4481
 21
0.1355
 31
0.0
  0
LINE
  5
3CF
330
1D
100
AcDbEntity
  8
0
100
AcDbLine
 10
224.8741
 20
0.1355
 30
0.0
 11
225.6932
 21
0.1355
 31
0.0
  0
LINE
  5
3D0
330
1D
100
AcDbEntity
  8
0
100
AcDbLine
 10
229.0002
 20
0.1361
 30
0.0
 11
231.8995
 21
0.1361
 31
0.0
  0
LINE
  5
3D1
330
1D
100
AcDbEntity
  8
0
100
AcDbLine
 10
236.3161
 20
0.1355
 30
0.0
 11
238.8498
 21
0.1355
 31
0.0
  0
LINE
  5
3D2
330
1D
100
AcDbEntity
  8
0
100
AcDbLine
 10
235.2558
 20
0.1355
 30
0.0
 11
237.9306
 21
0.1355
 31
0.0
  0
LINE
  5
3D3
330
1D
100
AcDbEntity
  8
0
100
AcDbLine
 10
237.9306
 20
0.1355
 30
0.0
 11
240.6893
 21
0.1355
 31
0.0
  0
LINE
  5
3D4
330
1D
100
AcDbEntity
  8
0
100
AcDbLine
 10
236.7793
 20
0.1355
 30
0.0
 11
239.3299
 21
0.1355
 31
0.0
  0
LINE
  5
3D5
330
1D
100
AcDbEntity
  8
0
100
AcDbLine
 10
236.5922
 20
0.1355
 30
0.0
 11
238.8498
 21
0.1355
 31
0.0
  0
LINE
  5
3D6
330
1D
100
AcDbEntity
  8
0
100
AcDbLine
 10
236.5922
 20
0.1355
 30
0.0
 11
239.3129
 21
0.1355
 31
0.0
  0
LINE
  5
3D7
330
1D
100
AcDbEntity
  8
0
100
AcDbLine
 10
229.8184
 20
0.1355
 30
0.0
 11
232.001
 21
0.1355
 31
0.0
  0
LINE
  5
3D8
330
1D
100
AcDbEntity
  8
0
100
AcDbLine
 10
230.2495
 20
0.1355
 30
0.0
 11
232.6872
 21
0.1355
 31
0.0
  0
LINE
  5
3D9
330
1D
100
AcDbEntity
  8
0
100
AcDbLine
 10
232.0217
 20
0.1355
 30
0.0
 11
234.9483
 21
0.1355
 31
0.0
  0
LINE
  5
3DA
330
1D
100
AcDbEntity
  8
0
100
AcDbLine
 10
233.8865
 20
0.1355
 30
0.0
 11
236.3161
 21
0.1355
 31
0.0
  0
LINE
  5
3DB
330
1D
100
AcDbEntity
  8
0
100
AcDbLine
 10
233.9675
 20
0.1355
 30
0.0
 11
236.5922
 21
0.1355
 31
0.0
  0
LINE
  5
3DC
330
1D
100
AcDbEntity
  8
0
100
AcDbLine
 10
234.3296
 20
0.1355
 30
0.0
 11
236.5922
 21
0.1355
 31
0.0
  0
LINE
  5
3DD
330
1D
100
AcDbEntity
  8
0
100
AcDbLine
 10
234.3296
 20
0.1355
 30
0.0
 11
236.7793
 21
0.1355
 31
0.0
  0
LINE
  5
3DE
330
1D
100
AcDbEntity
  8
0
100
AcDbLine
 10
232.6872
 20
0.1355
 30
0.0
 11
234.9483
 21
0.1355
 31
0.0
  0
LINE
  5
3DF
330
1D
100
AcDbEntity
  8
0
100
AcDbLine
 10
232.6872
 20
0.1355
 30
0.0
 11
234.3296
 21
0.1355
 31
0.0
  0
LINE
  5
3E0
330
1D
100
AcDbEntity
  8
0
100
AcDbLine
 10
232.6872
 20
0.1355
 30
0.0
 11
235.2558
 21
0.1355
 31
0.0
  0
LINE
  5
3E1
330
1D
100
AcDbEntity
  8
0
100
AcDbLine
 10
234.9483
 20
0.1355
 30
0.0
 11
236.5922
 21
0.1355
 31
0.0
  0
LINE
  5
3E2
330
1D
100
AcDbEntity
  8
0
100
AcDbLine
 10
238.0825
 20
0.1361
 30
0.0
 11
241.3101
 21
0.1361
 31
0.0
  0
LINE
  5
3E3
330
1D
100
AcDbEntity
  8
0
100
AcDbLine
 10
234.936
 20
0.1361
 30
0.0
 11
238.0825
 21
0.1361
 31
0.0
  0
LINE
  5
3E4
330
1D
100
AcDbEntity
  8
0
100
AcDbLine
 10
244.6273
 20
0.1355
 30
0.0
 11
247.074
 21
0.1355
 31
0.0
  0
LINE
  5
3E5
330
1D
100
AcDbEntity
  8
0
100
AcDbLine
 10
240.6893
 20
0.1355
 30
0.0
 11
243.506
 21
0.1355
 31
0.0
  0
LINE
  5
3E6
330
1D
100
AcDbEntity
  8
0
100
AcDbLine
 10
239.3299
 20
0.1355
 30
0.0
 11
241.9546
 21
0.1355
 31
0.0
  0
LINE
  5
3E7
330
1D
100
AcDbEntity
  8
0
100
AcDbLine
 10
243.506
 20
0.1355
 30
0.0
 11
246.3538
 21
0.1355
 31
0.0
  0
LINE
  5
3E8
330
1D
100
AcDbEntity
  8
0
100
AcDbLine
 10
241.9546
 20
0.1355
 30
0.0
 11
244.6273
 21
0.1355
 31
0.0
  0
LINE
  5
3E9
330
1D
100
AcDbEntity
  8
0
100
AcDbLine
 10
241.0911
 20
0.1355
 30
0.0
 11
244.2523
 21
0.1355
 31
0.0
  0
LINE
  5
3EA
330
1D
100
AcDbEntity
  8
0
100
AcDbLine
 10
244.2523
 20
0.1355
 30
0.0
 11
247.4345
 21
0.1355
 31
0.0
  0
LINE
  5
3EB
330
1D
100
AcDbEntity
  8
0
100
AcDbLine
 10
249.5207
 20
0.1355
 30
0.0
 11
252.0443
 21
0.1355
 31
0.0
  0
LINE
  5
3EC
330
1D
100
AcDbEntity
  8
0
100
AcDbLine
 10
250.642
 20
0.1355
 30
0.0
 11
253.4587
 21
0.1355
 31
0.0
  0
LINE
  5
3ED
330
1D
100
AcDbEntity
  8
0
100
AcDbLine
 10
250.0198
 20
0.1355
 30
0.0
 11
252.6865
 21
0.1355
 31
0.0
  0
LINE
  5
3EE
330
1D
100
AcDbEntity
  8
0
100
AcDbLine
 10
246.8229
 20
0.1355
 30
0.0
 11
247.074
 21
0.1355
 31
0.0
  0
LINE
  5
3EF
330
1D
100
AcDbEntity
  8
0
100
AcDbLine
 10
247.3251
 20
0.1355
 30
0.0
 11
250.0198
 21
0.1355
 31
0.0
  0
LINE
  5
3F0
330
1D
100
AcDbEntity
  8
0
100
AcDbLine
 10
247.7942
 20
0.1355
 30
0.0
 11
250.642
 21
0.1355
 31
0.0
  0
LINE
  5
3F1
330
1D
100
AcDbEntity
  8
0
100
AcDbLine
 10
247.074
 20
0.1355
 30
0.0
 11
249.2086
 21
0.1355
 31
0.0
  0
LINE
  5
3F2
330
1D
100
AcDbEntity
  8
0
100
AcDbLine
 10
247.074
 20
0.1355
 30
0.0
 11
247.7942
 21
0.1355
 31
0.0
  0
LINE
  5
3F3
330
1D
100
AcDbEntity
  8
0
100
AcDbLine
 10
249.2086
 20
0.1355
 30
0.0
 11
250.7875
 21
0.1355
 31
0.0
  0
LINE
  5
3F4
330
1D
100
AcDbEntity
  8
0
100
AcDbLine
 10
249.2086
 20
0.1355
 30
0.0
 11
252.0443
 21
0.1355
 31
0.0
  0
LINE
  5
3F5
330
1D
100
AcDbEntity
  8
0
100
AcDbLine
 10
249.2086
 20
0.1355
 30
0.0
 11
249.5207
 21
0.1355
 31
0.0
  0
LINE
  5
3F6
330
1D
100
AcDbEntity
  8
0
100
AcDbLine
 10
246.3538
 20
0.1355
 30
0.0
 11
247.074
 21
0.1355
 31
0.0
  0
LINE
  5
3F7
330
1D
100
AcDbEntity
  8
0
100
AcDbLine
 10
238.8498
 20
0.1355
 30
0.0
 11
240.6893
 21
0.1355
 31
0.0
  0
LINE
  5
3F8
330
1D
100
AcDbEntity
  8
0
100
AcDbLine
 10
239.3129
 20
0.1355
 30
0.0
 11
240.8434
 21
0.1355
 31
0.0
  0
LINE
  5
3F9
330
1D
100
AcDbEntity
  8
0
100
AcDbLine
 10
239.3129
 20
0.1355
 30
0.0
 11
240.6893
 21
0.1355
 31
0.0
  0
LINE
  5
3FA
330
1D
100
AcDbEntity
  8
0
100
AcDbLine
 10
251.1861
 20
0.1361
 30
0.0
 11
254.4437
 21
0.1361
 31
0.0
  0
LINE
  5
3FB
330
1D
100
AcDbEntity
  8
0
100
AcDbLine
 10
247.8924
 20
0.1361
 30
0.0
 11
251.1861
 21
0.1361
 31
0.0
  0
LINE
  5
3FC
330
1D
100
AcDbEntity
  8
0
100
AcDbLine
 10
252.6865
 20
0.1355
 30
0.0
 11
253.4587
 21
0.1355
 31
0.0
  0
LINE
  5
3FD
330
1D
100
AcDbEntity
  8
0
100
AcDbLine
 10
252.0443
 20
0.1355
 30
0.0
 11
253.4587
 21
0.1355
 31
0.0
  0
LINE
  5
3FE
330
1D
100
AcDbEntity
  8
0
100
AcDbLine
 10
253.4587
 20
0.1355
 30
0.0
 11
256.2174
 21
0.1355
 31
0.0
  0
LINE
  5
3FF
330
1D
100
AcDbEntity
  8
0
100
AcDbLine
 10
256.2174
 20
0.1355
 30
0.0
 11
258.8922
 21
0.1355
 31
0.0
  0
LINE
  5
400
330
1D
100
AcDbEntity
  8
0
100
AcDbLine
 10
254.4437
 20
0.1361
 30
0.0
 11
257.6353
 21
0.1361
 31
0.0
  0
LINE
  5
401
330
1D
100
AcDbEntity
  8
0
100
AcDbLine
 10
260.2615
 20
0.1355
 30
0.0
 11
262.5641
 21
0.1355
 31
0.0
  0
LINE
  5
402
330
1D
100
AcDbEntity
  8
0
100
AcDbLine
 10
260.1805
 20
0.1355
 30
0.0
 11
262.6872
 21
0.1355
 31
0.0
  0
LINE
  5
403
330
1D
100
AcDbEntity
  8
0
100
AcDbLine
 10
257.8319
 20
0.1355
 30
0.0
 11
258.8922
 21
0.1355
 31
0.0
  0
LINE
  5
404
330
1D
100
AcDbEntity
  8
0
100
AcDbLine
 10
258.8922
 20
0.1355
 30
0.0
 11
260.3951
 21
0.1355
 31
0.0
  0
LINE
  5
405
330
1D
100
AcDbEntity
  8
0
100
AcDbLine
 10
258.8922
 20
0.1355
 30
0.0
 11
261.4608
 21
0.1355
 31
0.0
  0
LINE
  5
406
330
1D
100
AcDbEntity
  8
0
100
AcDbLine
 10
261.4608
 20
0.1355
 30
0.0
 11
263.8985
 21
0.1355
 31
0.0
  0
LINE
  5
407
330
1D
100
AcDbEntity
  8
0
100
AcDbLine
 10
261.4608
 20
0.1355
 30
0.0
 11
262.147
 21
0.1355
 31
0.0
  0
LINE
  5
408
330
1D
100
AcDbEntity
  8
0
100
AcDbLine
 10
260.3951
 20
0.1355
 30
0.0
 11
262.6872
 21
0.1355
 31
0.0
  0
LINE
  5
409
330
1D
100
AcDbEntity
  8
0
100
AcDbLine
 10
260.7308
 20
0.1361
 30
0.0
 11
263.7022
 21
0.1361
 31
0.0
  0
LINE
  5
40A
330
1D
100
AcDbEntity
  8
0
100
AcDbLine
 10
263.8985
 20
0.1355
 30
0.0
 11
266.1841
 21
0.1355
 31
0.0
  0
LINE
  5
40B
330
1D
100
AcDbEntity
  8
0
100
AcDbLine
 10
263.7022
 20
0.1361
 30
0.0
 11
266.5235
 21
0.1361
 31
0.0
  0
LINE
  5
40C
330
1D
100
AcDbEntity
  8
0
100
AcDbLine
 10
257.6353
 20
0.1361
 30
0.0
 11
260.7308
 21
0.1361
 31
0.0
  0
LINE
  5
40D
330
1D
100
AcDbEntity
  8
0
100
AcDbLine
 10
260.3435
 20
0.1361
 30
0.0
 11
263.2308
 21
0.1361
 31
0.0
  0
LINE
  5
40E
330
1D
100
AcDbEntity
  8
0
100
AcDbLine
 10
257.336
 20
0.1361
 30
0.0
 11
260.3435
 21
0.1361
 31
0.0
  0
LINE
  5
40F
330
1D
100
AcDbEntity
  8
0
100
AcDbLine
 10
254.2355
 20
0.1361
 30
0.0
 11
257.336
 21
0.1361
 31
0.0
  0
LINE
  5
410
330
1D
100
AcDbEntity
  8
0
100
AcDbLine
 10
251.1861
 20
0.1361
 30
0.0
 11
254.2355
 21
0.1361
 31
0.0
  0
LINE
  5
411
330
1D
100
AcDbEntity
  8
0
100
AcDbLine
 10
241.3101
 20
0.1361
 30
0.0
 11
244.5898
 21
0.1361
 31
0.0
  0
LINE
  5
412
330
1D
100
AcDbEntity
  8
0
100
AcDbLine
 10
244.5898
 20
0.1361
 30
0.0
 11
247.8924
 21
0.1361
 31
0.0
  0
LINE
  5
413
330
1D
100
AcDbEntity
  8
0
100
AcDbLine
 10
241.4732
 20
0.1361
 30
0.0
 11
244.5898
 21
0.1361
 31
0.0
  0
LINE
  5
414
330
1D
100
AcDbEntity
  8
0
100
AcDbLine
 10
231.8995
 20
0.1361
 30
0.0
 11
234.936
 21
0.1361
 31
0.0
  0
LINE
  5
415
330
1D
100
AcDbEntity
  8
0
100
AcDbLine
 10
229.5126
 20
0.1361
 30
0.0
 11
231.8995
 21
0.1361
 31
0.0
  0
LINE
  5
416
330
1D
100
AcDbEntity
  8
0
100
AcDbLine
 10
226.265
 20
0.1361
 30
0.0
 11
229.0002
 21
0.1361
 31
0.0
  0
LINE
  5
417
330
1D
100
AcDbEntity
  8
0
100
AcDbLine
 10
226.8554
 20
0.1361
 30
0.0
 11
229.5126
 21
0.1361
 31
0.0
  0
LINE
  5
418
330
1D
100
AcDbEntity
  8
0
100
AcDbLine
 10
224.3805
 20
0.1361
 30
0.0
 11
226.8554
 21
0.1361
 31
0.0
  0
LINE
  5
419
330
1D
100
AcDbEntity
  8
0
100
AcDbLine
 10
223.4987
 20
9.3084
 30
0.0
 11
225.5624
 21
9.3084
 31
0.0
  0
LINE
  5
41E
330
1D
100
AcDbEntity
  8
0
100
AcDbLine
 10
259.6859
 20
9.3084
 30
0.0
 11
262.218
 21
9.3084
 31
0.0
  0
LINE
  5
41F
330
1D
100
AcDbEntity
  8
0
100
AcDbLine
 10
262.7714
 20
9.3084
 30
0.0
 11
265.4976
 21
9.3084
 31
0.0
  0
LINE
  5
420
330
1D
100
AcDbEntity
  8
0
100
AcDbLine
 10
259.815
 20
9.3084
 30
0.0
 11
262.7714
 21
9.3084
 31
0.0
  0
LINE
  5
421
330
1D
100
AcDbEntity
  8
0
100
AcDbLine
 10
264.5939
 20
9.3084
 30
0.0
 11
266.7887
 21
9.3084
 31
0.0
  0
LINE
  5
422
330
1D
100
AcDbEntity
  8
0
100
AcDbLine
 10
265.4976
 20
9.3084
 30
0.0
 11
267.9566
 21
9.3084
 31
0.0
  0
LINE
  5
423
330
1D
100
AcDbEntity
  8
0
100
AcDbLine
 10
239.892
 20
9.3084
 30
0.0
 11
242.7343
 21
9.3084
 31
0.0
  0
LINE
  5
424
330
1D
100
AcDbEntity
  8
0
100
AcDbLine
 10
245.6216
 20
9.3084
 30
0.0
 11
248.5239
 21
9.3084
 31
0.0
  0
LINE
  5
425
330
1D
100
AcDbEntity
  8
0
100
AcDbLine
 10
242.7343
 20
9.3084
 30
0.0
 11
245.6216
 21
9.3084
 31
0.0
  0
LINE
  5
426
330
1D
100
AcDbEntity
  8
0
100
AcDbLine
 10
248.5239
 20
9.3084
 30
0.0
 11
251.4113
 21
9.3084
 31
0.0
  0
LINE
  5
427
330
1D
100
AcDbEntity
  8
0
100
AcDbLine
 10
254.2536
 20
9.3084
 30
0.0
 11
257.0208
 21
9.3084
 31
0.0
  0
LINE
  5
428
330
1D
100
AcDbEntity
  8
0
100
AcDbLine
 10
251.4113
 20
9.3084
 30
0.0
 11
254.2536
 21
9.3084
 31
0.0
  0
LINE
  5
429
330
1D
100
AcDbEntity
  8
0
100
AcDbLine
 10
250.0181
 20
9.3084
 30
0.0
 11
253.3909
 21
9.3084
 31
0.0
  0
LINE
  5
42A
330
1D
100
AcDbEntity
  8
0
100
AcDbLine
 10
246.6004
 20
9.3084
 30
0.0
 11
250.0181
 21
9.3084
 31
0.0
  0
LINE
  5
42B
330
1D
100
AcDbEntity
  8
0
100
AcDbLine
 10
239.8369
 20
9.3084
 30
0.0
 11
243.1906
 21
9.3084
 31
0.0
  0
LINE
  5
42C
330
1D
100
AcDbEntity
  8
0
100
AcDbLine
 10
243.1906
 20
9.3084
 30
0.0
 11
246.6004
 21
9.3084
 31
0.0
  0
LINE
  5
42D
330
1D
100
AcDbEntity
  8
0
100
AcDbLine
 10
256.6735
 20
9.3084
 30
0.0
 11
259.815
 21
9.3084
 31
0.0
  0
LINE
  5
42E
330
1D
100
AcDbEntity
  8
0
100
AcDbLine
 10
253.3909
 20
9.3084
 30
0.0
 11
256.6735
 21
9.3084
 31
0.0
  0
LINE
  5
42F
330
1D
100
AcDbEntity
  8
0
100
AcDbLine
 10
258.0636
 20
9.3084
 30
0.0
 11
260.6017
 21
9.3084
 31
0.0
  0
LINE
  5
430
330
1D
100
AcDbEntity
  8
0
100
AcDbLine
 10
257.0208
 20
9.3084
 30
0.0
 11
258.0636
 21
9.3084
 31
0.0
  0
LINE
  5
431
330
1D
100
AcDbEntity
  8
0
100
AcDbLine
 10
257.0208
 20
9.3084
 30
0.0
 11
259.6859
 21
9.3084
 31
0.0
  0
LINE
  5
432
330
1D
100
AcDbEntity
  8
0
100
AcDbLine
 10
262.218
 20
9.3084
 30
0.0
 11
264.5939
 21
9.3084
 31
0.0
  0
LINE
  5
433
330
1D
100
AcDbEntity
  8
0
100
AcDbLine
 10
237.1237
 20
9.3084
 30
0.0
 11
239.892
 21
9.3084
 31
0.0
  0
LINE
  5
434
330
1D
100
AcDbEntity
  8
0
100
AcDbLine
 10
225.5624
 20
9.3084
 30
0.0
 11
227.9403
 21
9.3084
 31
0.0
  0
LINE
  5
435
330
1D
100
AcDbEntity
  8
0
100
AcDbLine
 10
225.3682
 20
9.3084
 30
0.0
 11
227.3579
 21
9.3084
 31
0.0
  0
LINE
  5
436
330
1D
100
AcDbEntity
  8
0
100
AcDbLine
 10
227.3579
 20
9.3084
 30
0.0
 11
229.5516
 21
9.3084
 31
0.0
  0
LINE
  5
437
330
1D
100
AcDbEntity
  8
0
100
AcDbLine
 10
229.5516
 20
9.3084
 30
0.0
 11
231.9265
 21
9.3084
 31
0.0
  0
LINE
  5
438
330
1D
100
AcDbEntity
  8
0
100
AcDbLine
 10
231.9265
 20
9.3084
 30
0.0
 11
234.4606
 21
9.3084
 31
0.0
  0
LINE
  5
439
330
1D
100
AcDbEntity
  8
0
100
AcDbLine
 10
230.5975
 20
9.3084
 30
0.0
 11
233.4948
 21
9.3084
 31
0.0
  0
LINE
  5
43A
330
1D
100
AcDbEntity
  8
0
100
AcDbLine
 10
227.9403
 20
9.3084
 30
0.0
 11
230.5975
 21
9.3084
 31
0.0
  0
LINE
  5
43B
330
1D
100
AcDbEntity
  8
0
100
AcDbLine
 10
234.4606
 20
9.3084
 30
0.0
 11
237.1237
 21
9.3084
 31
0.0
  0
LINE
  5
43C
330
1D
100
AcDbEntity
  8
0
100
AcDbLine
 10
233.4948
 20
9.3084
 30
0.0
 11
236.5893
 21
9.3084
 31
0.0
  0
LINE
  5
43D
330
1D
100
AcDbEntity
  8
0
100
AcDbLine
 10
236.5893
 20
9.3084
 30
0.0
 11
239.8369
 21
9.3084
 31
0.0
  0
LINE
  5
43E
330
1D
100
AcDbEntity
  8
0
100
AcDbLine
 10
223.6048
 20
9.3084
 30
0.0
 11
225.3682
 21
9.3084
 31
0.0
  0
LINE
  5
43F
330
1D
100
AcDbEntity
  8
0
100
AcDbLine
 10
266.1841
 20
0.1355
 30
0.0
 11
268.2977
 21
0.1355
 31
0.0
  0
LINE
  5
440
330
1D
100
AcDbEntity
  8
0
100
AcDbLine
 10
271.4505
 20
0.1355
 30
0.0
 11
272.5828
 21
0.1355
 31
0.0
  0
LINE
  5
441
330
1D
100
AcDbEntity
  8
0
100
AcDbLine
 10
271.2144
 20
0.1355
 30
0.0
 11
272.3907
 21
0.1355
 31
0.0
  0
LINE
  5
442
330
1D
100
AcDbEntity
  8
0
100
AcDbLine
 10
268.4957
 20
0.1355
 30
0.0
 11
270.0831
 21
0.1355
 31
0.0
  0
LINE
  5
443
330
1D
100
AcDbEntity
  8
0
100
AcDbLine
 10
268.1776
 20
0.1355
 30
0.0
 11
269.8051
 21
0.1355
 31
0.0
  0
LINE
  5
444
330
1D
100
AcDbEntity
  8
0
100
AcDbLine
 10
267.2544
 20
0.1355
 30
0.0
 11
269.2739
 21
0.1355
 31
0.0
  0
LINE
  5
445
330
1D
100
AcDbEntity
  8
0
100
AcDbLine
 10
268.2977
 20
0.1355
 30
0.0
 11
270.2172
 21
0.1355
 31
0.0
  0
LINE
  5
446
330
1D
100
AcDbEntity
  8
0
100
AcDbLine
 10
270.0831
 20
0.1355
 30
0.0
 11
271.4505
 21
0.1355
 31
0.0
  0
LINE
  5
447
330
1D
100
AcDbEntity
  8
0
100
AcDbLine
 10
270.2172
 20
0.1355
 30
0.0
 11
271.9286
 21
0.1355
 31
0.0
  0
LINE
  5
448
330
1D
100
AcDbEntity
  8
0
100
AcDbLine
 10
269.8051
 20
0.1355
 30
0.0
 11
271.2144
 21
0.1355
 31
0.0
  0
LINE
  5
449
330
1D
100
AcDbEntity
  8
0
100
AcDbLine
 10
269.2739
 20
0.1355
 30
0.0
 11
271.3486
 21
0.1355
 31
0.0
  0
LINE
  5
44A
330
1D
100
AcDbEntity
  8
0
100
AcDbLine
 10
269.2739
 20
0.1355
 30
0.0
 11
270.2172
 21
0.1355
 31
0.0
  0
LINE
  5
44B
330
1D
100
AcDbEntity
  8
0
100
AcDbLine
 10
271.3486
 20
0.1355
 30
0.0
 11
273.5843
 21
0.1355
 31
0.0
  0
LINE
  5
44C
330
1D
100
AcDbEntity
  8
0
100
AcDbLine
 10
266.2263
 20
0.1355
 30
0.0
 11
268.8873
 21
0.1355
 31
0.0
  0
LINE
  5
44D
330
1D
100
AcDbEntity
  8
0
100
AcDbLine
 10
269.1676
 20
0.1361
 30
0.0
 11
271.6126
 21
0.1361
 31
0.0
  0
LINE
  5
44E
330
1D
100
AcDbEntity
  8
0
100
AcDbLine
 10
275.6586
 20
0.1355
 30
0.0
 11
276.3968
 21
0.1355
 31
0.0
  0
LINE
  5
44F
330
1D
100
AcDbEntity
  8
0
100
AcDbLine
 10
272.5828
 20
0.1355
 30
0.0
 11
273.414
 21
0.1355
 31
0.0
  0
LINE
  5
450
330
1D
100
AcDbEntity
  8
0
100
AcDbLine
 10
272.3907
 20
0.1355
 30
0.0
 11
273.323
 21
0.1355
 31
0.0
  0
LINE
  5
451
330
1D
100
AcDbEntity
  8
0
100
AcDbLine
 10
273.323
 20
0.1355
 30
0.0
 11
274.0032
 21
0.1355
 31
0.0
  0
LINE
  5
452
330
1D
100
AcDbEntity
  8
0
100
AcDbLine
 10
273.469
 20
0.1355
 30
0.0
 11
274.1012
 21
0.1355
 31
0.0
  0
LINE
  5
453
330
1D
100
AcDbEntity
  8
0
100
AcDbLine
 10
273.414
 20
0.1355
 30
0.0
 11
274.6614
 21
0.1355
 31
0.0
  0
LINE
  5
454
330
1D
100
AcDbEntity
  8
0
100
AcDbLine
 10
273.414
 20
0.1355
 30
0.0
 11
274.0632
 21
0.1355
 31
0.0
  0
LINE
  5
455
330
1D
100
AcDbEntity
  8
0
100
AcDbLine
 10
271.9286
 20
0.1355
 30
0.0
 11
273.414
 21
0.1355
 31
0.0
  0
LINE
  5
456
330
1D
100
AcDbEntity
  8
0
100
AcDbLine
 10
272.43
 20
0.1355
 30
0.0
 11
274.3371
 21
0.1355
 31
0.0
  0
LINE
  5
457
330
1D
100
AcDbEntity
  8
0
100
AcDbLine
 10
274.4233
 20
0.1355
 30
0.0
 11
274.5793
 21
0.1355
 31
0.0
  0
LINE
  5
458
330
1D
100
AcDbEntity
  8
0
100
AcDbLine
 10
274.0032
 20
0.1355
 30
0.0
 11
274.4233
 21
0.1355
 31
0.0
  0
LINE
  5
459
330
1D
100
AcDbEntity
  8
0
100
AcDbLine
 10
274.4723
 20
0.1355
 30
0.0
 11
274.5793
 21
0.1355
 31
0.0
  0
LINE
  5
45A
330
1D
100
AcDbEntity
  8
0
100
AcDbLine
 10
275.1885
 20
0.1355
 30
0.0
 11
276.0587
 21
0.1355
 31
0.0
  0
LINE
  5
45B
330
1D
100
AcDbEntity
  8
0
100
AcDbLine
 10
274.6614
 20
0.1355
 30
0.0
 11
275.6586
 21
0.1355
 31
0.0
  0
LINE
  5
45C
330
1D
100
AcDbEntity
  8
0
100
AcDbLine
 10
274.0632
 20
0.1355
 30
0.0
 11
275.1885
 21
0.1355
 31
0.0
  0
LINE
  5
45D
330
1D
100
AcDbEntity
  8
0
100
AcDbLine
 10
273.5843
 20
0.1355
 30
0.0
 11
275.5773
 21
0.1355
 31
0.0
  0
LINE
  5
45E
330
1D
100
AcDbEntity
  8
0
100
AcDbLine
 10
275.5773
 20
0.1355
 30
0.0
 11
276.3968
 21
0.1355
 31
0.0
  0
LINE
  5
45F
330
1D
100
AcDbEntity
  8
0
100
AcDbLine
 10
276.3968
 20
0.1355
 30
0.0
 11
276.8699
 21
0.1355
 31
0.0
  0
LINE
  5
460
330
1D
100
AcDbEntity
  8
0
100
AcDbLine
 10
276.0587
 20
0.1355
 30
0.0
 11
276.6649
 21
0.1355
 31
0.0
  0
LINE
  5
461
330
1D
100
AcDbEntity
  8
0
100
AcDbLine
 10
276.6649
 20
0.1355
 30
0.0
 11
277.005
 21
0.1355
 31
0.0
  0
LINE
  5
462
330
1D
100
AcDbEntity
  8
0
100
AcDbLine
 10
275.9926
 20
0.1355
 30
0.0
 11
276.6649
 21
0.1355
 31
0.0
  0
LINE
  5
463
330
1D
100
AcDbEntity
  8
0
100
AcDbLine
 10
275.816
 20
0.1361
 30
0.0
 11
277.5353
 21
0.1361
 31
0.0
  0
LINE
  5
464
330
1D
100
AcDbEntity
  8
0
100
AcDbLine
 10
279.9217
 20
0.1355
 30
0.0
 11
280.7825
 21
0.1355
 31
0.0
  0
LINE
  5
465
330
1D
100
AcDbEntity
  8
0
100
AcDbLine
 10
276.8699
 20
0.1355
 30
0.0
 11
277.074
 21
0.1355
 31
0.0
  0
LINE
  5
466
330
1D
100
AcDbEntity
  8
0
100
AcDbLine
 10
277.074
 20
0.1355
 30
0.0
 11
277.3077
 21
0.1355
 31
0.0
  0
LINE
  5
467
330
1D
100
AcDbEntity
  8
0
100
AcDbLine
 10
277.005
 20
0.1355
 30
0.0
 11
277.3835
 21
0.1355
 31
0.0
  0
LINE
  5
468
330
1D
100
AcDbEntity
  8
0
100
AcDbLine
 10
277.005
 20
0.1355
 30
0.0
 11
277.074
 21
0.1355
 31
0.0
  0
LINE
  5
469
330
1D
100
AcDbEntity
  8
0
100
AcDbLine
 10
277.3077
 20
0.1355
 30
0.0
 11
278.7605
 21
0.1355
 31
0.0
  0
LINE
  5
46A
330
1D
100
AcDbEntity
  8
0
100
AcDbLine
 10
277.3835
 20
0.1355
 30
0.0
 11
278.4949
 21
0.1355
 31
0.0
  0
LINE
  5
46B
330
1D
100
AcDbEntity
  8
0
100
AcDbLine
 10
278.7605
 20
0.1355
 30
0.0
 11
279.3186
 21
0.1355
 31
0.0
  0
LINE
  5
46C
330
1D
100
AcDbEntity
  8
0
100
AcDbLine
 10
278.7605
 20
0.1355
 30
0.0
 11
279.9217
 21
0.1355
 31
0.0
  0
LINE
  5
46D
330
1D
100
AcDbEntity
  8
0
100
AcDbLine
 10
279.8459
 20
0.1355
 30
0.0
 11
279.9217
 21
0.1355
 31
0.0
  0
LINE
  5
46E
330
1D
100
AcDbEntity
  8
0
100
AcDbLine
 10
280.1344
 20
0.1361
 30
0.0
 11
280.9901
 21
0.1361
 31
0.0
  0
LINE
  5
46F
330
1D
100
AcDbEntity
  8
0
100
AcDbLine
 10
278.9785
 20
0.1361
 30
0.0
 11
280.1344
 21
0.1361
 31
0.0
  0
LINE
  5
470
330
1D
100
AcDbEntity
  8
0
100
AcDbLine
 10
281.3326
 20
0.1355
 30
0.0
 11
281.5693
 21
0.1355
 31
0.0
  0
LINE
  5
471
330
1D
100
AcDbEntity
  8
0
100
AcDbLine
 10
280.7825
 20
0.1355
 30
0.0
 11
281.3326
 21
0.1355
 31
0.0
  0
LINE
  5
472
330
1D
100
AcDbEntity
  8
0
100
AcDbLine
 10
281.7748
 20
0.1361
 30
0.0
 11
281.9289
 21
0.179
 31
0.0
  0
LINE
  5
473
330
1D
100
AcDbEntity
  8
0
100
AcDbLine
 10
280.9901
 20
0.1361
 30
0.0
 11
281.5386
 21
0.1361
 31
0.0
  0
LINE
  5
474
330
1D
100
AcDbEntity
  8
0
100
AcDbLine
 10
281.5386
 20
0.1361
 30
0.0
 11
281.7748
 21
0.1361
 31
0.0
  0
LINE
  5
475
330
1D
100
AcDbEntity
  8
0
100
AcDbLine
 10
281.7551
 20
0.1361
 30
0.0
 11
281.9092
 21
0.179
 31
0.0
  0
LINE
  5
476
330
1D
100
AcDbEntity
  8
0
100
AcDbLine
 10
277.5353
 20
0.1361
 30
0.0
 11
278.9785
 21
0.1361
 31
0.0
  0
LINE
  5
477
330
1D
100
AcDbEntity
  8
0
100
AcDbLine
 10
276.6716
 20
0.1361
 30
0.0
 11
277.5353
 21
0.1361
 31
0.0
  0
LINE
  5
478
330
1D
100
AcDbEntity
  8
0
100
AcDbLine
 10
273.8354
 20
0.1361
 30
0.0
 11
275.816
 21
0.1361
 31
0.0
  0
LINE
  5
479
330
1D
100
AcDbEntity
  8
0
100
AcDbLine
 10
275.816
 20
0.1361
 30
0.0
 11
276.6716
 21
0.1361
 31
0.0
  0
LINE
  5
47A
330
1D
100
AcDbEntity
  8
0
100
AcDbLine
 10
271.6126
 20
0.1361
 30
0.0
 11
273.8354
 21
0.1361
 31
0.0
  0
LINE
  5
47B
330
1D
100
AcDbEntity
  8
0
100
AcDbLine
 10
266.7887
 20
9.3084
 30
0.0
 11
268.7773
 21
9.3084
 31
0.0
  0
LINE
  5
47C
330
1D
100
AcDbEntity
  8
0
100
AcDbLine
 10
270.1103
 20
9.3084
 30
0.0
 11
271.9288
 21
9.3084
 31
0.0
  0
LINE
  5
47D
330
1D
100
AcDbEntity
  8
0
100
AcDbLine
 10
272.0599
 20
9.3084
 30
0.0
 11
273.2979
 21
9.3084
 31
0.0
  0
LINE
  5
47E
330
1D
100
AcDbEntity
  8
0
100
AcDbLine
 10
270.5407
 20
9.3084
 30
0.0
 11
272.0599
 21
9.3084
 31
0.0
  0
LINE
  5
47F
330
1D
100
AcDbEntity
  8
0
100
AcDbLine
 10
268.7773
 20
9.3084
 30
0.0
 11
270.5407
 21
9.3084
 31
0.0
  0
LINE
  5
482
330
1D
100
AcDbEntity
  8
0
100
AcDbLine
 10
266.5235
 20
0.1361
 30
0.0
 11
269.1676
 21
0.1361
 31
0.0
  0
LINE
  5
483
330
1D
100
AcDbEntity
  8
0
100
AcDbLine
 10
267.9566
 20
9.3084
 30
0.0
 11
270.1103
 21
9.3084
 31
0.0
  0
LINE
  5
485
330
1D
100
AcDbEntity
  8
0
100
AcDbLine
 10
273.384
 20
9.3084
 30
0.0
 11
274.4559
 21
9.3084
 31
0.0
  0
LINE
  5
487
330
1D
100
AcDbEntity
  8
0
100
AcDbLine
 10
273.2979
 20
9.3084
 30
0.0
 11
274.2737
 21
9.3084
 31
0.0
  0
LINE
  5
488
330
1D
100
AcDbEntity
  8
0
100
AcDbLine
 10
271.9288
 20
9.3084
 30
0.0
 11
273.384
 21
9.3084
 31
0.0
  0
LINE
  5
48B
330
1D
100
AcDbEntity
  8
0
100
AcDbLine
 10
279.8342
 20
9.0841
 30
0.0
 11
280.5348
 21
8.9146
 31
0.0
  0
LINE
  5
48C
330
1D
100
AcDbEntity
  8
0
100
AcDbLine
 10
280.5348
 20
8.9146
 30
0.0
 11
281.1362
 21
8.5028
 31
0.0
  0
LINE
  5
48F
330
1D
100
AcDbEntity
  8
0
100
AcDbLine
 10
274.4559
 20
9.3084
 30
0.0
 11
275.1284
 21
9.3084
 31
0.0
  0
LINE
  5
490
330
1D
100
AcDbEntity
  8
0
100
AcDbLine
 10
275.1284
 20
9.3084
 30
0.0
 11
275.3916
 21
9.3084
 31
0.0
  0
LINE
  5
492
330
1D
100
AcDbEntity
  8
0
100
AcDbLine
 10
280.9851
 20
9.24045
 30
0.0
 11
281.4175
 21
8.5921
 31
0.0
  0
LINE
  5
493
330
1D
100
AcDbEntity
  8
0
100
AcDbLine
 10
275.5457
 20
9.3084
 30
0.0
 11
279.8342
 21
9.0841
 31
0.0
  0
LINE
  5
496
330
1D
100
AcDbEntity
  8
0
100
AcDbLine
 10
274.2737
 20
9.3084
 30
0.0
 11
274.9783
 21
9.3084
 31
0.0
  0
LINE
  5
497
330
1D
100
AcDbEntity
  8
0
100
AcDbLine
 10
271.4584
 20
9.3602
 30
0.0
 11
272.5883
 21
9.3084
 31
0.0
  0
LINE
  5
498
330
1D
100
AcDbEntity
  8
0
100
AcDbLine
 10
274.9783
 20
9.3084
 30
0.0
 11
275.4036
 21
9.3084
 31
0.0
  0
LINE
  5
499
330
1D
100
AcDbEntity
  8
0
100
AcDbLine
 10
281.5496
 20
7.9046
 30
0.0
 11
281.7197
 21
7.1978
 31
0.0
  0
LINE
  5
49A
330
1D
100
AcDbEntity
  8
0
100
AcDbLine
 10
281.9289
 20
0.179
 30
0.0
 11
282.039
 21
0.2946
 31
0.0
  0
LINE
  5
49B
330
1D
100
AcDbEntity
  8
0
100
AcDbLine
 10
282.039
 20
0.2946
 30
0.0
 11
282.074
 21
0.4512
 31
0.0
  0
LINE
  5
49C
330
1D
100
AcDbEntity
  8
0
100
AcDbLine
 10
281.7197
 20
7.1978
 30
0.0
 11
282.074
 21
0.4512
 31
0.0
  0
LINE
  5
49D
330
1D
100
AcDbEntity
  8
0
100
AcDbLine
 10
281.7197
 20
7.1978
 30
0.0
 11
282.074
 21
0.4512
 31
0.0
  0
LINE
  5
49E
330
1D
100
AcDbEntity
  8
0
100
AcDbLine
 10
281.4175
 20
8.5921
 30
0.0
 11
281.5693
 21
7.82786
 31
0.0
  0
LINE
  5
49F
330
1D
100
AcDbEntity
  8
0
100
AcDbLine
 10
281.1362
 20
8.5028
 30
0.0
 11
281.5496
 21
7.9046
 31
0.0
  0
LINE
  5
4A0
330
1D
100
AcDbEntity
  8
0
100
AcDbLine
 10
268.5411
 20
0.1361
 30
0.0
 11
270.916
 21
0.1361
 31
0.0
  0
LINE
  5
4A1
330
1D
100
AcDbEntity
  8
0
100
AcDbLine
 10
265.972
 20
0.1361
 30
0.0
 11
268.5411
 21
0.1361
 31
0.0
  0
LINE
  5
4A6
330
1D
100
AcDbEntity
  8
0
100
AcDbLine
 10
227.640403105799
 20
54.538474450688
 30
0.0
 11
227.6941
 21
54.5835
 31
0.0
  0
LINE
  5
4A8
330
1D
100
AcDbEntity
  8
0
100
AcDbLine
 10
269.4538
 20
9.7889
 30
0.0
 11
270.7138
 21
9.4699
 31
0.0
  0
LINE
  5
4A9
330
1D
100
AcDbEntity
  8
0
100
AcDbLine
 10
232.154062883337
 20
50.836788586641
 30
0.0
 11
232.155
 21
51.1985
 31
0.0
  0
LINE
  5
4AA
330
1D
100
AcDbEntity
  8
0
100
AcDbLine
 10
232.154062883337
 20
50.836788586641
 30
0.0
 11
232.155
 21
51.1985
 31
0.0
  0
LINE
  5
4AB
330
1D
100
AcDbEntity
  8
0
100
AcDbLine
 10
232.155
 20
51.1985
 30
0.0
 11
232.161
 21
51.3602
 31
0.0
  0
LINE
  5
4AC
330
1D
100
AcDbEntity
  8
0
100
AcDbLine
 10
261.993
 20
51.1985
 30
0.0
 11
261.999
 21
48.8826
 31
0.0
  0
LINE
  5
4AD
330
1D
100
AcDbEntity
  8
0
100
AcDbLine
 10
261.987116240611
 20
51.418117714595
 30
0.0
 11
261.994
 21
54.848
 31
0.0
  0
LINE
  5
4AE
330
1D
100
AcDbEntity
  8
0
100
AcDbLine
 10
261.987
 20
51.3602
 30
0.0
 11
261.993
 21
51.1985
 31
0.0
  0
LINE
  5
4AF
330
1D
100
AcDbEntity
  8
0
100
AcDbLine
 10
261.999
 20
48.8826
 30
0.0
 11
262.056345345227
 21
15.312097291424
 31
0.0
  0
LINE
  5
4B2
330
1D
100
AcDbEntity
  8
0
100
AcDbLine
 10
267.4232
 20
10.6354
 30
0.0
 11
268.445
 21
10.1598
 31
0.0
  0
LINE
  5
4B5
330
1D
100
AcDbEntity
  8
0
100
AcDbLine
 10
270.472750982376
 20
9.91807
 30
0.0
 11
270.6337
 21
10.08262
 31
0.0
  0
LINE
  5
4B8
330
1D
100
AcDbEntity
  8
0
100
AcDbLine
 10
270.6352
 20
10.08871
 30
0.0
 11
270.6956
 21
10.3374
 31
0.0
  0
LINE
  5
4BD
330
1D
100
AcDbEntity
  8
0
100
AcDbLine
 10
268.445
 20
10.1598
 30
0.0
 11
269.4538
 21
9.7889
 31
0.0
  0
LINE
  5
4BE
330
1D
100
AcDbEntity
  8
0
100
AcDbLine
 10
263.3799
 20
13.753
 30
0.0
 11
263.9644
 21
13.1368
 31
0.0
  0
LINE
  5
4BF
330
1D
100
AcDbEntity
  8
0
100
AcDbLine
 10
263.9644
 20
13.1368
 30
0.0
 11
264.9392
 21
12.2625
 31
0.0
  0
LINE
  5
4C0
330
1D
100
AcDbEntity
  8
0
100
AcDbLine
 10
270.412
 20
14.3804
 30
0.0
 11
270.4639
 21
13.5712
 31
0.0
  0
LINE
  5
4C1
330
1D
100
AcDbEntity
  8
0
100
AcDbLine
 10
270.4639
 20
13.5712
 30
0.0
 11
270.5308
 21
12.8429
 31
0.0
  0
LINE
  5
4C3
330
1D
100
AcDbEntity
  8
0
100
AcDbLine
 10
270.5987
 20
12.3194
 30
0.0
 11
270.6587
 21
11.9228
 31
0.0
  0
LINE
  5
4C4
330
1D
100
AcDbEntity
  8
0
100
AcDbLine
 10
270.6587
 20
11.9228
 30
0.0
 11
270.6956
 21
10.3374
 31
0.0
  0
LINE
  5
4C5
330
1D
100
AcDbEntity
  8
0
100
AcDbLine
 10
270.5308
 20
12.8429
 30
0.0
 11
270.5987
 21
12.3194
 31
0.0
  0
LINE
  5
4C6
330
1D
100
AcDbEntity
  8
0
100
AcDbLine
 10
270.456
 20
17.6821
 30
0.0
 11
270.5059
 21
18.2655
 31
0.0
  0
LINE
  5
4C7
330
1D
100
AcDbEntity
  8
0
100
AcDbLine
 10
270.3911
 20
16.4153
 30
0.0
 11
270.456
 21
17.6821
 31
0.0
  0
LINE
  5
4C8
330
1D
100
AcDbEntity
  8
0
100
AcDbLine
 10
270.3811
 20
15.4173
 30
0.0
 11
270.3911
 21
16.4153
 31
0.0
  0
LINE
  5
4C9
330
1D
100
AcDbEntity
  8
0
100
AcDbLine
 10
270.3811
 20
15.4173
 30
0.0
 11
270.412
 21
14.3804
 31
0.0
  0
LINE
  5
4CB
330
1D
100
AcDbEntity
  8
0
100
AcDbLine
 10
266.1131
 20
11.4021
 30
0.0
 11
267.4232
 21
10.6354
 31
0.0
  0
LINE
  5
4CC
330
1D
100
AcDbEntity
  8
0
100
AcDbLine
 10
264.9392
 20
12.2625
 30
0.0
 11
266.1131
 21
11.4021
 31
0.0
  0
LINE
  5
4CD
330
1D
100
AcDbEntity
  8
0
100
AcDbLine
 10
262.9139
 20
14.2933
 30
0.0
 11
263.372060686977
 21
13.760866977761
 31
0.0
  0
LINE
  5
4D1
330
1D
100
AcDbEntity
  8
0
100
AcDbLine
 10
232.154
 20
54.848
 30
0.0
 11
232.160883759389
 21
51.418117714594
 31
0.0
  0
LINE
  5
4D2
330
1D
100
AcDbEntity
  8
0
100
AcDbLine
 10
232.154
 20
54.848
 30
0.0
 11
232.168
 21
57.8457
 31
0.0
  0
LINE
  5
4F5
330
1D
100
AcDbEntity
  8
0
100
AcDbLine
 10
232.158
 20
58.7131
 30
0.0
 11
232.168
 21
57.8457
 31
0.0
  0
LINE
  5
4F6
330
1D
100
AcDbEntity
  8
0
100
AcDbLine
 10
232.158
 20
58.7131
 30
0.0
 11
232.184
 21
61.7188
 31
0.0
  0
LINE
  5
4F7
330
1D
100
AcDbEntity
  8
0
100
AcDbLine
 10
232.4741
 20
63.0763
 30
0.0
 11
232.6522
 21
63.818
 31
0.0
  0
LINE
  5
4F8
330
1D
100
AcDbEntity
  8
0
100
AcDbLine
 10
232.2671
 20
62.1939
 30
0.0
 11
232.4741
 21
63.0763
 31
0.0
  0
LINE
  5
4F9
330
1D
100
AcDbEntity
  8
0
100
AcDbLine
 10
232.184
 20
61.7188
 30
0.0
 11
232.2671
 21
62.1939
 31
0.0
  0
LINE
  5
520
330
1D
100
AcDbEntity
  8
0
100
AcDbLine
 10
261.98
 20
57.8457
 30
0.0
 11
261.994
 21
54.848
 31
0.0
  0
LINE
  5
521
330
1D
100
AcDbEntity
  8
0
100
AcDbLine
 10
261.98
 20
57.8457
 30
0.0
 11
261.99
 21
58.7131
 31
0.0
  0
LINE
  5
528
330
1D
100
AcDbEntity
  8
0
100
AcDbLine
 10
261.964
 20
61.7188
 30
0.0
 11
261.99
 21
58.7131
 31
0.0
  0
LINE
  5
529
330
1D
100
AcDbEntity
  8
0
100
AcDbLine
 10
261.8809
 20
62.1939
 30
0.0
 11
261.964
 21
61.7188
 31
0.0
  0
LINE
  5
52E
330
1D
100
AcDbEntity
  8
0
100
AcDbLine
 10
261.6739
 20
63.0763
 30
0.0
 11
261.8809
 21
62.1939
 31
0.0
  0
LINE
  5
538
330
1D
100
AcDbEntity
  8
0
100
AcDbLine
 10
232.6522
 20
63.818
 30
0.0
 11
234.0055
 21
69.8652
 31
0.0
  0
LINE
  5
54B
330
1D
100
AcDbEntity
  8
0
100
AcDbLine
 10
234.0055
 20
69.8652
 30
0.0
 11
234.8527
 21
73.8661
 31
0.0
  0
LINE
  5
561
330
1D
100
AcDbEntity
  8
0
100
AcDbLine
 10
244.7344
 20
71.676
 30
0.0
 11
245.9487
 21
71.7479
 31
0.0
  0
LINE
  5
565
330
1D
100
AcDbEntity
  8
0
100
AcDbLine
 10
245.9487
 20
71.7479
 30
0.0
 11
247.0738
 21
71.679
 31
0.0
  0
LINE
  5
56C
330
1D
100
AcDbEntity
  8
0
100
AcDbLine
 10
247.0742
 20
71.679
 30
0.0
 11
248.1993
 21
71.7479
 31
0.0
  0
LINE
  5
570
330
1D
100
AcDbEntity
  8
0
100
AcDbLine
 10
234.8527
 20
73.8661
 30
0.0
 11
235.1228
 21
74.8543
 31
0.0
  0
LINE
  5
575
330
1D
100
AcDbEntity
  8
0
100
AcDbLine
 10
248.1993
 20
71.7479
 30
0.0
 11
249.4136
 21
71.676
 31
0.0
  0
LINE
  5
577
330
1D
100
AcDbEntity
  8
0
100
AcDbLine
 10
260.1425
 20
69.8652
 30
0.0
 11
261.4958
 21
63.818
 31
0.0
  0
LINE
  5
579
330
1D
100
AcDbEntity
  8
0
100
AcDbLine
 10
235.1228
 20
74.8543
 30
0.0
 11
235.3669
 21
75.3315
 31
0.0
  0
LINE
  5
57A
330
1D
100
AcDbEntity
  8
0
100
AcDbLine
 10
235.3669
 20
75.3315
 30
0.0
 11
235.5489
 21
75.5521
 31
0.0
  0
LINE
  5
57B
330
1D
100
AcDbEntity
  8
0
100
AcDbLine
 10
236.0571
 20
76.1301
 30
0.0
 11
236.4012
 21
76.3886
 31
0.0
  0
LINE
  5
57D
330
1D
100
AcDbEntity
  8
0
100
AcDbLine
 10
235.5489
 20
75.5521
 30
0.0
 11
236.0571
 21
76.1301
 31
0.0
  0
LINE
  5
57E
330
1D
100
AcDbEntity
  8
0
100
AcDbLine
 10
236.4012
 20
76.3886
 30
0.0
 11
236.8263
 21
76.6362
 31
0.0
  0
LINE
  5
582
330
1D
100
AcDbEntity
  8
0
100
AcDbLine
 10
237.8926
 20
77.0724
 30
0.0
 11
238.5397
 21
77.2631
 31
0.0
  0
LINE
  5
583
330
1D
100
AcDbEntity
  8
0
100
AcDbLine
 10
237.3164
 20
76.8608
 30
0.0
 11
237.8926
 21
77.0724
 31
0.0
  0
LINE
  5
585
330
1D
100
AcDbEntity
  8
0
100
AcDbLine
 10
239.2679
 20
77.4367
 30
0.0
 11
239.476
 21
77.4857
 31
0.0
  0
LINE
  5
587
330
1D
100
AcDbEntity
  8
0
100
AcDbLine
 10
238.5397
 20
77.2631
 30
0.0
 11
239.2679
 21
77.4367
 31
0.0
  0
LINE
  5
589
330
1D
100
AcDbEntity
  8
0
100
AcDbLine
 10
236.8263
 20
76.6362
 30
0.0
 11
237.3164
 21
76.8608
 31
0.0
  0
LINE
  5
58B
330
1D
100
AcDbEntity
  8
0
100
AcDbLine
 10
239.280289525668
 20
77.439013974802
 30
0.0
 11
239.476
 21
77.4857
 31
0.0
  0
LINE
  5
58C
330
1D
100
AcDbEntity
  8
0
100
AcDbLine
 10
239.476
 20
77.4857
 30
0.0
 11
240.5293
 21
77.6823
 31
0.0
  0
LINE
  5
58F
330
1D
100
AcDbEntity
  8
0
100
AcDbLine
 10
240.5293
 20
77.6823
 30
0.0
 11
241.6956
 21
77.844
 31
0.0
  0
LINE
  5
595
330
1D
100
AcDbEntity
  8
0
100
AcDbLine
 10
242.9549
 20
77.9708
 30
0.0
 11
243.9582
 21
78.0437
 31
0.0
  0
LINE
  5
598
330
1D
100
AcDbEntity
  8
0
100
AcDbLine
 10
243.9582
 20
78.0437
 30
0.0
 11
244.9914
 21
78.0946
 31
0.0
  0
LINE
  5
599
330
1D
100
AcDbEntity
  8
0
100
AcDbLine
 10
241.6956
 20
77.844
 30
0.0
 11
242.9549
 21
77.9708
 31
0.0
  0
LINE
  5
5A1
330
1D
100
AcDbEntity
  8
0
100
AcDbLine
 10
244.9914
 20
78.0946
 30
0.0
 11
247.074
 21
78.1355
 31
0.0
  0
LINE
  5
5A2
330
1D
100
AcDbEntity
  8
0
100
AcDbLine
 10
247.074
 20
78.1355
 30
0.0
 11
249.1566
 21
78.0946
 31
0.0
  0
LINE
  5
5A4
330
1D
100
AcDbEntity
  8
0
100
AcDbLine
 10
249.1566
 20
78.0946
 30
0.0
 11
250.1898
 21
78.0437
 31
0.0
  0
LINE
  5
5A9
330
1D
100
AcDbEntity
  8
0
100
AcDbLine
 10
253.6187
 20
77.6823
 30
0.0
 11
254.672
 21
77.4857
 31
0.0
  0
LINE
  5
5AA
330
1D
100
AcDbEntity
  8
0
100
AcDbLine
 10
254.672
 20
77.4857
 30
0.0
 11
254.8801
 21
77.4367
 31
0.0
  0
LINE
  5
5AC
330
1D
100
AcDbEntity
  8
0
100
AcDbLine
 10
254.8801
 20
77.4367
 30
0.0
 11
255.6083
 21
77.2631
 31
0.0
  0
LINE
  5
5AF
330
1D
100
AcDbEntity
  8
0
100
AcDbLine
 10
258.0909
 20
76.1301
 30
0.0
 11
258.5991
 21
75.5521
 31
0.0
  0
LINE
  5
5B0
330
1D
100
AcDbEntity
  8
0
100
AcDbLine
 10
258.5991
 20
75.5521
 30
0.0
 11
258.7811
 21
75.3315
 31
0.0
  0
LINE
  5
5B1
330
1D
100
AcDbEntity
  8
0
100
AcDbLine
 10
259.0252
 20
74.8543
 30
0.0
 11
259.2953
 21
73.8661
 31
0.0
  0
LINE
  5
5B2
330
1D
100
AcDbEntity
  8
0
100
AcDbLine
 10
258.7811
 20
75.3315
 30
0.0
 11
259.0252
 21
74.8543
 31
0.0
  0
LINE
  5
5B3
330
1D
100
AcDbEntity
  8
0
100
AcDbLine
 10
257.7468
 20
76.3886
 30
0.0
 11
258.0909
 21
76.1301
 31
0.0
  0
LINE
  5
5B6
330
1D
100
AcDbEntity
  8
0
100
AcDbLine
 10
257.3217
 20
76.6362
 30
0.0
 11
257.7468
 21
76.3886
 31
0.0
  0
LINE
  5
5B7
330
1D
100
AcDbEntity
  8
0
100
AcDbLine
 10
256.8316
 20
76.8608
 30
0.0
 11
257.3217
 21
76.6362
 31
0.0
  0
LINE
  5
5BA
330
1D
100
AcDbEntity
  8
0
100
AcDbLine
 10
256.2554
 20
77.0724
 30
0.0
 11
256.8316
 21
76.8608
 31
0.0
  0
LINE
  5
5BB
330
1D
100
AcDbEntity
  8
0
100
AcDbLine
 10
255.6083
 20
77.2631
 30
0.0
 11
256.2554
 21
77.0724
 31
0.0
  0
LINE
  5
5BE
330
1D
100
AcDbEntity
  8
0
100
AcDbLine
 10
250.1898
 20
78.0437
 30
0.0
 11
251.1931
 21
77.9708
 31
0.0
  0
LINE
  5
5C0
330
1D
100
AcDbEntity
  8
0
100
AcDbLine
 10
251.1931
 20
77.9708
 30
0.0
 11
252.4524
 21
77.844
 31
0.0
  0
LINE
  5
5C3
330
1D
100
AcDbEntity
  8
0
100
AcDbLine
 10
252.4524
 20
77.844
 30
0.0
 11
253.6187
 21
77.6823
 31
0.0
  0
LINE
  5
5C6
330
1D
100
AcDbEntity
  8
0
100
AcDbLine
 10
259.2953
 20
73.8661
 30
0.0
 11
260.1425
 21
69.8652
 31
0.0
  0
LINE
  5
5C7
330
1D
100
AcDbEntity
  8
0
100
AcDbLine
 10
261.4958
 20
63.818
 30
0.0
 11
261.6739
 21
63.0763
 31
0.0
  0
LINE
  5
5C9
330
1D
100
AcDbEntity
  8
0
100
AcDbLine
 10
268.7955
 20
85.3978
 30
0.0
 11
268.8264
 21
86.0322
 31
0.0
  0
LINE
  5
5CA
330
1D
100
AcDbEntity
  8
0
100
AcDbLine
 10
268.7895
 20
84.1031
 30
0.0
 11
269.063
 21
72.5406
 31
0.0
  0
LINE
  5
5CB
330
1D
100
AcDbEntity
  8
0
100
AcDbLine
 10
268.7895
 20
84.1031
 30
0.0
 11
268.7955
 21
85.3978
 31
0.0
  0
LINE
  5
5CC
330
1D
100
AcDbEntity
  8
0
100
AcDbLine
 10
268.8264
 20
86.0322
 30
0.0
 11
268.8614
 21
86.5067
 31
0.0
  0
LINE
  5
5CD
330
1D
100
AcDbEntity
  8
0
100
AcDbLine
 10
268.8614
 20
86.5067
 30
0.0
 11
268.8903
 21
86.8224
 31
0.0
  0
LINE
  5
5CE
330
1D
100
AcDbEntity
  8
0
100
AcDbLine
 10
268.455
 20
97.7965
 30
0.0
 11
268.5888
 21
97.6287
 31
0.0
  0
LINE
  5
5CF
330
1D
100
AcDbEntity
  8
0
100
AcDbLine
 10
268.4057
 20
97.8211
 30
0.0
 11
268.455
 21
97.7965
 31
0.0
  0
LINE
  5
5D0
330
1D
100
AcDbEntity
  8
0
100
AcDbLine
 10
268.2632
 20
97.8924
 30
0.0
 11
268.4057
 21
97.8211
 31
0.0
  0
LINE
  5
5D1
330
1D
100
AcDbEntity
  8
0
100
AcDbLine
 10
268.5888
 20
97.6287
 30
0.0
 11
268.6397
 21
97.4199
 31
0.0
  0
LINE
  5
5D4
330
1D
100
AcDbEntity
  8
0
100
AcDbLine
 10
246.1904
 20
103.1205
 30
0.0
 11
260.8264
 21
99.7176
 31
0.0
  0
LINE
  5
5D6
330
1D
100
AcDbEntity
  8
0
100
AcDbLine
 10
260.8264
 20
99.7176
 30
0.0
 11
268.2632
 21
97.8924
 31
0.0
  0
LINE
  5
5DF
330
1D
100
AcDbEntity
  8
0
100
AcDbLine
 10
268.6397
 20
97.4199
 30
0.0
 11
268.8903
 21
86.8224
 31
0.0
  0
LINE
  5
5E1
330
1D
100
AcDbEntity
  8
0
100
AcDbLine
 10
269.2937
 20
69.7314
 30
0.0
 11
270.5079
 21
18.2945
 31
0.0
  0
LINE
  5
5E2
330
1D
100
AcDbEntity
  8
0
100
AcDbLine
 10
269.2937
 20
69.7314
 30
0.0
 11
270.5079
 21
18.2945
 31
0.0
  0
LINE
  5
5E3
330
1D
100
AcDbEntity
  8
0
100
AcDbLine
 10
269.2657
 20
69.9412
 30
0.0
 11
269.2937
 21
69.7314
 31
0.0
  0
LINE
  5
5E4
330
1D
100
AcDbEntity
  8
0
100
AcDbLine
 10
269.2148
 20
70.3627
 30
0.0
 11
269.2657
 21
69.9412
 31
0.0
  0
LINE
  5
5E5
330
1D
100
AcDbEntity
  8
0
100
AcDbLine
 10
269.1529
 20
70.9671
 30
0.0
 11
269.2148
 21
70.3627
 31
0.0
  0
LINE
  5
5E6
330
1D
100
AcDbEntity
  8
0
100
AcDbLine
 10
269.097
 20
71.7194
 30
0.0
 11
269.1529
 21
70.9671
 31
0.0
  0
LINE
  5
5E7
330
1D
100
AcDbEntity
  8
0
100
AcDbLine
 10
269.063
 20
72.5406
 30
0.0
 11
269.097
 21
71.7194
 31
0.0
  0
LINE
  5
5E8
330
1D
100
AcDbEntity
  8
0
100
AcDbLine
 10
269.071106673161
 20
72.3448
 30
0.0
 11
284.7745
 21
72.3448
 31
0.0
  0
LINE
  5
5E9
330
1D
100
AcDbEntity
  8
0
100
AcDbLine
 10
268.950174892973
 20
77.3104
 30
0.0
 11
284.7745
 21
77.3104
 31
0.0
  0
LINE
  5
5EA
330
1D
100
AcDbEntity
  8
0
100
AcDbLine
 10
228.4607
 20
55.2246
 30
0.0
 11
262.9139
 21
14.2933
 31
0.0
  0
LINE
  5
5EB
330
1D
100
AcDbEntity
  8
0
100
AcDbLine
 10
228.3096
 20
55.098
 30
0.0
 11
228.4607
 21
55.2246
 31
0.0
  0
LINE
  5
5EC
330
1D
100
AcDbEntity
  8
0
100
AcDbLine
 10
227.8603
 20
54.7221
 30
0.0
 11
228.3096
 21
55.098
 31
0.0
  0
LINE
  5
5ED
330
1D
100
AcDbEntity
  8
0
100
AcDbLine
 10
275.6916
 20
9.82024
 30
0.0
 11
276.2498
 21
9.53675
 31
0.0
  0
LINE
  5
5EE
330
1D
100
AcDbEntity
  8
0
100
AcDbLine
 10
276.2498
 20
9.53675
 30
0.0
 11
276.530200121301
 21
9.256908015108
 31
0.0
  0
LINE
  5
5EF
330
1D
100
AcDbEntity
  8
0
100
AcDbLine
 10
275.656431922723
 20
9.82587
 30
0.0
 11
275.8319
 21
9.82587
 31
0.0
  0
LINE
  5
5F0
330
1D
100
AcDbEntity
  8
0
100
AcDbLine
 10
275.8319
 20
9.82587
 30
0.0
 11
277.1878
 21
9.82587
 31
0.0
  0
LINE
  5
5F1
330
1D
100
AcDbEntity
  8
0
100
AcDbLine
 10
278.2492
 20
9.82587
 30
0.0
 11
279.0071
 21
9.82587
 31
0.0
  0
LINE
  5
5F2
330
1D
100
AcDbEntity
  8
0
100
AcDbLine
 10
275.0805
 20
9.91807
 30
0.0
 11
275.423878697887
 21
9.856556105083
 31
0.0
  0
LINE
  5
5F3
330
1D
100
AcDbEntity
  8
0
100
AcDbLine
 10
274.9704
 20
9.91807
 30
0.0
 11
275.0805
 21
9.91807
 31
0.0
  0
LINE
  5
5F4
330
1D
100
AcDbEntity
  8
0
100
AcDbLine
 10
277.1878
 20
9.82587
 30
0.0
 11
278.2492
 21
9.82587
 31
0.0
  0
LINE
  5
5F5
330
1D
100
AcDbEntity
  8
0
100
AcDbLine
 10
279.5692
 20
9.82587
 30
0.0
 11
279.7885
 21
9.78425
 31
0.0
  0
LINE
  5
5F7
330
1D
100
AcDbEntity
  8
0
100
AcDbLine
 10
279.7885
 20
9.78425
 30
0.0
 11
280.3371
 21
9.67402
 31
0.0
  0
LINE
  5
5F9
330
1D
100
AcDbEntity
  8
0
100
AcDbLine
 10
280.3371
 20
9.67402
 30
0.0
 11
280.9851
 21
9.24045
 31
0.0
  0
LINE
  5
5FA
330
1D
100
AcDbEntity
  8
0
100
AcDbLine
 10
279.4514
 20
9.82587
 30
0.0
 11
279.5692
 21
9.82587
 31
0.0
  0
LINE
  5
5FC
330
1D
100
AcDbEntity
  8
0
100
AcDbLine
 10
279.0071
 20
9.82587
 30
0.0
 11
279.4514
 21
9.82587
 31
0.0
  0
LINE
  5
5FD
330
1D
100
AcDbEntity
  8
0
100
AcDbLine
 10
284.7745
 20
72.3448
 30
0.0
 11
284.9242
 21
72.3847
 31
0.0
  0
LINE
  5
5FE
330
1D
100
AcDbEntity
  8
0
100
AcDbLine
 10
285.0341
 20
72.4956
 30
0.0
 11
285.074
 21
72.6433
 31
0.0
  0
LINE
  5
5FF
330
1D
100
AcDbEntity
  8
0
100
AcDbLine
 10
284.9242
 20
72.3847
 30
0.0
 11
285.0341
 21
72.4946
 31
0.0
  0
LINE
  5
600
330
1D
100
AcDbEntity
  8
0
100
AcDbLine
 10
285.0341
 20
76.8103
 30
0.0
 11
285.074
 21
76.7034
 31
0.0
  0
LINE
  5
601
330
1D
100
AcDbEntity
  8
0
100
AcDbLine
 10
285.074
 20
76.9232
 30
0.0
 11
285.074
 21
76.7034
 31
0.0
  0
LINE
  5
602
330
1D
100
AcDbEntity
  8
0
100
AcDbLine
 10
285.074
 20
76.9232
 30
0.0
 11
285.074
 21
77.0211
 31
0.0
  0
LINE
  5
603
330
1D
100
AcDbEntity
  8
0
100
AcDbLine
 10
284.7745
 20
77.3104
 30
0.0
 11
284.9242
 21
77.2704
 31
0.0
  0
LINE
  5
604
330
1D
100
AcDbEntity
  8
0
100
AcDbLine
 10
285.0341
 20
77.161
 30
0.0
 11
285.074
 21
77.0133
 31
0.0
  0
LINE
  5
605
330
1D
100
AcDbEntity
  8
0
100
AcDbLine
 10
284.9242
 20
77.2704
 30
0.0
 11
285.0341
 21
77.161
 31
0.0
  0
LINE
  5
606
330
1D
100
AcDbEntity
  8
0
100
AcDbLine
 10
285.0341
 20
77.16
 30
0.0
 11
285.074
 21
77.0211
 31
0.0
  0
LINE
  5
607
330
1D
100
AcDbEntity
  8
0
100
AcDbLine
 10
285.074
 20
77.0211
 30
0.0
 11
285.074
 21
76.7034
 31
0.0
  0
LINE
  5
608
330
1D
100
AcDbEntity
  8
0
100
AcDbLine
 10
285.074
 20
77.0211
 30
0.0
 11
285.074
 21
76.9232
 31
0.0
  0
LINE
  5
609
330
1D
100
AcDbEntity
  8
0
100
AcDbLine
 10
285.074
 20
76.7034
 30
0.0
 11
285.074
 21
76.3748
 31
0.0
  0
LINE
  5
60A
330
1D
100
AcDbEntity
  8
0
100
AcDbLine
 10
285.074
 20
76.7034
 30
0.0
 11
285.074
 21
77.0211
 31
0.0
  0
LINE
  5
60B
330
1D
100
AcDbEntity
  8
0
100
AcDbLine
 10
285.074
 20
76.7034
 30
0.0
 11
285.074
 21
76.9232
 31
0.0
  0
LINE
  5
60C
330
1D
100
AcDbEntity
  8
0
100
AcDbLine
 10
285.074
 20
76.3748
 30
0.0
 11
285.074
 21
75.9562
 31
0.0
  0
LINE
  5
60D
330
1D
100
AcDbEntity
  8
0
100
AcDbLine
 10
285.074
 20
76.3748
 30
0.0
 11
285.074
 21
76.7034
 31
0.0
  0
LINE
  5
60E
330
1D
100
AcDbEntity
  8
0
100
AcDbLine
 10
285.074
 20
75.9562
 30
0.0
 11
285.074
 21
75.4727
 31
0.0
  0
LINE
  5
60F
330
1D
100
AcDbEntity
  8
0
100
AcDbLine
 10
285.074
 20
75.9562
 30
0.0
 11
285.074
 21
76.3748
 31
0.0
  0
LINE
  5
610
330
1D
100
AcDbEntity
  8
0
100
AcDbLine
 10
285.074
 20
75.4727
 30
0.0
 11
285.074
 21
74.9512
 31
0.0
  0
LINE
  5
611
330
1D
100
AcDbEntity
  8
0
100
AcDbLine
 10
285.074
 20
75.4727
 30
0.0
 11
285.074
 21
75.9562
 31
0.0
  0
LINE
  5
612
330
1D
100
AcDbEntity
  8
0
100
AcDbLine
 10
285.074
 20
74.9512
 30
0.0
 11
285.074
 21
74.4217
 31
0.0
  0
LINE
  5
613
330
1D
100
AcDbEntity
  8
0
100
AcDbLine
 10
285.074
 20
74.9512
 30
0.0
 11
285.074
 21
75.4727
 31
0.0
  0
LINE
  5
614
330
1D
100
AcDbEntity
  8
0
100
AcDbLine
 10
285.074
 20
74.4217
 30
0.0
 11
285.074
 21
73.9172
 31
0.0
  0
LINE
  5
615
330
1D
100
AcDbEntity
  8
0
100
AcDbLine
 10
285.074
 20
74.4217
 30
0.0
 11
285.074
 21
74.9512
 31
0.0
  0
LINE
  5
616
330
1D
100
AcDbEntity
  8
0
100
AcDbLine
 10
285.074
 20
73.9172
 30
0.0
 11
285.074
 21
73.4647
 31
0.0
  0
LINE
  5
617
330
1D
100
AcDbEntity
  8
0
100
AcDbLine
 10
285.074
 20
73.9172
 30
0.0
 11
285.074
 21
74.4217
 31
0.0
  0
LINE
  5
618
330
1D
100
AcDbEntity
  8
0
100
AcDbLine
 10
285.074
 20
73.4647
 30
0.0
 11
285.074
 21
73.092
 31
0.0
  0
LINE
  5
619
330
1D
100
AcDbEntity
  8
0
100
AcDbLine
 10
285.074
 20
73.4647
 30
0.0
 11
285.074
 21
73.9172
 31
0.0
  0
LINE
  5
61A
330
1D
100
AcDbEntity
  8
0
100
AcDbLine
 10
285.074
 20
73.092
 30
0.0
 11
285.074
 21
72.8203
 31
0.0
  0
LINE
  5
61B
330
1D
100
AcDbEntity
  8
0
100
AcDbLine
 10
285.074
 20
73.092
 30
0.0
 11
285.074
 21
73.4647
 31
0.0
  0
LINE
  5
61C
330
1D
100
AcDbEntity
  8
0
100
AcDbLine
 10
285.074
 20
72.8203
 30
0.0
 11
285.074
 21
72.6645
 31
0.0
  0
LINE
  5
61D
330
1D
100
AcDbEntity
  8
0
100
AcDbLine
 10
285.074
 20
72.8203
 30
0.0
 11
285.074
 21
73.092
 31
0.0
  0
LINE
  5
61E
330
1D
100
AcDbEntity
  8
0
100
AcDbLine
 10
285.074
 20
72.6645
 30
0.0
 11
285.074
 21
72.8203
 31
0.0
  0
LINE
  5
61F
330
1D
100
AcDbEntity
  8
0
100
AcDbLine
 10
270.7138
 20
9.4699
 30
0.0
 11
271.4584
 21
9.3602
 31
0.0
  0
LINE
  5
64F
330
1D
100
AcDbEntity
  8
0
100
AcDbLine
 10
122.175
 20
155.6085
 30
0.0
 11
11.498
 21
214.4555
 31
0.0
  0
LINE
  5
650
330
1D
100
AcDbEntity
  8
0
100
AcDbLine
 10
10.531
 20
212.6615
 30
0.0
 11
21.508
 21
206.8245
 31
0.0
  0
LINE
  5
651
330
1D
100
AcDbEntity
  8
0
100
AcDbLine
 10
103.558
 20
163.1965
 30
0.0
 11
116.988
 21
156.0575
 31
0.0
  0
LINE
  5
652
330
1D
100
AcDbEntity
  8
0
100
AcDbLine
 10
38.513
 20
132.0435
 30
0.0
 11
59.308
 21
121.7715
 31
0.0
  0
LINE
  5
653
330
1D
100
AcDbEntity
  8
0
100
AcDbLine
 10
204.8627
 20
58.9254
 30
0.0
 11
194.114
 21
49.9406
 31
0.0
  0
LINE
  5
654
330
1D
100
AcDbEntity
  8
0
100
AcDbLine
 10
205.6513
 20
59.1946
 30
0.0
 11
194.0773
 21
49.5196
 31
0.0
  0
LINE
  5
655
330
1D
100
AcDbEntity
  8
0
100
AcDbLine
 10
227.8603
 20
54.7221
 30
0.0
 11
204.697633423798
 21
35.361253922044
 31
0.0
  0
LINE
  5
656
330
1D
100
AcDbEntity
  8
0
100
AcDbLine
 10
249.4136
 20
71.676
 30
0.0
 11
259.759058834262
 21
71.676
 31
0.0
  0
LINE
  5
657
330
1D
100
AcDbEntity
  8
0
100
AcDbLine
 10
244.7344
 20
71.676
 30
0.0
 11
234.388941165738
 21
71.676
 31
0.0
  0
LINE
  5
658
330
1D
100
AcDbEntity
  8
0
100
AcDbLine
 10
275.68051436735
 20
9.82587
 30
0.0
 11
275.423878697887
 21
9.856556105083
 31
0.0
  0
LINE
  5
659
330
1D
100
AcDbEntity
  8
0
100
AcDbLine
 10
274.9704
 20
9.91807
 30
0.0
 11
269.091827163656
 21
9.91807
 31
0.0
  0
LINE
  5
65A
330
1D
100
AcDbEntity
  8
0
100
AcDbLine
 10
218.4564
 20
9.82024
 30
0.0
 11
218.724121302113
 21
9.856556105083
 31
0.0
  0
LINE
  5
65B
330
1D
100
AcDbEntity
  8
0
100
AcDbLine
 10
219.1776
 20
9.91807
 30
0.0
 11
221.252453397864
 21
9.91807
 31
0.0
  0
ENDSEC
  0
SECTION
  2
OBJECTS
  0
DICTIONARY
  5
C
330
0
100
AcDbDictionary
281
     1
  3
ACAD_GROUP
350
D
  3
ACAD_LAYOUT
350
1A
  3
ACAD_MLEADERSTYLE
350
65E
  3
ACAD_MLINESTYLE
350
17
  3
ACAD_PLOTSETTINGS
350
19
  3
ACAD_PLOTSTYLENAME
350
E
  3
ACAD_SCALELIST
350
62C
  3
AcDbVariableDictionary
350
65C
  3
DWGPROPS
350
661
  0
DICTIONARY
  5
D
102
{ACAD_REACTORS
330
C
102
}
330
C
100
AcDbDictionary
281
     1
  0
DICTIONARY
  5
1A
102
{ACAD_REACTORS
330
C
102
}
330
C
100
AcDbDictionary
281
     1
  3
Layout1
350
1C
  3
Model
350
1E
  0
DICTIONARY
  5
65E
102
{ACAD_REACTORS
330
C
102
}
330
C
100
AcDbDictionary
281
     1
  0
DICTIONARY
  5
17
102
{ACAD_REACTORS
330
C
102
}
330
C
100
AcDbDictionary
281
     1
  3
Standard
350
18
  0
DICTIONARY
  5
19
102
{ACAD_REACTORS
330
C
102
}
330
C
100
AcDbDictionary
281
     1
  0
ACDBDICTIONARYWDFLT
  5
E
102
{ACAD_REACTORS
330
C
102
}
330
C
100
AcDbDictionary
281
     1
  3
Normal
350
F
100
AcDbDictionaryWithDefault
340
F
  0
DICTIONARY
  5
62C
102
{ACAD_REACTORS
330
C
102
}
330
C
100
AcDbDictionary
281
     1
  3
A0
350
62D
  3
A1
350
62E
  3
A2
350
62F
  3
A3
350
630
  3
A4
350
631
  3
A5
350
632
  3
A6
350
633
  3
A7
350
634
  3
A8
350
635
  3
A9
350
636
  3
B0
350
637
  3
B1
350
638
  3
B2
350
639
  3
B3
350
63A
  3
B4
350
63B
  3
B5
350
63C
  3
B6
350
63D
  3
B7
350
63E
  3
B8
350
63F
  3
B9
350
640
  3
C0
350
641
  3
C1
350
642
  3
C2
350
643
  3
C3
350
644
  3
C4
350
645
  3
C5
350
646
  3
C6
350
647
  3
C7
350
648
  3
C8
350
649
  3
C9
350
64A
  3
D0
350
64B
  3
D1
350
64C
  3
D2
350
64D
  0
DICTIONARY
  5
65C
102
{ACAD_REACTORS
330
C
102
}
330
C
100
AcDbDictionary
281
     1
  3
CANNOSCALE
350
65F
  0
XRECORD
  5
661
102
{ACAD_REACTORS
330
C
102
}
330
C
100
AcDbXrecord
280
     1
  1
DWGPROPS COOKIE
  2

  3

  4

  6

  7

  8
MARTIN
  9

300
=
301
=
302
=
303
=
304
=
305
=
306
=
307
=
308
=
309
=
 40
0.0
 41
2455873.310255533
 42
2455873.315751945
  1

 90
        0
  0
LAYOUT
  5
1C
102
{ACAD_REACTORS
330
1A
102
}
330
1A
100
AcDbPlotSettings
  1

  2
none_device
  4

  6

 40
0.0
 41
0.0
 42
0.0
 43
0.0
 44
0.0
 45
0.0
 46
0.0
 47
0.0
 48
0.0
 49
0.0
140
0.0
141
0.0
142
1.0
143
1.0
 70
   688
 72
     0
 73
     0
 74
     5
  7

 75
    16
147
1.0
148
0.0
149
0.0
100
AcDbLayout
  1
Layout1
 70
     1
 71
     1
 10
0.0
 20
0.0
 11
12.0
 21
9.0
 12
0.0
 22
0.0
 32
0.0
 14
1.000000000000E+20
 24
1.000000000000E+20
 34
1.000000000000E+20
 15
-1.000000000000E+20
 25
-1.000000000000E+20
 35
-1.000000000000E+20
146
0.0
 13
0.0
 23
0.0
 33
0.0
 16
1.0
 26
0.0
 36
0.0
 17
0.0
 27
1.0
 37
0.0
 76
     0
330
1B
  0
LAYOUT
  5
1E
102
{ACAD_REACTORS
330
1A
102
}
330
1A
100
AcDbPlotSettings
  1

  2
none_device
  4

  6

 40
0.0
 41
0.0
 42
0.0
 43
0.0
 44
0.0
 45
0.0
 46
0.0
 47
0.0
 48
0.0
 49
0.0
140
0.0
141
0.0
142
1.0
143
1.0
 70
  1712
 72
     0
 73
     0
 74
     0
  7

 75
     0
147
1.0
148
0.0
149
0.0
100
AcDbLayout
  1
Model
 70
     1
 71
     0
 10
0.0
 20
0.0
 11
12.0
 21
9.0
 12
0.0
 22
0.0
 32
0.0
 14
-0.06
 24
0.1355
 34
0.0
 15
285.074
 25
217.8645
 35
0.0
146
0.0
 13
0.0
 23
0.0
 33
0.0
 16
1.0
 26
0.0
 36
0.0
 17
0.0
 27
1.0
 37
0.0
 76
     0
330
1D
331
627
  0
MLINESTYLE
  5
18
102
{ACAD_REACTORS
330
17
102
}
330
17
100
AcDbMlineStyle
  2
Standard
 70
     0
  3

 62
   256
 51
90.0
 52
90.0
 71
     2
 49
0.5
 62
   256
  6
BYLAYER
 49
-0.5
 62
   256
  6
BYLAYER
  0
ACDBPLACEHOLDER
  5
F
102
{ACAD_REACTORS
330
E
102
}
330
E
  0
SCALE
  5
62D
102
{ACAD_REACTORS
330
62C
102
}
330
62C
100
AcDbScale
 70
     0
300
1:1
140
1.0
141
1.0
290
     1
  0
SCALE
  5
62E
102
{ACAD_REACTORS
330
62C
102
}
330
62C
100
AcDbScale
 70
     0
300
1:2
140
1.0
141
2.0
290
     0
  0
SCALE
  5
62F
102
{ACAD_REACTORS
330
62C
102
}
330
62C
100
AcDbScale
 70
     0
300
1:4
140
1.0
141
4.0
290
     0
  0
SCALE
  5
630
102
{ACAD_REACTORS
330
62C
102
}
330
62C
100
AcDbScale
 70
     0
300
1:5
140
1.0
141
5.0
290
     0
  0
SCALE
  5
631
102
{ACAD_REACTORS
330
62C
102
}
330
62C
100
AcDbScale
 70
     0
300
1:8
140
1.0
141
8.0
290
     0
  0
SCALE
  5
632
102
{ACAD_REACTORS
330
62C
102
}
330
62C
100
AcDbScale
 70
     0
300
1:10
140
1.0
141
10.0
290
     0
  0
SCALE
  5
633
102
{ACAD_REACTORS
330
62C
102
}
330
62C
100
AcDbScale
 70
     0
300
1:16
140
1.0
141
16.0
290
     0
  0
SCALE
  5
634
102
{ACAD_REACTORS
330
62C
102
}
330
62C
100
AcDbScale
 70
     0
300
1:20
140
1.0
141
20.0
290
     0
  0
SCALE
  5
635
102
{ACAD_REACTORS
330
62C
102
}
330
62C
100
AcDbScale
 70
     0
300
1:30
140
1.0
141
30.0
290
     0
  0
SCALE
  5
636
102
{ACAD_REACTORS
330
62C
102
}
330
62C
100
AcDbScale
 70
     0
300
1:40
140
1.0
141
40.0
290
     0
  0
SCALE
  5
637
102
{ACAD_REACTORS
330
62C
102
}
330
62C
100
AcDbScale
 70
     0
300
1:50
140
1.0
141
50.0
290
     0
  0
SCALE
  5
638
102
{ACAD_REACTORS
330
62C
102
}
330
62C
100
AcDbScale
 70
     0
300
1:100
140
1.0
141
100.0
290
     0
  0
SCALE
  5
639
102
{ACAD_REACTORS
330
62C
102
}
330
62C
100
AcDbScale
 70
     0
300
2:1
140
2.0
141
1.0
290
     0
  0
SCALE
  5
63A
102
{ACAD_REACTORS
330
62C
102
}
330
62C
100
AcDbScale
 70
     0
300
4:1
140
4.0
141
1.0
290
     0
  0
SCALE
  5
63B
102
{ACAD_REACTORS
330
62C
102
}
330
62C
100
AcDbScale
 70
     0
300
8:1
140
8.0
141
1.0
290
     0
  0
SCALE
  5
63C
102
{ACAD_REACTORS
330
62C
102
}
330
62C
100
AcDbScale
 70
     0
300
10:1
140
10.0
141
1.0
290
     0
  0
SCALE
  5
63D
102
{ACAD_REACTORS
330
62C
102
}
330
62C
100
AcDbScale
 70
     0
300
100:1
140
100.0
141
1.0
290
     0
  0
SCALE
  5
63E
102
{ACAD_REACTORS
330
62C
102
}
330
62C
100
AcDbScale
 70
     0
300
1/128" = 1'-0"
140
0.0078125
141
12.0
290
     0
  0
SCALE
  5
63F
102
{ACAD_REACTORS
330
62C
102
}
330
62C
100
AcDbScale
 70
     0
300
1/64" = 1'-0"
140
0.015625
141
12.0
290
     0
  0
SCALE
  5
640
102
{ACAD_REACTORS
330
62C
102
}
330
62C
100
AcDbScale
 70
     0
300
1/32" = 1'-0"
140
0.03125
141
12.0
290
     0
  0
SCALE
  5
641
102
{ACAD_REACTORS
330
62C
102
}
330
62C
100
AcDbScale
 70
     0
300
1/16" = 1'-0"
140
0.0625
141
12.0
290
     0
  0
SCALE
  5
642
102
{ACAD_REACTORS
330
62C
102
}
330
62C
100
AcDbScale
 70
     0
300
3/32" = 1'-0"
140
0.09375
141
12.0
290
     0
  0
SCALE
  5
643
102
{ACAD_REACTORS
330
62C
102
}
330
62C
100
AcDbScale
 70
     0
300
1/8" = 1'-0"
140
0.125
141
12.0
290
     0
  0
SCALE
  5
644
102
{ACAD_REACTORS
330
62C
102
}
330
62C
100
AcDbScale
 70
     0
300
3/16" = 1'-0"
140
0.1875
141
12.0
290
     0
  0
SCALE
  5
645
102
{ACAD_REACTORS
330
62C
102
}
330
62C
100
AcDbScale
 70
     0
300
1/4" = 1'-0"
140
0.25
141
12.0
290
     0
  0
SCALE
  5
646
102
{ACAD_REACTORS
330
62C
102
}
330
62C
100
AcDbScale
 70
     0
300
3/8" = 1'-0"
140
0.375
141
12.0
290
     0
  0
SCALE
  5
647
102
{ACAD_REACTORS
330
62C
102
}
330
62C
100
AcDbScale
 70
     0
300
1/2" = 1'-0"
140
0.5
141
12.0
290
     0
  0
SCALE
  5
648
102
{ACAD_REACTORS
330
62C
102
}
330
62C
100
AcDbScale
 70
     0
300
3/4" = 1'-0"
140
0.75
141
12.0
290
     0
  0
SCALE
  5
649
102
{ACAD_REACTORS
330
62C
102
}
330
62C
100
AcDbScale
 70
     0
300
1" = 1'-0"
140
1.0
141
12.0
290
     0
  0
SCALE
  5
64A
102
{ACAD_REACTORS
330
62C
102
}
330
62C
100
AcDbScale
 70
     0
300
1-1/2" = 1'-0"
140
1.5
141
12.0
290
     0
  0
SCALE
  5
64B
102
{ACAD_REACTORS
330
62C
102
}
330
62C
100
AcDbScale
 70
     0
300
3" = 1'-0"
140
3.0
141
12.0
290
     0
  0
SCALE
  5
64C
102
{ACAD_REACTORS
330
62C
102
}
330
62C
100
AcDbScale
 70
     0
300
6" = 1'-0"
140
6.0
141
12.0
290
     0
  0
SCALE
  5
64D
102
{ACAD_REACTORS
330
62C
102
}
330
62C
100
AcDbScale
 70
     0
300
1'-0" = 1'-0"
140
12.0
141
12.0
290
     0
  0
DICTIONARYVAR
  5
65F
102
{ACAD_REACTORS
330
65C
102
}
330
65C
100
DictionaryVariables
280
     0
  1
1:1
  0
ENDSEC
  0
SECTION
  2
THUMBNAILIMAGE
 90
    16364
310
28000000B40000005500000001000800000000000000000000000000000000000000000000000000FFFFFF000000FF0000FFFF0000FF0000FFFF0000FF000000FF00FF000000000080808000C0C0C0000000FF007F7FFF000000A5005252A50000007F003F3F7F0000004C0026264C000000260013132600003FFF007F9FFF
310
000029A5005267A500001F7F003F4F7F0000134C00262F4C000009260013172600007FFF007FBFFF000052A500527CA500003F7F003F5F7F0000264C0026394C0000132600131C260000BFFF007FDFFF00007CA5005291A500005F7F003F6F7F0000394C0026424C00001C26001321260000FFFF007FFFFF0000A5A50052A5
310
A500007F7F003F7F7F00004C4C00264C4C00002626001326260000FFBF007FFFDF0000A57C0052A59100007F5F003F7F6F00004C3900264C420000261C001326210000FF7F007FFFBF0000A5520052A57C00007F3F003F7F5F00004C2600264C39000026130013261C0000FF3F007FFF9F0000A5290052A56700007F1F003F
310
7F4F00004C1300264C2F00002609001326170000FF00007FFF7F0000A5000052A55200007F00003F7F3F00004C0000264C260000260000132613003FFF00009FFF7F0029A5000067A552001F7F00004F7F3F00134C00002F4C260009260000172613007FFF0000BFFF7F0052A500007CA552003F7F00005F7F3F00264C0000
310
394C2600132600001C261300BFFF0000DFFF7F007CA5000091A552005F7F00006F7F3F00394C0000424C26001C26000021261300FFFF0000FFFF7F00A5A50000A5A552007F7F00007F7F3F004C4C00004C4C26002626000026261300FFBF0000FFDF7F00A57C0000A59152007F5F00007F6F3F004C3900004C422600261C00
310
0026211300FF7F0000FFBF7F00A5520000A57C52007F3F00007F5F3F004C2600004C39260026130000261C1300FF3F0000FF9F7F00A5290000A56752007F1F00007F4F3F004C1300004C2F26002609000026171300FF000000FF7F7F00A5000000A55252007F0000007F3F3F004C0000004C2626002600000026131300FF00
310
3F00FF7F9F00A5002900A55267007F001F007F3F4F004C0013004C262F002600090026131700FF007F00FF7FBF00A5005200A5527C007F003F007F3F5F004C0026004C2639002600130026131C00FF00BF00FF7FDF00A5007C00A55291007F005F007F3F6F004C0039004C26420026001C0026132100FF00FF00FF7FFF00A5
310
00A500A552A5007F007F007F3F7F004C004C004C264C002600260026132600BF00FF00DF7FFF007C00A5009152A5005F007F006F3F7F0039004C0042264C001C002600211326007F00FF00BF7FFF005200A5007C52A5003F007F005F3F7F0026004C0039264C00130026001C1326003F00FF009F7FFF002900A5006752A500
310
1F007F004F3F7F0013004C002F264C000900260017132600000000002D2D2D005B5B5B0089898900B7B7B700B3B3B30000000000000000000000000000000000000000000000000000000000000000000000000000000000000000000000000000000000000000000000000000000000000000000000000000000000000000
310
00000000000000000000000000000000000000000000000000000000000000000000000000000000000000000000000000000000000000000000000000000000000000000000000000000000000000000000000000000000000000000000000000000000000000000000000000000000000000000000000000000000000000
310
00000000000000000000000000000000000000000000000000000000000000000000000000000000000000000000000000000000000000000000000000000000000000000000000000000000000000000000000000000000000000000000000000000000000000000000000000000000000000000000000000000000000000
310
00000000000000000000000000000000000000000000000000000000000000000000000000000000000000000000000000000000000000000000000000000000000000000000000000000000000000000000000000000000000000000000000000000000000000000000000000000000000000000000000000000000000000
310
00000000000000000000000000000000000000000000000000000000000000000000000000000000000000000000000000000000000000000000000000000000000000000000000000000000000000000000000000000000000000000000000000000000000000000000000000000000000000000000000000000000000000
310
00000000000000000000000000000000000000000000000000000000000000000000000000000000000000000000000000000000000000000000000000000000000000000707070707070707070707070707070707070707070707070707000000000000000000000000000000000000000000000000000000000000000000
310
00000000000000000000000000000000000000000000000000000000000000000000000000000000000000000000000000000000000000000000000000000000000000000000000000000000000000000000000000000000000000000000000000000000000000000000000000000000000000000000000000070000000000
310
00000000000000000000000000000000000000070000000000000000000000000000000000000000000000000000000000000000000000000000000000000000000000000000000000000000000000000000000000000000000000000000000000000000000000000000000000000000000000000000000000000000000000
310
00000000000000000000000000000000000000000000000000000000000000000000000000000000000000000000000700000000000000000000000000000000000000000000000007000000000000000000000000000000000000000000000000000000000000000000000000000000000000000000000000000000000000
310
00000000000000000000000000000000000000000000000000000000000000000000000000000000000000000000000000000000000000000000000000000000000000000000000000000000000000000000000000000000000000000000000000000000070707070707070707070707070707070707070707070707070700
310
00000000000000000000000000000000000000000000000000000000000000000000000000000000000000000000000000000000000000000000000000000000000000000000000000000000000000000000000000000000000000000000000000000000000000000000000000000000000000000000000000000000000000
310
00000000000000000000000000000000000000000000000000000000000700000000000000000000000000000707000700000000000000000000000000000000000000000000000000000000000000000000000000000000000000000000000000000000000000000000000000000000000000000000000000000000000000
310
00000000000000000000000000000000000000000000000000000000000000000000000000000000000000000000000000000000000000000000000000000000000000000000000000000000000000000000070000000000000000000000000000070000070000000000000000000000000000000000000000000000000000
310
00000000000000000000000000000000000000000000000000000000000000000000000000000000000000000000000000000000000000000000000000000000000000000000000000000000000000000000000000000000000000000000000000000000000000000000000000000000000000000000000000000000000000
310
00000000000000070000000000000000000000000000070700000700000000000000000000000000000000000000000000000000000000000000000000000000000000000000000000000000000000000000000000000000000000000000000000000000000000000000000000000000000000000000000000000000000000
310
00000000000000000000000000000000000000000000000000000000000000000000000000000000000000000000000000000000000000000000000700000000000000000000000000000700070000070000000000000000000000000000000000000000000000000000000000000000000000000000000000000000000000
310
00000000000000000000000000000000000000000000000000000000000000000000000000000000000000000000000000000000000000000000000000000000000000000000000000000000000000000000000000000000000000000000000000000000000000000000000000000007000000000000000000000000000007
310
00000700000700000000000000000000000000000000000000000000000000000000000000000000000000000000000000000000000000000000000000000000000000000000000000000000000000000000000000000000000000000000000000000000000000000000000000000000000000000000000000000000000000
310
00000000000000000000000000000000000000000000000000000000000000000000000000070000000000000000000000000000070000070000070000000000000000000000000000000000000000000000000000000000000000000000000000000000000000000000000000000000000000000000000000000000000000
310
00000000000000000000000000000000000000000000000000000000000000000000000000000000000000000000000000000000000000000000000000000000000000000000000000000000000000000000000000000000000700000000000000000000000000000700000007000007000000000000000000000000000000
310
00000000000000000000000000000000000000000000000000000000000000000000000000000000000000000000000000000000000000000000000000000000000000000000000000000000000000000000000000000000000000000000000000000000000000000000000000000000000000000000000000000000000000
310
00000000000000000000000000000700000000000000000000000000000700000000070000070000000000000000000000000000000000000000000000000000000000000000000000000000000000000000000000000000000000000000000000000000000000000000000000000000000000000000000000000000000000
310
00000000000000000000000000000000000000000000000000000000000000000000000000000000000000000000000000000000000000000000000000000000000007000000000000000000000000000007000000000007000007000000000000000000000000000000000000000000000000000000000000000000000000
310
00000000000000000000000000000000000000000000000000000000000000000000000000000000000000000000000000000000000000000000000000000000000000000000000000000000000000000000000000000000000000000000000000000000000000000000000000000000000000000000070007000000000000
310
00000000000007000000000000070000070000000000000000000000000000000000000000000000000000000000000000000000000000000000000000000000000000000000000000000000000000000000000000000000000000000000000000000000000000000000000000000000000000000000000000000000000000
310
00000000000000000000000000000000000000000000000000000000000000000000000000000000000000070000000700000000000000000000070000000000000007000007000000000000000000000000000000000000000000000000000000000000000000000000000000000000000000000000000000000000000000
310
00000000000000000000000000000000000000000000000000000000000000000000000000000000000000000000000000000000000000000000000000000000000000000000000000000000000000000000000000000000000000000000000007000000000700000000000000000700000000000000000700000700000000
310
00000000000000000000000000000000000000000000000000000000000000000000000000000000000000000000000000000000000000000000000000000000000000000000000000000000000000000000000000000000000000000000000000000000000000000000000000000000000000000000000000000000000000
310
00000000000000000000000000000000000000000007000000000000070700000000000007000000000000000007000700000000000000000000000000000000000000000000000000000000000000000000000000000000000000000000000000000000000000000000000000000000000000000000000000000000000000
310
00000000000000000000000000000000000000000000000000000000000000000000000000000000000000000000000000000000000000000000000000000000000000000000000000070707000000000000000700000000070000000000000000000700070000000000000000000000000000000000000000000000000000
310
00000000000000000000000000000000000000000000000000000000000000000000000000000000000000000000000000000000000000000000000000000000000000000000000000000000000000000000000000000000000000000000000000000000000000000000000000000000000000000000000000000000000000
310
07070700000000000000070000070000000000000000000007000700000000000000000000000000000000000000000000000000000000000000000000000000000000000000000000000000000000000000000000000000000000000000000000000000000000000000000000000000000000000000000000000000000000
310
00000000000000000000000000000000000000000000000000000000000000000000000000000000000000000000000000000000070007070700000000000000070707000000000000000000000000070000000000000000000000000000000000000000000000000000000000000000000000000000000000000000000000
310
00000000000000000000000000000000000000000000000000000000000000000000000000000000000000000000000000000000000000000000000000000000000000000000000000000000000000000000000000000000000000000000000000000000000000000700000007070700000000000700000000000000000000
310
00000007000700000000000000000000000000000000000000000000000000000000000000000000000000000000000000000000000000000000000000000000000000000000000000000000000000000000000000000000000000000000000000000000000000000000000000000000000000000000000000000000000000
310
00000000000000000000000000000000000000000000000000000000000700000000000707070000000700000007000000000000000000000000070000000000000000000000000000000000000000000000000000000000000000000000000000000000000000000000000000000000000000000000000000000000000000
310
00000000000000000000000000000000000000000000000000000000000000000000000000000000000000000000000000000000000000000000000000000000000000000000000000000000000000000007000000000000000007070700070000000700000000000000000007070007000000000000000000000000000000
310
00000000000000000000000000000000000000000000000000000000000000000000000000000000000000000000000000000000000000000000000000000000000000000000000000000000000000000000000000000000000000000000000000000000000000000000000000000000000000000000000000000000000000
310
00000000000007000000000000000000000707070000000007000000000000000000070000070000000000000000000000000000000000000000000000000000000000000000000000000000000000000000000000000000000000000000000000000000000000000000000000000000000000000000000000000000000000
310
00000000000000000000000000000000000000000000000000000000000000000000000000000000000000000000000000000000000000000000070000000000000000000007000700000000000007000000000000000007000007000000000000000000000000000000000000000000000000000000000000000000000000
310
00000000000000000000000000000000000000000000000000000000000000000000000000000000000000000000000000000000000000000000000000000000000000000000000000000000000000000000000000000000000000000000000000000000000000000000000000000700000000000000000000070700000000
310
00000000070707070707070707070000070707070707070000000000000000000000000000000000000000000000000000000000000000000000000000000000000000000000000000000000000000000000000000000000000000000000000000000000000000000000000000000000000000000000000000000000000000
310
00000000000000000000000000000000000000000000000000000000000000000000000700000000000000000000070700000000000000000007000000000000000007000007000000000007000000000000000000000000000000000000000000000000000000000000000000000000000000000000000000000000000000
310
00000000000000000000000000000000000000000000000000000000000000000000000000000000000000000000000000000000000000000000000000000000000000000000000000000000000000000000000000000007000000000000000000000707000000000000000000000707070700070707070000000707070707
310
07070000000000000000000000000000000000000000000000000000000000000000000000000000000000000000000000000000000000000000000000000000000000000000000000000000000000000000000000000000000000000000000000000000000000000000000000000000000000000000000000000000000000
310
00000000000000000000000007000000000000000000000707000000000000000000000000000000070700000000000007000000000000000000000000000000000000000000000000000000000000000000000000000000000000000000000000000000000000000000000000000000000000000000000000000000000000
310
00000000000000000000000000000000000000000000000000000000000000000000000000000000000000000000000000000000000000000000000000000000070000000000000000000007000700000000000000000000000000000000000000000000000700000000000000000000000000000000000000000000000000
310
00000000000000000000000000000000000000000000000000000000000000000000000000000000000000000000000000000000000000000000000000000000000000000000000000000000000000000000000000000000000000000000000000000000000000000000000000000000000000000007000000000000000000
310
07000700000000000000000000000000000000000000000000000007000000000000000000000000000000000000000000000000000000000000000000000000000000000000000000000000000000000000000000000000000000000000000000000000000000000000000000000000000000000000000000000000000000
310
00000000000000000000000000000000000000000000000000000000000000000000000000000000000007000000000000000000070007000000000000000000000000000000000000000000000000000700000000000000000000000000000000000000000000000000000000000000000000000000000000000000000000
310
00000000000000000000000000000000000000000000000000000000000000000000000000000000000000000000000000000000000000000000000000000000000000000000000000000000000000000000000000000000000000000007070000000000000000000700070000000000000000000000000000000000000000
310
00000000000007000000000000000000000000000000000000000000000000000000000000000000000000000000000000000000000000000000000000000000000000000000000000000000000000000000000000000000000000000000000000000000000000000000000000000000000000000000000000000000000000
310
00000000000000000000000000000007070707070000000000000000000700070000000000000000000000000000000000000000000000000000000700000000000000000000000000000000000000000000000000000000000000000000000000000000000000000000000000000000000000000000000000000000000000
310
00000000000000000000000000000000000000000000000000000000000000000000000000000000000000000000000000000000000000000000000000000000070707070000000700000000000000000007000700000000000000000000000000000000000000000000000000000000070000000000000000000000000000
310
00000000000000000000000000000000000000000000000000000000000000000000000000000000000000000000000000000000000000000000000000000000000000000000000000000000000000000000000000000000000000000000000000000000000000000000000000000000000007070700000000000000070000
310
00000000000007000700000000000000000000000000000000000000000000000007070707070700000000000000000000000000000000000000000000000000000000000000000000000000000000000000000000000000000000000000000000000000000000000000000000000000000000000000000000000000000000
310
00000000000000000000000000000000000000000000000000000000000000000000000000070707000000000000000000070000000000000000070007000000000000000000000000000000000000000007070707070000000000000000000000000000000000000000000000000000000000000000000000000000000000
310
00000000000000000000000000000000000000000000000000000000000000000000000000000000000000000000000000000000000000000000000000000000000000000000000000000000000000000000000000000007070700000000000000000000000700000000000000000700070000000000000000000000000000
310
00000007070707000000000000000000000000000000000000000000000000000000000000000000000000000000000000000000000000000000000000000000000000000000000000000000000000000000000000000000000000000000000000000000000000000000000000000000000000000000000000000000000000
310
00000000000000000000070707000000000000000000000000000700000000000000000700070000000000000000000000000007070707070000000000000000000000000000000000000000000000000000000000000000000000000000000000000000000000000000000000000000000000000000000000000000000000
310
00000000000000000000000000000000000000000000000000000000000000000000000000000000000000000000000000000000000000000000000007070700000000000000000000000000000000070000000000000007000700000000000000000000070707070000000000000000000000000000000000000000000000
310
00000000000000000000000000000000000000000000000000000000000000000000000000000000000000000000000000000000000000000000000000000000000000000000000000000000000000000000000000000000000000000000000000000000000000000000000000000707070000000000000000000000000000
310
00000000070000000000000000070700000000000000070707070000000000000000000000000000000000000000000000000000000000000000000000000000000000000000000000000000000000000000000000000000000000000000000000000000000000000000000000000000000000000000000000000000000000
310
00000000000000000000000000000000000000000000000000000000000000000007070700000000000000000000000000000000000000000007000000000000000700000000070707070700000000000000000000000000000000000000000000000000000000000000000000000000000000000000000000000000000000
310
00000000000000000000000000000000000000000000000000000000000000000000000000000000000000000000000000000000000000000000000000000000000000000000000000000000000000000000000707070000000000000000000000000000000000000000000000070000000000000007000707070700000000
310
00000000000000000000000000000000000000000000000000000000000000000000000000000000000000000000000000000000000000000000000000000000000000000000000000000000000000000000000000000000000000000000000000000000000000000000000000000000000000000000000000000000000000
310
00000000000007070700000000000000000000000000000000000000000000000000000700000000000007070700000000000000000000000000000000000000000000000000000000000000000000000000000000000000000000000000000000000000000000000000000000000000000000000000000000000000000000
310
00000000000000000000000000000000000000000000000000000000000000000000000000000000000000000000000000000000000000000007070700000000000000000000000000000000000000000000000000000007000000000000070000000000000000000000000000000000000000000000000000000000000000
310
00000000000000000000000000000000000000000000000000000000000000000000000000000000000000000000000000000000000000000000000000000000000000000000000000000000000000000000000000000000000000000000000000000000000000000000000007070007000000000000000000000000000000
310
00000000000000000000000707000000000000070000000000000000000000000000000000000000000000000000000000000000000000000000000000000000000000000000000000000000000000000000000000000000000000000000000000000000000000000000000000000000000000000000000000000000000000
310
00000000000000000000000000000000000000000000000000000000000000000707000707000000000000000000000000000000000000000000000000000707000000000000000700000000000000000000000000000000000000000000000000000000000000000000000000000000000000000000000000000000000000
310
00000000000000000000000000000000000000000000000000000000000000000000000000000000000000000000000000000000000000000000000000000000000000000000000000000000000000000000000007070707070000000000000000000000000000000000000000000007070707070000000000000007000000
310
00000000000000000000000000000000000000000000000000000000000000000000000000000000000000000000000000000000000000000000000000000000000000000000000000000000000000000000000000000000000000000000000000000000000000000000000000000000000000000000000000000000000000
310
00000000000000000007000000000000000000000000000000000000000000000007070707000000000700000000000007000000000000000000000000000000000000000000000000000000000000000000000000000000000000000000000000000000000000000000000000000000000000000000000000000000000000
310
00000000000000000000000000000000000000000000000000000000000000000000000000000000000000000000000000000000000000000000000000000700000000000000000000000000000000000000070707070000000000000707000000000007070000000000000000000000000000000000000000000000000000
310
00000000000000000000000000000000000000000000000000000000000000000000000000000000000000000000000000000000000000000000000000000000000000000000000000000000000000000000000000000000000000000000000000000000000000000000000000000000000007000000000000000000000000
310
00000000070707070000000000000000000700000000000007000700000000000000000000000000000000000000000000000000000000000000000000000000000000000000000000000000000000000000000000000000000000000000000000000000000000000000000000000000000000000000000000000000000000
310
00000000000000000000000000000000000000000000000000000000000000000000000000000000070000000000000000000000000707070700000000000000000000000007000000000000070007000000000000000000000000000000000000000000000000000000000000000000000000000000000000000000000000
310
00000000000000000000000000000000000000000000000000000000000000000000000000000000000000000000000000000000000000000000000000000000000000000000000000000000000000000000000000000000000000000007000000000000000707070707000000000000000000000000000007070000000000
310
00070007000000000000000000000000000000000000000000000000000000000000000000000000000000000000000000000000000000000000000000000000000000000000000000000000000000000000000000000000000000000000000000000000000000000000000000000000000000000000000000000000000000
310
00000000000000000000000000000000000000070700070707070700000000000000000000000000000000070007000000000000000707070000000000000000000000000000000000000000000000000000000000000000000000000000000000000000000000000000000000000000000000000000000000000000000000
310
00000000000000000000000000000000000000000000000000000000000000000000000000000000000000000000000000000000000000000000000000000000000000000000000000070700000000000000000000000000000000000000000707070000000000000707070000000000000000000000000000000000000000
310
00000000000000000000000000000000000000000000000000000000000000000000000000000000000000000000000000000000000000000000000000000000000000000000000000000000000000000000000000000000000000000000000000000000000000000000000000000000000000000000000000000000000000
310
00000000000000000000000000000000000007070707070000000000070707070000000000000000000000000000000000000000000000000000000000000000000000000000000000000000000000000000000000000000000000000000000000000000000000000000000000000000000000000000000000000000000000
310
00000000000000000000000000000000000000000000000000000000000000000000000000000000000000000000000000000000000000000000000000000000000000000007070707070000000000070707070000000000000000000000000000000000000000000000000000000000000000000000000000000000000000
310
00000000000000000000000000000000000000000000000000000000000000000000000000000000000000000000000000000000000000000000000000000000000000000000000000000000000000000000000000000000000000000000000000000000000000000000000000000000000000000000000000070700000000
310
00000007070707000000000000000000000000000000000000000000000000000000000000000000000000000000000000000000000000000000000000000000000000000000000000000000000000000000000000000000000000000000000000000000000000000000000000000000000000000000000000000000000000
310
00000000000000000000000000000000000000000000000000000000000000000000000000000000000000000707070707000000000000070707000000000000000000000000000000000000000000000000000000000000000000000000000000000000000000000000000000000000000000000000000000000000000000
310
00000000000000000000000000000000000000000000000000000000000000000000000000000000000000000000000000000000000000000000000000000000000000000000000000000000000000000000000000000000000000000000000000070700000000000000070707000000000000000000000000000000000000
310
00000000000000000000000000000000000000000000000000000000000000000000000000000000000000000000000000000000000000000000000000000000000000000000000000000000000000000000000000000000000000000000000000000000000000000000000000000000000000000000000000000000000000
310
00000000000000000000000000000000000000000707070707000000000007070700000000000000000000000000000000000000000000000000000000000000000000000000000000000000000000000000000000000000000000000000000000000000000000000000000000000000000000000000000000000000000000
310
00000000000000000000000000000000000000000000000000000000000000000000000000000000000000000000000000000000000000000000000000000000000000000000070707070700000000000007070700000000000000000000000000000000000000000000000000000000000000000000000000000000000000
310
00000000000000000000000000000000000000000000000000000000000000000000000000000000000000000000000000000000000000000000000000000000000000000000000000000000000000000000000000000000000000000000000000000000000000000000000000000000000000000000000000000007070000
310
00000000000707070000000000000000000000000000000000000000000000000000000000000000000000000000000000000000000000000000000000000000000000000000000000000000000000000000000000000000000000000000000000000000000000000000000000000000000000000000000000000000000000
310
00000000000000000000000000000000000000000000000000000000000000000000000000000000000000000000070707070700000000000707070000000000000000000000000000000000000000000000000000000000000000000000000000000000000000000000000000000000000000000000000000000000000000
310
00000000000000000000000000000000000000000000000000000000000000000000000000000000000000000000000000000000000000000000000000000000000000000000000000000000000000000000000000000000000000000000000000000707070000000000000707070000000000000000000000000000000000
310
00000000000000000000000000000000000000000000000000000000000000000000000000000000000000000000000000000000000000000000000000000000000000000000000000000000000000000000000000000000000000000000000000000000000000000000000000000000000000000000000000000000000000
310
00000000000000000000000000000000000000000000070700000700000000000707000000000000000000000000000000000000000000000000000000000000000000000000000000000000000000000000000000000000000000000000000000000000000000000000000000000000000000000000000000000000000000
310
00000000000000000000000000000000000000000000000000000000000000000000000000000000000000000000000000000000000000000000000000000000000000000000000007070707070000000000000707070000000000000000000000000000000000000000000000000000000000000000000000000000000000
310
00000000000000000000000000000000000000000000000000000000000000000000000000000000000000000000000000000000000000000000000000000000000000000000000000000000000000000000000000000000000000000000000000000000000000000000000000000000000000000000000000000000070707
310
00000000000000070707000000000000000000000000000000000000000000000000000000000000000000000000000000000000000000000000000000000000000000000000000000000000000000000000000000000000000000000000000000000000000000000000000000000000000000000000000000000000000000
310
00000000000000000000000000000000000000000000000000000000000000000000000000000000000000000000000007070007070000000000000707000000000000000000000000000000000000000000000000000000000000000000000000000000000000000000000000000000000000000000000000000000000000
310
00000000000000000000000000000000000000000000000000000000000000000000000000000000000000000000000000000000000000000000000000000000000000000000000000000000000000000000000000000000000000000000000000000000070707000000000000000707000000000000000000000000000000
310
00000000000000000000000000000000000000000000000000000000000000000000000000000000000000000000000000000000000000000000000000000000000000000000000000000000000000000000000000000000000000000000000000000000000000000000000000000000000000000000000000000000000000
310
00000000000000000000000000000000000000000000000007000707070000000000070700000000000000000000000000000000000000000000000000000000000000000000000000000000000000000000000000000000000000000000000000000000000000000000000000000000000000000000000000000000000000
310
00000000000000000000000000000000000000000000000000000000000000000000000000000000000000000000000000000000000000000000000000000000000000000000000000000000000707000000000000070700000000000000000000000000000000000000000000000000000000000000000000000000000000
310
00000000000000000000000000000000000000000000000000000000000000000000000000000000000000000000000000000000000000000000000000000000000000000000000000000000000000000000000000000000000000000000000000000000000000000000000000000000000000000000000000000000000000
310
00000700000000000707070000000000000000000000000000000000000000000000000000000000000000000000000000000000000000000000000000000000000000000000000000000000000000000000000000000000000000000000000000000000000000000000000000000000000000000000000000000000000000
310
00000000000000000000000000000000000000000000000000000000000000000000000000000000000000000000000000000000000707000000000707070000000000000000000000000000000000000000000000000000000000000000000000000000000000000000000000000000000000000000000000000000000000
310
00000000000000000000000000000000000000000000000000000000000000000000000000000000000000000000000000000000000000000000000000000000000000000000000000000000000000000000000000000000000000000000000000000000000000000007000000000707070000000000000000000000000000
310
00000000000000000000000000000000000000000000000000000000000000000000000000000000000000000000000000000000000000000000000000000000000000000000000000000000000000000000000000000000000000000000000000000000000000000000000000000000000000000000000000000000000000
310
00000000000000000000000000000000000000000000000000000000000000070000070707000000000000000000000000000000000000000000000000000000000000000000000000000000000000000000000000000000000000000000000000000000000000000000000000000000000000000000000000000000000000
310
00000000000000000000000000000000000000000000000000000000000000000000000000000000000000000000000000000000000000000000000000000000000000000000000000000000000000000000000700070700000000000000000000000000000000000000000000000000000000000000000000000000000000
310
00000000000000000000000000000000000000000000000000000000000000000000000000000000000000000000000000000000000000000000000000000000000000000000000000000000000000000000000000000000000000000000000000000000000000000000000000000000000000000000000000000000000000
310
00000000000000000007070707000000000000000000000000000000000000000000000000000000000000000000000000000000000000000000000000000000000000000000000000000000000000000000000000000000000000000000000000000000000000000000000000000000000000000000000000000000000000
310
00000000000000000000000000000000000000000000000000000000000000000000000000000000000000000000000000000000000000000000000000000000000000000000000000000000000000000000000000000000000000000000000000000000000000000000000000000000000000000000000000000000000000
310
00000000000000000000000000000000000000000000000000000000000000000000000000000000000000000000000000000000000000000000000000000000000000000000000000000000000000000000000000000000000000000000000000000000000000000000000000000000000000000000000000000000000000
310
00000000000000000000000000000000000000000000000000000000000000000000000000000000000000000000000000000000000000000000000000000000000000000000000000000000000000000000000000000000000000000000000000000000000000000000000000000000000000000000000000000000000000
310
00000000000000000000000000000000000000000000000000000000000000000000000000000000000000000000000000000000000000000000000000000000000000000000000000000000000000000000000000000000000000000000000000000000000000000000000000000000000000000000000000000000000000
310
00000000000000000000000000000000000000000000000000000000000000000000000000000000000000000000000000000000000000000000000000000000000000000000000000000000000000000000000000000000000000000000000000000000000000000000000000000000000000000000000000000000000000
310
000000000000000000000000000000000000000000000000000000000000000000000000000000000000000000000000000000000000000000000000000000000000000000000000000000000000000000000000000000000000000000000000000000000000000000000000
  0
ENDSEC
  0
EOF
