  0
SECTION
  2
HEADER
  9
$ACADVER
  1
AC1015
  9
$ACADMAINTVER
 70
     6
  9
$DWGCODEPAGE
  3
ANSI_1252
  9
$INSBASE
 10
0.0
 20
0.0
 30
0.0
  9
$EXTMIN
 10
0.0
 20
-0.11905
 30
0.0
  9
$EXTMAX
 10
244.0
 20
144.11905
 30
0.0
  9
$LIMMIN
 10
0.0
 20
0.0
  9
$LIMMAX
 10
12.0
 20
9.0
  9
$ORTHOMODE
 70
     0
  9
$REGENMODE
 70
     1
  9
$FILLMODE
 70
     1
  9
$QTEXTMODE
 70
     0
  9
$MIRRTEXT
 70
     1
  9
$LTSCALE
 40
1.0
  9
$ATTMODE
 70
     1
  9
$TEXTSIZE
 40
0.2
  9
$TRACEWID
 40
0.05
  9
$TEXTSTYLE
  7
Standard
  9
$CLAYER
  8
0
  9
$CELTYPE
  6
ByBlock
  9
$CECOLOR
 62
   256
  9
$CELTSCALE
 40
1.0
  9
$DISPSILH
 70
     0
  9
$DIMSCALE
 40
1.0
  9
$DIMASZ
 40
0.18
  9
$DIMEXO
 40
0.0625
  9
$DIMDLI
 40
0.38
  9
$DIMRND
 40
0.0
  9
$DIMDLE
 40
0.0
  9
$DIMEXE
 40
0.18
  9
$DIMTP
 40
0.0
  9
$DIMTM
 40
0.0
  9
$DIMTXT
 40
0.18
  9
$DIMCEN
 40
0.09
  9
$DIMTSZ
 40
0.0
  9
$DIMTOL
 70
     0
  9
$DIMLIM
 70
     0
  9
$DIMTIH
 70
     1
  9
$DIMTOH
 70
     1
  9
$DIMSE1
 70
     0
  9
$DIMSE2
 70
     0
  9
$DIMTAD
 70
     0
  9
$DIMZIN
 70
     0
  9
$DIMBLK
  1

  9
$DIMASO
 70
     1
  9
$DIMSHO
 70
     1
  9
$DIMPOST
  1

  9
$DIMAPOST
  1

  9
$DIMALT
 70
     0
  9
$DIMALTD
 70
     2
  9
$DIMALTF
 40
25.4
  9
$DIMLFAC
 40
1.0
  9
$DIMTOFL
 70
     0
  9
$DIMTVP
 40
0.0
  9
$DIMTIX
 70
     0
  9
$DIMSOXD
 70
     0
  9
$DIMSAH
 70
     0
  9
$DIMBLK1
  1

  9
$DIMBLK2
  1

  9
$DIMSTYLE
  2
Standard
  9
$DIMCLRD
 70
     0
  9
$DIMCLRE
 70
     0
  9
$DIMCLRT
 70
     0
  9
$DIMTFAC
 40
1.0
  9
$DIMGAP
 40
0.09
  9
$DIMJUST
 70
     0
  9
$DIMSD1
 70
     0
  9
$DIMSD2
 70
     0
  9
$DIMTOLJ
 70
     1
  9
$DIMTZIN
 70
     0
  9
$DIMALTZ
 70
     0
  9
$DIMALTTZ
 70
     0
  9
$DIMUPT
 70
     0
  9
$DIMDEC
 70
     4
  9
$DIMTDEC
 70
     4
  9
$DIMALTU
 70
     2
  9
$DIMALTTD
 70
     2
  9
$DIMTXSTY
  7
Standard
  9
$DIMAUNIT
 70
     0
  9
$DIMADEC
 70
     0
  9
$DIMALTRND
 40
0.0
  9
$DIMAZIN
 70
     0
  9
$DIMDSEP
 70
    46
  9
$DIMATFIT
 70
     3
  9
$DIMFRAC
 70
     0
  9
$DIMLDRBLK
  1

  9
$DIMLUNIT
 70
     2
  9
$DIMLWD
 70
    -2
  9
$DIMLWE
 70
    -2
  9
$DIMTMOVE
 70
     2
  9
$LUNITS
 70
     2
  9
$LUPREC
 70
     4
  9
$SKETCHINC
 40
0.1
  9
$FILLETRAD
 40
0.5
  9
$AUNITS
 70
     0
  9
$AUPREC
 70
     0
  9
$MENU
  1
.
  9
$ELEVATION
 40
0.0
  9
$PELEVATION
 40
0.0
  9
$THICKNESS
 40
0.0
  9
$LIMCHECK
 70
     0
  9
$CHAMFERA
 40
0.5
  9
$CHAMFERB
 40
0.5
  9
$CHAMFERC
 40
1.0
  9
$CHAMFERD
 40
0.0
  9
$SKPOLY
 70
     0
  9
$TDCREATE
 40
2455872.940635127
  9
$TDUCREATE
 40
2455872.898968461
  9
$TDUPDATE
 40
2455872.942038842
  9
$TDUUPDATE
 40
2455872.900372176
  9
$TDINDWG
 40
0.0014035532
  9
$TDUSRTIMER
 40
0.0014035532
  9
$USRTIMER
 70
     1
  9
$ANGBASE
 50
0.0
  9
$ANGDIR
 70
     0
  9
$PDMODE
 70
     0
  9
$PDSIZE
 40
0.0
  9
$PLINEWID
 40
0.0
  9
$SPLFRAME
 70
     0
  9
$SPLINETYPE
 70
     6
  9
$SPLINESEGS
 70
     8
  9
$HANDSEED
  5
28D
  9
$SURFTAB1
 70
     6
  9
$SURFTAB2
 70
     6
  9
$SURFTYPE
 70
     6
  9
$SURFU
 70
     6
  9
$SURFV
 70
     6
  9
$UCSBASE
  2

  9
$UCSNAME
  2

  9
$UCSORG
 10
0.0
 20
0.0
 30
0.0
  9
$UCSXDIR
 10
1.0
 20
0.0
 30
0.0
  9
$UCSYDIR
 10
0.0
 20
1.0
 30
0.0
  9
$UCSORTHOREF
  2

  9
$UCSORTHOVIEW
 70
     0
  9
$UCSORGTOP
 10
0.0
 20
0.0
 30
0.0
  9
$UCSORGBOTTOM
 10
0.0
 20
0.0
 30
0.0
  9
$UCSORGLEFT
 10
0.0
 20
0.0
 30
0.0
  9
$UCSORGRIGHT
 10
0.0
 20
0.0
 30
0.0
  9
$UCSORGFRONT
 10
0.0
 20
0.0
 30
0.0
  9
$UCSORGBACK
 10
0.0
 20
0.0
 30
0.0
  9
$PUCSBASE
  2

  9
$PUCSNAME
  2

  9
$PUCSORG
 10
0.0
 20
0.0
 30
0.0
  9
$PUCSXDIR
 10
1.0
 20
0.0
 30
0.0
  9
$PUCSYDIR
 10
0.0
 20
1.0
 30
0.0
  9
$PUCSORTHOREF
  2

  9
$PUCSORTHOVIEW
 70
     0
  9
$PUCSORGTOP
 10
0.0
 20
0.0
 30
0.0
  9
$PUCSORGBOTTOM
 10
0.0
 20
0.0
 30
0.0
  9
$PUCSORGLEFT
 10
0.0
 20
0.0
 30
0.0
  9
$PUCSORGRIGHT
 10
0.0
 20
0.0
 30
0.0
  9
$PUCSORGFRONT
 10
0.0
 20
0.0
 30
0.0
  9
$PUCSORGBACK
 10
0.0
 20
0.0
 30
0.0
  9
$USERI1
 70
     0
  9
$USERI2
 70
     0
  9
$USERI3
 70
     0
  9
$USERI4
 70
     0
  9
$USERI5
 70
     0
  9
$USERR1
 40
0.0
  9
$USERR2
 40
0.0
  9
$USERR3
 40
0.0
  9
$USERR4
 40
0.0
  9
$USERR5
 40
0.0
  9
$WORLDVIEW
 70
     1
  9
$SHADEDGE
 70
     3
  9
$SHADEDIF
 70
    70
  9
$TILEMODE
 70
     1
  9
$MAXACTVP
 70
    64
  9
$PINSBASE
 10
0.0
 20
0.0
 30
0.0
  9
$PLIMCHECK
 70
     0
  9
$PEXTMIN
 10
1.000000000000E+20
 20
1.000000000000E+20
 30
1.000000000000E+20
  9
$PEXTMAX
 10
-1.000000000000E+20
 20
-1.000000000000E+20
 30
-1.000000000000E+20
  9
$PLIMMIN
 10
0.0
 20
0.0
  9
$PLIMMAX
 10
12.0
 20
9.0
  9
$UNITMODE
 70
     0
  9
$VISRETAIN
 70
     1
  9
$PLINEGEN
 70
     0
  9
$PSLTSCALE
 70
     1
  9
$TREEDEPTH
 70
  3020
  9
$CMLSTYLE
  2
Standard
  9
$CMLJUST
 70
     0
  9
$CMLSCALE
 40
1.0
  9
$PROXYGRAPHICS
 70
     1
  9
$MEASUREMENT
 70
     0
  9
$CELWEIGHT
370
    -1
  9
$ENDCAPS
280
     0
  9
$JOINSTYLE
280
     0
  9
$LWDISPLAY
290
     0
  9
$INSUNITS
 70
     0
  9
$HYPERLINKBASE
  1

  9
$STYLESHEET
  1

  9
$XEDIT
290
     1
  9
$CEPSNTYPE
380
     0
  9
$PSTYLEMODE
290
     1
  9
$FINGERPRINTGUID
  2
{2487F1B2-59C9-430A-B06E-4178E18F4C47}
  9
$VERSIONGUID
  2
{FAEB1C32-E019-11D5-929B-00C0DF256EC4}
  9
$EXTNAMES
290
     1
  9
$PSVPSCALE
 40
0.0
  9
$OLESTARTUP
290
     0
  0
ENDSEC
  0
SECTION
  2
CLASSES
  0
CLASS
  1
ACDBDICTIONARYWDFLT
  2
AcDbDictionaryWithDefault
  3
ObjectDBX Classes
 90
        0
280
     0
281
     0
  0
CLASS
  1
SCALE
  2
AcDbScale
  3
ObjectDBX Classes
 90
     1153
280
     0
281
     0
  0
CLASS
  1
DICTIONARYVAR
  2
AcDbDictionaryVar
  3
ObjectDBX Classes
 90
        0
280
     0
281
     0
  0
CLASS
  1
ACDBPLACEHOLDER
  2
AcDbPlaceHolder
  3
ObjectDBX Classes
 90
        0
280
     0
281
     0
  0
CLASS
  1
LAYOUT
  2
AcDbLayout
  3
ObjectDBX Classes
 90
        0
280
     0
281
     0
  0
ENDSEC
  0
SECTION
  2
TABLES
  0
TABLE
  2
VPORT
  5
8
330
0
100
AcDbSymbolTable
 70
     1
  0
VPORT
  5
258
330
8
100
AcDbSymbolTableRecord
100
AcDbViewportTableRecord
  2
*Active
 70
     0
 10
0.0
 20
0.0
 11
1.0
 21
1.0
 12
122.0
 22
72.0
 13
0.0
 23
0.0
 14
0.5
 24
0.5
 15
0.5
 25
0.5
 16
0.0
 26
0.0
 36
1.0
 17
0.0
 27
0.0
 37
0.0
 40
147.122862
 41
2.271724137931
 42
50.0
 43
0.0
 44
0.0
 50
0.0
 51
0.0
 71
    16
 72
   100
 73
     1
 74
     3
 75
     0
 76
     0
 77
     0
 78
     0
281
     0
 65
     1
110
0.0
120
0.0
130
0.0
111
1.0
121
0.0
131
0.0
112
0.0
122
1.0
132
0.0
 79
     0
146
0.0
  0
ENDTAB
  0
TABLE
  2
LTYPE
  5
5
330
0
100
AcDbSymbolTable
 70
     1
  0
LTYPE
  5
14
330
5
100
AcDbSymbolTableRecord
100
AcDbLinetypeTableRecord
  2
ByBlock
 70
     0
  3

 72
    65
 73
     0
 40
0.0
  0
LTYPE
  5
15
330
5
100
AcDbSymbolTableRecord
100
AcDbLinetypeTableRecord
  2
ByLayer
 70
     0
  3

 72
    65
 73
     0
 40
0.0
  0
LTYPE
  5
16
330
5
100
AcDbSymbolTableRecord
100
AcDbLinetypeTableRecord
  2
Continuous
 70
     0
  3
Solid line
 72
    65
 73
     0
 40
0.0
  0
ENDTAB
  0
TABLE
  2
LAYER
  5
2
330
0
100
AcDbSymbolTable
 70
     1
  0
LAYER
  5
10
330
2
100
AcDbSymbolTableRecord
100
AcDbLayerTableRecord
  2
0
 70
     0
 62
     7
  6
Continuous
370
    -3
390
F
  0
ENDTAB
  0
TABLE
  2
STYLE
  5
3
330
0
100
AcDbSymbolTable
 70
     1
  0
STYLE
  5
11
330
3
100
AcDbSymbolTableRecord
100
AcDbTextStyleTableRecord
  2
Standard
 70
     0
 40
0.0
 41
1.0
 50
0.0
 71
     0
 42
0.2
  3
txt
  4

  0
ENDTAB
  0
TABLE
  2
VIEW
  5
6
330
0
100
AcDbSymbolTable
 70
     0
  0
ENDTAB
  0
TABLE
  2
UCS
  5
7
330
0
100
AcDbSymbolTable
 70
     0
  0
ENDTAB
  0
TABLE
  2
APPID
  5
9
330
0
100
AcDbSymbolTable
 70
     1
  0
APPID
  5
12
330
9
100
AcDbSymbolTableRecord
100
AcDbRegAppTableRecord
  2
ACAD
 70
     0
  0
ENDTAB
  0
TABLE
  2
DIMSTYLE
  5
A
330
0
100
AcDbSymbolTable
 70
     1
100
AcDbDimStyleTable
  0
DIMSTYLE
105
20
330
A
100
AcDbSymbolTableRecord
100
AcDbDimStyleTableRecord
  2
Standard
 70
     0
340
11
  0
ENDTAB
  0
TABLE
  2
BLOCK_RECORD
  5
1
330
0
100
AcDbSymbolTable
 70
     0
  0
BLOCK_RECORD
  5
1D
330
1
100
AcDbSymbolTableRecord
100
AcDbBlockTableRecord
  2
*Model_Space
340
1E
  0
BLOCK_RECORD
  5
1B
330
1
100
AcDbSymbolTableRecord
100
AcDbBlockTableRecord
  2
*Paper_Space
340
1C
  0
ENDTAB
  0
ENDSEC
  0
SECTION
  2
BLOCKS
  0
BLOCK
  5
25B
330
1D
100
AcDbEntity
  8
0
100
AcDbBlockBegin
  2
*Model_Space
 70
     0
 10
0.0
 20
0.0
 30
0.0
  3
*Model_Space
  1
*Model_Space
  0
ENDBLK
  5
25C
330
1D
100
AcDbEntity
  8
0
100
AcDbBlockEnd
  0
BLOCK
  5
259
330
1B
100
AcDbEntity
 67
     1
  8
0
100
AcDbBlockBegin
  2
*Paper_Space
 70
     0
 10
0.0
 20
0.0
 30
0.0
  3
*Paper_Space
  1
*Paper_Space
  0
ENDBLK
  5
25A
330
1B
100
AcDbEntity
 67
     1
  8
0
100
AcDbBlockEnd
  0
ENDSEC
  0
SECTION
  2
ENTITIES
  0
LINE
  5
8D
330
1D
100
AcDbEntity
  8
0
100
AcDbLine
 10
27.6392
 20
88.67905
 30
0.0
 11
27.7164
 21
88.66505
 31
0.0
  0
LINE
  5
8F
330
1D
100
AcDbEntity
  8
0
100
AcDbLine
 10
28.0974
 20
88.80325
 30
0.0
 11
28.1862
 21
88.99445
 31
0.0
  0
LINE
  5
90
330
1D
100
AcDbEntity
  8
0
100
AcDbLine
 10
27.9249
 20
88.68265
 30
0.0
 11
28.0974
 21
88.80325
 31
0.0
  0
LINE
  5
91
330
1D
100
AcDbEntity
  8
0
100
AcDbLine
 10
27.7164
 20
88.66505
 30
0.0
 11
27.9249
 21
88.68265
 31
0.0
  0
LINE
  5
92
330
1D
100
AcDbEntity
  8
0
100
AcDbLine
 10
27.273
 20
91.98645
 30
0.0
 11
28.157
 21
91.88275
 31
0.0
  0
LINE
  5
93
330
1D
100
AcDbEntity
  8
0
100
AcDbLine
 10
26.041
 20
92.29735
 30
0.0
 11
27.273
 21
91.98645
 31
0.0
  0
LINE
  5
94
330
1D
100
AcDbEntity
  8
0
100
AcDbLine
 10
4.70708
 20
92.89675
 30
0.0
 11
4.8961
 21
92.80705
 31
0.0
  0
LINE
  5
95
330
1D
100
AcDbEntity
  8
0
100
AcDbLine
 10
4.97331
 20
92.79295
 30
0.0
 11
5.15374
 21
92.76005
 31
0.0
  0
LINE
  5
96
330
1D
100
AcDbEntity
  8
0
100
AcDbLine
 10
4.8961
 20
92.80705
 30
0.0
 11
4.97331
 21
92.79295
 31
0.0
  0
LINE
  5
98
330
1D
100
AcDbEntity
  8
0
100
AcDbLine
 10
24.569
 20
92.73875
 30
0.0
 11
26.041
 21
92.29735
 31
0.0
  0
LINE
  5
99
330
1D
100
AcDbEntity
  8
0
100
AcDbLine
 10
28.1862
 20
88.99445
 30
0.0
 11
28.70989994354
 21
91.880049633975
 31
0.0
  0
LINE
  5
9A
330
1D
100
AcDbEntity
  8
0
100
AcDbLine
 10
50.5383
 20
88.88095
 30
0.0
 11
52.2854
 21
88.88095
 31
0.0
  0
LINE
  5
9B
330
1D
100
AcDbEntity
  8
0
100
AcDbLine
 10
49.4383
 20
88.88095
 30
0.0
 11
49.5501
 21
88.88095
 31
0.0
  0
LINE
  5
9C
330
1D
100
AcDbEntity
  8
0
100
AcDbLine
 10
49.4383
 20
88.88095
 30
0.0
 11
50.5383
 21
88.88095
 31
0.0
  0
LINE
  5
9D
330
1D
100
AcDbEntity
  8
0
100
AcDbLine
 10
49.0501
 20
88.88095
 30
0.0
 11
49.4383
 21
88.88095
 31
0.0
  0
LINE
  5
9E
330
1D
100
AcDbEntity
  8
0
100
AcDbLine
 10
49.0501
 20
88.88095
 30
0.0
 11
49.0501
 21
91.846002742382
 31
0.0
  0
LINE
  5
9F
330
1D
100
AcDbEntity
  8
0
100
AcDbLine
 10
49.0501
 20
87.88095
 30
0.0
 11
51.0501
 21
59.88095
 31
0.0
  0
LINE
  5
A0
330
1D
100
AcDbEntity
  8
0
100
AcDbLine
 10
49.0501
 20
87.88095
 30
0.0
 11
49.5501
 21
88.88095
 31
0.0
  0
LINE
  5
A1
330
1D
100
AcDbEntity
  8
0
100
AcDbLine
 10
52.5501
 20
59.88095
 30
0.0
 11
52.8501
 21
59.88095
 31
0.0
  0
LINE
  5
A2
330
1D
100
AcDbEntity
  8
0
100
AcDbLine
 10
52.8501
 20
5.49215
 30
0.0
 11
53.5501
 21
6.69155
 31
0.0
  0
LINE
  5
A3
330
1D
100
AcDbEntity
  8
0
100
AcDbLine
 10
52.5501
 20
4.14275
 30
0.0
 11
52.8501
 21
2.15615
 31
0.0
  0
LINE
  5
A4
330
1D
100
AcDbEntity
  8
0
100
AcDbLine
 10
52.5501
 20
4.14275
 30
0.0
 11
52.5501
 21
59.88095
 31
0.0
  0
LINE
  5
A5
330
1D
100
AcDbEntity
  8
0
100
AcDbLine
 10
52.5501
 20
4.14275
 30
0.0
 11
52.8501
 21
5.49215
 31
0.0
  0
LINE
  5
A6
330
1D
100
AcDbEntity
  8
0
100
AcDbLine
 10
53.5501
 20
6.69155
 30
0.0
 11
54.7501
 21
7.89105
 31
0.0
  0
LINE
  5
A7
330
1D
100
AcDbEntity
  8
0
100
AcDbLine
 10
52.8501
 20
59.88095
 30
0.0
 11
53.5501
 21
59.88095
 31
0.0
  0
LINE
  5
A8
330
1D
100
AcDbEntity
  8
0
100
AcDbLine
 10
53.5501
 20
59.88095
 30
0.0
 11
54.7501
 21
59.88095
 31
0.0
  0
LINE
  5
A9
330
1D
100
AcDbEntity
  8
0
100
AcDbLine
 10
54.7501
 20
7.89105
 30
0.0
 11
56.3501
 21
8.94055
 31
0.0
  0
LINE
  5
AA
330
1D
100
AcDbEntity
  8
0
100
AcDbLine
 10
52.8501
 20
2.15615
 30
0.0
 11
53.5501
 21
1.03175
 31
0.0
  0
LINE
  5
AB
330
1D
100
AcDbEntity
  8
0
100
AcDbLine
 10
53.5501
 20
1.03175
 30
0.0
 11
54.7501
 21
0.35705
 31
0.0
  0
LINE
  5
AC
330
1D
100
AcDbEntity
  8
0
100
AcDbLine
 10
54.7501
 20
59.88095
 30
0.0
 11
56.3501
 21
59.88095
 31
0.0
  0
LINE
  5
AD
330
1D
100
AcDbEntity
  8
0
100
AcDbLine
 10
54.7501
 20
0.35705
 30
0.0
 11
56.3501
 21
-0.01775
 31
0.0
  0
LINE
  5
AE
330
1D
100
AcDbEntity
  8
0
100
AcDbLine
 10
53.6501
 20
59.88095
 30
0.0
 11
55.5501
 21
59.88095
 31
0.0
  0
LINE
  5
AF
330
1D
100
AcDbEntity
  8
0
100
AcDbLine
 10
60.0501
 20
-0.11905
 30
0.0
 11
61.9501
 21
-0.09275
 31
0.0
  0
LINE
  5
B0
330
1D
100
AcDbEntity
  8
0
100
AcDbLine
 10
56.3501
 20
8.94055
 30
0.0
 11
58.1501
 21
9.65265
 31
0.0
  0
LINE
  5
B1
330
1D
100
AcDbEntity
  8
0
100
AcDbLine
 10
56.3501
 20
59.88095
 30
0.0
 11
58.1501
 21
59.88095
 31
0.0
  0
LINE
  5
B2
330
1D
100
AcDbEntity
  8
0
100
AcDbLine
 10
60.0501
 20
9.88095
 30
0.0
 11
61.9501
 21
9.65265
 31
0.0
  0
LINE
  5
B3
330
1D
100
AcDbEntity
  8
0
100
AcDbLine
 10
58.1501
 20
59.88095
 30
0.0
 11
60.0501
 21
59.88095
 31
0.0
  0
LINE
  5
B4
330
1D
100
AcDbEntity
  8
0
100
AcDbLine
 10
58.1501
 20
9.65265
 30
0.0
 11
60.0501
 21
9.88095
 31
0.0
  0
LINE
  5
B5
330
1D
100
AcDbEntity
  8
0
100
AcDbLine
 10
56.3501
 20
-0.01775
 30
0.0
 11
58.1501
 21
-0.09275
 31
0.0
  0
LINE
  5
B6
330
1D
100
AcDbEntity
  8
0
100
AcDbLine
 10
58.1501
 20
-0.09275
 30
0.0
 11
60.0501
 21
-0.11905
 31
0.0
  0
LINE
  5
B7
330
1D
100
AcDbEntity
  8
0
100
AcDbLine
 10
55.5501
 20
59.88095
 30
0.0
 11
57.7501
 21
59.88095
 31
0.0
  0
LINE
  5
B8
330
1D
100
AcDbEntity
  8
0
100
AcDbLine
 10
57.7501
 20
59.88095
 30
0.0
 11
60.0501
 21
59.88095
 31
0.0
  0
LINE
  5
B9
330
1D
100
AcDbEntity
  8
0
100
AcDbLine
 10
63.7501
 20
-0.01775
 30
0.0
 11
65.3501
 21
0.35705
 31
0.0
  0
LINE
  5
BA
330
1D
100
AcDbEntity
  8
0
100
AcDbLine
 10
61.9501
 20
-0.09275
 30
0.0
 11
63.7501
 21
-0.01775
 31
0.0
  0
LINE
  5
BB
330
1D
100
AcDbEntity
  8
0
100
AcDbLine
 10
63.7501
 20
8.94055
 30
0.0
 11
65.3501
 21
7.89105
 31
0.0
  0
LINE
  5
BC
330
1D
100
AcDbEntity
  8
0
100
AcDbLine
 10
63.7501
 20
59.88095
 30
0.0
 11
65.3501
 21
59.88095
 31
0.0
  0
LINE
  5
BD
330
1D
100
AcDbEntity
  8
0
100
AcDbLine
 10
61.9501
 20
59.88095
 30
0.0
 11
63.7501
 21
59.88095
 31
0.0
  0
LINE
  5
BE
330
1D
100
AcDbEntity
  8
0
100
AcDbLine
 10
61.9501
 20
9.65265
 30
0.0
 11
63.7501
 21
8.94055
 31
0.0
  0
LINE
  5
BF
330
1D
100
AcDbEntity
  8
0
100
AcDbLine
 10
65.3501
 20
0.35705
 30
0.0
 11
66.5501
 21
1.03175
 31
0.0
  0
LINE
  5
C0
330
1D
100
AcDbEntity
  8
0
100
AcDbLine
 10
65.3501
 20
59.88095
 30
0.0
 11
66.5501
 21
59.88095
 31
0.0
  0
LINE
  5
C1
330
1D
100
AcDbEntity
  8
0
100
AcDbLine
 10
67.2501
 20
2.15615
 30
0.0
 11
67.5501
 21
4.14275
 31
0.0
  0
LINE
  5
C2
330
1D
100
AcDbEntity
  8
0
100
AcDbLine
 10
66.5501
 20
1.03175
 30
0.0
 11
67.2501
 21
2.15615
 31
0.0
  0
LINE
  5
C3
330
1D
100
AcDbEntity
  8
0
100
AcDbLine
 10
67.2501
 20
5.49215
 30
0.0
 11
67.5501
 21
4.14275
 31
0.0
  0
LINE
  5
C4
330
1D
100
AcDbEntity
  8
0
100
AcDbLine
 10
67.5501
 20
4.14275
 30
0.0
 11
67.5501
 21
59.88095
 31
0.0
  0
LINE
  5
C5
330
1D
100
AcDbEntity
  8
0
100
AcDbLine
 10
67.2501
 20
59.88095
 30
0.0
 11
67.5501
 21
59.88095
 31
0.0
  0
LINE
  5
C6
330
1D
100
AcDbEntity
  8
0
100
AcDbLine
 10
66.5501
 20
59.88095
 30
0.0
 11
67.2501
 21
59.88095
 31
0.0
  0
LINE
  5
C7
330
1D
100
AcDbEntity
  8
0
100
AcDbLine
 10
66.5501
 20
6.69155
 30
0.0
 11
67.2501
 21
5.49215
 31
0.0
  0
LINE
  5
C8
330
1D
100
AcDbEntity
  8
0
100
AcDbLine
 10
65.3501
 20
7.89105
 30
0.0
 11
66.5501
 21
6.69155
 31
0.0
  0
LINE
  5
C9
330
1D
100
AcDbEntity
  8
0
100
AcDbLine
 10
66.4501
 20
59.88095
 30
0.0
 11
67.8501
 21
59.88095
 31
0.0
  0
LINE
  5
CA
330
1D
100
AcDbEntity
  8
0
100
AcDbLine
 10
64.5501
 20
59.88095
 30
0.0
 11
66.4501
 21
59.88095
 31
0.0
  0
LINE
  5
CB
330
1D
100
AcDbEntity
  8
0
100
AcDbLine
 10
62.3501
 20
59.88095
 30
0.0
 11
64.5501
 21
59.88095
 31
0.0
  0
LINE
  5
CC
330
1D
100
AcDbEntity
  8
0
100
AcDbLine
 10
60.0501
 20
59.88095
 30
0.0
 11
62.3501
 21
59.88095
 31
0.0
  0
LINE
  5
CD
330
1D
100
AcDbEntity
  8
0
100
AcDbLine
 10
60.0501
 20
59.88095
 30
0.0
 11
61.9501
 21
59.88095
 31
0.0
  0
LINE
  5
CE
330
1D
100
AcDbEntity
  8
0
100
AcDbLine
 10
67.5501
 20
59.88095
 30
0.0
 11
67.8501
 21
59.88095
 31
0.0
  0
LINE
  5
CF
330
1D
100
AcDbEntity
  8
0
100
AcDbLine
 10
67.5501
 20
59.88095
 30
0.0
 11
67.5501
 21
4.14275
 31
0.0
  0
LINE
  5
D0
330
1D
100
AcDbEntity
  8
0
100
AcDbLine
 10
69.0501
 20
59.88095
 30
0.0
 11
71.0501
 21
87.88095
 31
0.0
  0
LINE
  5
D1
330
1D
100
AcDbEntity
  8
0
100
AcDbLine
 10
67.8501
 20
59.88095
 30
0.0
 11
68.7501
 21
59.88095
 31
0.0
  0
LINE
  5
D2
330
1D
100
AcDbEntity
  8
0
100
AcDbLine
 10
68.7501
 20
59.88095
 30
0.0
 11
69.0501
 21
59.88095
 31
0.0
  0
LINE
  5
D3
330
1D
100
AcDbEntity
  8
0
100
AcDbLine
 10
52.2501
 20
59.88095
 30
0.0
 11
52.5501
 21
59.88095
 31
0.0
  0
LINE
  5
D4
330
1D
100
AcDbEntity
  8
0
100
AcDbLine
 10
52.2501
 20
59.88095
 30
0.0
 11
53.6501
 21
59.88095
 31
0.0
  0
LINE
  5
D5
330
1D
100
AcDbEntity
  8
0
100
AcDbLine
 10
52.2854
 20
88.88095
 30
0.0
 11
54.5825
 21
88.88095
 31
0.0
  0
LINE
  5
D6
330
1D
100
AcDbEntity
  8
0
100
AcDbLine
 10
65.5177
 20
88.88095
 30
0.0
 11
67.8148
 21
88.88095
 31
0.0
  0
LINE
  5
D7
330
1D
100
AcDbEntity
  8
0
100
AcDbLine
 10
62.8648
 20
88.88095
 30
0.0
 11
65.5177
 21
88.88095
 31
0.0
  0
LINE
  5
D8
330
1D
100
AcDbEntity
  8
0
100
AcDbLine
 10
60.0501
 20
88.88095
 30
0.0
 11
62.8648
 21
88.88095
 31
0.0
  0
LINE
  5
D9
330
1D
100
AcDbEntity
  8
0
100
AcDbLine
 10
67.8148
 20
88.88095
 30
0.0
 11
69.5619
 21
88.88095
 31
0.0
  0
LINE
  5
DA
330
1D
100
AcDbEntity
  8
0
100
AcDbLine
 10
69.5619
 20
88.88095
 30
0.0
 11
70.6619
 21
88.88095
 31
0.0
  0
LINE
  5
DB
330
1D
100
AcDbEntity
  8
0
100
AcDbLine
 10
54.5825
 20
88.88095
 30
0.0
 11
57.2354
 21
88.88095
 31
0.0
  0
LINE
  5
DC
330
1D
100
AcDbEntity
  8
0
100
AcDbLine
 10
57.2354
 20
88.88095
 30
0.0
 11
60.0501
 21
88.88095
 31
0.0
  0
LINE
  5
DD
330
1D
100
AcDbEntity
  8
0
100
AcDbLine
 10
71.0501
 20
88.88095
 30
0.0
 11
71.0501
 21
91.72840137577
 31
0.0
  0
LINE
  5
DE
330
1D
100
AcDbEntity
  8
0
100
AcDbLine
 10
70.6619
 20
88.88095
 30
0.0
 11
71.0501
 21
88.88095
 31
0.0
  0
LINE
  5
DF
330
1D
100
AcDbEntity
  8
0
100
AcDbLine
 10
70.5501
 20
88.88095
 30
0.0
 11
71.0501
 21
87.88095
 31
0.0
  0
LINE
  5
E0
330
1D
100
AcDbEntity
  8
0
100
AcDbLine
 10
70.5501
 20
88.88095
 30
0.0
 11
70.6619
 21
88.88095
 31
0.0
  0
LINE
  5
E1
330
1D
100
AcDbEntity
  8
0
100
AcDbLine
 10
51.3501
 20
59.88095
 30
0.0
 11
52.2501
 21
59.88095
 31
0.0
  0
LINE
  5
E2
330
1D
100
AcDbEntity
  8
0
100
AcDbLine
 10
51.0501
 20
59.88095
 30
0.0
 11
51.3501
 21
59.88095
 31
0.0
  0
LINE
  5
E3
330
1D
100
AcDbEntity
  8
0
100
AcDbLine
 10
71.0501
 20
91.72840137577
 30
0.0
 11
71.42
 21
91.70045
 31
0.0
  0
LINE
  5
E4
330
1D
100
AcDbEntity
  8
0
100
AcDbLine
 10
71.0501
 20
91.72840137577
 30
0.0
 11
71.0501
 21
88.88095
 31
0.0
  0
LINE
  5
E7
330
1D
100
AcDbEntity
  8
0
100
AcDbLine
 10
70.933
 20
91.73725
 30
0.0
 11
71.42
 21
91.70045
 31
0.0
  0
LINE
  5
E8
330
1D
100
AcDbEntity
  8
0
100
AcDbLine
 10
222.777289996691
 20
91.064085063062
 30
0.0
 11
222.867
 21
91.06365
 31
0.0
  0
LINE
  5
E9
330
1D
100
AcDbEntity
  8
0
100
AcDbLine
 10
222.777939849636
 20
91.064082330827
 30
0.0
 11
222.867
 21
91.06365
 31
0.0
  0
LINE
  5
EA
330
1D
100
AcDbEntity
  8
0
100
AcDbLine
 10
222.867
 20
91.06365
 30
0.0
 11
224.051
 21
91.05865
 31
0.0
  0
LINE
  5
EB
330
1D
100
AcDbEntity
  8
0
100
AcDbLine
 10
226.068217647116
 20
91.050248722792
 30
0.0
 11
237.104
 21
91.00385
 31
0.0
  0
LINE
  5
EC
330
1D
100
AcDbEntity
  8
0
100
AcDbLine
 10
226.068217647116
 20
91.050248722792
 30
0.0
 11
237.104
 21
91.00385
 31
0.0
  0
LINE
  5
ED
330
1D
100
AcDbEntity
  8
0
100
AcDbLine
 10
224.195881368629
 20
91.058120752991
 30
0.0
 11
225.760562851421
 21
91.051542223255
 31
0.0
  0
LINE
  5
EE
330
1D
100
AcDbEntity
  8
0
100
AcDbLine
 10
224.195881368629
 20
91.058120752991
 30
0.0
 11
225.760562851421
 21
91.051542223255
 31
0.0
  0
LINE
  5
EF
330
1D
100
AcDbEntity
  8
0
100
AcDbLine
 10
225.760562851421
 20
91.051542223255
 30
0.0
 11
225.937
 21
91.05065
 31
0.0
  0
LINE
  5
F0
330
1D
100
AcDbEntity
  8
0
100
AcDbLine
 10
225.760562851421
 20
91.051542223255
 30
0.0
 11
225.937
 21
91.05065
 31
0.0
  0
LINE
  5
F1
330
1D
100
AcDbEntity
  8
0
100
AcDbLine
 10
225.937
 20
91.05065
 30
0.0
 11
226.068217647116
 21
91.050248722792
 31
0.0
  0
LINE
  5
F2
330
1D
100
AcDbEntity
  8
0
100
AcDbLine
 10
225.937
 20
91.05065
 30
0.0
 11
237.104
 21
91.00385
 31
0.0
  0
LINE
  5
F3
330
1D
100
AcDbEntity
  8
0
100
AcDbLine
 10
224.051
 20
91.05865
 30
0.0
 11
224.195881368629
 21
91.058120752991
 31
0.0
  0
LINE
  5
F4
330
1D
100
AcDbEntity
  8
0
100
AcDbLine
 10
224.051
 20
91.05865
 30
0.0
 11
224.195881368629
 21
91.058120752991
 31
0.0
  0
LINE
  5
F5
330
1D
100
AcDbEntity
  8
0
100
AcDbLine
 10
222.777939849636
 20
91.064082330827
 30
0.0
 11
222.867
 21
91.06365
 31
0.0
  0
LINE
  5
F6
330
1D
100
AcDbEntity
  8
0
100
AcDbLine
 10
222.777289996691
 20
91.064085063062
 30
0.0
 11
222.867
 21
91.06365
 31
0.0
  0
LINE
  5
F7
330
1D
100
AcDbEntity
  8
0
100
AcDbLine
 10
237.104
 20
91.12145
 30
0.0
 11
237.104
 21
91.47025
 31
0.0
  0
LINE
  5
F8
330
1D
100
AcDbEntity
  8
0
100
AcDbLine
 10
237.104
 20
91.12145
 30
0.0
 11
237.104
 21
91.00385
 31
0.0
  0
LINE
  5
FB
330
1D
100
AcDbEntity
  8
0
100
AcDbLine
 10
237.104
 20
91.00385
 30
0.0
 11
237.104
 21
91.12145
 31
0.0
  0
LINE
  5
FC
330
1D
100
AcDbEntity
  8
0
100
AcDbLine
 10
48.521
 20
91.79705
 30
0.0
 11
49.243
 21
91.86385
 31
0.0
  0
LINE
  5
FD
330
1D
100
AcDbEntity
  8
0
100
AcDbLine
 10
28.70989994354
 20
91.880049633975
 30
0.0
 11
28.976
 21
91.87875
 31
0.0
  0
LINE
  5
FE
330
1D
100
AcDbEntity
  8
0
100
AcDbLine
 10
49.0501
 20
91.846002742382
 30
0.0
 11
49.0501
 21
88.88095
 31
0.0
  0
LINE
  5
FF
330
1D
100
AcDbEntity
  8
0
100
AcDbLine
 10
49.243
 20
91.86385
 30
0.0
 11
50.13
 21
92.05215
 31
0.0
  0
LINE
  5
100
330
1D
100
AcDbEntity
  8
0
100
AcDbLine
 10
70.07
 20
91.90565
 30
0.0
 11
70.933
 21
91.73725
 31
0.0
  0
LINE
  5
101
330
1D
100
AcDbEntity
  8
0
100
AcDbLine
 10
67.769
 20
92.54845
 30
0.0
 11
69.048
 21
92.17575
 31
0.0
  0
LINE
  5
102
330
1D
100
AcDbEntity
  8
0
100
AcDbLine
 10
51.541
 20
92.43485
 30
0.0
 11
53.168
 21
92.89325
 31
0.0
  0
LINE
  5
103
330
1D
100
AcDbEntity
  8
0
100
AcDbLine
 10
69.048
 20
92.17575
 30
0.0
 11
70.07
 21
91.90565
 31
0.0
  0
LINE
  5
104
330
1D
100
AcDbEntity
  8
0
100
AcDbLine
 10
50.13
 20
92.05215
 30
0.0
 11
51.541
 21
92.43485
 31
0.0
  0
LINE
  5
105
330
1D
100
AcDbEntity
  8
0
100
AcDbLine
 10
66.346
 20
92.95305
 30
0.0
 11
67.769
 21
92.54845
 31
0.0
  0
LINE
  5
106
330
1D
100
AcDbEntity
  8
0
100
AcDbLine
 10
53.168
 20
92.89325
 30
0.0
 11
54.576
 21
93.25105
 31
0.0
  0
LINE
  5
107
330
1D
100
AcDbEntity
  8
0
100
AcDbLine
 10
237.104
 20
92.56635
 30
0.0
 11
237.104
 21
94.25155
 31
0.0
  0
LINE
  5
108
330
1D
100
AcDbEntity
  8
0
100
AcDbLine
 10
237.104
 20
92.56635
 30
0.0
 11
237.104
 21
91.47025
 31
0.0
  0
LINE
  5
109
330
1D
100
AcDbEntity
  8
0
100
AcDbLine
 10
47.503
 20
91.80095
 30
0.0
 11
47.711
 21
91.80005
 31
0.0
  0
LINE
  5
10A
330
1D
100
AcDbEntity
  8
0
100
AcDbLine
 10
28.976
 20
91.87875
 30
0.0
 11
29.187
 21
91.87785
 31
0.0
  0
LINE
  5
10B
330
1D
100
AcDbEntity
  8
0
100
AcDbLine
 10
47.711
 20
91.80005
 30
0.0
 11
48.521
 21
91.79705
 31
0.0
  0
LINE
  5
10C
330
1D
100
AcDbEntity
  8
0
100
AcDbLine
 10
28.157
 20
91.88275
 30
0.0
 11
28.976
 21
91.87875
 31
0.0
  0
LINE
  5
10D
330
1D
100
AcDbEntity
  8
0
100
AcDbLine
 10
0.0
 20
105.89405
 30
0.0
 11
0.298
 21
103.03295
 31
0.0
  0
LINE
  5
10E
330
1D
100
AcDbEntity
  8
0
100
AcDbLine
 10
0.0
 20
105.89405
 30
0.0
 11
0.0
 21
118.90675
 31
0.0
  0
LINE
  5
10F
330
1D
100
AcDbEntity
  8
0
100
AcDbLine
 10
0.0
 20
105.89405
 30
0.0
 11
0.298
 21
103.03295
 31
0.0
  0
LINE
  5
110
330
1D
100
AcDbEntity
  8
0
100
AcDbLine
 10
0.002
 20
105.89405
 30
0.0
 11
0.299
 21
103.03325
 31
0.0
  0
LINE
  5
111
330
1D
100
AcDbEntity
  8
0
100
AcDbLine
 10
0.002
 20
118.90675
 30
0.0
 11
0.136
 21
119.40505
 31
0.0
  0
LINE
  5
112
330
1D
100
AcDbEntity
  8
0
100
AcDbLine
 10
0.002
 20
105.89405
 30
0.0
 11
0.002
 21
118.90675
 31
0.0
  0
LINE
  5
113
330
1D
100
AcDbEntity
  8
0
100
AcDbLine
 10
0.002
 20
105.89405
 30
0.0
 11
0.299
 21
103.03325
 31
0.0
  0
LINE
  5
114
330
1D
100
AcDbEntity
  8
0
100
AcDbLine
 10
0.0
 20
118.90675
 30
0.0
 11
0.134
 21
119.40505
 31
0.0
  0
LINE
  5
115
330
1D
100
AcDbEntity
  8
0
100
AcDbLine
 10
0.002
 20
118.90675
 30
0.0
 11
0.136
 21
119.40505
 31
0.0
  0
LINE
  5
116
330
1D
100
AcDbEntity
  8
0
100
AcDbLine
 10
0.0
 20
118.90675
 30
0.0
 11
0.134
 21
119.40505
 31
0.0
  0
LINE
  5
117
330
1D
100
AcDbEntity
  8
0
100
AcDbLine
 10
0.134
 20
119.40505
 30
0.0
 11
0.5
 21
119.76975
 31
0.0
  0
LINE
  5
118
330
1D
100
AcDbEntity
  8
0
100
AcDbLine
 10
0.136
 20
119.40505
 30
0.0
 11
0.502
 21
119.76975
 31
0.0
  0
LINE
  5
119
330
1D
100
AcDbEntity
  8
0
100
AcDbLine
 10
0.299
 20
103.03325
 30
0.0
 11
1.178
 21
100.29505
 31
0.0
  0
LINE
  5
11A
330
1D
100
AcDbEntity
  8
0
100
AcDbLine
 10
0.298
 20
103.03295
 30
0.0
 11
1.176
 21
100.29455
 31
0.0
  0
LINE
  5
11B
330
1D
100
AcDbEntity
  8
0
100
AcDbLine
 10
0.136
 20
119.40505
 30
0.0
 11
0.502
 21
119.76975
 31
0.0
  0
LINE
  5
11C
330
1D
100
AcDbEntity
  8
0
100
AcDbLine
 10
0.134
 20
119.40505
 30
0.0
 11
0.5
 21
119.76975
 31
0.0
  0
LINE
  5
11D
330
1D
100
AcDbEntity
  8
0
100
AcDbLine
 10
0.502
 20
119.76975
 30
0.0
 11
1.001
 21
119.90325
 31
0.0
  0
LINE
  5
11E
330
1D
100
AcDbEntity
  8
0
100
AcDbLine
 10
0.5
 20
119.76975
 30
0.0
 11
0.999
 21
119.90325
 31
0.0
  0
LINE
  5
11F
330
1D
100
AcDbEntity
  8
0
100
AcDbLine
 10
1.178
 20
100.29505
 30
0.0
 11
2.602
 21
97.79395
 31
0.0
  0
LINE
  5
120
330
1D
100
AcDbEntity
  8
0
100
AcDbLine
 10
1.176
 20
100.29455
 30
0.0
 11
2.601
 21
97.79325
 31
0.0
  0
LINE
  5
121
330
1D
100
AcDbEntity
  8
0
100
AcDbLine
 10
4.57205
 20
93.28045
 30
0.0
 11
4.58797
 21
93.07025
 31
0.0
  0
LINE
  5
122
330
1D
100
AcDbEntity
  8
0
100
AcDbLine
 10
4.57205
 20
93.28045
 30
0.0
 11
4.988948498189
 21
95.577465884286
 31
0.0
  0
LINE
  5
123
330
1D
100
AcDbEntity
  8
0
100
AcDbLine
 10
4.58797
 20
93.07025
 30
0.0
 11
4.70708
 21
92.89675
 31
0.0
  0
LINE
  5
125
330
1D
100
AcDbEntity
  8
0
100
AcDbLine
 10
4.604
 20
95.62475
 30
0.0
 11
4.895
 21
95.58885
 31
0.0
  0
LINE
  5
126
330
1D
100
AcDbEntity
  8
0
100
AcDbLine
 10
6.028
 20
95.45135
 30
0.0
 11
7.434
 21
95.28295
 31
0.0
  0
LINE
  5
127
330
1D
100
AcDbEntity
  8
0
100
AcDbLine
 10
5.372
 20
95.53105
 30
0.0
 11
6.028
 21
95.45135
 31
0.0
  0
LINE
  5
128
330
1D
100
AcDbEntity
  8
0
100
AcDbLine
 10
4.895
 20
95.58885
 30
0.0
 11
5.372
 21
95.53105
 31
0.0
  0
LINE
  5
129
330
1D
100
AcDbEntity
  8
0
100
AcDbLine
 10
4.895
 20
95.58885
 30
0.0
 11
4.988948498189
 21
95.577465884286
 31
0.0
  0
LINE
  5
12A
330
1D
100
AcDbEntity
  8
0
100
AcDbLine
 10
2.601
 20
97.79325
 30
0.0
 11
4.508
 21
95.63675
 31
0.0
  0
LINE
  5
12B
330
1D
100
AcDbEntity
  8
0
100
AcDbLine
 10
2.615
 20
97.77815
 30
0.0
 11
4.509
 21
95.63655
 31
0.0
  0
LINE
  5
12C
330
1D
100
AcDbEntity
  8
0
100
AcDbLine
 10
4.508
 20
95.63675
 30
0.0
 11
4.604
 21
95.62475
 31
0.0
  0
LINE
  5
12D
330
1D
100
AcDbEntity
  8
0
100
AcDbLine
 10
10.995
 20
94.86445
 30
0.0
 11
12.939
 21
94.64315
 31
0.0
  0
LINE
  5
12E
330
1D
100
AcDbEntity
  8
0
100
AcDbLine
 10
9.206
 20
95.07265
 30
0.0
 11
10.995
 21
94.86445
 31
0.0
  0
LINE
  5
12F
330
1D
100
AcDbEntity
  8
0
100
AcDbLine
 10
7.434
 20
95.28295
 30
0.0
 11
9.206
 21
95.07265
 31
0.0
  0
LINE
  5
130
330
1D
100
AcDbEntity
  8
0
100
AcDbLine
 10
23.257
 20
93.12445
 30
0.0
 11
24.569
 21
92.73875
 31
0.0
  0
LINE
  5
131
330
1D
100
AcDbEntity
  8
0
100
AcDbLine
 10
21.827
 20
93.49515
 30
0.0
 11
23.257
 21
93.12445
 31
0.0
  0
LINE
  5
132
330
1D
100
AcDbEntity
  8
0
100
AcDbLine
 10
54.576
 20
93.25105
 30
0.0
 11
56.081
 21
93.56595
 31
0.0
  0
LINE
  5
133
330
1D
100
AcDbEntity
  8
0
100
AcDbLine
 10
20.417
 20
93.78415
 30
0.0
 11
21.827
 21
93.49515
 31
0.0
  0
LINE
  5
134
330
1D
100
AcDbEntity
  8
0
100
AcDbLine
 10
56.081
 20
93.56595
 30
0.0
 11
58.022
 21
93.83295
 31
0.0
  0
LINE
  5
135
330
1D
100
AcDbEntity
  8
0
100
AcDbLine
 10
15.945
 20
94.31035
 30
0.0
 11
18.94
 21
93.99145
 31
0.0
  0
LINE
  5
136
330
1D
100
AcDbEntity
  8
0
100
AcDbLine
 10
12.939
 20
94.64315
 30
0.0
 11
14.432
 21
94.47575
 31
0.0
  0
LINE
  5
137
330
1D
100
AcDbEntity
  8
0
100
AcDbLine
 10
14.432
 20
94.47575
 30
0.0
 11
15.945
 21
94.31035
 31
0.0
  0
LINE
  5
138
330
1D
100
AcDbEntity
  8
0
100
AcDbLine
 10
18.94
 20
93.99145
 30
0.0
 11
20.417
 21
93.78415
 31
0.0
  0
LINE
  5
139
330
1D
100
AcDbEntity
  8
0
100
AcDbLine
 10
58.022
 20
93.83295
 30
0.0
 11
60.031
 21
93.91965
 31
0.0
  0
LINE
  5
13A
330
1D
100
AcDbEntity
  8
0
100
AcDbLine
 10
61.603
 20
93.84495
 30
0.0
 11
63.142
 21
93.65665
 31
0.0
  0
LINE
  5
13B
330
1D
100
AcDbEntity
  8
0
100
AcDbLine
 10
64.797
 20
93.33875
 30
0.0
 11
66.345
 21
92.95305
 31
0.0
  0
LINE
  5
13C
330
1D
100
AcDbEntity
  8
0
100
AcDbLine
 10
64.797
 20
93.33875
 30
0.0
 11
66.346
 21
92.95305
 31
0.0
  0
LINE
  5
13D
330
1D
100
AcDbEntity
  8
0
100
AcDbLine
 10
63.142
 20
93.65665
 30
0.0
 11
64.797
 21
93.33875
 31
0.0
  0
LINE
  5
13E
330
1D
100
AcDbEntity
  8
0
100
AcDbLine
 10
237.104
 20
99.04885
 30
0.0
 11
237.104
 21
101.93085
 31
0.0
  0
LINE
  5
13F
330
1D
100
AcDbEntity
  8
0
100
AcDbLine
 10
237.104
 20
99.04885
 30
0.0
 11
237.104
 21
96.44785
 31
0.0
  0
LINE
  5
140
330
1D
100
AcDbEntity
  8
0
100
AcDbLine
 10
237.104
 20
96.44785
 30
0.0
 11
237.104
 21
99.04885
 31
0.0
  0
LINE
  5
141
330
1D
100
AcDbEntity
  8
0
100
AcDbLine
 10
237.104
 20
96.44785
 30
0.0
 11
237.104
 21
94.25155
 31
0.0
  0
LINE
  5
142
330
1D
100
AcDbEntity
  8
0
100
AcDbLine
 10
237.104
 20
94.25155
 30
0.0
 11
237.104
 21
96.44785
 31
0.0
  0
LINE
  5
143
330
1D
100
AcDbEntity
  8
0
100
AcDbLine
 10
237.104
 20
94.25155
 30
0.0
 11
237.104
 21
92.56635
 31
0.0
  0
LINE
  5
144
330
1D
100
AcDbEntity
  8
0
100
AcDbLine
 10
60.031
 20
93.91965
 30
0.0
 11
61.603
 21
93.84495
 31
0.0
  0
LINE
  5
145
330
1D
100
AcDbEntity
  8
0
100
AcDbLine
 10
237.104
 20
104.95625
 30
0.0
 11
237.104
 21
101.93085
 31
0.0
  0
LINE
  5
146
330
1D
100
AcDbEntity
  8
0
100
AcDbLine
 10
237.104
 20
104.95625
 30
0.0
 11
237.104
 21
118.90675
 31
0.0
  0
LINE
  5
147
330
1D
100
AcDbEntity
  8
0
100
AcDbLine
 10
237.104
 20
101.93085
 30
0.0
 11
237.104
 21
99.04885
 31
0.0
  0
LINE
  5
148
330
1D
100
AcDbEntity
  8
0
100
AcDbLine
 10
237.104
 20
101.93085
 30
0.0
 11
237.104
 21
104.95625
 31
0.0
  0
LINE
  5
149
330
1D
100
AcDbEntity
  8
0
100
AcDbLine
 10
58.788
 20
119.90325
 30
0.0
 11
60.788
 21
119.90325
 31
0.0
  0
LINE
  5
14A
330
1D
100
AcDbEntity
  8
0
100
AcDbLine
 10
56.903
 20
119.90325
 30
0.0
 11
58.788
 21
119.90325
 31
0.0
  0
LINE
  5
14B
330
1D
100
AcDbEntity
  8
0
100
AcDbLine
 10
55.319
 20
119.90325
 30
0.0
 11
56.903
 21
119.90325
 31
0.0
  0
LINE
  5
14C
330
1D
100
AcDbEntity
  8
0
100
AcDbLine
 10
64.361
 20
119.90325
 30
0.0
 11
65.583
 21
119.90325
 31
0.0
  0
LINE
  5
14D
330
1D
100
AcDbEntity
  8
0
100
AcDbLine
 10
62.707
 20
119.90325
 30
0.0
 11
64.361
 21
119.90325
 31
0.0
  0
LINE
  5
14E
330
1D
100
AcDbEntity
  8
0
100
AcDbLine
 10
60.788
 20
119.90325
 30
0.0
 11
62.707
 21
119.90325
 31
0.0
  0
LINE
  5
14F
330
1D
100
AcDbEntity
  8
0
100
AcDbLine
 10
54.189
 20
119.90325
 30
0.0
 11
55.319
 21
119.90325
 31
0.0
  0
LINE
  5
150
330
1D
100
AcDbEntity
  8
0
100
AcDbLine
 10
18.992
 20
119.90325
 30
0.0
 11
53.625
 21
119.90325
 31
0.0
  0
LINE
  5
151
330
1D
100
AcDbEntity
  8
0
100
AcDbLine
 10
18.992
 20
119.90325
 30
0.0
 11
237.104
 21
119.90325
 31
0.0
  0
LINE
  5
152
330
1D
100
AcDbEntity
  8
0
100
AcDbLine
 10
18.992
 20
119.90325
 30
0.0
 11
53.625
 21
119.90325
 31
0.0
  0
LINE
  5
153
330
1D
100
AcDbEntity
  8
0
100
AcDbLine
 10
18.992
 20
119.90325
 30
0.0
 11
53.625
 21
119.90325
 31
0.0
  0
LINE
  5
154
330
1D
100
AcDbEntity
  8
0
100
AcDbLine
 10
53.625
 20
119.90325
 30
0.0
 11
54.189
 21
119.90325
 31
0.0
  0
LINE
  5
155
330
1D
100
AcDbEntity
  8
0
100
AcDbLine
 10
53.625
 20
119.90325
 30
0.0
 11
53.781
 21
119.90325
 31
0.0
  0
LINE
  5
156
330
1D
100
AcDbEntity
  8
0
100
AcDbLine
 10
237.102349685632
 20
119.90325
 30
0.0
 11
237.185
 21
125.60745
 31
0.0
  0
LINE
  5
157
330
1D
100
AcDbEntity
  8
0
100
AcDbLine
 10
237.102203450829
 20
119.90325
 30
0.0
 11
237.185
 21
125.62735
 31
0.0
  0
LINE
  5
158
330
1D
100
AcDbEntity
  8
0
100
AcDbLine
 10
66.157
 20
119.90325
 30
0.0
 11
66.157
 21
127.17795
 31
0.0
  0
LINE
  5
159
330
1D
100
AcDbEntity
  8
0
100
AcDbLine
 10
53.781
 20
119.90325
 30
0.0
 11
53.781
 21
127.17795
 31
0.0
  0
LINE
  5
15A
330
1D
100
AcDbEntity
  8
0
100
AcDbLine
 10
237.104
 20
119.90325
 30
0.0
 11
237.104
 21
119.76975
 31
0.0
  0
LINE
  5
15B
330
1D
100
AcDbEntity
  8
0
100
AcDbLine
 10
237.104
 20
118.90675
 30
0.0
 11
237.104
 21
119.40505
 31
0.0
  0
LINE
  5
15C
330
1D
100
AcDbEntity
  8
0
100
AcDbLine
 10
237.104
 20
118.90675
 30
0.0
 11
237.104
 21
104.95625
 31
0.0
  0
LINE
  5
15D
330
1D
100
AcDbEntity
  8
0
100
AcDbLine
 10
237.104
 20
119.40505
 30
0.0
 11
237.104
 21
119.76975
 31
0.0
  0
LINE
  5
15E
330
1D
100
AcDbEntity
  8
0
100
AcDbLine
 10
237.104
 20
119.40505
 30
0.0
 11
237.104
 21
118.90675
 31
0.0
  0
LINE
  5
15F
330
1D
100
AcDbEntity
  8
0
100
AcDbLine
 10
18.992
 20
119.90325
 30
0.0
 11
237.104
 21
119.90325
 31
0.0
  0
LINE
  5
160
330
1D
100
AcDbEntity
  8
0
100
AcDbLine
 10
237.104
 20
119.76975
 30
0.0
 11
237.104
 21
119.90325
 31
0.0
  0
LINE
  5
161
330
1D
100
AcDbEntity
  8
0
100
AcDbLine
 10
237.104
 20
119.76975
 30
0.0
 11
237.104
 21
119.40505
 31
0.0
  0
LINE
  5
162
330
1D
100
AcDbEntity
  8
0
100
AcDbLine
 10
15.481
 20
119.90325
 30
0.0
 11
18.992
 21
119.90325
 31
0.0
  0
LINE
  5
163
330
1D
100
AcDbEntity
  8
0
100
AcDbLine
 10
12.107
 20
119.90325
 30
0.0
 11
15.481
 21
119.90325
 31
0.0
  0
LINE
  5
164
330
1D
100
AcDbEntity
  8
0
100
AcDbLine
 10
8.994
 20
119.90325
 30
0.0
 11
12.107
 21
119.90325
 31
0.0
  0
LINE
  5
165
330
1D
100
AcDbEntity
  8
0
100
AcDbLine
 10
6.271
 20
119.90325
 30
0.0
 11
8.994
 21
119.90325
 31
0.0
  0
LINE
  5
166
330
1D
100
AcDbEntity
  8
0
100
AcDbLine
 10
4.034
 20
119.90325
 30
0.0
 11
6.271
 21
119.90325
 31
0.0
  0
LINE
  5
167
330
1D
100
AcDbEntity
  8
0
100
AcDbLine
 10
2.369
 20
119.90325
 30
0.0
 11
4.034
 21
119.90325
 31
0.0
  0
LINE
  5
168
330
1D
100
AcDbEntity
  8
0
100
AcDbLine
 10
51.483
 20
137.64155
 30
0.0
 11
51.53
 21
137.43035
 31
0.0
  0
LINE
  5
169
330
1D
100
AcDbEntity
  8
0
100
AcDbLine
 10
51.483
 20
137.64155
 30
0.0
 11
51.483
 21
143.08265
 31
0.0
  0
LINE
  5
16A
330
1D
100
AcDbEntity
  8
0
100
AcDbLine
 10
51.476
 20
137.64155
 30
0.0
 11
51.476
 21
143.08265
 31
0.0
  0
LINE
  5
16B
330
1D
100
AcDbEntity
  8
0
100
AcDbLine
 10
51.476
 20
137.64155
 30
0.0
 11
51.523
 21
137.43035
 31
0.0
  0
LINE
  5
16C
330
1D
100
AcDbEntity
  8
0
100
AcDbLine
 10
51.856
 20
137.15925
 30
0.0
 11
52.055
 21
137.06065
 31
0.0
  0
LINE
  5
16D
330
1D
100
AcDbEntity
  8
0
100
AcDbLine
 10
51.85
 20
137.15925
 30
0.0
 11
52.048
 21
137.06065
 31
0.0
  0
LINE
  5
16E
330
1D
100
AcDbEntity
  8
0
100
AcDbLine
 10
51.663
 20
137.25795
 30
0.0
 11
51.856
 21
137.15925
 31
0.0
  0
LINE
  5
16F
330
1D
100
AcDbEntity
  8
0
100
AcDbLine
 10
51.53
 20
137.43035
 30
0.0
 11
51.663
 21
137.25795
 31
0.0
  0
LINE
  5
170
330
1D
100
AcDbEntity
  8
0
100
AcDbLine
 10
51.523
 20
137.43035
 30
0.0
 11
51.656
 21
137.25795
 31
0.0
  0
LINE
  5
171
330
1D
100
AcDbEntity
  8
0
100
AcDbLine
 10
51.656
 20
137.25795
 30
0.0
 11
51.85
 21
137.15925
 31
0.0
  0
LINE
  5
172
330
1D
100
AcDbEntity
  8
0
100
AcDbLine
 10
51.483
 20
143.08265
 30
0.0
 11
51.539
 21
143.31185
 31
0.0
  0
LINE
  5
173
330
1D
100
AcDbEntity
  8
0
100
AcDbLine
 10
51.483
 20
143.08265
 30
0.0
 11
51.483
 21
137.64155
 31
0.0
  0
LINE
  5
174
330
1D
100
AcDbEntity
  8
0
100
AcDbLine
 10
51.539
 20
143.31185
 30
0.0
 11
51.695
 21
143.49025
 31
0.0
  0
LINE
  5
175
330
1D
100
AcDbEntity
  8
0
100
AcDbLine
 10
51.532
 20
143.31185
 30
0.0
 11
51.688
 21
143.49025
 31
0.0
  0
LINE
  5
176
330
1D
100
AcDbEntity
  8
0
100
AcDbLine
 10
51.695
 20
143.49025
 30
0.0
 11
51.914
 21
143.57695
 31
0.0
  0
LINE
  5
177
330
1D
100
AcDbEntity
  8
0
100
AcDbLine
 10
51.688
 20
143.49025
 30
0.0
 11
51.908
 21
143.57695
 31
0.0
  0
LINE
  5
178
330
1D
100
AcDbEntity
  8
0
100
AcDbLine
 10
51.476
 20
143.08265
 30
0.0
 11
51.532
 21
143.31185
 31
0.0
  0
LINE
  5
179
330
1D
100
AcDbEntity
  8
0
100
AcDbLine
 10
51.476
 20
143.08265
 30
0.0
 11
51.476
 21
137.64155
 31
0.0
  0
LINE
  5
17A
330
1D
100
AcDbEntity
  8
0
100
AcDbLine
 10
52.181
 20
136.88925
 30
0.0
 11
52.223
 21
136.67875
 31
0.0
  0
LINE
  5
17B
330
1D
100
AcDbEntity
  8
0
100
AcDbLine
 10
52.191704533314
 20
136.866969878209
 30
0.0
 11
52.223
 21
136.67875
 31
0.0
  0
LINE
  5
17C
330
1D
100
AcDbEntity
  8
0
100
AcDbLine
 10
53.251
 20
127.17795
 30
0.0
 11
53.396
 21
127.17795
 31
0.0
  0
LINE
  5
17D
330
1D
100
AcDbEntity
  8
0
100
AcDbLine
 10
53.396
 20
127.17795
 30
0.0
 11
53.664
 21
127.17795
 31
0.0
  0
LINE
  5
17E
330
1D
100
AcDbEntity
  8
0
100
AcDbLine
 10
53.664
 20
127.17795
 30
0.0
 11
54.05
 21
127.17795
 31
0.0
  0
LINE
  5
17F
330
1D
100
AcDbEntity
  8
0
100
AcDbLine
 10
53.664
 20
127.17795
 30
0.0
 11
53.781
 21
127.17795
 31
0.0
  0
LINE
  5
180
330
1D
100
AcDbEntity
  8
0
100
AcDbLine
 10
53.039
 20
127.17795
 30
0.0
 11
53.435
 21
127.17795
 31
0.0
  0
LINE
  5
181
330
1D
100
AcDbEntity
  8
0
100
AcDbLine
 10
52.753
 20
127.17795
 30
0.0
 11
53.039
 21
127.17795
 31
0.0
  0
LINE
  5
182
330
1D
100
AcDbEntity
  8
0
100
AcDbLine
 10
52.58
 20
127.17795
 30
0.0
 11
52.753
 21
127.17795
 31
0.0
  0
LINE
  5
183
330
1D
100
AcDbEntity
  8
0
100
AcDbLine
 10
52.523
 20
127.17795
 30
0.0
 11
52.58
 21
127.17795
 31
0.0
  0
LINE
  5
184
330
1D
100
AcDbEntity
  8
0
100
AcDbLine
 10
52.265
 20
127.32745
 30
0.0
 11
52.374
 21
127.21885
 31
0.0
  0
LINE
  5
185
330
1D
100
AcDbEntity
  8
0
100
AcDbLine
 10
52.374
 20
127.21885
 30
0.0
 11
52.523
 21
127.17795
 31
0.0
  0
LINE
  5
186
330
1D
100
AcDbEntity
  8
0
100
AcDbLine
 10
53.435
 20
127.17795
 30
0.0
 11
53.935
 21
127.17795
 31
0.0
  0
LINE
  5
187
330
1D
100
AcDbEntity
  8
0
100
AcDbLine
 10
52.224
 20
127.47695
 30
0.0
 11
52.224
 21
136.67695
 31
0.0
  0
LINE
  5
188
330
1D
100
AcDbEntity
  8
0
100
AcDbLine
 10
52.224
 20
127.47695
 30
0.0
 11
52.265
 21
127.32745
 31
0.0
  0
LINE
  5
189
330
1D
100
AcDbEntity
  8
0
100
AcDbLine
 10
52.048
 20
137.06065
 30
0.0
 11
52.181
 21
136.88925
 31
0.0
  0
LINE
  5
18A
330
1D
100
AcDbEntity
  8
0
100
AcDbLine
 10
51.914
 20
143.57695
 30
0.0
 11
54.586
 21
143.87785
 31
0.0
  0
LINE
  5
18B
330
1D
100
AcDbEntity
  8
0
100
AcDbLine
 10
51.908
 20
143.57695
 30
0.0
 11
54.585
 21
143.87785
 31
0.0
  0
LINE
  5
18C
330
1D
100
AcDbEntity
  8
0
100
AcDbLine
 10
54.05
 20
127.17795
 30
0.0
 11
54.544
 21
127.17795
 31
0.0
  0
LINE
  5
18D
330
1D
100
AcDbEntity
  8
0
100
AcDbLine
 10
54.544
 20
127.17795
 30
0.0
 11
55.141
 21
127.17795
 31
0.0
  0
LINE
  5
18E
330
1D
100
AcDbEntity
  8
0
100
AcDbLine
 10
54.528
 20
127.17795
 30
0.0
 11
55.208
 21
127.17795
 31
0.0
  0
LINE
  5
18F
330
1D
100
AcDbEntity
  8
0
100
AcDbLine
 10
53.935
 20
127.17795
 30
0.0
 11
54.528
 21
127.17795
 31
0.0
  0
LINE
  5
190
330
1D
100
AcDbEntity
  8
0
100
AcDbLine
 10
54.586
 20
143.87785
 30
0.0
 11
54.908
 21
143.89965
 31
0.0
  0
LINE
  5
191
330
1D
100
AcDbEntity
  8
0
100
AcDbLine
 10
54.585
 20
143.87785
 30
0.0
 11
54.908
 21
143.89965
 31
0.0
  0
LINE
  5
192
330
1D
100
AcDbEntity
  8
0
100
AcDbLine
 10
54.585
 20
143.87785
 30
0.0
 11
57.275
 21
144.05925
 31
0.0
  0
LINE
  5
193
330
1D
100
AcDbEntity
  8
0
100
AcDbLine
 10
55.141
 20
127.17795
 30
0.0
 11
55.828
 21
127.17795
 31
0.0
  0
LINE
  5
194
330
1D
100
AcDbEntity
  8
0
100
AcDbLine
 10
55.828
 20
127.17795
 30
0.0
 11
56.592
 21
127.17795
 31
0.0
  0
LINE
  5
195
330
1D
100
AcDbEntity
  8
0
100
AcDbLine
 10
55.208
 20
127.17795
 30
0.0
 11
55.964
 21
127.17795
 31
0.0
  0
LINE
  5
196
330
1D
100
AcDbEntity
  8
0
100
AcDbLine
 10
58.292
 20
127.17795
 30
0.0
 11
59.198
 21
127.17795
 31
0.0
  0
LINE
  5
197
330
1D
100
AcDbEntity
  8
0
100
AcDbLine
 10
57.419
 20
127.17795
 30
0.0
 11
58.292
 21
127.17795
 31
0.0
  0
LINE
  5
198
330
1D
100
AcDbEntity
  8
0
100
AcDbLine
 10
56.592
 20
127.17795
 30
0.0
 11
57.419
 21
127.17795
 31
0.0
  0
LINE
  5
199
330
1D
100
AcDbEntity
  8
0
100
AcDbLine
 10
56.781
 20
127.17795
 30
0.0
 11
57.65
 21
127.17795
 31
0.0
  0
LINE
  5
19A
330
1D
100
AcDbEntity
  8
0
100
AcDbLine
 10
60.117
 20
127.17795
 30
0.0
 11
61.035
 21
127.17795
 31
0.0
  0
LINE
  5
19B
330
1D
100
AcDbEntity
  8
0
100
AcDbLine
 10
59.198
 20
127.17795
 30
0.0
 11
60.117
 21
127.17795
 31
0.0
  0
LINE
  5
19C
330
1D
100
AcDbEntity
  8
0
100
AcDbLine
 10
61.035
 20
127.17795
 30
0.0
 11
61.932
 21
127.17795
 31
0.0
  0
LINE
  5
19D
330
1D
100
AcDbEntity
  8
0
100
AcDbLine
 10
61.932
 20
127.17795
 30
0.0
 11
62.793
 21
127.17795
 31
0.0
  0
LINE
  5
19E
330
1D
100
AcDbEntity
  8
0
100
AcDbLine
 10
62.252
 20
127.17795
 30
0.0
 11
63.123
 21
127.17795
 31
0.0
  0
LINE
  5
19F
330
1D
100
AcDbEntity
  8
0
100
AcDbLine
 10
61.346
 20
127.17795
 30
0.0
 11
62.252
 21
127.17795
 31
0.0
  0
LINE
  5
1A0
330
1D
100
AcDbEntity
  8
0
100
AcDbLine
 10
60.417
 20
127.17795
 30
0.0
 11
61.346
 21
127.17795
 31
0.0
  0
LINE
  5
1A1
330
1D
100
AcDbEntity
  8
0
100
AcDbLine
 10
59.483
 20
127.17795
 30
0.0
 11
60.417
 21
127.17795
 31
0.0
  0
LINE
  5
1A2
330
1D
100
AcDbEntity
  8
0
100
AcDbLine
 10
58.555
 20
127.17795
 30
0.0
 11
59.483
 21
127.17795
 31
0.0
  0
LINE
  5
1A3
330
1D
100
AcDbEntity
  8
0
100
AcDbLine
 10
57.65
 20
127.17795
 30
0.0
 11
58.555
 21
127.17795
 31
0.0
  0
LINE
  5
1A4
330
1D
100
AcDbEntity
  8
0
100
AcDbLine
 10
55.964
 20
127.17795
 30
0.0
 11
56.781
 21
127.17795
 31
0.0
  0
LINE
  5
1A5
330
1D
100
AcDbEntity
  8
0
100
AcDbLine
 10
57.275
 20
144.05925
 30
0.0
 11
59.969
 21
144.11905
 31
0.0
  0
LINE
  5
1A6
330
1D
100
AcDbEntity
  8
0
100
AcDbLine
 10
57.275
 20
144.05925
 30
0.0
 11
59.57
 21
144.11015
 31
0.0
  0
LINE
  5
1A7
330
1D
100
AcDbEntity
  8
0
100
AcDbLine
 10
54.908
 20
143.89965
 30
0.0
 11
57.275
 21
144.05925
 31
0.0
  0
LINE
  5
1A8
330
1D
100
AcDbEntity
  8
0
100
AcDbLine
 10
54.591
 20
143.87785
 30
0.0
 11
57.275
 21
144.05925
 31
0.0
  0
LINE
  5
1A9
330
1D
100
AcDbEntity
  8
0
100
AcDbLine
 10
62.662
 20
144.05925
 30
0.0
 11
65.354
 21
143.87785
 31
0.0
  0
LINE
  5
1AA
330
1D
100
AcDbEntity
  8
0
100
AcDbLine
 10
62.793
 20
127.17795
 30
0.0
 11
63.6
 21
127.17795
 31
0.0
  0
LINE
  5
1AB
330
1D
100
AcDbEntity
  8
0
100
AcDbLine
 10
63.6
 20
127.17795
 30
0.0
 11
64.341
 21
127.17795
 31
0.0
  0
LINE
  5
1AC
330
1D
100
AcDbEntity
  8
0
100
AcDbLine
 10
64.341
 20
127.17795
 30
0.0
 11
65.0
 21
127.17795
 31
0.0
  0
LINE
  5
1AD
330
1D
100
AcDbEntity
  8
0
100
AcDbLine
 10
65.0
 20
127.17795
 30
0.0
 11
65.565
 21
127.17795
 31
0.0
  0
LINE
  5
1AE
330
1D
100
AcDbEntity
  8
0
100
AcDbLine
 10
65.565
 20
127.17795
 30
0.0
 11
66.026
 21
127.17795
 31
0.0
  0
LINE
  5
1AF
330
1D
100
AcDbEntity
  8
0
100
AcDbLine
 10
66.155
 20
127.17795
 30
0.0
 11
66.375
 21
127.17795
 31
0.0
  0
LINE
  5
1B0
330
1D
100
AcDbEntity
  8
0
100
AcDbLine
 10
66.157
 20
127.17795
 30
0.0
 11
66.157
 21
119.90325
 31
0.0
  0
LINE
  5
1B1
330
1D
100
AcDbEntity
  8
0
100
AcDbLine
 10
66.026
 20
127.17795
 30
0.0
 11
66.375
 21
127.17795
 31
0.0
  0
LINE
  5
1B2
330
1D
100
AcDbEntity
  8
0
100
AcDbLine
 10
66.375
 20
127.17795
 30
0.0
 11
66.604
 21
127.17795
 31
0.0
  0
LINE
  5
1B3
330
1D
100
AcDbEntity
  8
0
100
AcDbLine
 10
66.604
 20
127.17795
 30
0.0
 11
66.709
 21
127.17795
 31
0.0
  0
LINE
  5
1B4
330
1D
100
AcDbEntity
  8
0
100
AcDbLine
 10
67.413
 20
127.17795
 30
0.0
 11
67.563
 21
127.21885
 31
0.0
  0
LINE
  5
1B5
330
1D
100
AcDbEntity
  8
0
100
AcDbLine
 10
67.354
 20
127.17795
 30
0.0
 11
67.415
 21
127.17795
 31
0.0
  0
LINE
  5
1B6
330
1D
100
AcDbEntity
  8
0
100
AcDbLine
 10
67.415
 20
127.17795
 30
0.0
 11
67.565
 21
127.21885
 31
0.0
  0
LINE
  5
1B7
330
1D
100
AcDbEntity
  8
0
100
AcDbLine
 10
67.176
 20
127.17795
 30
0.0
 11
67.354
 21
127.17795
 31
0.0
  0
LINE
  5
1B8
330
1D
100
AcDbEntity
  8
0
100
AcDbLine
 10
66.886
 20
127.17795
 30
0.0
 11
67.176
 21
127.17795
 31
0.0
  0
LINE
  5
1B9
330
1D
100
AcDbEntity
  8
0
100
AcDbLine
 10
66.485
 20
127.17795
 30
0.0
 11
66.886
 21
127.17795
 31
0.0
  0
LINE
  5
1BA
330
1D
100
AcDbEntity
  8
0
100
AcDbLine
 10
65.982
 20
127.17795
 30
0.0
 11
66.485
 21
127.17795
 31
0.0
  0
LINE
  5
1BB
330
1D
100
AcDbEntity
  8
0
100
AcDbLine
 10
65.384
 20
127.17795
 30
0.0
 11
65.982
 21
127.17795
 31
0.0
  0
LINE
  5
1BC
330
1D
100
AcDbEntity
  8
0
100
AcDbLine
 10
64.701
 20
127.17795
 30
0.0
 11
65.384
 21
127.17795
 31
0.0
  0
LINE
  5
1BD
330
1D
100
AcDbEntity
  8
0
100
AcDbLine
 10
63.943
 20
127.17795
 30
0.0
 11
64.701
 21
127.17795
 31
0.0
  0
LINE
  5
1BE
330
1D
100
AcDbEntity
  8
0
100
AcDbLine
 10
67.563
 20
127.21885
 30
0.0
 11
67.673
 21
127.32745
 31
0.0
  0
LINE
  5
1BF
330
1D
100
AcDbEntity
  8
0
100
AcDbLine
 10
67.565
 20
127.21885
 30
0.0
 11
67.675
 21
127.32745
 31
0.0
  0
LINE
  5
1C0
330
1D
100
AcDbEntity
  8
0
100
AcDbLine
 10
63.123
 20
127.17795
 30
0.0
 11
63.943
 21
127.17795
 31
0.0
  0
LINE
  5
1C1
330
1D
100
AcDbEntity
  8
0
100
AcDbLine
 10
67.673
 20
127.32745
 30
0.0
 11
67.713
 21
127.47695
 31
0.0
  0
LINE
  5
1C2
330
1D
100
AcDbEntity
  8
0
100
AcDbLine
 10
67.675
 20
127.32745
 30
0.0
 11
67.715
 21
127.47695
 31
0.0
  0
LINE
  5
1C3
330
1D
100
AcDbEntity
  8
0
100
AcDbLine
 10
67.713
 20
127.47695
 30
0.0
 11
67.713
 21
136.67695
 31
0.0
  0
LINE
  5
1C4
330
1D
100
AcDbEntity
  8
0
100
AcDbLine
 10
67.713
 20
136.67695
 30
0.0
 11
67.713
 21
127.47695
 31
0.0
  0
LINE
  5
1C5
330
1D
100
AcDbEntity
  8
0
100
AcDbLine
 10
67.721
 20
136.70585
 30
0.0
 11
67.752
 21
136.88925
 31
0.0
  0
LINE
  5
1C6
330
1D
100
AcDbEntity
  8
0
100
AcDbLine
 10
67.715
 20
136.67695
 30
0.0
 11
67.715
 21
127.47695
 31
0.0
  0
LINE
  5
1C7
330
1D
100
AcDbEntity
  8
0
100
AcDbLine
 10
67.715
 20
127.47695
 30
0.0
 11
67.715
 21
136.67695
 31
0.0
  0
LINE
  5
1C8
330
1D
100
AcDbEntity
  8
0
100
AcDbLine
 10
67.886
 20
137.06065
 30
0.0
 11
68.084
 21
137.15925
 31
0.0
  0
LINE
  5
1C9
330
1D
100
AcDbEntity
  8
0
100
AcDbLine
 10
67.752
 20
136.88925
 30
0.0
 11
67.886
 21
137.06065
 31
0.0
  0
LINE
  5
1CA
330
1D
100
AcDbEntity
  8
0
100
AcDbLine
 10
68.084
 20
137.15925
 30
0.0
 11
68.277
 21
137.25795
 31
0.0
  0
LINE
  5
1CB
330
1D
100
AcDbEntity
  8
0
100
AcDbLine
 10
68.277
 20
137.25795
 30
0.0
 11
68.411
 21
137.43035
 31
0.0
  0
LINE
  5
1CC
330
1D
100
AcDbEntity
  8
0
100
AcDbLine
 10
68.247
 20
143.49025
 30
0.0
 11
68.402
 21
143.31185
 31
0.0
  0
LINE
  5
1CD
330
1D
100
AcDbEntity
  8
0
100
AcDbLine
 10
68.026
 20
143.57695
 30
0.0
 11
68.247
 21
143.49025
 31
0.0
  0
LINE
  5
1CE
330
1D
100
AcDbEntity
  8
0
100
AcDbLine
 10
68.411
 20
137.43035
 30
0.0
 11
68.458
 21
137.64155
 31
0.0
  0
LINE
  5
1CF
330
1D
100
AcDbEntity
  8
0
100
AcDbLine
 10
68.458
 20
143.08265
 30
0.0
 11
68.458
 21
137.64155
 31
0.0
  0
LINE
  5
1D0
330
1D
100
AcDbEntity
  8
0
100
AcDbLine
 10
68.458
 20
137.64155
 30
0.0
 11
68.458
 21
143.08265
 31
0.0
  0
LINE
  5
1D1
330
1D
100
AcDbEntity
  8
0
100
AcDbLine
 10
68.402
 20
143.31185
 30
0.0
 11
68.458
 21
143.08265
 31
0.0
  0
LINE
  5
1D2
330
1D
100
AcDbEntity
  8
0
100
AcDbLine
 10
62.891
 20
144.04395
 30
0.0
 11
65.354
 21
143.87785
 31
0.0
  0
LINE
  5
1D3
330
1D
100
AcDbEntity
  8
0
100
AcDbLine
 10
65.791
 20
143.82885
 30
0.0
 11
68.026
 21
143.57695
 31
0.0
  0
LINE
  5
1D4
330
1D
100
AcDbEntity
  8
0
100
AcDbLine
 10
65.354
 20
143.87785
 30
0.0
 11
68.026
 21
143.57695
 31
0.0
  0
LINE
  5
1D5
330
1D
100
AcDbEntity
  8
0
100
AcDbLine
 10
65.354
 20
143.87785
 30
0.0
 11
65.791
 21
143.82885
 31
0.0
  0
LINE
  5
1D6
330
1D
100
AcDbEntity
  8
0
100
AcDbLine
 10
62.665
 20
144.05925
 30
0.0
 11
62.891
 21
144.04395
 31
0.0
  0
LINE
  5
1D7
330
1D
100
AcDbEntity
  8
0
100
AcDbLine
 10
62.665
 20
144.05925
 30
0.0
 11
65.354
 21
143.87785
 31
0.0
  0
LINE
  5
1D8
330
1D
100
AcDbEntity
  8
0
100
AcDbLine
 10
59.835
 20
144.11605
 30
0.0
 11
59.89
 21
144.11725
 31
0.0
  0
LINE
  5
1D9
330
1D
100
AcDbEntity
  8
0
100
AcDbLine
 10
59.57
 20
144.11015
 30
0.0
 11
59.835
 21
144.11605
 31
0.0
  0
LINE
  5
1DA
330
1D
100
AcDbEntity
  8
0
100
AcDbLine
 10
59.969
 20
144.11905
 30
0.0
 11
62.665
 21
144.05925
 31
0.0
  0
LINE
  5
1DB
330
1D
100
AcDbEntity
  8
0
100
AcDbLine
 10
59.969
 20
144.11905
 30
0.0
 11
60.071
 21
144.11675
 31
0.0
  0
LINE
  5
1DC
330
1D
100
AcDbEntity
  8
0
100
AcDbLine
 10
59.969
 20
144.11905
 30
0.0
 11
60.036
 21
144.11755
 31
0.0
  0
LINE
  5
1DD
330
1D
100
AcDbEntity
  8
0
100
AcDbLine
 10
60.071
 20
144.11675
 30
0.0
 11
60.174
 21
144.11445
 31
0.0
  0
LINE
  5
1DE
330
1D
100
AcDbEntity
  8
0
100
AcDbLine
 10
60.174
 20
144.11445
 30
0.0
 11
62.664
 21
144.05925
 31
0.0
  0
LINE
  5
1DF
330
1D
100
AcDbEntity
  8
0
100
AcDbLine
 10
62.664
 20
144.05925
 30
0.0
 11
62.891
 21
144.04395
 31
0.0
  0
LINE
  5
1E0
330
1D
100
AcDbEntity
  8
0
100
AcDbLine
 10
53.781
 20
127.17795
 30
0.0
 11
53.781
 21
119.90325
 31
0.0
  0
LINE
  5
1E1
330
1D
100
AcDbEntity
  8
0
100
AcDbLine
 10
1.345
 20
119.90325
 30
0.0
 11
2.369
 21
119.90325
 31
0.0
  0
LINE
  5
1E2
330
1D
100
AcDbEntity
  8
0
100
AcDbLine
 10
0.999
 20
119.90325
 30
0.0
 11
1.345
 21
119.90325
 31
0.0
  0
LINE
  5
1E3
330
1D
100
AcDbEntity
  8
0
100
AcDbLine
 10
66.345
 20
92.95305
 30
0.0
 11
67.769
 21
92.54845
 31
0.0
  0
LINE
  5
1E5
330
1D
100
AcDbEntity
  8
0
100
AcDbLine
 10
237.637
 20
73.35995
 30
0.0
 11
237.979
 21
73.216741
 31
0.0
  0
LINE
  5
1E6
330
1D
100
AcDbEntity
  8
0
100
AcDbLine
 10
237.489
 20
73.697761
 30
0.0
 11
237.637
 21
73.35995
 31
0.0
  0
LINE
  5
215
330
1D
100
AcDbEntity
  8
0
100
AcDbLine
 10
237.979
 20
137.71735
 30
0.0
 11
244.0
 21
137.82195
 31
0.0
  0
LINE
  5
216
330
1D
100
AcDbEntity
  8
0
100
AcDbLine
 10
237.637
 20
137.57385
 30
0.0
 11
237.979
 21
137.71735
 31
0.0
  0
LINE
  5
21A
330
1D
100
AcDbEntity
  8
0
100
AcDbLine
 10
237.489
 20
137.23505
 30
0.0
 11
237.637
 21
137.57385
 31
0.0
  0
LINE
  5
21E
330
1D
100
AcDbEntity
  8
0
100
AcDbLine
 10
244.0
 20
73.451892
 30
0.0
 11
244.0
 21
74.21823
 31
0.0
  0
LINE
  5
21F
330
1D
100
AcDbEntity
  8
0
100
AcDbLine
 10
244.0
 20
74.21823
 30
0.0
 11
244.0
 21
75.38417
 31
0.0
  0
LINE
  5
220
330
1D
100
AcDbEntity
  8
0
100
AcDbLine
 10
244.0
 20
74.21823
 30
0.0
 11
244.0
 21
73.451892
 31
0.0
  0
LINE
  5
221
330
1D
100
AcDbEntity
  8
0
100
AcDbLine
 10
244.0
 20
75.38417
 30
0.0
 11
244.0
 21
76.93278
 31
0.0
  0
LINE
  5
222
330
1D
100
AcDbEntity
  8
0
100
AcDbLine
 10
244.0
 20
75.38417
 30
0.0
 11
244.0
 21
74.21823
 31
0.0
  0
LINE
  5
223
330
1D
100
AcDbEntity
  8
0
100
AcDbLine
 10
244.0
 20
76.93278
 30
0.0
 11
244.0
 21
78.84513
 31
0.0
  0
LINE
  5
224
330
1D
100
AcDbEntity
  8
0
100
AcDbLine
 10
244.0
 20
76.93278
 30
0.0
 11
244.0
 21
75.38417
 31
0.0
  0
LINE
  5
225
330
1D
100
AcDbEntity
  8
0
100
AcDbLine
 10
244.0
 20
78.84513
 30
0.0
 11
244.0
 21
81.09929
 31
0.0
  0
LINE
  5
226
330
1D
100
AcDbEntity
  8
0
100
AcDbLine
 10
244.0
 20
78.84513
 30
0.0
 11
244.0
 21
76.93278
 31
0.0
  0
LINE
  5
227
330
1D
100
AcDbEntity
  8
0
100
AcDbLine
 10
244.0
 20
81.09929
 30
0.0
 11
244.0
 21
83.66235
 31
0.0
  0
LINE
  5
228
330
1D
100
AcDbEntity
  8
0
100
AcDbLine
 10
244.0
 20
81.09929
 30
0.0
 11
244.0
 21
78.84513
 31
0.0
  0
LINE
  5
229
330
1D
100
AcDbEntity
  8
0
100
AcDbLine
 10
244.0
 20
83.66235
 30
0.0
 11
244.0
 21
86.50545
 31
0.0
  0
LINE
  5
22A
330
1D
100
AcDbEntity
  8
0
100
AcDbLine
 10
244.0
 20
83.66235
 30
0.0
 11
244.0
 21
81.09929
 31
0.0
  0
LINE
  5
22B
330
1D
100
AcDbEntity
  8
0
100
AcDbLine
 10
244.0
 20
86.50545
 30
0.0
 11
244.0
 21
89.58875
 31
0.0
  0
LINE
  5
22C
330
1D
100
AcDbEntity
  8
0
100
AcDbLine
 10
244.0
 20
86.50545
 30
0.0
 11
244.0
 21
83.66235
 31
0.0
  0
LINE
  5
22D
330
1D
100
AcDbEntity
  8
0
100
AcDbLine
 10
244.0
 20
89.58875
 30
0.0
 11
244.0
 21
92.87535
 31
0.0
  0
LINE
  5
22E
330
1D
100
AcDbEntity
  8
0
100
AcDbLine
 10
244.0
 20
89.58875
 30
0.0
 11
244.0
 21
86.50545
 31
0.0
  0
LINE
  5
22F
330
1D
100
AcDbEntity
  8
0
100
AcDbLine
 10
244.0
 20
92.87535
 30
0.0
 11
244.0
 21
96.32235
 31
0.0
  0
LINE
  5
230
330
1D
100
AcDbEntity
  8
0
100
AcDbLine
 10
244.0
 20
92.87535
 30
0.0
 11
244.0
 21
89.58875
 31
0.0
  0
LINE
  5
231
330
1D
100
AcDbEntity
  8
0
100
AcDbLine
 10
244.0
 20
96.32235
 30
0.0
 11
244.0
 21
99.88695
 31
0.0
  0
LINE
  5
232
330
1D
100
AcDbEntity
  8
0
100
AcDbLine
 10
244.0
 20
96.32235
 30
0.0
 11
244.0
 21
92.87535
 31
0.0
  0
LINE
  5
233
330
1D
100
AcDbEntity
  8
0
100
AcDbLine
 10
244.0
 20
99.88695
 30
0.0
 11
244.0
 21
103.52125
 31
0.0
  0
LINE
  5
234
330
1D
100
AcDbEntity
  8
0
100
AcDbLine
 10
244.0
 20
99.88695
 30
0.0
 11
244.0
 21
96.32235
 31
0.0
  0
LINE
  5
235
330
1D
100
AcDbEntity
  8
0
100
AcDbLine
 10
244.0
 20
103.52125
 30
0.0
 11
244.0
 21
107.18055
 31
0.0
  0
LINE
  5
236
330
1D
100
AcDbEntity
  8
0
100
AcDbLine
 10
244.0
 20
103.52125
 30
0.0
 11
244.0
 21
99.88695
 31
0.0
  0
LINE
  5
237
330
1D
100
AcDbEntity
  8
0
100
AcDbLine
 10
244.0
 20
107.18055
 30
0.0
 11
244.0
 21
110.81785
 31
0.0
  0
LINE
  5
238
330
1D
100
AcDbEntity
  8
0
100
AcDbLine
 10
244.0
 20
107.18055
 30
0.0
 11
244.0
 21
103.52125
 31
0.0
  0
LINE
  5
239
330
1D
100
AcDbEntity
  8
0
100
AcDbLine
 10
244.0
 20
110.81785
 30
0.0
 11
244.0
 21
114.38745
 31
0.0
  0
LINE
  5
23A
330
1D
100
AcDbEntity
  8
0
100
AcDbLine
 10
244.0
 20
110.81785
 30
0.0
 11
244.0
 21
107.18055
 31
0.0
  0
LINE
  5
23B
330
1D
100
AcDbEntity
  8
0
100
AcDbLine
 10
244.0
 20
114.38745
 30
0.0
 11
244.0
 21
117.84145
 31
0.0
  0
LINE
  5
23C
330
1D
100
AcDbEntity
  8
0
100
AcDbLine
 10
244.0
 20
114.38745
 30
0.0
 11
244.0
 21
110.81785
 31
0.0
  0
LINE
  5
23D
330
1D
100
AcDbEntity
  8
0
100
AcDbLine
 10
244.0
 20
117.84145
 30
0.0
 11
244.0
 21
121.13895
 31
0.0
  0
LINE
  5
23E
330
1D
100
AcDbEntity
  8
0
100
AcDbLine
 10
244.0
 20
117.84145
 30
0.0
 11
244.0
 21
114.38745
 31
0.0
  0
LINE
  5
23F
330
1D
100
AcDbEntity
  8
0
100
AcDbLine
 10
244.0
 20
121.13895
 30
0.0
 11
244.0
 21
124.23525
 31
0.0
  0
LINE
  5
240
330
1D
100
AcDbEntity
  8
0
100
AcDbLine
 10
244.0
 20
121.13895
 30
0.0
 11
244.0
 21
117.84145
 31
0.0
  0
LINE
  5
241
330
1D
100
AcDbEntity
  8
0
100
AcDbLine
 10
244.0
 20
124.23525
 30
0.0
 11
244.0
 21
127.09225
 31
0.0
  0
LINE
  5
242
330
1D
100
AcDbEntity
  8
0
100
AcDbLine
 10
244.0
 20
124.23525
 30
0.0
 11
244.0
 21
121.13895
 31
0.0
  0
LINE
  5
244
330
1D
100
AcDbEntity
  8
0
100
AcDbLine
 10
244.0
 20
127.09225
 30
0.0
 11
244.0
 21
129.67235
 31
0.0
  0
LINE
  5
245
330
1D
100
AcDbEntity
  8
0
100
AcDbLine
 10
244.0
 20
127.09225
 30
0.0
 11
244.0
 21
124.23525
 31
0.0
  0
LINE
  5
246
330
1D
100
AcDbEntity
  8
0
100
AcDbLine
 10
244.0
 20
129.67235
 30
0.0
 11
244.0
 21
131.94345
 31
0.0
  0
LINE
  5
247
330
1D
100
AcDbEntity
  8
0
100
AcDbLine
 10
244.0
 20
129.67235
 30
0.0
 11
244.0
 21
127.09225
 31
0.0
  0
LINE
  5
248
330
1D
100
AcDbEntity
  8
0
100
AcDbLine
 10
244.0
 20
133.87665
 30
0.0
 11
244.0
 21
131.94345
 31
0.0
  0
LINE
  5
249
330
1D
100
AcDbEntity
  8
0
100
AcDbLine
 10
244.0
 20
133.87665
 30
0.0
 11
244.0
 21
135.48705
 31
0.0
  0
LINE
  5
24A
330
1D
100
AcDbEntity
  8
0
100
AcDbLine
 10
244.0
 20
136.69085
 30
0.0
 11
244.0
 21
137.47315
 31
0.0
  0
LINE
  5
24B
330
1D
100
AcDbEntity
  8
0
100
AcDbLine
 10
244.0
 20
136.69085
 30
0.0
 11
244.0
 21
135.48705
 31
0.0
  0
LINE
  5
24C
330
1D
100
AcDbEntity
  8
0
100
AcDbLine
 10
244.0
 20
137.47315
 30
0.0
 11
244.0
 21
137.82195
 31
0.0
  0
LINE
  5
24D
330
1D
100
AcDbEntity
  8
0
100
AcDbLine
 10
244.0
 20
137.47315
 30
0.0
 11
244.0
 21
136.69085
 31
0.0
  0
LINE
  5
24E
330
1D
100
AcDbEntity
  8
0
100
AcDbLine
 10
244.0
 20
135.48705
 30
0.0
 11
244.0
 21
133.87665
 31
0.0
  0
LINE
  5
24F
330
1D
100
AcDbEntity
  8
0
100
AcDbLine
 10
244.0
 20
135.48705
 30
0.0
 11
244.0
 21
136.69085
 31
0.0
  0
LINE
  5
250
330
1D
100
AcDbEntity
  8
0
100
AcDbLine
 10
244.0
 20
137.82195
 30
0.0
 11
244.0
 21
137.47315
 31
0.0
  0
LINE
  5
251
330
1D
100
AcDbEntity
  8
0
100
AcDbLine
 10
244.0
 20
131.94345
 30
0.0
 11
244.0
 21
133.87665
 31
0.0
  0
LINE
  5
252
330
1D
100
AcDbEntity
  8
0
100
AcDbLine
 10
244.0
 20
131.94345
 30
0.0
 11
244.0
 21
129.67235
 31
0.0
  0
LINE
  5
256
330
1D
100
AcDbEntity
  8
0
100
AcDbLine
 10
237.104
 20
91.47025
 30
0.0
 11
237.104
 21
92.56635
 31
0.0
  0
LINE
  5
257
330
1D
100
AcDbEntity
  8
0
100
AcDbLine
 10
237.104
 20
91.47025
 30
0.0
 11
237.104
 21
91.12145
 31
0.0
  0
LINE
  5
27F
330
1D
100
AcDbEntity
  8
0
100
AcDbLine
 10
29.187
 20
91.87785
 30
0.0
 11
47.503
 21
91.80095
 31
0.0
  0
LINE
  5
280
330
1D
100
AcDbEntity
  8
0
100
AcDbLine
 10
5.15374
 20
92.76005
 30
0.0
 11
27.6392
 21
88.67905
 31
0.0
  0
LINE
  5
281
330
1D
100
AcDbEntity
  8
0
100
AcDbLine
 10
71.42
 20
91.70045
 30
0.0
 11
222.777289996691
 21
91.064085063062
 31
0.0
  0
LINE
  5
282
330
1D
100
AcDbEntity
  8
0
100
AcDbLine
 10
237.489
 20
137.23505
 30
0.0
 11
237.185
 21
125.62735
 31
0.0
  0
LINE
  5
283
330
1D
100
AcDbEntity
  8
0
100
AcDbLine
 10
237.979
 20
73.216741
 30
0.0
 11
244.0
 21
73.451892
 31
0.0
  0
LINE
  5
284
330
1D
100
AcDbEntity
  8
0
100
AcDbLine
 10
237.489
 20
73.697761
 30
0.0
 11
237.104
 21
91.00385
 31
0.0
  0
ENDSEC
  0
SECTION
  2
OBJECTS
  0
DICTIONARY
  5
C
330
0
100
AcDbDictionary
281
     1
  3
ACAD_GROUP
350
D
  3
ACAD_LAYOUT
350
1A
  3
ACAD_MLEADERSTYLE
350
287
  3
ACAD_MLINESTYLE
350
17
  3
ACAD_PLOTSETTINGS
350
19
  3
ACAD_PLOTSTYLENAME
350
E
  3
ACAD_SCALELIST
350
25D
  3
AcDbVariableDictionary
350
285
  3
DWGPROPS
350
28C
  0
DICTIONARY
  5
D
102
{ACAD_REACTORS
330
C
102
}
330
C
100
AcDbDictionary
281
     1
  0
DICTIONARY
  5
1A
102
{ACAD_REACTORS
330
C
102
}
330
C
100
AcDbDictionary
281
     1
  3
Layout1
350
1C
  3
Model
350
1E
  0
DICTIONARY
  5
287
102
{ACAD_REACTORS
330
C
102
}
330
C
100
AcDbDictionary
281
     1
  0
DICTIONARY
  5
17
102
{ACAD_REACTORS
330
C
102
}
330
C
100
AcDbDictionary
281
     1
  3
Standard
350
18
  0
DICTIONARY
  5
19
102
{ACAD_REACTORS
330
C
102
}
330
C
100
AcDbDictionary
281
     1
  0
ACDBDICTIONARYWDFLT
  5
E
102
{ACAD_REACTORS
330
C
102
}
330
C
100
AcDbDictionary
281
     1
  3
Normal
350
F
100
AcDbDictionaryWithDefault
340
F
  0
DICTIONARY
  5
25D
102
{ACAD_REACTORS
330
C
102
}
330
C
100
AcDbDictionary
281
     1
  3
A0
350
25E
  3
A1
350
25F
  3
A2
350
260
  3
A3
350
261
  3
A4
350
262
  3
A5
350
263
  3
A6
350
264
  3
A7
350
265
  3
A8
350
266
  3
A9
350
267
  3
B0
350
268
  3
B1
350
269
  3
B2
350
26A
  3
B3
350
26B
  3
B4
350
26C
  3
B5
350
26D
  3
B6
350
26E
  3
B7
350
26F
  3
B8
350
270
  3
B9
350
271
  3
C0
350
272
  3
C1
350
273
  3
C2
350
274
  3
C3
350
275
  3
C4
350
276
  3
C5
350
277
  3
C6
350
278
  3
C7
350
279
  3
C8
350
27A
  3
C9
350
27B
  3
D0
350
27C
  3
D1
350
27D
  3
D2
350
27E
  0
DICTIONARY
  5
285
102
{ACAD_REACTORS
330
C
102
}
330
C
100
AcDbDictionary
281
     1
  3
CANNOSCALE
350
28B
  0
XRECORD
  5
28C
102
{ACAD_REACTORS
330
C
102
}
330
C
100
AcDbXrecord
280
     1
  1
DWGPROPS COOKIE
  2

  3

  4

  6

  7

  8
MARTIN
  9

300
=
301
=
302
=
303
=
304
=
305
=
306
=
307
=
308
=
309
=
 40
0.0
 41
2455872.898968461
 42
2455872.900372176
  1

 90
        0
  0
LAYOUT
  5
1C
102
{ACAD_REACTORS
330
1A
102
}
330
1A
100
AcDbPlotSettings
  1

  2
none_device
  4

  6

 40
0.0
 41
0.0
 42
0.0
 43
0.0
 44
0.0
 45
0.0
 46
0.0
 47
0.0
 48
0.0
 49
0.0
140
0.0
141
0.0
142
1.0
143
1.0
 70
   688
 72
     0
 73
     0
 74
     5
  7

 75
    16
147
1.0
148
0.0
149
0.0
100
AcDbLayout
  1
Layout1
 70
     1
 71
     1
 10
0.0
 20
0.0
 11
12.0
 21
9.0
 12
0.0
 22
0.0
 32
0.0
 14
1.000000000000E+20
 24
1.000000000000E+20
 34
1.000000000000E+20
 15
-1.000000000000E+20
 25
-1.000000000000E+20
 35
-1.000000000000E+20
146
0.0
 13
0.0
 23
0.0
 33
0.0
 16
1.0
 26
0.0
 36
0.0
 17
0.0
 27
1.0
 37
0.0
 76
     0
330
1B
  0
LAYOUT
  5
1E
102
{ACAD_REACTORS
330
1A
102
}
330
1A
100
AcDbPlotSettings
  1

  2
none_device
  4

  6

 40
0.0
 41
0.0
 42
0.0
 43
0.0
 44
0.0
 45
0.0
 46
0.0
 47
0.0
 48
0.0
 49
0.0
140
0.0
141
0.0
142
1.0
143
1.0
 70
  1712
 72
     0
 73
     0
 74
     0
  7

 75
     0
147
1.0
148
0.0
149
0.0
100
AcDbLayout
  1
Model
 70
     1
 71
     0
 10
0.0
 20
0.0
 11
12.0
 21
9.0
 12
0.0
 22
0.0
 32
0.0
 14
0.0
 24
-0.11905
 34
0.0
 15
244.0
 25
144.11905
 35
0.0
146
0.0
 13
0.0
 23
0.0
 33
0.0
 16
1.0
 26
0.0
 36
0.0
 17
0.0
 27
1.0
 37
0.0
 76
     0
330
1D
331
258
  0
MLINESTYLE
  5
18
102
{ACAD_REACTORS
330
17
102
}
330
17
100
AcDbMlineStyle
  2
Standard
 70
     0
  3

 62
   256
 51
90.0
 52
90.0
 71
     2
 49
0.5
 62
   256
  6
BYLAYER
 49
-0.5
 62
   256
  6
BYLAYER
  0
ACDBPLACEHOLDER
  5
F
102
{ACAD_REACTORS
330
E
102
}
330
E
  0
SCALE
  5
25E
102
{ACAD_REACTORS
330
25D
102
}
330
25D
100
AcDbScale
 70
     0
300
1:1
140
1.0
141
1.0
290
     1
  0
SCALE
  5
25F
102
{ACAD_REACTORS
330
25D
102
}
330
25D
100
AcDbScale
 70
     0
300
1:2
140
1.0
141
2.0
290
     0
  0
SCALE
  5
260
102
{ACAD_REACTORS
330
25D
102
}
330
25D
100
AcDbScale
 70
     0
300
1:4
140
1.0
141
4.0
290
     0
  0
SCALE
  5
261
102
{ACAD_REACTORS
330
25D
102
}
330
25D
100
AcDbScale
 70
     0
300
1:5
140
1.0
141
5.0
290
     0
  0
SCALE
  5
262
102
{ACAD_REACTORS
330
25D
102
}
330
25D
100
AcDbScale
 70
     0
300
1:8
140
1.0
141
8.0
290
     0
  0
SCALE
  5
263
102
{ACAD_REACTORS
330
25D
102
}
330
25D
100
AcDbScale
 70
     0
300
1:10
140
1.0
141
10.0
290
     0
  0
SCALE
  5
264
102
{ACAD_REACTORS
330
25D
102
}
330
25D
100
AcDbScale
 70
     0
300
1:16
140
1.0
141
16.0
290
     0
  0
SCALE
  5
265
102
{ACAD_REACTORS
330
25D
102
}
330
25D
100
AcDbScale
 70
     0
300
1:20
140
1.0
141
20.0
290
     0
  0
SCALE
  5
266
102
{ACAD_REACTORS
330
25D
102
}
330
25D
100
AcDbScale
 70
     0
300
1:30
140
1.0
141
30.0
290
     0
  0
SCALE
  5
267
102
{ACAD_REACTORS
330
25D
102
}
330
25D
100
AcDbScale
 70
     0
300
1:40
140
1.0
141
40.0
290
     0
  0
SCALE
  5
268
102
{ACAD_REACTORS
330
25D
102
}
330
25D
100
AcDbScale
 70
     0
300
1:50
140
1.0
141
50.0
290
     0
  0
SCALE
  5
269
102
{ACAD_REACTORS
330
25D
102
}
330
25D
100
AcDbScale
 70
     0
300
1:100
140
1.0
141
100.0
290
     0
  0
SCALE
  5
26A
102
{ACAD_REACTORS
330
25D
102
}
330
25D
100
AcDbScale
 70
     0
300
2:1
140
2.0
141
1.0
290
     0
  0
SCALE
  5
26B
102
{ACAD_REACTORS
330
25D
102
}
330
25D
100
AcDbScale
 70
     0
300
4:1
140
4.0
141
1.0
290
     0
  0
SCALE
  5
26C
102
{ACAD_REACTORS
330
25D
102
}
330
25D
100
AcDbScale
 70
     0
300
8:1
140
8.0
141
1.0
290
     0
  0
SCALE
  5
26D
102
{ACAD_REACTORS
330
25D
102
}
330
25D
100
AcDbScale
 70
     0
300
10:1
140
10.0
141
1.0
290
     0
  0
SCALE
  5
26E
102
{ACAD_REACTORS
330
25D
102
}
330
25D
100
AcDbScale
 70
     0
300
100:1
140
100.0
141
1.0
290
     0
  0
SCALE
  5
26F
102
{ACAD_REACTORS
330
25D
102
}
330
25D
100
AcDbScale
 70
     0
300
1/128" = 1'-0"
140
0.0078125
141
12.0
290
     0
  0
SCALE
  5
270
102
{ACAD_REACTORS
330
25D
102
}
330
25D
100
AcDbScale
 70
     0
300
1/64" = 1'-0"
140
0.015625
141
12.0
290
     0
  0
SCALE
  5
271
102
{ACAD_REACTORS
330
25D
102
}
330
25D
100
AcDbScale
 70
     0
300
1/32" = 1'-0"
140
0.03125
141
12.0
290
     0
  0
SCALE
  5
272
102
{ACAD_REACTORS
330
25D
102
}
330
25D
100
AcDbScale
 70
     0
300
1/16" = 1'-0"
140
0.0625
141
12.0
290
     0
  0
SCALE
  5
273
102
{ACAD_REACTORS
330
25D
102
}
330
25D
100
AcDbScale
 70
     0
300
3/32" = 1'-0"
140
0.09375
141
12.0
290
     0
  0
SCALE
  5
274
102
{ACAD_REACTORS
330
25D
102
}
330
25D
100
AcDbScale
 70
     0
300
1/8" = 1'-0"
140
0.125
141
12.0
290
     0
  0
SCALE
  5
275
102
{ACAD_REACTORS
330
25D
102
}
330
25D
100
AcDbScale
 70
     0
300
3/16" = 1'-0"
140
0.1875
141
12.0
290
     0
  0
SCALE
  5
276
102
{ACAD_REACTORS
330
25D
102
}
330
25D
100
AcDbScale
 70
     0
300
1/4" = 1'-0"
140
0.25
141
12.0
290
     0
  0
SCALE
  5
277
102
{ACAD_REACTORS
330
25D
102
}
330
25D
100
AcDbScale
 70
     0
300
3/8" = 1'-0"
140
0.375
141
12.0
290
     0
  0
SCALE
  5
278
102
{ACAD_REACTORS
330
25D
102
}
330
25D
100
AcDbScale
 70
     0
300
1/2" = 1'-0"
140
0.5
141
12.0
290
     0
  0
SCALE
  5
279
102
{ACAD_REACTORS
330
25D
102
}
330
25D
100
AcDbScale
 70
     0
300
3/4" = 1'-0"
140
0.75
141
12.0
290
     0
  0
SCALE
  5
27A
102
{ACAD_REACTORS
330
25D
102
}
330
25D
100
AcDbScale
 70
     0
300
1" = 1'-0"
140
1.0
141
12.0
290
     0
  0
SCALE
  5
27B
102
{ACAD_REACTORS
330
25D
102
}
330
25D
100
AcDbScale
 70
     0
300
1-1/2" = 1'-0"
140
1.5
141
12.0
290
     0
  0
SCALE
  5
27C
102
{ACAD_REACTORS
330
25D
102
}
330
25D
100
AcDbScale
 70
     0
300
3" = 1'-0"
140
3.0
141
12.0
290
     0
  0
SCALE
  5
27D
102
{ACAD_REACTORS
330
25D
102
}
330
25D
100
AcDbScale
 70
     0
300
6" = 1'-0"
140
6.0
141
12.0
290
     0
  0
SCALE
  5
27E
102
{ACAD_REACTORS
330
25D
102
}
330
25D
100
AcDbScale
 70
     0
300
1'-0" = 1'-0"
140
12.0
141
12.0
290
     0
  0
DICTIONARYVAR
  5
28B
102
{ACAD_REACTORS
330
285
102
}
330
285
100
DictionaryVariables
280
     0
  1
1:1
  0
ENDSEC
  0
SECTION
  2
THUMBNAILIMAGE
 90
    16364
310
28000000B40000005500000001000800000000000000000000000000000000000000000000000000FFFFFF000000FF0000FFFF0000FF0000FFFF0000FF000000FF00FF000000000080808000C0C0C0000000FF007F7FFF000000A5005252A50000007F003F3F7F0000004C0026264C000000260013132600003FFF007F9FFF
310
000029A5005267A500001F7F003F4F7F0000134C00262F4C000009260013172600007FFF007FBFFF000052A500527CA500003F7F003F5F7F0000264C0026394C0000132600131C260000BFFF007FDFFF00007CA5005291A500005F7F003F6F7F0000394C0026424C00001C26001321260000FFFF007FFFFF0000A5A50052A5
310
A500007F7F003F7F7F00004C4C00264C4C00002626001326260000FFBF007FFFDF0000A57C0052A59100007F5F003F7F6F00004C3900264C420000261C001326210000FF7F007FFFBF0000A5520052A57C00007F3F003F7F5F00004C2600264C39000026130013261C0000FF3F007FFF9F0000A5290052A56700007F1F003F
310
7F4F00004C1300264C2F00002609001326170000FF00007FFF7F0000A5000052A55200007F00003F7F3F00004C0000264C260000260000132613003FFF00009FFF7F0029A5000067A552001F7F00004F7F3F00134C00002F4C260009260000172613007FFF0000BFFF7F0052A500007CA552003F7F00005F7F3F00264C0000
310
394C2600132600001C261300BFFF0000DFFF7F007CA5000091A552005F7F00006F7F3F00394C0000424C26001C26000021261300FFFF0000FFFF7F00A5A50000A5A552007F7F00007F7F3F004C4C00004C4C26002626000026261300FFBF0000FFDF7F00A57C0000A59152007F5F00007F6F3F004C3900004C422600261C00
310
0026211300FF7F0000FFBF7F00A5520000A57C52007F3F00007F5F3F004C2600004C39260026130000261C1300FF3F0000FF9F7F00A5290000A56752007F1F00007F4F3F004C1300004C2F26002609000026171300FF000000FF7F7F00A5000000A55252007F0000007F3F3F004C0000004C2626002600000026131300FF00
310
3F00FF7F9F00A5002900A55267007F001F007F3F4F004C0013004C262F002600090026131700FF007F00FF7FBF00A5005200A5527C007F003F007F3F5F004C0026004C2639002600130026131C00FF00BF00FF7FDF00A5007C00A55291007F005F007F3F6F004C0039004C26420026001C0026132100FF00FF00FF7FFF00A5
310
00A500A552A5007F007F007F3F7F004C004C004C264C002600260026132600BF00FF00DF7FFF007C00A5009152A5005F007F006F3F7F0039004C0042264C001C002600211326007F00FF00BF7FFF005200A5007C52A5003F007F005F3F7F0026004C0039264C00130026001C1326003F00FF009F7FFF002900A5006752A500
310
1F007F004F3F7F0013004C002F264C000900260017132600000000002D2D2D005B5B5B0089898900B7B7B700B3B3B30000000000000000000000000000000000000000000000000000000000000000000000000000000000000000000000000000000000000000000000000000000000000000000000000000000000000000
310
00000000000000000000000000000000000000000000000000000000000000000000000000000000000000000000000000000000000000000000000000000000000000000000000000000000000000000000000000000000000000000000000000000000000000000000000000000000000000000000000000000000000000
310
00000000000000000000000000000000000000000000000000000000000000000000000000000000000000000000000000000000000000000000000000000000000000000000000000000000000000000000000000000000000000000000000000000000000000000000000000000000000000000000000000000000000000
310
00000000000000000000000000000000000000000000000000000000000000000000000000000000000000000000000000000000000000000000000000000000000000000000000000000000000000000000000000000000000000000000000000000000000000000000000000000000000000000000000000000000000000
310
00000000000000000000000000000000000000000000000000000000000000000000000000000000000000000000000000000000000000000000000000000000000000000000000000000000000000000000000000000000000000000000000000000000000000000000000000000000000000000000000000000000000000
310
00000000000007070707070707070000000000000000000000000000000000000000000000000000000000000000000000000000000000000000000000000000000000000000000000000000000000000000000000000000000000000000000000000000000000000000000000000000000000000000000000000000000000
310
00000000000000000000000000000000000000000000000000000000000000000000000000000000000000000000000000000000000000000000000700000000000000070000000000000000000000000000000000000000000000000000000000000000000000000000000000000000000000000000000000000000000000
310
00000000000000000000000000000000000000000000000000000000000000000000000000000000000000000000000000000000000000000000000000000000000000000000000000000000000000000000000000000000000000000000000000000000000000000000000000000000070000000000000007000000000000
310
00000000000000000000000000000000000000000000000000000000000000000000000000000000000000000000000000000000000000000000000000000000000000000000000000000000000000000000000000000000000000000000000000000000000000000000000000000000000000000000000000000000000000
310
00000000000000000000000000000000000000000000000000000000000000000000000000000700000000000007070000000000000000000000000000000000000000000000000000000000000000000000000000000000000000000000000000000000000000000000000000000000000000000000000000000000000000
310
00000000000000000000000000000000000000000000000000000000000000000000000000000000000000000000000000000000000000000000000000000000000000000000000000000000000000000000000000000000000000070700000000070007000000000000000000000000000000000000000000000000000000
310
00000000000000000000000000000000000000000000000000000000000000000000000000000000000000000000000000000000000000000000000000000000000000000000000000000000000000000000000000000000000000000000000000000000000000000000000000000000000000000000000000000000000000
310
00000000000000000000000000000000000700070707070700070000000000000000000000000000000000000000000000000000000000000000000000000000000000000000000000000000000000000000000000000000000000000000000000000000000000000000000000000000000000000000000000000000000000
310
00000000000000000000000000000000000000000000000000000000000000000000000000000000000000000000000000000000000000000000000000000000000000000000070000000000000007000000000000000000000000000000000000000000000000000000000000000000000000000000000000000000000000
310
00000000000000000000000000000000000000000000000000000000000000000000000000000000000000000000000000000000000000000000000000000000000000000000000000000000000000000000000000000000000000000000000000000000000000000000000000000000000000000000000000000007000000
310
00000000070000000000000000000000000000000000000000000000000000000000000000000000000000000000000000000000000000000000000000000000000000000000000000000000000000000000000000000000000000000000000000000000000000000000000000000000000000000000000000000000000000
310
00000000000000000000000000000000000000000000000000000000000000000000000000000000000000000000000000070000000000000007000000000000000000000000000000000000000000000000000000000000000000000000000000000000000000000000000000000000000000000000000000000000000000
310
00000000000000000000000000000000000000000000000000000000000000000000000000000000000000000000000000000000000000000000000000000000000000000000000000000000000000000000000000000000000000000000000000000000000007000000000000000700000000000000000000000000000000
310
00000000000000000000000000000000000000000000000000000000000000000000000000000000000000000000000000000000000000000000000000000000000000000000000000000000000000000000000000000000000000000000000000000000000000000000000000000000000000000000000000000000000000
310
00000000000000000000000000000000000000000000000000000000070000000000000007000000000000000000000000000000000000000000000000000000000000000000000000000000000000000000000000000000000000000000000000000000000000000000000000000000000000000000000000000000000000
310
00000000000000000000000000000000000000000000000000000000000000000000000000000000000000000000000000000000000000000000000000000000000000000000000000000000000000000007000000000000000700000000000000000000000000000000000000000000000000000000000000000000000000
310
00000000000000000000000000000000000000000000000000000000000000000000000000000000000000000000000000000000000000000000000000000000000000000000000000000000000000000000000000000000000000000000000000000000000000000000000000000000000000000000000000000000000000
310
00000000000000070000000000000007000000000000000000000000000000000000000000000000000000000000000000000000000000000000000000000000000000000000000000000000000000000000000000000000000000000000000000000000000000000000000000000000000000000000000000000000000000
310
00000000000000000000000000000000000000000000000000000000000000000000000000000000000000000000000000000000000000000000000007000000000000000700000000000000000000000000000000000000000000000000000000000000000000000000000000000000000000000000000000000000000000
310
00000000000000000000000000000000000000000000000000000000000000000000000000000000000000000000000000000000000000000000000000000000000000000000000000000000000000000000000000000000000000000000000000000000000000000000000000000000000700000000000000070000000000
310
00000000000000000000000000000000000000000000000000000000000000000000000000000000000000000000000000000000000000000000000000000000000000000000000000000000000000000000000000000000000000000000000000000000000000000000000000000000000000000000000000000000000000
310
00000000000000000000000000000000000000000000000000000000000000000000000000000007000000000000000700000000000000000000000000000000000000000000000000000000000000000000000000000000000000000000000000000000000000000000000000000000000000000000000000000000000000
310
00000000000000000000000000000000000000000000000000000000000000000000000000000000000000000000000000000000000000000000000000000000000000000000000000000000000000000000000000000000000000000700000000000000070000000000000000000000000000000000000000000000000000
310
00000000000000000000000000000000000000000000000000000000000000000000000000000000000000000000000000000000000000000000000000000000000000000000000000000000000000000000000000000000000000000000000000000000000000000000000000000000000000000000000000000000000000
310
00000000000000000000000000000000000007000000000000000700000000000000000000000000000000000000000000000000000000000000000000000000000000000000000000000000000000000000000000000000000000000000000000000000000000000000000000000000000000000000000000000000000000
310
00000000000000000000000000000000000000000000000000000000000000000000000000000000000000000000000000000000000000000000000000000000000000000000000700000000000000070000000000000000000000000000000000000000000000000000000000000000000000000000000000000000000000
310
00000000000000000000000000000000000000000000000000000000000000000000000000000000000000000000000000000000000000000000000000000000000000000000000000000000000000000000000000000000000000000000000000000000000000000000000000000000000000000000000000000000070000
310
00000000000700000000000000000000000000000000000000000000000000000000000000000000000000000000000000000000000000000000000000000000000000000000000000000000000000000000000000000000000000000000000000000000000000000000000000000000000000000000000000000000000000
310
00000000000000000000000000000000000000000000000000000000000000000000000000000000000000000000000000000700000000000000070000000000000000000000000000000000000000000000000000000000000000000000000000000000000000000000000000000000000000000000000000000000000000
310
00000000000000000000000000000000000000000000000000000000000000000000000000000000000000000000000000000000000000000000000000000000000000000000000000000000000000000000000000000000000000000000000000000000000000070000000000000007000000000000000000000000000000
310
00000000000000000000000000000000000000000000000000000000000000000000000000000000000000000000000000000000000000000000000000000000000000000000000000000000000000000000000000000000000000000000000000000000000000000000000000000000000000000000000000000000000000
310
00000000000000000000000000000000000000000000000000000000000700000000000000070000000000000000000000000000000000000000000000000000000000000000000000000000000000000000000000000000000000000000000000000000000000000000000000000000000000000000000000000000000000
310
00000000000000000000000000000000000000000000000000000000000000000000000000000000000000000000000000000000000000000000000000000000000000000000000000000000000000000000070000000000000007000000000000000000000000000000000000000000000000000000000000000000000000
310
00000000000000000000000000000000000000000000000000000000000000000000000000000000000000000000000000000000000000000000000000000000000000000000000000000000000000000000000000000000000000000000000000000000000000000000000000000000000000000000000000000000000000
310
00000000000000000700000000000000070000000000000000000000000000000000000000000000000000000000000000000000000000000000000000000000000000000000000000000000000000000000000000000000000000000000000000000000000000000000000000000000000000000000000000000000000000
310
00000000000000000000000000000000000000000000000000000000000000000000000000000000000000000000000000000000000000000000000000070000000000000007000000000000000000000000000000000000000000000000000000000000000000000000000000000000000000000000000000000000000000
310
00000000000000000000000000000000000000000000000000000000000000000000000000000000000000000000000000000000000000000000000000000000000000000000000000000000000000000000000000000000000000000000000000000000000000000000000000000000000007000000000000000700000000
310
00000000000000000000000000000000000000000000000000000000000000000000000000000000000000000000000000000000000000000000000000000000000000000000000000000000000000000000000000000000000000000000000000000000000000000000000000000000000000000000000000000000000000
310
00000000000000000000000000000000000000000000000000000000000000000000000000000000070000000000000007000000000000000000000000000000000000000000000000000000000000000000000000000000000000000000000000000000000000000000000000000000000000000000000000000000000000
310
00000000000000000000000000000000000000000000000000000000000000000000000000000000000000000000000000000000000000000000000000000000000000000000000000000000000000000000000000000000000000000007000000000000000700000000000000000000000000000000000000000000000000
310
00000000000000000000000000000000000000000000000000000000000000000000000000000000000000000000000000000000000000000000000000000000000000000000000000000000000000000000000000000000000000000000000000000000000000000000000000000000000000000000000000000000000000
310
00000000000000000000000000000000000000070000000000000007000000000000000000000000000000000000000000000000000000000000000000000000000000000000000000000000000000000000000000000000000000000000000000000000000000000000000000000000000000000000000000000000000000
310
00000000000000000000000000000000000000000000000000000000000000000000000000000000000000000000000000000000000000000000000000000000000000000000000007000000000000000700000000000000000000000000000000000000000000000000000000000000000000000000000000000000000000
310
00000000000000000000000000000000000000000000000000000000000000000000000000000000000000000000000000000000000000000000000000000000000000000000000000000000000000000000000000000000000000000000000000000000000000000000000000000000000000000000000000000000000700
310
00000000000007000000000000000000000000000000000000000000000000000000000000000000000000000000000000000000000000000000000000000000000000000000000000000000000000000000000000000000000000000000000000000000000000000000000000000000000000000000000000000000000000
310
00000000000000000000000000000000000000000000000000000000000000000000000000000000000000000000000000000707070707070707070700000000000000000000000000000000000000000000000000000000000000000000000000000000000000000000000000000000000000000000000000000000000000
310
00000000000000000000000000000000000000000000000000000000000000000000000000000000000000000000000000000000000000000000000000000000000000000000000000000000000000000000000000000000000000000000000000000000000000070000000000000000070000000000000000000000000000
310
00000000000000000000000000000000000000000000000000000000000000000000000000000000000000000000000000000000000000000000000000000000000000000000000000000000000000000000000000000000000000000000000000000000000000000000000000000000000000000000000000000000000000
310
00000000000000000000000000000000000000000000000000000000000700000000000000000700000000000000000000000000000000000000000000000000000000000000000000000000000000000000000000000000000000000000000000000000000000000000000000000000000000000000000000000000000000
310
00000000000000000000000000000000000000000000000000000000000000000000000000000000000000000000000000000000000000000000000000000000000000000000000000000000000000000000070000000000000000070000000000000000000000000000000000000000000000000000000000000000000000
310
00000000000000000000000000000000000000000000000000000000000000000000000000000000000000000000000000000000000000000000000000000000000000000000000000000000000000000000000000000000000000000000000000000000000000000000000000000000000000000000000000000000000000
310
00000000000000000700000000000000000007000000000000000000000000000000000000000000000000000000000000000000000000000000000000000000000000000000000000000000000000000000000000000000000000000000000000000000000000000000000000000000000000000000000000000000000000
310
00000000000000000000000000000000000000000000000000000000000000000000000000000000000000000000000000000000000000000000000000070000000000000000000700000000000000000000000000000000000000000000000000000000000000000000000000000000000000000000000000000000000000
310
00000000000000000000000000000000000000000000000000000000000000000000000000000000000000000000000000000000000000000000000000000000000000000000000000000000000000000000000000000000000000000000000000000000000000000000000000000000000007000000000000000000070000
310
00000000000000000000000000000000000000000000000000000000000000000000000000000000000000000000000000000000000000000000000000000000000000000000000000000000000000000000000000000000000000000000000000000000000000000000000000000000000000000000000000000000000000
310
00000000000000000000000000000000000000000000000000000000000000000000000000000000070000000000000000000700000000000000000000000000000000000000000000000000000000000000000000000000000000000000000000000000000000000000000000000000000000000000000000000000000000
310
00000000000000000000000000070707070700000000000000000000000000000000000000000000000000000000000000000000000000000000000000000000000000000000000000000000000000000000000000000000000000000700000000000000000000070000000000000000000000000000000000000000000000
310
00000000000000000000000000000000000000000000000000000000000000000000000000000000000000000000000000000000000000000000000000000000000007000000070000000000000000000000000000000000000000000000000000000000000000000000000000000000000000000000000000000000000000
310
00000000000000000000000000000000000007000000000000000000000700000000000000000000000000000000000000000000000000000000000000000000000000000000000000000000000000000000000000000000000000000000000000000000000000000000000000000000000000000000000700000007000000
310
00000000000000000000000000000000000000000000000000000000000000000000000000000000000000000000000000000000000000000000000000000000000000000000000700000000000000000000070000000000000000000000000000000000000000000000000000000000000000000000000000000000000000
310
00000000000000000000000000000000000000000000000000000000000000000000000000000000000000000007000000070000000000000000000000000000000000000000000000000000000000000000000000000000000000000000000000000000000000000000000000000000000000000000000000000000070000
310
00000000000000000700000000000000000000000000000000000000000000000000000000000000000000000000000000000000000000000000000000000000000000000000000000000000000000000000000000000000000000000000000000000700000007000000000000000000000000000000000000000000000000
310
00000000000000000000000000000000000000000000000000000000000000000000000000000000000000000000000000000700000000000000000000000700000000000000000000000000000000000000000000000000000000000000000000000000000000000000000000000000000000000000000000000000000000
310
00000000000000000000000000000000000000000000000007000000070000000000000000000000000000000000000000000000000000000000000000000000000000000000000000000000000000000000000000000000000000000000000000000000000000070000000000000000000000070000000000000000000000
310
00000000000000000000000000000000000000000000000000000000000000000000000000000000000000000000000000000000000000000000000000000000000000000000000000000000000700000007000000000000000000000000000000000000000000000000000000000000000000000000000000000000000000
310
00000000000000000000000000000000000000000000000000000000000700000000000000000000000700000000000000000000000000000000000000000000000000000000000000000000000000000000000000000000000000000000000000000000000000000000000000000000000000000000000000000000000000
310
00000007000000070000000000000000000000000000000000000000000000000000000000000000000000000000000000000000000000000000000000000000000000000007070000000000000000000000070000000000000000000000000000000000000000000000000000000000000000000000000000000000000000
310
00000000000000000000000000000000000000000000000000000000000000000000000000000000000000000000000000000000000000000700000007000000000000000000000000000000000000000000000000000000000000000000000000000000000000000000000000000000000000000000070707070007000000
310
00000000000000000707070707070707070707070700000000000000000000000000000000000000000000000000000000000000000000000000000000000000000000000000000000000000000000000000000000000000000000000000000000000000000000000000000000070000000700000000000000000000000000
310
00000000000000000000000000000000000000000000000000000000000000000000000000000000070707070000000007070707070707070707070707070000000000000000000707070707070707070707070707070707070707070707070707070707070707070707070707070707070707070707070707070707070707
310
07070707070707070707070707070707070707070707070707070707070707070707070700000007000000000000000000000000000000000000000000000000000000000000000000000000000000000000000000000000000007070700000000070707070700000000000000000000000000070707070707070707070000
310
00000000000000000000000000000000000000000000000000000000000000000000000000000000000000000000000000000000000000000000000000000000000000000000000000000000000000000000000000000000070000000700000000000000000000000000000000000000000000000000000000000000000000
310
00000000000000000000000000000000070707070707070000000000000000000000000000000000000000000000000000000000000000000000000000000000000000000000000000000000000000000000000000000000000000000000000000000000000000000000000000000000000000000000000000000000000000
310
00000000000000000000000000000700000007000000000000000000000000000000000000000000000000000000000000000000000000000000000000000000000000000700000000000000000000000000000000000000000000000000000000000000000000000000000000000000000000000000000000000000000000
310
00000000000000000000000000000000000000000000000000000000000000000000000000000000000000000000000000000000000000000000000000000000000000070000000700000000000000000000000000000000000000000000000000000000000000000000000000000000000000000000000007000000000000
310
00000000000000000000000000000000000000000000000000000000000000000000000000000000000000000000000000000000000000000000000000000000000000000000000000000000000000000000000000000000000000000000000000000000000000000000000000000000000000000000000007000000070000
310
00000000000000000000000000000000000000000000000000000000000000000000000000000000000000000000070000000000000000000000000000000000000000000000000000000000000000000000000000000000000000000000000000000000000000000000000000000000000000000000000000000000000000
310
00000000000000000000000000000000000000000000000000000000000000000000000000000000000000000000070000000700000000000000000000000000000000000000000000000000000000000000000000000000000000000000000000000700000000000000000000000000000000000000000000000000000000
310
00000000000000000000000000000000000000000000000000000000000000000000000000000000000000000000000000000000000000000000000000000000000000000000000000000000000000000000000000000000000000000000000000000007000000070000000000000000000000000000000000000000000000
310
00000000000000000000000000000000000000000000000007000000000000000000000000000000000000000000000000000000000000000000000000000000000000000000000000000000000000000000000000000000000000000000000000000000000000000000000000000000000000000000000000000000000000
310
00000000000000000000000000000000000000000000000000070000000700000000000000000000000000000000000000000000000000000000000000000000000000000000000000000000000700000000000000000000000000000000000000000000000000000000000000000000000000000000000000000000000000
310
00000000000000000000000000000000000000000000000000000000000000000000000000000000000000000000000000000000000000000000000000000000000000000000000000000000000007000000070000000000000000000000000000000000000000000000000000000000000000000000000000000000000000
310
00000007000000000000000000000000000000000000000000000000000000000000000000000000000000000000000000000000000000000000000000000000000000000000000000000000000000000000000000000000000000000000000000000000000000000000000000000000000000000000000000000000000000
310
00000000070000000700000000000000000000000000000000000000000000000000000000000000000000000000000000000000000000000700000000000000000000000000000000000000000000000000000000000000000000000000000000000000000000000000000000000000000000000000000000000000000000
310
00000000000000000000000000000000000000000000000000000000000000000000000000000000000000000000000000000000000000000007000000070000000000000000000000000000000000000000000000000000000000000000000000000000000000000000000000070000000000000000000000000000000000
310
00000000000000000000000000000000000000000000000000000000000000000000000000000000000000000000000000000000000000000000000000000000000000000000000000000000000000000000000000000000000000000000000000000000000000000000000000000700000007000000000000000000000000
310
00000000000000000000000000000000000000000000000000000000000000000000000700000000000000000000000000000000000000000000000000000000000000000000000000000000000000000000000000000000000000000000000000000000000000000000000000000000000000000000000000000000000000
310
00000000000000000000000000000000000000000000000000000000000000000000000007000000070000000000000000000000000000000000000000000000000000000000000000000000000000000000000000000000070000000000000000000000000000000000000000000000000000000000000000000000000000
310
00000000000000000000000000000000000000000000000000000000000000000000000000000000000000000000000000000000000000000000000000000000000000000000000000000000000000000000000000000000000700000007000000000000000000000000000000000000000000000000000000000000000000
310
00000000000000000000000000000700000000000000000000000000000000000000000000000000000000000000000000000000000000000000000000000000000000000000000000000000000000000000000000000000000000000000000000000000000000000000000000000000000000000000000000000000000000
310
00000000000000000000000000000007000000070000000000000000000000000000000000000000000000000000000000000000000000000000000000000000000000070707070707070707070707070707070707070707070707070707070707070707070707070707070707070707070707070707070707070707070707
310
07070707070707070707070707070707070707070707070707070707070707070707070707070707070707070707070707070707070707070707070707070707070707070700000007000000000000000000000000000000000000000000000000000000000000000000000000000000000000000000000000000000000000
310
00000000000000000000000000000000000000000000070000000000000700000000000000000000000000000000000000000000000000000000000000000000000000000000000000000000000000000000000000000000000000000000000000000000000000000000000000000000000000000000000000070000000700
310
00000000000000000000000000000000000000000000000000000000000000000000000000000000000000000000000000000000000000000000000000000000000000000000000000000007000000000000070000000000000000000000000000000000000000000000000000000000000000000000000000000000000000
310
00000000000000000000000000000000000000000000000000000000000000000000000000000000000000000000000700000007000000000000000000000000000000000000000000000000000000000000000000000000000000000000000000000000000000000000000000000000000000000000000000000000000000
310
00070000000000000700000000000000000000000000000000000000000000000000000000000000000000000000000000000000000000000000000000000000000000000000000000000000000000000000000000000000000000000000000000000000000000000700000000000000000000000000000000000000000000
310
00000000000000000000000000000000000000000000000000000000000000000000000000000000000000000000000000000000000707070707070707070700000000000000000000000000000000000000000000000000000000000000000000000000000000000000000000000000000000000000000000000000000000
310
00000000000000000000000000000000000000000000000000000700000007000000000000000000000000000000000000000000000000000000000000000000000000000000000000000000000000000000000000000000000000000000000000000000000000000000070000000000000000070000000000000000000000
310
00000000000000000000000000000000000000000000000000000000000000000000000000000000000000000000000000000000000000000000000000000000000000000000000000000000000000070000000700000000000000000000000000000000000000000000000000000000000000000000000000000000000000
310
00000000000000000000000000000000000000000000000000000000000000000700000000000000000700000000000000000000000000000000000000000000000000000000000000000000000000000000000000000000000000000000000000000000000000000000000000000000000000000000000000000000000000
310
00000000000700000007000000000000000000000000000000000000000000000000000000000000000000000000000000000000000000000000000000000000000000000000000000000000000000000000000000070000000000000000070000000000000000000000000000000000000000000000000000000000000000
310
00000000000000000000000000000000000000000000000000000000000000000000000000000000000000000000000000000000000000000000070000000700000000000000000000000000000000000000000000000000000000000000000000000000000000000000000000000000000000000000000000000000000000
310
00000000000000000000000700000000000000000700000000000000000000000000000000000000000000000000000000000000000000000000000000000000000000000000000000000000000000000000000000000000000000000000000000000000000000000000000000000007000000070000000000000000000000
310
00000000000000000000000000000000000000000000000000000000000000000000000000000000000000000000000000000000000000000000000000000000070000000000000000070000000000000000000000000000000000000000000000000000000000000000000000000000000000000000000000000000000000
310
00000000000000000000000000000000000000000000000000000000000000000000000000070000000700000000000000000000000000000000000000000000000000000000000000000000000000000000000000000000000000000000000000000000000000000000000000000000000000000007000000000000000007
310
00000000000000000000000000000000000000000000000000000000000000000000000000000000000000000000000000000000000000000000000000000000000000000000000000000000000000000000000000000000000007070707070000000000000000000000000000000000000000000000000000000000000000
310
00000000000000000000000000000000000000000000000000000000000000000000000000000000000000070000000000000000070000000000000000000000000000000000000000000000000000000000000000000000000000000000000000000000000000000000000000000000000000000000000000000000000000
310
00000000000000000000000000000000000000000000000000000000000000000000000000000000000000000000000000000000000000000000000000000000000000000000000000000000000000000000000000000000000000000000000007000000000000000007000000000000000000000000000000000000000000
310
00000000000000000000000000000000000000000000000000000000000000000000000000000000000000000000000000000000000000000000000000000000000000000000000000000000000000000000000000000000000000000000000000000000000000000000000000000000000000000000000000000000000000
310
00000000000000000000000000000000000000000000070707070707070707070000000000000000000000000000000000000000000000000000000000000000000000000000000000000000000000000000000000000000000000000000000000000000000000000000000000000000000000000000000000000000000000
310
00000000000000000000000000000000000000000000000000000000000000000000000000000000000000000000000000000000000000000000000000000000000000000000000000000000000000000000000000000000000000000000000000000000000000000000000000000000000000000000000000000000000000
310
00000000000000000000000000000000000000000000000000000000000000000000000000000000000000000000000000000000000000000000000000000000000000000000000000000000000000000000000000000000000000000000000000000000000000000000000000000000000000000000000000000000000000
310
00000000000000000000000000000000000000000000000000000000000000000000000000000000000000000000000000000000000000000000000000000000000000000000000000000000000000000000000000000000000000000000000000000000000000000000000000000000000000000000000000000000000000
310
00000000000000000000000000000000000000000000000000000000000000000000000000000000000000000000000000000000000000000000000000000000000000000000000000000000000000000000000000000000000000000000000000000000000000000000000000000000000000000000000000000000000000
310
00000000000000000000000000000000000000000000000000000000000000000000000000000000000000000000000000000000000000000000000000000000000000000000000000000000000000000000000000000000000000000000000000000000000000000000000000000000000000000000000000000000000000
310
000000000000000000000000000000000000000000000000000000000000000000000000000000000000000000000000000000000000000000000000000000000000000000000000000000000000000000000000000000000000000000000000000000000000000000000000
  0
ENDSEC
  0
EOF
