  0
SECTION
  2
HEADER
  9
$ACADVER
  1
AC1015
  9
$ACADMAINTVER
 70
     6
  9
$DWGCODEPAGE
  3
ANSI_1252
  9
$INSBASE
 10
0.0
 20
0.0
 30
0.0
  9
$EXTMIN
 10
0.20485
 20
0.001
 30
0.0
  9
$EXTMAX
 10
511.79515
 20
1544.999
 30
0.0
  9
$LIMMIN
 10
0.0
 20
0.0
  9
$LIMMAX
 10
12.0
 20
9.0
  9
$ORTHOMODE
 70
     0
  9
$REGENMODE
 70
     1
  9
$FILLMODE
 70
     1
  9
$QTEXTMODE
 70
     0
  9
$MIRRTEXT
 70
     1
  9
$LTSCALE
 40
1.0
  9
$ATTMODE
 70
     1
  9
$TEXTSIZE
 40
0.2
  9
$TRACEWID
 40
0.05
  9
$TEXTSTYLE
  7
Standard
  9
$CLAYER
  8
0
  9
$CELTYPE
  6
ByBlock
  9
$CECOLOR
 62
   256
  9
$CELTSCALE
 40
1.0
  9
$DISPSILH
 70
     0
  9
$DIMSCALE
 40
1.0
  9
$DIMASZ
 40
0.18
  9
$DIMEXO
 40
0.0625
  9
$DIMDLI
 40
0.38
  9
$DIMRND
 40
0.0
  9
$DIMDLE
 40
0.0
  9
$DIMEXE
 40
0.18
  9
$DIMTP
 40
0.0
  9
$DIMTM
 40
0.0
  9
$DIMTXT
 40
0.18
  9
$DIMCEN
 40
0.09
  9
$DIMTSZ
 40
0.0
  9
$DIMTOL
 70
     0
  9
$DIMLIM
 70
     0
  9
$DIMTIH
 70
     1
  9
$DIMTOH
 70
     1
  9
$DIMSE1
 70
     0
  9
$DIMSE2
 70
     0
  9
$DIMTAD
 70
     0
  9
$DIMZIN
 70
     0
  9
$DIMBLK
  1

  9
$DIMASO
 70
     1
  9
$DIMSHO
 70
     1
  9
$DIMPOST
  1

  9
$DIMAPOST
  1

  9
$DIMALT
 70
     0
  9
$DIMALTD
 70
     2
  9
$DIMALTF
 40
25.4
  9
$DIMLFAC
 40
1.0
  9
$DIMTOFL
 70
     0
  9
$DIMTVP
 40
0.0
  9
$DIMTIX
 70
     0
  9
$DIMSOXD
 70
     0
  9
$DIMSAH
 70
     0
  9
$DIMBLK1
  1

  9
$DIMBLK2
  1

  9
$DIMSTYLE
  2
Standard
  9
$DIMCLRD
 70
     0
  9
$DIMCLRE
 70
     0
  9
$DIMCLRT
 70
     0
  9
$DIMTFAC
 40
1.0
  9
$DIMGAP
 40
0.09
  9
$DIMJUST
 70
     0
  9
$DIMSD1
 70
     0
  9
$DIMSD2
 70
     0
  9
$DIMTOLJ
 70
     1
  9
$DIMTZIN
 70
     0
  9
$DIMALTZ
 70
     0
  9
$DIMALTTZ
 70
     0
  9
$DIMUPT
 70
     0
  9
$DIMDEC
 70
     4
  9
$DIMTDEC
 70
     4
  9
$DIMALTU
 70
     2
  9
$DIMALTTD
 70
     2
  9
$DIMTXSTY
  7
Standard
  9
$DIMAUNIT
 70
     0
  9
$DIMADEC
 70
     0
  9
$DIMALTRND
 40
0.0
  9
$DIMAZIN
 70
     0
  9
$DIMDSEP
 70
    46
  9
$DIMATFIT
 70
     3
  9
$DIMFRAC
 70
     0
  9
$DIMLDRBLK
  1

  9
$DIMLUNIT
 70
     2
  9
$DIMLWD
 70
    -2
  9
$DIMLWE
 70
    -2
  9
$DIMTMOVE
 70
     2
  9
$LUNITS
 70
     2
  9
$LUPREC
 70
     4
  9
$SKETCHINC
 40
0.1
  9
$FILLETRAD
 40
0.5
  9
$AUNITS
 70
     0
  9
$AUPREC
 70
     0
  9
$MENU
  1
.
  9
$ELEVATION
 40
0.0
  9
$PELEVATION
 40
0.0
  9
$THICKNESS
 40
0.0
  9
$LIMCHECK
 70
     0
  9
$CHAMFERA
 40
0.5
  9
$CHAMFERB
 40
0.5
  9
$CHAMFERC
 40
1.0
  9
$CHAMFERD
 40
0.0
  9
$SKPOLY
 70
     0
  9
$TDCREATE
 40
2455870.887199317
  9
$TDUCREATE
 40
2455870.845532651
  9
$TDUPDATE
 40
2455870.894458067
  9
$TDUUPDATE
 40
2455870.852791401
  9
$TDINDWG
 40
0.0072580324
  9
$TDUSRTIMER
 40
0.0072580324
  9
$USRTIMER
 70
     1
  9
$ANGBASE
 50
0.0
  9
$ANGDIR
 70
     0
  9
$PDMODE
 70
     0
  9
$PDSIZE
 40
0.0
  9
$PLINEWID
 40
0.0
  9
$SPLFRAME
 70
     0
  9
$SPLINETYPE
 70
     6
  9
$SPLINESEGS
 70
     8
  9
$HANDSEED
  5
D70
  9
$SURFTAB1
 70
     6
  9
$SURFTAB2
 70
     6
  9
$SURFTYPE
 70
     6
  9
$SURFU
 70
     6
  9
$SURFV
 70
     6
  9
$UCSBASE
  2

  9
$UCSNAME
  2

  9
$UCSORG
 10
0.0
 20
0.0
 30
0.0
  9
$UCSXDIR
 10
1.0
 20
0.0
 30
0.0
  9
$UCSYDIR
 10
0.0
 20
1.0
 30
0.0
  9
$UCSORTHOREF
  2

  9
$UCSORTHOVIEW
 70
     0
  9
$UCSORGTOP
 10
0.0
 20
0.0
 30
0.0
  9
$UCSORGBOTTOM
 10
0.0
 20
0.0
 30
0.0
  9
$UCSORGLEFT
 10
0.0
 20
0.0
 30
0.0
  9
$UCSORGRIGHT
 10
0.0
 20
0.0
 30
0.0
  9
$UCSORGFRONT
 10
0.0
 20
0.0
 30
0.0
  9
$UCSORGBACK
 10
0.0
 20
0.0
 30
0.0
  9
$PUCSBASE
  2

  9
$PUCSNAME
  2

  9
$PUCSORG
 10
0.0
 20
0.0
 30
0.0
  9
$PUCSXDIR
 10
1.0
 20
0.0
 30
0.0
  9
$PUCSYDIR
 10
0.0
 20
1.0
 30
0.0
  9
$PUCSORTHOREF
  2

  9
$PUCSORTHOVIEW
 70
     0
  9
$PUCSORGTOP
 10
0.0
 20
0.0
 30
0.0
  9
$PUCSORGBOTTOM
 10
0.0
 20
0.0
 30
0.0
  9
$PUCSORGLEFT
 10
0.0
 20
0.0
 30
0.0
  9
$PUCSORGRIGHT
 10
0.0
 20
0.0
 30
0.0
  9
$PUCSORGFRONT
 10
0.0
 20
0.0
 30
0.0
  9
$PUCSORGBACK
 10
0.0
 20
0.0
 30
0.0
  9
$USERI1
 70
     0
  9
$USERI2
 70
     0
  9
$USERI3
 70
     0
  9
$USERI4
 70
     0
  9
$USERI5
 70
     0
  9
$USERR1
 40
0.0
  9
$USERR2
 40
0.0
  9
$USERR3
 40
0.0
  9
$USERR4
 40
0.0
  9
$USERR5
 40
0.0
  9
$WORLDVIEW
 70
     1
  9
$SHADEDGE
 70
     3
  9
$SHADEDIF
 70
    70
  9
$TILEMODE
 70
     1
  9
$MAXACTVP
 70
    64
  9
$PINSBASE
 10
0.0
 20
0.0
 30
0.0
  9
$PLIMCHECK
 70
     0
  9
$PEXTMIN
 10
1.000000000000E+20
 20
1.000000000000E+20
 30
1.000000000000E+20
  9
$PEXTMAX
 10
-1.000000000000E+20
 20
-1.000000000000E+20
 30
-1.000000000000E+20
  9
$PLIMMIN
 10
0.0
 20
0.0
  9
$PLIMMAX
 10
12.0
 20
9.0
  9
$UNITMODE
 70
     0
  9
$VISRETAIN
 70
     1
  9
$PLINEGEN
 70
     0
  9
$PSLTSCALE
 70
     1
  9
$TREEDEPTH
 70
  3020
  9
$CMLSTYLE
  2
Standard
  9
$CMLJUST
 70
     0
  9
$CMLSCALE
 40
1.0
  9
$PROXYGRAPHICS
 70
     1
  9
$MEASUREMENT
 70
     0
  9
$CELWEIGHT
370
    -1
  9
$ENDCAPS
280
     0
  9
$JOINSTYLE
280
     0
  9
$LWDISPLAY
290
     0
  9
$INSUNITS
 70
     0
  9
$HYPERLINKBASE
  1

  9
$STYLESHEET
  1

  9
$XEDIT
290
     1
  9
$CEPSNTYPE
380
     0
  9
$PSTYLEMODE
290
     1
  9
$FINGERPRINTGUID
  2
{B0FAC704-D3EA-4376-B933-E6993DE6E673}
  9
$VERSIONGUID
  2
{FAEB1C32-E019-11D5-929B-00C0DF256EC4}
  9
$EXTNAMES
290
     1
  9
$PSVPSCALE
 40
0.0
  9
$OLESTARTUP
290
     0
  0
ENDSEC
  0
SECTION
  2
CLASSES
  0
CLASS
  1
ACDBDICTIONARYWDFLT
  2
AcDbDictionaryWithDefault
  3
ObjectDBX Classes
 90
        0
280
     0
281
     0
  0
CLASS
  1
SCALE
  2
AcDbScale
  3
ObjectDBX Classes
 90
     1153
280
     0
281
     0
  0
CLASS
  1
DICTIONARYVAR
  2
AcDbDictionaryVar
  3
ObjectDBX Classes
 90
        0
280
     0
281
     0
  0
CLASS
  1
ACDBPLACEHOLDER
  2
AcDbPlaceHolder
  3
ObjectDBX Classes
 90
        0
280
     0
281
     0
  0
CLASS
  1
LAYOUT
  2
AcDbLayout
  3
ObjectDBX Classes
 90
        0
280
     0
281
     0
  0
ENDSEC
  0
SECTION
  2
TABLES
  0
TABLE
  2
VPORT
  5
8
330
0
100
AcDbSymbolTable
 70
     1
  0
VPORT
  5
D39
330
8
100
AcDbSymbolTableRecord
100
AcDbViewportTableRecord
  2
*Active
 70
     0
 10
0.0
 20
0.0
 11
1.0
 21
1.0
 12
255.897575
 22
772.4995
 13
0.0
 23
0.0
 14
0.5
 24
0.5
 15
0.5
 25
0.5
 16
0.0
 26
0.0
 36
1.0
 17
0.0
 27
0.0
 37
0.0
 40
1575.89898
 41
2.271724137931
 42
50.0
 43
0.0
 44
0.0
 50
0.0
 51
0.0
 71
    16
 72
   100
 73
     1
 74
     3
 75
     0
 76
     0
 77
     0
 78
     0
281
     0
 65
     1
110
0.0
120
0.0
130
0.0
111
1.0
121
0.0
131
0.0
112
0.0
122
1.0
132
0.0
 79
     0
146
0.0
  0
ENDTAB
  0
TABLE
  2
LTYPE
  5
5
330
0
100
AcDbSymbolTable
 70
     1
  0
LTYPE
  5
14
330
5
100
AcDbSymbolTableRecord
100
AcDbLinetypeTableRecord
  2
ByBlock
 70
     0
  3

 72
    65
 73
     0
 40
0.0
  0
LTYPE
  5
15
330
5
100
AcDbSymbolTableRecord
100
AcDbLinetypeTableRecord
  2
ByLayer
 70
     0
  3

 72
    65
 73
     0
 40
0.0
  0
LTYPE
  5
16
330
5
100
AcDbSymbolTableRecord
100
AcDbLinetypeTableRecord
  2
Continuous
 70
     0
  3
Solid line
 72
    65
 73
     0
 40
0.0
  0
ENDTAB
  0
TABLE
  2
LAYER
  5
2
330
0
100
AcDbSymbolTable
 70
     1
  0
LAYER
  5
10
330
2
100
AcDbSymbolTableRecord
100
AcDbLayerTableRecord
  2
0
 70
     0
 62
     7
  6
Continuous
370
    -3
390
F
  0
ENDTAB
  0
TABLE
  2
STYLE
  5
3
330
0
100
AcDbSymbolTable
 70
     1
  0
STYLE
  5
11
330
3
100
AcDbSymbolTableRecord
100
AcDbTextStyleTableRecord
  2
Standard
 70
     0
 40
0.0
 41
1.0
 50
0.0
 71
     0
 42
0.2
  3
txt
  4

  0
ENDTAB
  0
TABLE
  2
VIEW
  5
6
330
0
100
AcDbSymbolTable
 70
     0
  0
ENDTAB
  0
TABLE
  2
UCS
  5
7
330
0
100
AcDbSymbolTable
 70
     0
  0
ENDTAB
  0
TABLE
  2
APPID
  5
9
330
0
100
AcDbSymbolTable
 70
     1
  0
APPID
  5
12
330
9
100
AcDbSymbolTableRecord
100
AcDbRegAppTableRecord
  2
ACAD
 70
     0
  0
ENDTAB
  0
TABLE
  2
DIMSTYLE
  5
A
330
0
100
AcDbSymbolTable
 70
     1
100
AcDbDimStyleTable
  0
DIMSTYLE
105
20
330
A
100
AcDbSymbolTableRecord
100
AcDbDimStyleTableRecord
  2
Standard
 70
     0
340
11
  0
ENDTAB
  0
TABLE
  2
BLOCK_RECORD
  5
1
330
0
100
AcDbSymbolTable
 70
     0
  0
BLOCK_RECORD
  5
1D
330
1
100
AcDbSymbolTableRecord
100
AcDbBlockTableRecord
  2
*Model_Space
340
1E
  0
BLOCK_RECORD
  5
1B
330
1
100
AcDbSymbolTableRecord
100
AcDbBlockTableRecord
  2
*Paper_Space
340
1C
  0
ENDTAB
  0
ENDSEC
  0
SECTION
  2
BLOCKS
  0
BLOCK
  5
D3C
330
1D
100
AcDbEntity
  8
0
100
AcDbBlockBegin
  2
*Model_Space
 70
     0
 10
0.0
 20
0.0
 30
0.0
  3
*Model_Space
  1
*Model_Space
  0
ENDBLK
  5
D3D
330
1D
100
AcDbEntity
  8
0
100
AcDbBlockEnd
  0
BLOCK
  5
D3A
330
1B
100
AcDbEntity
 67
     1
  8
0
100
AcDbBlockBegin
  2
*Paper_Space
 70
     0
 10
0.0
 20
0.0
 30
0.0
  3
*Paper_Space
  1
*Paper_Space
  0
ENDBLK
  5
D3B
330
1B
100
AcDbEntity
 67
     1
  8
0
100
AcDbBlockEnd
  0
ENDSEC
  0
SECTION
  2
ENTITIES
  0
LINE
  5
21
330
1D
100
AcDbEntity
  8
0
100
AcDbLine
 10
388.129608937907
 20
279.7558
 30
0.0
 11
412.06615
 21
115.692
 31
0.0
  0
LINE
  5
22
330
1D
100
AcDbEntity
  8
0
100
AcDbLine
 10
389.34115
 20
279.7558
 30
0.0
 11
391.24115
 21
279.7558
 31
0.0
  0
LINE
  5
23
330
1D
100
AcDbEntity
  8
0
100
AcDbLine
 10
391.24115
 20
279.7558
 30
0.0
 11
393.44115
 21
279.7558
 31
0.0
  0
LINE
  5
24
330
1D
100
AcDbEntity
  8
0
100
AcDbLine
 10
393.44115
 20
279.7558
 30
0.0
 11
395.74115
 21
279.7558
 31
0.0
  0
LINE
  5
25
330
1D
100
AcDbEntity
  8
0
100
AcDbLine
 10
402.14115
 20
279.7558
 30
0.0
 11
403.54115
 21
279.7558
 31
0.0
  0
LINE
  5
26
330
1D
100
AcDbEntity
  8
0
100
AcDbLine
 10
403.54115
 20
279.7558
 30
0.0
 11
404.44115
 21
279.7558
 31
0.0
  0
LINE
  5
27
330
1D
100
AcDbEntity
  8
0
100
AcDbLine
 10
400.24115
 20
279.7558
 30
0.0
 11
402.14115
 21
279.7558
 31
0.0
  0
LINE
  5
28
330
1D
100
AcDbEntity
  8
0
100
AcDbLine
 10
398.04115
 20
279.7558
 30
0.0
 11
400.24115
 21
279.7558
 31
0.0
  0
LINE
  5
29
330
1D
100
AcDbEntity
  8
0
100
AcDbLine
 10
395.74115
 20
279.7558
 30
0.0
 11
398.04115
 21
279.7558
 31
0.0
  0
LINE
  5
2A
330
1D
100
AcDbEntity
  8
0
100
AcDbLine
 10
404.298618569462
 20
279.7558
 30
0.0
 11
404.44115
 21
279.7558
 31
0.0
  0
LINE
  5
2B
330
1D
100
AcDbEntity
  8
0
100
AcDbLine
 10
404.298618569462
 20
279.7558
 30
0.0
 11
427.89815
 21
118.002
 31
0.0
  0
LINE
  5
2C
330
1D
100
AcDbEntity
  8
0
100
AcDbLine
 10
404.74115
 20
279.7558
 30
0.0
 11
406.74115
 21
307.7558
 31
0.0
  0
LINE
  5
2D
330
1D
100
AcDbEntity
  8
0
100
AcDbLine
 10
404.44115
 20
279.7558
 30
0.0
 11
404.74115
 21
279.7558
 31
0.0
  0
LINE
  5
2E
330
1D
100
AcDbEntity
  8
0
100
AcDbLine
 10
387.94115
 20
279.7558
 30
0.0
 11
388.129608937907
 21
279.7558
 31
0.0
  0
LINE
  5
2F
330
1D
100
AcDbEntity
  8
0
100
AcDbLine
 10
387.94115
 20
279.7558
 30
0.0
 11
389.34115
 21
279.7558
 31
0.0
  0
LINE
  5
30
330
1D
100
AcDbEntity
  8
0
100
AcDbLine
 10
387.04115
 20
279.7558
 30
0.0
 11
387.94115
 21
279.7558
 31
0.0
  0
LINE
  5
31
330
1D
100
AcDbEntity
  8
0
100
AcDbLine
 10
388.64115
 20
309.7558
 30
0.0
 11
390.74115
 21
309.7558
 31
0.0
  0
LINE
  5
32
330
1D
100
AcDbEntity
  8
0
100
AcDbLine
 10
390.74115
 20
309.7558
 30
0.0
 11
393.14115
 21
309.7558
 31
0.0
  0
LINE
  5
33
330
1D
100
AcDbEntity
  8
0
100
AcDbLine
 10
393.14115
 20
309.7558
 30
0.0
 11
395.74115
 21
309.7558
 31
0.0
  0
LINE
  5
34
330
1D
100
AcDbEntity
  8
0
100
AcDbLine
 10
387.04115
 20
309.7558
 30
0.0
 11
388.64115
 21
309.7558
 31
0.0
  0
LINE
  5
35
330
1D
100
AcDbEntity
  8
0
100
AcDbLine
 10
386.14115
 20
309.7558
 30
0.0
 11
387.04115
 21
309.7558
 31
0.0
  0
LINE
  5
36
330
1D
100
AcDbEntity
  8
0
100
AcDbLine
 10
385.74115
 20
309.7558
 30
0.0
 11
386.14115
 21
309.7558
 31
0.0
  0
LINE
  5
37
330
1D
100
AcDbEntity
  8
0
100
AcDbLine
 10
402.84115
 20
309.7558
 30
0.0
 11
404.44115
 21
309.7558
 31
0.0
  0
LINE
  5
38
330
1D
100
AcDbEntity
  8
0
100
AcDbLine
 10
404.44115
 20
309.7558
 30
0.0
 11
405.34115
 21
309.7558
 31
0.0
  0
LINE
  5
39
330
1D
100
AcDbEntity
  8
0
100
AcDbLine
 10
400.74115
 20
309.7558
 30
0.0
 11
402.84115
 21
309.7558
 31
0.0
  0
LINE
  5
3A
330
1D
100
AcDbEntity
  8
0
100
AcDbLine
 10
398.34115
 20
309.7558
 30
0.0
 11
400.74115
 21
309.7558
 31
0.0
  0
LINE
  5
3B
330
1D
100
AcDbEntity
  8
0
100
AcDbLine
 10
395.74115
 20
309.7558
 30
0.0
 11
398.34115
 21
309.7558
 31
0.0
  0
LINE
  5
3C
330
1D
100
AcDbEntity
  8
0
100
AcDbLine
 10
384.74115
 20
307.7558
 30
0.0
 11
386.74115
 21
279.7558
 31
0.0
  0
LINE
  5
3D
330
1D
100
AcDbEntity
  8
0
100
AcDbLine
 10
384.74115
 20
307.7558
 30
0.0
 11
385.74115
 21
309.7558
 31
0.0
  0
LINE
  5
3E
330
1D
100
AcDbEntity
  8
0
100
AcDbLine
 10
386.74115
 20
279.7558
 30
0.0
 11
387.04115
 21
279.7558
 31
0.0
  0
LINE
  5
3F
330
1D
100
AcDbEntity
  8
0
100
AcDbLine
 10
404.79515
 20
309.7558
 30
0.0
 11
404.79515
 21
316.415627385387
 31
0.0
  0
LINE
  5
40
330
1D
100
AcDbEntity
  8
0
100
AcDbLine
 10
354.85615
 20
315.4198
 30
0.0
 11
355.32915
 21
315.2565
 31
0.0
  0
LINE
  5
41
330
1D
100
AcDbEntity
  8
0
100
AcDbLine
 10
355.32915
 20
315.2565
 30
0.0
 11
355.75815
 21
315.4443
 31
0.0
  0
LINE
  5
42
330
1D
100
AcDbEntity
  8
0
100
AcDbLine
 10
355.75815
 20
315.4443
 30
0.0
 11
356.762576998091
 21
318.060533205999
 31
0.0
  0
LINE
  5
43
330
1D
100
AcDbEntity
  8
0
100
AcDbLine
 10
329.01915
 20
327.6369
 30
0.0
 11
329.55915
 21
327.4503
 31
0.0
  0
LINE
  5
44
330
1D
100
AcDbEntity
  8
0
100
AcDbLine
 10
329.33615
 20
327.9308
 30
0.0
 11
330.77815
 21
327.4331
 31
0.0
  0
LINE
  5
45
330
1D
100
AcDbEntity
  8
0
100
AcDbLine
 10
328.79515
 20
328.1174
 30
0.0
 11
329.34315
 21
329.4425
 31
0.0
  0
LINE
  5
46
330
1D
100
AcDbEntity
  8
0
100
AcDbLine
 10
328.79515
 20
328.1174
 30
0.0
 11
329.01915
 21
327.6369
 31
0.0
  0
LINE
  5
47
330
1D
100
AcDbEntity
  8
0
100
AcDbLine
 10
328.79515
 20
328.1174
 30
0.0
 11
329.33615
 21
327.9308
 31
0.0
  0
LINE
  5
48
330
1D
100
AcDbEntity
  8
0
100
AcDbLine
 10
329.34315
 20
329.4425
 30
0.0
 11
331.19315
 21
332.999
 31
0.0
  0
LINE
  5
49
330
1D
100
AcDbEntity
  8
0
100
AcDbLine
 10
333.46115
 20
322.8048
 30
0.0
 11
336.14215
 21
321.8794
 31
0.0
  0
LINE
  5
4A
330
1D
100
AcDbEntity
  8
0
100
AcDbLine
 10
336.09815
 20
322.2306
 30
0.0
 11
339.25215
 21
321.1419
 31
0.0
  0
LINE
  5
4B
330
1D
100
AcDbEntity
  8
0
100
AcDbLine
 10
333.31215
 20
323.1923
 30
0.0
 11
336.09815
 21
322.2306
 31
0.0
  0
LINE
  5
4C
330
1D
100
AcDbEntity
  8
0
100
AcDbLine
 10
339.19115
 20
320.827
 30
0.0
 11
342.50215
 21
319.6839
 31
0.0
  0
LINE
  5
4D
330
1D
100
AcDbEntity
  8
0
100
AcDbLine
 10
339.25215
 20
321.1419
 30
0.0
 11
342.61615
 21
319.9806
 31
0.0
  0
LINE
  5
4E
330
1D
100
AcDbEntity
  8
0
100
AcDbLine
 10
342.61615
 20
319.9806
 30
0.0
 11
345.98115
 21
318.8193
 31
0.0
  0
LINE
  5
4F
330
1D
100
AcDbEntity
  8
0
100
AcDbLine
 10
343.67815
 20
322.577
 30
0.0
 11
347.46315
 21
321.2706
 31
0.0
  0
LINE
  5
50
330
1D
100
AcDbEntity
  8
0
100
AcDbLine
 10
343.81515
 20
322.9331
 30
0.0
 11
347.66015
 21
321.6059
 31
0.0
  0
LINE
  5
51
330
1D
100
AcDbEntity
  8
0
100
AcDbLine
 10
336.14215
 20
321.8794
 30
0.0
 11
339.19115
 21
320.827
 31
0.0
  0
LINE
  5
52
330
1D
100
AcDbEntity
  8
0
100
AcDbLine
 10
331.20915
 20
323.9181
 30
0.0
 11
333.31215
 21
323.1923
 31
0.0
  0
LINE
  5
53
330
1D
100
AcDbEntity
  8
0
100
AcDbLine
 10
339.89315
 20
323.8835
 30
0.0
 11
343.67815
 21
322.577
 31
0.0
  0
LINE
  5
54
330
1D
100
AcDbEntity
  8
0
100
AcDbLine
 10
331.41115
 20
323.5125
 30
0.0
 11
333.46115
 21
322.8048
 31
0.0
  0
LINE
  5
55
330
1D
100
AcDbEntity
  8
0
100
AcDbLine
 10
330.14915
 20
323.9479
 30
0.0
 11
331.41115
 21
323.5125
 31
0.0
  0
LINE
  5
56
330
1D
100
AcDbEntity
  8
0
100
AcDbLine
 10
329.94715
 20
324.3536
 30
0.0
 11
331.20915
 21
323.9181
 31
0.0
  0
LINE
  5
57
330
1D
100
AcDbEntity
  8
0
100
AcDbLine
 10
331.00115
 20
326.9526
 30
0.0
 11
333.34415
 21
326.1438
 31
0.0
  0
LINE
  5
58
330
1D
100
AcDbEntity
  8
0
100
AcDbLine
 10
330.77815
 20
327.4331
 30
0.0
 11
333.18115
 21
326.6036
 31
0.0
  0
LINE
  5
59
330
1D
100
AcDbEntity
  8
0
100
AcDbLine
 10
329.55915
 20
327.4503
 30
0.0
 11
330.478540912752
 21
327.13297624322
 31
0.0
  0
LINE
  5
5A
330
1D
100
AcDbEntity
  8
0
100
AcDbLine
 10
329.55915
 20
327.4503
 30
0.0
 11
331.00115
 21
326.9526
 31
0.0
  0
LINE
  5
5B
330
1D
100
AcDbEntity
  8
0
100
AcDbLine
 10
336.40815
 20
325.0862
 30
0.0
 11
339.89315
 21
323.8835
 31
0.0
  0
LINE
  5
5C
330
1D
100
AcDbEntity
  8
0
100
AcDbLine
 10
339.96915
 20
324.2603
 30
0.0
 11
343.81515
 21
322.9331
 31
0.0
  0
LINE
  5
5D
330
1D
100
AcDbEntity
  8
0
100
AcDbLine
 10
333.34415
 20
326.1438
 30
0.0
 11
336.40815
 21
325.0862
 31
0.0
  0
LINE
  5
5E
330
1D
100
AcDbEntity
  8
0
100
AcDbLine
 10
336.36515
 20
325.5045
 30
0.0
 11
339.96915
 21
324.2603
 31
0.0
  0
LINE
  5
5F
330
1D
100
AcDbEntity
  8
0
100
AcDbLine
 10
333.18115
 20
326.6036
 30
0.0
 11
336.36515
 21
325.5045
 31
0.0
  0
LINE
  5
60
330
1D
100
AcDbEntity
  8
0
100
AcDbLine
 10
342.89315
 20
344.0953
 30
0.0
 11
346.64415
 21
345.8492
 31
0.0
  0
LINE
  5
61
330
1D
100
AcDbEntity
  8
0
100
AcDbLine
 10
339.41715
 20
341.8922
 30
0.0
 11
342.89315
 21
344.0953
 31
0.0
  0
LINE
  5
62
330
1D
100
AcDbEntity
  8
0
100
AcDbLine
 10
336.27315
 20
339.2776
 30
0.0
 11
339.41715
 21
341.8922
 31
0.0
  0
LINE
  5
63
330
1D
100
AcDbEntity
  8
0
100
AcDbLine
 10
333.51615
 20
336.2962
 30
0.0
 11
336.27315
 21
339.2776
 31
0.0
  0
LINE
  5
64
330
1D
100
AcDbEntity
  8
0
100
AcDbLine
 10
331.19315
 20
332.999
 30
0.0
 11
333.51615
 21
336.2962
 31
0.0
  0
LINE
  5
65
330
1D
100
AcDbEntity
  8
0
100
AcDbLine
 10
329.67615
 20
324.1113
 30
0.0
 11
330.14915
 21
323.9479
 31
0.0
  0
LINE
  5
66
330
1D
100
AcDbEntity
  8
0
100
AcDbLine
 10
329.47415
 20
324.5169
 30
0.0
 11
330.478540912752
 21
327.13297624322
 31
0.0
  0
LINE
  5
67
330
1D
100
AcDbEntity
  8
0
100
AcDbLine
 10
329.47415
 20
324.5169
 30
0.0
 11
329.67615
 21
324.1113
 31
0.0
  0
LINE
  5
68
330
1D
100
AcDbEntity
  8
0
100
AcDbLine
 10
329.47415
 20
324.5169
 30
0.0
 11
329.94715
 21
324.3536
 31
0.0
  0
LINE
  5
69
330
1D
100
AcDbEntity
  8
0
100
AcDbLine
 10
342.50215
 20
319.6839
 30
0.0
 11
345.81415
 21
318.5407
 31
0.0
  0
LINE
  5
6A
330
1D
100
AcDbEntity
  8
0
100
AcDbLine
 10
345.98115
 20
318.8193
 30
0.0
 11
349.13515
 21
317.7306
 31
0.0
  0
LINE
  5
6B
330
1D
100
AcDbEntity
  8
0
100
AcDbLine
 10
347.46315
 20
321.2706
 30
0.0
 11
350.94715
 21
320.0678
 31
0.0
  0
LINE
  5
6C
330
1D
100
AcDbEntity
  8
0
100
AcDbLine
 10
347.66015
 20
321.6059
 30
0.0
 11
351.26415
 21
320.3617
 31
0.0
  0
LINE
  5
6D
330
1D
100
AcDbEntity
  8
0
100
AcDbLine
 10
346.64415
 20
345.8492
 30
0.0
 11
350.60315
 21
347.1239
 31
0.0
  0
LINE
  5
6E
330
1D
100
AcDbEntity
  8
0
100
AcDbLine
 10
350.94715
 20
320.0678
 30
0.0
 11
354.01115
 21
319.0102
 31
0.0
  0
LINE
  5
6F
330
1D
100
AcDbEntity
  8
0
100
AcDbLine
 10
351.26415
 20
320.3617
 30
0.0
 11
354.44815
 21
319.2626
 31
0.0
  0
LINE
  5
70
330
1D
100
AcDbEntity
  8
0
100
AcDbLine
 10
350.60315
 20
347.1239
 30
0.0
 11
354.70415
 21
347.8975
 31
0.0
  0
LINE
  5
71
330
1D
100
AcDbEntity
  8
0
100
AcDbLine
 10
349.13515
 20
317.7306
 30
0.0
 11
351.92115
 21
316.7689
 31
0.0
  0
LINE
  5
72
330
1D
100
AcDbEntity
  8
0
100
AcDbLine
 10
345.81415
 20
318.5407
 30
0.0
 11
348.86315
 21
317.4883
 31
0.0
  0
LINE
  5
73
330
1D
100
AcDbEntity
  8
0
100
AcDbLine
 10
348.86315
 20
317.4883
 30
0.0
 11
351.54415
 21
316.5629
 31
0.0
  0
LINE
  5
74
330
1D
100
AcDbEntity
  8
0
100
AcDbLine
 10
351.92115
 20
316.7689
 30
0.0
 11
354.02415
 21
316.0431
 31
0.0
  0
LINE
  5
75
330
1D
100
AcDbEntity
  8
0
100
AcDbLine
 10
354.02415
 20
316.0431
 30
0.0
 11
355.28515
 21
315.6076
 31
0.0
  0
LINE
  5
76
330
1D
100
AcDbEntity
  8
0
100
AcDbLine
 10
354.01115
 20
319.0102
 30
0.0
 11
356.35415
 21
318.2015
 31
0.0
  0
LINE
  5
77
330
1D
100
AcDbEntity
  8
0
100
AcDbLine
 10
356.35415
 20
318.2015
 30
0.0
 11
357.79615
 21
317.7038
 31
0.0
  0
LINE
  5
78
330
1D
100
AcDbEntity
  8
0
100
AcDbLine
 10
354.44815
 20
319.2626
 30
0.0
 11
356.85115
 21
318.4331
 31
0.0
  0
LINE
  5
79
330
1D
100
AcDbEntity
  8
0
100
AcDbLine
 10
356.85115
 20
318.4331
 30
0.0
 11
358.29315
 21
317.9354
 31
0.0
  0
LINE
  5
7A
330
1D
100
AcDbEntity
  8
0
100
AcDbLine
 10
356.762576998091
 20
318.060533205999
 30
0.0
 11
357.79615
 21
317.7038
 31
0.0
  0
LINE
  5
7B
330
1D
100
AcDbEntity
  8
0
100
AcDbLine
 10
354.70415
 20
347.8975
 30
0.0
 11
358.87715
 21
348.1569
 31
0.0
  0
LINE
  5
7C
330
1D
100
AcDbEntity
  8
0
100
AcDbLine
 10
351.54415
 20
316.5629
 30
0.0
 11
353.59415
 21
315.8553
 31
0.0
  0
LINE
  5
7D
330
1D
100
AcDbEntity
  8
0
100
AcDbLine
 10
353.59415
 20
315.8553
 30
0.0
 11
354.85615
 21
315.4198
 31
0.0
  0
LINE
  5
7E
330
1D
100
AcDbEntity
  8
0
100
AcDbLine
 10
357.79615
 20
317.7038
 30
0.0
 11
358.33715
 21
317.5171
 31
0.0
  0
LINE
  5
7F
330
1D
100
AcDbEntity
  8
0
100
AcDbLine
 10
358.33715
 20
317.5171
 30
0.0
 11
358.83415
 21
317.7488
 31
0.0
  0
LINE
  5
80
330
1D
100
AcDbEntity
  8
0
100
AcDbLine
 10
358.83415
 20
317.7488
 30
0.0
 11
358.87715
 21
317.8411
 31
0.0
  0
LINE
  5
81
330
1D
100
AcDbEntity
  8
0
100
AcDbLine
 10
358.29315
 20
317.9354
 30
0.0
 11
358.83415
 21
317.7488
 31
0.0
  0
LINE
  5
82
330
1D
100
AcDbEntity
  8
0
100
AcDbLine
 10
358.87715
 20
348.1569
 30
0.0
 11
427.642855128964
 21
350.633382051586
 31
0.0
  0
LINE
  5
83
330
1D
100
AcDbEntity
  8
0
100
AcDbLine
 10
358.87715
 20
317.8411
 30
0.0
 11
404.79515
 21
316.187439899643
 31
0.0
  0
LINE
  5
84
330
1D
100
AcDbEntity
  8
0
100
AcDbLine
 10
355.28515
 20
315.6076
 30
0.0
 11
355.75815
 21
315.4443
 31
0.0
  0
LINE
  5
85
330
1D
100
AcDbEntity
  8
0
100
AcDbLine
 10
404.79515
 20
316.187439899643
 30
0.0
 11
427.642855128964
 21
315.364617948414
 31
0.0
  0
LINE
  5
86
330
1D
100
AcDbEntity
  8
0
100
AcDbLine
 10
404.65915
 20
940.947
 30
0.0
 11
404.769625041358
 21
941.010633623823
 31
0.0
  0
LINE
  5
87
330
1D
100
AcDbEntity
  8
0
100
AcDbLine
 10
404.65915
 20
940.947
 30
0.0
 11
405.03415
 21
941.163
 31
0.0
  0
LINE
  5
88
330
1D
100
AcDbEntity
  8
0
100
AcDbLine
 10
404.11015
 20
941.322
 30
0.0
 11
404.65915
 21
940.947
 31
0.0
  0
LINE
  5
89
330
1D
100
AcDbEntity
  8
0
100
AcDbLine
 10
405.03415
 20
941.163
 30
0.0
 11
406.03115
 21
941.739
 31
0.0
  0
LINE
  5
8A
330
1D
100
AcDbEntity
  8
0
100
AcDbLine
 10
404.769625041358
 20
941.010633623823
 30
0.0
 11
410.389307068499
 21
931.614834541129
 31
0.0
  0
LINE
  5
8B
330
1D
100
AcDbEntity
  8
0
100
AcDbLine
 10
404.79515
 20
316.415627385387
 30
0.0
 11
404.79515
 21
309.7558
 31
0.0
  0
LINE
  5
8C
330
1D
100
AcDbEntity
  8
0
100
AcDbLine
 10
386.79515
 20
316.835679844902
 30
0.0
 11
386.79515
 21
309.7558
 31
0.0
  0
LINE
  5
8D
330
1D
100
AcDbEntity
  8
0
100
AcDbLine
 10
386.79515
 20
309.7558
 30
0.0
 11
386.79515
 21
316.835679844902
 31
0.0
  0
LINE
  5
8E
330
1D
100
AcDbEntity
  8
0
100
AcDbLine
 10
405.34115
 20
309.7558
 30
0.0
 11
405.74115
 21
309.7558
 31
0.0
  0
LINE
  5
8F
330
1D
100
AcDbEntity
  8
0
100
AcDbLine
 10
405.74115
 20
309.7558
 30
0.0
 11
406.74115
 21
307.7558
 31
0.0
  0
LINE
  5
91
330
1D
100
AcDbEntity
  8
0
100
AcDbLine
 10
405.07815
 20
940.814
 30
0.0
 11
406.34615
 21
941.547
 31
0.0
  0
LINE
  5
E5
330
1D
100
AcDbEntity
  8
0
100
AcDbLine
 10
0.48115
 20
1457.989
 30
0.0
 11
1.46605
 21
1455.839
 31
0.0
  0
LINE
  5
E6
330
1D
100
AcDbEntity
  8
0
100
AcDbLine
 10
0.20665
 20
1460.339
 30
0.0
 11
0.66285
 21
1462.679
 31
0.0
  0
LINE
  5
E7
330
1D
100
AcDbEntity
  8
0
100
AcDbLine
 10
0.20665
 20
1460.339
 30
0.0
 11
0.48115
 21
1457.989
 31
0.0
  0
LINE
  5
E8
330
1D
100
AcDbEntity
  8
0
100
AcDbLine
 10
0.20485
 20
1460.339
 30
0.0
 11
0.66125
 21
1462.679
 31
0.0
  0
LINE
  5
E9
330
1D
100
AcDbEntity
  8
0
100
AcDbLine
 10
0.20485
 20
1460.339
 30
0.0
 11
0.47915
 21
1457.989
 31
0.0
  0
LINE
  5
EA
330
1D
100
AcDbEntity
  8
0
100
AcDbLine
 10
0.47915
 20
1457.989
 30
0.0
 11
1.46405
 21
1455.839
 31
0.0
  0
LINE
  5
ED
330
1D
100
AcDbEntity
  8
0
100
AcDbLine
 10
1.46405
 20
1455.839
 30
0.0
 11
3.05965
 21
1454.109
 31
0.0
  0
LINE
  5
EE
330
1D
100
AcDbEntity
  8
0
100
AcDbLine
 10
3.05965
 20
1454.109
 30
0.0
 11
5.16665
 21
1452.949
 31
0.0
  0
LINE
  5
F1
330
1D
100
AcDbEntity
  8
0
100
AcDbLine
 10
5.16665
 20
1452.949
 30
0.0
 11
5.95635
 21
1452.649
 31
0.0
  0
LINE
  5
F4
330
1D
100
AcDbEntity
  8
0
100
AcDbLine
 10
0.66125
 20
1462.679
 30
0.0
 11
4.47505
 21
1473.149
 31
0.0
  0
LINE
  5
274
330
1D
100
AcDbEntity
  8
0
100
AcDbLine
 10
93.89215
 20
1440.769
 30
0.0
 11
97.11615
 21
1449.629
 31
0.0
  0
LINE
  5
275
330
1D
100
AcDbEntity
  8
0
100
AcDbLine
 10
93.89215
 20
1440.769
 30
0.0
 11
94.069365859004
 21
1440.40097984552
 31
0.0
  0
LINE
  5
2A2
330
1D
100
AcDbEntity
  8
0
100
AcDbLine
 10
121.508899098348
 20
1430.41178542457
 30
0.0
 11
121.88715
 21
1430.579
 31
0.0
  0
LINE
  5
2A6
330
1D
100
AcDbEntity
  8
0
100
AcDbLine
 10
121.88715
 20
1430.579
 30
0.0
 11
125.11015
 21
1439.439
 31
0.0
  0
LINE
  5
31B
330
1D
100
AcDbEntity
  8
0
100
AcDbLine
 10
97.12315
 20
1449.629
 30
0.0
 11
97.74115
 21
1450.139
 31
0.0
  0
LINE
  5
34B
330
1D
100
AcDbEntity
  8
0
100
AcDbLine
 10
123.15015
 20
1450.099
 30
0.0
 11
124.15415
 21
1449.729
 31
0.0
  0
LINE
  5
34C
330
1D
100
AcDbEntity
  8
0
100
AcDbLine
 10
122.82115
 20
1450.069
 30
0.0
 11
123.87815
 21
1449.689
 31
0.0
  0
LINE
  5
34D
330
1D
100
AcDbEntity
  8
0
100
AcDbLine
 10
122.05515
 20
1450.499
 30
0.0
 11
123.15015
 21
1450.099
 31
0.0
  0
LINE
  5
34E
330
1D
100
AcDbEntity
  8
0
100
AcDbLine
 10
121.68115
 20
1450.489
 30
0.0
 11
122.82115
 21
1450.069
 31
0.0
  0
LINE
  5
356
330
1D
100
AcDbEntity
  8
0
100
AcDbLine
 10
97.74115
 20
1450.139
 30
0.0
 11
97.979615623253
 21
1450.79752431526
 31
0.0
  0
LINE
  5
358
330
1D
100
AcDbEntity
  8
0
100
AcDbLine
 10
97.49815
 20
1450.969
 30
0.0
 11
100.17115
 21
1458.319
 31
0.0
  0
LINE
  5
359
330
1D
100
AcDbEntity
  8
0
100
AcDbLine
 10
97.49815
 20
1450.969
 30
0.0
 11
97.61515
 21
1450.929
 31
0.0
  0
LINE
  5
35A
330
1D
100
AcDbEntity
  8
0
100
AcDbLine
 10
102.76915
 20
1457.509
 30
0.0
 11
103.56115
 21
1457.229
 31
0.0
  0
LINE
  5
35B
330
1D
100
AcDbEntity
  8
0
100
AcDbLine
 10
103.56115
 20
1457.229
 30
0.0
 11
104.46415
 21
1456.899
 31
0.0
  0
LINE
  5
35C
330
1D
100
AcDbEntity
  8
0
100
AcDbLine
 10
102.82115
 20
1457.349
 30
0.0
 11
103.68415
 21
1457.039
 31
0.0
  0
LINE
  5
35D
330
1D
100
AcDbEntity
  8
0
100
AcDbLine
 10
102.06815
 20
1457.629
 30
0.0
 11
102.82115
 21
1457.349
 31
0.0
  0
LINE
  5
35E
330
1D
100
AcDbEntity
  8
0
100
AcDbLine
 10
104.46415
 20
1456.899
 30
0.0
 11
105.46815
 21
1456.529
 31
0.0
  0
LINE
  5
35F
330
1D
100
AcDbEntity
  8
0
100
AcDbLine
 10
104.72715
 20
1457.619
 30
0.0
 11
105.73115
 21
1457.249
 31
0.0
  0
LINE
  5
360
330
1D
100
AcDbEntity
  8
0
100
AcDbLine
 10
104.64815
 20
1456.689
 30
0.0
 11
105.70615
 21
1456.299
 31
0.0
  0
LINE
  5
361
330
1D
100
AcDbEntity
  8
0
100
AcDbLine
 10
103.68415
 20
1457.039
 30
0.0
 11
104.64815
 21
1456.689
 31
0.0
  0
LINE
  5
362
330
1D
100
AcDbEntity
  8
0
100
AcDbLine
 10
100.92215
 20
1458.039
 30
0.0
 11
101.43315
 21
1457.859
 31
0.0
  0
LINE
  5
363
330
1D
100
AcDbEntity
  8
0
100
AcDbLine
 10
101.54615
 20
1457.959
 30
0.0
 11
102.09415
 21
1457.759
 31
0.0
  0
LINE
  5
364
330
1D
100
AcDbEntity
  8
0
100
AcDbLine
 10
103.82415
 20
1457.949
 30
0.0
 11
104.72715
 21
1457.619
 31
0.0
  0
LINE
  5
365
330
1D
100
AcDbEntity
  8
0
100
AcDbLine
 10
101.43315
 20
1457.859
 30
0.0
 11
102.06815
 21
1457.629
 31
0.0
  0
LINE
  5
366
330
1D
100
AcDbEntity
  8
0
100
AcDbLine
 10
102.09415
 20
1457.759
 30
0.0
 11
102.76915
 21
1457.509
 31
0.0
  0
LINE
  5
367
330
1D
100
AcDbEntity
  8
0
100
AcDbLine
 10
97.61515
 20
1450.929
 30
0.0
 11
97.86615
 21
1450.839
 31
0.0
  0
LINE
  5
369
330
1D
100
AcDbEntity
  8
0
100
AcDbLine
 10
97.86615
 20
1450.839
 30
0.0
 11
97.981663101767
 21
1450.79491102986
 31
0.0
  0
LINE
  5
36D
330
1D
100
AcDbEntity
  8
0
100
AcDbLine
 10
100.28715
 20
1458.269
 30
0.0
 11
100.53815
 21
1458.179
 31
0.0
  0
LINE
  5
36E
330
1D
100
AcDbEntity
  8
0
100
AcDbLine
 10
101.12815
 20
1458.109
 30
0.0
 11
101.54615
 21
1457.959
 31
0.0
  0
LINE
  5
36F
330
1D
100
AcDbEntity
  8
0
100
AcDbLine
 10
100.70215
 20
1458.269
 30
0.0
 11
100.84715
 21
1458.209
 31
0.0
  0
LINE
  5
370
330
1D
100
AcDbEntity
  8
0
100
AcDbLine
 10
100.84715
 20
1458.209
 30
0.0
 11
101.12815
 21
1458.109
 31
0.0
  0
LINE
  5
371
330
1D
100
AcDbEntity
  8
0
100
AcDbLine
 10
100.53815
 20
1458.179
 30
0.0
 11
100.92215
 21
1458.039
 31
0.0
  0
LINE
  5
372
330
1D
100
AcDbEntity
  8
0
100
AcDbLine
 10
100.96415
 20
1458.989
 30
0.0
 11
101.10915
 21
1458.939
 31
0.0
  0
LINE
  5
373
330
1D
100
AcDbEntity
  8
0
100
AcDbLine
 10
101.10915
 20
1458.939
 30
0.0
 11
101.39115
 21
1458.829
 31
0.0
  0
LINE
  5
375
330
1D
100
AcDbEntity
  8
0
100
AcDbLine
 10
100.17115
 20
1458.319
 30
0.0
 11
100.28715
 21
1458.269
 31
0.0
  0
LINE
  5
376
330
1D
100
AcDbEntity
  8
0
100
AcDbLine
 10
100.17115
 20
1458.319
 30
0.0
 11
100.70215
 21
1458.269
 31
0.0
  0
LINE
  5
377
330
1D
100
AcDbEntity
  8
0
100
AcDbLine
 10
100.69915
 20
1458.269
 30
0.0
 11
100.96215
 21
1458.989
 31
0.0
  0
LINE
  5
378
330
1D
100
AcDbEntity
  8
0
100
AcDbLine
 10
101.39115
 20
1458.829
 30
0.0
 11
101.80915
 21
1458.679
 31
0.0
  0
LINE
  5
379
330
1D
100
AcDbEntity
  8
0
100
AcDbLine
 10
100.96215
 20
1458.989
 30
0.0
 11
101.60615
 21
1459.289
 31
0.0
  0
LINE
  5
37A
330
1D
100
AcDbEntity
  8
0
100
AcDbLine
 10
101.80915
 20
1458.679
 30
0.0
 11
102.35715
 21
1458.479
 31
0.0
  0
LINE
  5
37C
330
1D
100
AcDbEntity
  8
0
100
AcDbLine
 10
102.35715
 20
1458.479
 30
0.0
 11
103.03115
 21
1458.239
 31
0.0
  0
LINE
  5
37F
330
1D
100
AcDbEntity
  8
0
100
AcDbLine
 10
103.03115
 20
1458.239
 30
0.0
 11
103.82415
 21
1457.949
 31
0.0
  0
LINE
  5
39B
330
1D
100
AcDbEntity
  8
0
100
AcDbLine
 10
104.908307797316
 20
1458.08697142527
 30
0.0
 11
104.98515
 21
1458.139
 31
0.0
  0
LINE
  5
39C
330
1D
100
AcDbEntity
  8
0
100
AcDbLine
 10
105.46815
 20
1456.529
 30
0.0
 11
106.56315
 21
1456.129
 31
0.0
  0
LINE
  5
39D
330
1D
100
AcDbEntity
  8
0
100
AcDbLine
 10
105.73115
 20
1457.249
 30
0.0
 11
106.82515
 21
1456.859
 31
0.0
  0
LINE
  5
39E
330
1D
100
AcDbEntity
  8
0
100
AcDbLine
 10
105.70615
 20
1456.299
 30
0.0
 11
106.84615
 21
1455.889
 31
0.0
  0
LINE
  5
3A3
330
1D
100
AcDbEntity
  8
0
100
AcDbLine
 10
106.56315
 20
1456.129
 30
0.0
 11
107.73615
 21
1455.709
 31
0.0
  0
LINE
  5
3A4
330
1D
100
AcDbEntity
  8
0
100
AcDbLine
 10
106.82515
 20
1456.859
 30
0.0
 11
107.99915
 21
1456.429
 31
0.0
  0
LINE
  5
3A5
330
1D
100
AcDbEntity
  8
0
100
AcDbLine
 10
106.84615
 20
1455.889
 30
0.0
 11
108.05715
 21
1455.449
 31
0.0
  0
LINE
  5
3AC
330
1D
100
AcDbEntity
  8
0
100
AcDbLine
 10
106.32615
 20
1458.989
 30
0.0
 11
107.01415
 21
1459.339
 31
0.0
  0
LINE
  5
3AE
330
1D
100
AcDbEntity
  8
0
100
AcDbLine
 10
107.73615
 20
1455.709
 30
0.0
 11
108.97915
 21
1455.249
 31
0.0
  0
LINE
  5
3B2
330
1D
100
AcDbEntity
  8
0
100
AcDbLine
 10
107.01415
 20
1459.339
 30
0.0
 11
107.58415
 21
1459.599
 31
0.0
  0
LINE
  5
3B4
330
1D
100
AcDbEntity
  8
0
100
AcDbLine
 10
107.58415
 20
1459.599
 30
0.0
 11
107.93015
 21
1459.819
 31
0.0
  0
LINE
  5
3B6
330
1D
100
AcDbEntity
  8
0
100
AcDbLine
 10
108.97915
 20
1455.249
 30
0.0
 11
110.27515
 21
1454.779
 31
0.0
  0
LINE
  5
3B7
330
1D
100
AcDbEntity
  8
0
100
AcDbLine
 10
107.99915
 20
1456.429
 30
0.0
 11
109.24115
 21
1455.979
 31
0.0
  0
LINE
  5
3BA
330
1D
100
AcDbEntity
  8
0
100
AcDbLine
 10
109.24115
 20
1455.979
 30
0.0
 11
110.53715
 21
1455.499
 31
0.0
  0
LINE
  5
3BD
330
1D
100
AcDbEntity
  8
0
100
AcDbLine
 10
108.05715
 20
1455.449
 30
0.0
 11
109.32815
 21
1454.979
 31
0.0
  0
LINE
  5
3C0
330
1D
100
AcDbEntity
  8
0
100
AcDbLine
 10
110.27515
 20
1454.779
 30
0.0
 11
111.61315
 21
1454.299
 31
0.0
  0
LINE
  5
3C1
330
1D
100
AcDbEntity
  8
0
100
AcDbLine
 10
110.53715
 20
1455.499
 30
0.0
 11
111.87515
 21
1455.019
 31
0.0
  0
LINE
  5
3C5
330
1D
100
AcDbEntity
  8
0
100
AcDbLine
 10
111.87515
 20
1455.019
 30
0.0
 11
113.24015
 21
1454.519
 31
0.0
  0
LINE
  5
3C6
330
1D
100
AcDbEntity
  8
0
100
AcDbLine
 10
111.61315
 20
1454.299
 30
0.0
 11
115.64015
 21
1452.829
 31
0.0
  0
LINE
  5
3C9
330
1D
100
AcDbEntity
  8
0
100
AcDbLine
 10
113.24015
 20
1454.519
 30
0.0
 11
114.57115
 21
1454.039
 31
0.0
  0
LINE
  5
3CF
330
1D
100
AcDbEntity
  8
0
100
AcDbLine
 10
110.64715
 20
1454.499
 30
0.0
 11
112.00015
 21
1454.009
 31
0.0
  0
LINE
  5
3D0
330
1D
100
AcDbEntity
  8
0
100
AcDbLine
 10
112.00015
 20
1454.009
 30
0.0
 11
113.37615
 21
1453.509
 31
0.0
  0
LINE
  5
3D2
330
1D
100
AcDbEntity
  8
0
100
AcDbLine
 10
109.32815
 20
1454.979
 30
0.0
 11
110.64715
 21
1454.499
 31
0.0
  0
LINE
  5
3D9
330
1D
100
AcDbEntity
  8
0
100
AcDbLine
 10
114.26315
 20
1453.189
 30
0.0
 11
115.15015
 21
1452.869
 31
0.0
  0
LINE
  5
3DC
330
1D
100
AcDbEntity
  8
0
100
AcDbLine
 10
114.57115
 20
1454.039
 30
0.0
 11
115.90315
 21
1453.549
 31
0.0
  0
LINE
  5
3DD
330
1D
100
AcDbEntity
  8
0
100
AcDbLine
 10
115.15015
 20
1452.869
 30
0.0
 11
116.52715
 21
1452.359
 31
0.0
  0
LINE
  5
3EE
330
1D
100
AcDbEntity
  8
0
100
AcDbLine
 10
115.90315
 20
1453.549
 30
0.0
 11
117.26715
 21
1453.049
 31
0.0
  0
LINE
  5
3EF
330
1D
100
AcDbEntity
  8
0
100
AcDbLine
 10
115.64015
 20
1452.829
 30
0.0
 11
117.00515
 21
1452.329
 31
0.0
  0
LINE
  5
3F2
330
1D
100
AcDbEntity
  8
0
100
AcDbLine
 10
123.41315
 20
1450.819
 30
0.0
 11
124.41615
 21
1450.449
 31
0.0
  0
LINE
  5
3F3
330
1D
100
AcDbEntity
  8
0
100
AcDbLine
 10
120.88115
 20
1450.919
 30
0.0
 11
122.05515
 21
1450.499
 31
0.0
  0
LINE
  5
3F4
330
1D
100
AcDbEntity
  8
0
100
AcDbLine
 10
118.34415
 20
1451.849
 30
0.0
 11
119.64015
 21
1451.369
 31
0.0
  0
LINE
  5
3F5
330
1D
100
AcDbEntity
  8
0
100
AcDbLine
 10
118.60615
 20
1452.569
 30
0.0
 11
119.90215
 21
1452.099
 31
0.0
  0
LINE
  5
3F6
330
1D
100
AcDbEntity
  8
0
100
AcDbLine
 10
117.00515
 20
1452.329
 30
0.0
 11
118.34415
 21
1451.849
 31
0.0
  0
LINE
  5
3FB
330
1D
100
AcDbEntity
  8
0
100
AcDbLine
 10
117.26715
 20
1453.049
 30
0.0
 11
118.60615
 21
1452.569
 31
0.0
  0
LINE
  5
3FF
330
1D
100
AcDbEntity
  8
0
100
AcDbLine
 10
117.87915
 20
1451.869
 30
0.0
 11
119.19815
 21
1451.389
 31
0.0
  0
LINE
  5
400
330
1D
100
AcDbEntity
  8
0
100
AcDbLine
 10
119.90215
 20
1452.099
 30
0.0
 11
121.14315
 21
1451.639
 31
0.0
  0
LINE
  5
401
330
1D
100
AcDbEntity
  8
0
100
AcDbLine
 10
119.64015
 20
1451.369
 30
0.0
 11
120.88115
 21
1450.919
 31
0.0
  0
LINE
  5
402
330
1D
100
AcDbEntity
  8
0
100
AcDbLine
 10
122.31715
 20
1451.219
 30
0.0
 11
123.41315
 21
1450.819
 31
0.0
  0
LINE
  5
40B
330
1D
100
AcDbEntity
  8
0
100
AcDbLine
 10
121.14315
 20
1451.639
 30
0.0
 11
122.31715
 21
1451.219
 31
0.0
  0
LINE
  5
40E
330
1D
100
AcDbEntity
  8
0
100
AcDbLine
 10
123.38015
 20
1454.199
 30
0.0
 11
123.43015
 21
1454.599
 31
0.0
  0
LINE
  5
40F
330
1D
100
AcDbEntity
  8
0
100
AcDbLine
 10
123.38015
 20
1454.199
 30
0.0
 11
123.50315
 21
1453.809
 31
0.0
  0
LINE
  5
415
330
1D
100
AcDbEntity
  8
0
100
AcDbLine
 10
119.19815
 20
1451.389
 30
0.0
 11
120.46915
 21
1450.929
 31
0.0
  0
LINE
  5
416
330
1D
100
AcDbEntity
  8
0
100
AcDbLine
 10
120.46915
 20
1450.929
 30
0.0
 11
121.68115
 21
1450.489
 31
0.0
  0
LINE
  5
417
330
1D
100
AcDbEntity
  8
0
100
AcDbLine
 10
116.52715
 20
1452.359
 30
0.0
 11
117.87915
 21
1451.869
 31
0.0
  0
LINE
  5
422
330
1D
100
AcDbEntity
  8
0
100
AcDbLine
 10
123.43015
 20
1454.599
 30
0.0
 11
123.63215
 21
1454.949
 31
0.0
  0
LINE
  5
429
330
1D
100
AcDbEntity
  8
0
100
AcDbLine
 10
113.37615
 20
1453.509
 30
0.0
 11
114.26315
 21
1453.189
 31
0.0
  0
LINE
  5
42B
330
1D
100
AcDbEntity
  8
0
100
AcDbLine
 10
107.93015
 20
1459.819
 30
0.0
 11
108.14815
 21
1460.159
 31
0.0
  0
LINE
  5
42C
330
1D
100
AcDbEntity
  8
0
100
AcDbLine
 10
106.44015
 20
1464.699
 30
0.0
 11
106.58515
 21
1464.199
 31
0.0
  0
LINE
  5
43E
330
1D
100
AcDbEntity
  8
0
100
AcDbLine
 10
106.51615
 20
1465.739
 30
0.0
 11
107.325343806295
 21
1467.97311193199
 31
0.0
  0
LINE
  5
43F
330
1D
100
AcDbEntity
  8
0
100
AcDbLine
 10
106.49415
 20
1465.649
 30
0.0
 11
106.51615
 21
1465.739
 31
0.0
  0
LINE
  5
445
330
1D
100
AcDbEntity
  8
0
100
AcDbLine
 10
105.12815
 20
1469.309
 30
0.0
 11
105.43115
 21
1468.659
 31
0.0
  0
LINE
  5
446
330
1D
100
AcDbEntity
  8
0
100
AcDbLine
 10
105.12815
 20
1469.309
 30
0.0
 11
106.67015
 21
1473.539
 31
0.0
  0
LINE
  5
448
330
1D
100
AcDbEntity
  8
0
100
AcDbLine
 10
106.41615
 20
1465.219
 30
0.0
 11
106.44015
 21
1464.699
 31
0.0
  0
LINE
  5
449
330
1D
100
AcDbEntity
  8
0
100
AcDbLine
 10
106.41615
 20
1465.219
 30
0.0
 11
106.49415
 21
1465.649
 31
0.0
  0
LINE
  5
44A
330
1D
100
AcDbEntity
  8
0
100
AcDbLine
 10
108.10815
 20
1460.959
 30
0.0
 11
108.21615
 21
1460.559
 31
0.0
  0
LINE
  5
466
330
1D
100
AcDbEntity
  8
0
100
AcDbLine
 10
106.58515
 20
1464.199
 30
0.0
 11
108.10815
 21
1460.959
 31
0.0
  0
LINE
  5
467
330
1D
100
AcDbEntity
  8
0
100
AcDbLine
 10
108.14815
 20
1460.159
 30
0.0
 11
108.21615
 21
1460.559
 31
0.0
  0
LINE
  5
4AF
330
1D
100
AcDbEntity
  8
0
100
AcDbLine
 10
104.98515
 20
1458.139
 30
0.0
 11
106.32615
 21
1458.989
 31
0.0
  0
LINE
  5
520
330
1D
100
AcDbEntity
  8
0
100
AcDbLine
 10
124.96015
 20
1440.229
 30
0.0
 11
125.19915
 21
1440.889
 31
0.0
  0
LINE
  5
521
330
1D
100
AcDbEntity
  8
0
100
AcDbLine
 10
124.96015
 20
1440.229
 30
0.0
 11
125.10315
 21
1439.439
 31
0.0
  0
LINE
  5
527
330
1D
100
AcDbEntity
  8
0
100
AcDbLine
 10
124.15415
 20
1449.729
 30
0.0
 11
125.05715
 21
1449.399
 31
0.0
  0
LINE
  5
528
330
1D
100
AcDbEntity
  8
0
100
AcDbLine
 10
123.87815
 20
1449.689
 30
0.0
 11
124.84215
 21
1449.339
 31
0.0
  0
LINE
  5
529
330
1D
100
AcDbEntity
  8
0
100
AcDbLine
 10
124.84215
 20
1449.339
 30
0.0
 11
125.70515
 21
1449.019
 31
0.0
  0
LINE
  5
52C
330
1D
100
AcDbEntity
  8
0
100
AcDbLine
 10
125.05715
 20
1449.399
 30
0.0
 11
125.84915
 21
1449.109
 31
0.0
  0
LINE
  5
532
330
1D
100
AcDbEntity
  8
0
100
AcDbLine
 10
125.68215
 20
1440.719
 30
0.0
 11
128.35415
 21
1448.059
 31
0.0
  0
LINE
  5
534
330
1D
100
AcDbEntity
  8
0
100
AcDbLine
 10
125.56515
 20
1440.759
 30
0.0
 11
125.68215
 21
1440.719
 31
0.0
  0
LINE
  5
535
330
1D
100
AcDbEntity
  8
0
100
AcDbLine
 10
127.60515
 20
1448.329
 30
0.0
 11
127.98815
 21
1448.189
 31
0.0
  0
LINE
  5
536
330
1D
100
AcDbEntity
  8
0
100
AcDbLine
 10
127.09315
 20
1448.519
 30
0.0
 11
127.60515
 21
1448.329
 31
0.0
  0
LINE
  5
537
330
1D
100
AcDbEntity
  8
0
100
AcDbLine
 10
127.07215
 20
1448.669
 30
0.0
 11
127.48915
 21
1448.519
 31
0.0
  0
LINE
  5
538
330
1D
100
AcDbEntity
  8
0
100
AcDbLine
 10
126.52415
 20
1448.869
 30
0.0
 11
127.07215
 21
1448.669
 31
0.0
  0
LINE
  5
539
330
1D
100
AcDbEntity
  8
0
100
AcDbLine
 10
126.78615
 20
1449.589
 30
0.0
 11
127.33415
 21
1449.389
 31
0.0
  0
LINE
  5
53A
330
1D
100
AcDbEntity
  8
0
100
AcDbLine
 10
125.84915
 20
1449.109
 30
0.0
 11
126.52415
 21
1448.869
 31
0.0
  0
LINE
  5
53B
330
1D
100
AcDbEntity
  8
0
100
AcDbLine
 10
127.75115
 20
1449.239
 30
0.0
 11
128.03415
 21
1449.139
 31
0.0
  0
LINE
  5
53C
330
1D
100
AcDbEntity
  8
0
100
AcDbLine
 10
127.33415
 20
1449.389
 30
0.0
 11
127.75115
 21
1449.239
 31
0.0
  0
LINE
  5
53D
330
1D
100
AcDbEntity
  8
0
100
AcDbLine
 10
126.45815
 20
1448.749
 30
0.0
 11
127.09315
 21
1448.519
 31
0.0
  0
LINE
  5
53E
330
1D
100
AcDbEntity
  8
0
100
AcDbLine
 10
125.70515
 20
1449.019
 30
0.0
 11
126.45815
 21
1448.749
 31
0.0
  0
LINE
  5
53F
330
1D
100
AcDbEntity
  8
0
100
AcDbLine
 10
127.48915
 20
1448.519
 30
0.0
 11
127.77215
 21
1448.409
 31
0.0
  0
LINE
  5
540
330
1D
100
AcDbEntity
  8
0
100
AcDbLine
 10
127.77215
 20
1448.409
 30
0.0
 11
127.91615
 21
1448.359
 31
0.0
  0
LINE
  5
544
330
1D
100
AcDbEntity
  8
0
100
AcDbLine
 10
127.98815
 20
1448.189
 30
0.0
 11
128.23815
 21
1448.099
 31
0.0
  0
LINE
  5
545
330
1D
100
AcDbEntity
  8
0
100
AcDbLine
 10
127.91815
 20
1448.359
 30
0.0
 11
128.18115
 21
1449.079
 31
0.0
  0
LINE
  5
547
330
1D
100
AcDbEntity
  8
0
100
AcDbLine
 10
128.03415
 20
1449.139
 30
0.0
 11
128.17915
 21
1449.079
 31
0.0
  0
LINE
  5
548
330
1D
100
AcDbEntity
  8
0
100
AcDbLine
 10
127.91615
 20
1448.359
 30
0.0
 11
128.35415
 21
1448.059
 31
0.0
  0
LINE
  5
551
330
1D
100
AcDbEntity
  8
0
100
AcDbLine
 10
123.63215
 20
1454.949
 30
0.0
 11
123.97115
 21
1455.179
 31
0.0
  0
LINE
  5
553
330
1D
100
AcDbEntity
  8
0
100
AcDbLine
 10
123.50315
 20
1453.809
 30
0.0
 11
123.76915
 21
1453.239
 31
0.0
  0
LINE
  5
556
330
1D
100
AcDbEntity
  8
0
100
AcDbLine
 10
125.31915
 20
1450.119
 30
0.0
 11
126.11115
 21
1449.839
 31
0.0
  0
LINE
  5
557
330
1D
100
AcDbEntity
  8
0
100
AcDbLine
 10
126.11115
 20
1449.839
 30
0.0
 11
126.78615
 21
1449.589
 31
0.0
  0
LINE
  5
564
330
1D
100
AcDbEntity
  8
0
100
AcDbLine
 10
124.41615
 20
1450.449
 30
0.0
 11
125.31915
 21
1450.119
 31
0.0
  0
LINE
  5
56F
330
1D
100
AcDbEntity
  8
0
100
AcDbLine
 10
123.76915
 20
1453.239
 30
0.0
 11
124.571135810922
 21
1450.92973915196
 31
0.0
  0
LINE
  5
570
330
1D
100
AcDbEntity
  8
0
100
AcDbLine
 10
123.97115
 20
1455.179
 30
0.0
 11
127.22615
 21
1456.689
 31
0.0
  0
LINE
  5
57A
330
1D
100
AcDbEntity
  8
0
100
AcDbLine
 10
128.01015
 20
1457.359
 30
0.0
 11
128.22815
 21
1457.739
 31
0.0
  0
LINE
  5
57B
330
1D
100
AcDbEntity
  8
0
100
AcDbLine
 10
127.65615
 20
1456.979
 30
0.0
 11
128.01015
 21
1457.359
 31
0.0
  0
LINE
  5
57D
330
1D
100
AcDbEntity
  8
0
100
AcDbLine
 10
127.22615
 20
1456.689
 30
0.0
 11
127.65615
 21
1456.979
 31
0.0
  0
LINE
  5
581
330
1D
100
AcDbEntity
  8
0
100
AcDbLine
 10
127.87915
 20
1449.729
 30
0.0
 11
128.18115
 21
1449.079
 31
0.0
  0
LINE
  5
582
330
1D
100
AcDbEntity
  8
0
100
AcDbLine
 10
128.23815
 20
1448.099
 30
0.0
 11
128.35415
 21
1448.059
 31
0.0
  0
LINE
  5
583
330
1D
100
AcDbEntity
  8
0
100
AcDbLine
 10
130.97515
 20
1459.359
 30
0.0
 11
131.62115
 21
1459.659
 31
0.0
  0
LINE
  5
584
330
1D
100
AcDbEntity
  8
0
100
AcDbLine
 10
128.26415
 20
1457.819
 30
0.0
 11
129.081837271537
 21
1460.05324409406
 31
0.0
  0
LINE
  5
585
330
1D
100
AcDbEntity
  8
0
100
AcDbLine
 10
128.22815
 20
1457.739
 30
0.0
 11
128.26415
 21
1457.819
 31
0.0
  0
LINE
  5
5B9
330
1D
100
AcDbEntity
  8
0
100
AcDbLine
 10
133.16315
 20
1463.899
 30
0.0
 11
134.87615
 21
1468.609
 31
0.0
  0
LINE
  5
5BE
330
1D
100
AcDbEntity
  8
0
100
AcDbLine
 10
131.62115
 20
1459.659
 30
0.0
 11
133.16315
 21
1463.899
 31
0.0
  0
LINE
  5
5D3
330
1D
100
AcDbEntity
  8
0
100
AcDbLine
 10
134.57315
 20
1469.249
 30
0.0
 11
134.87615
 21
1468.609
 31
0.0
  0
LINE
  5
5EC
330
1D
100
AcDbEntity
  8
0
100
AcDbLine
 10
106.67015
 20
1473.539
 30
0.0
 11
108.38315
 21
1478.249
 31
0.0
  0
LINE
  5
5F0
330
1D
100
AcDbEntity
  8
0
100
AcDbLine
 10
108.38315
 20
1478.249
 30
0.0
 11
109.02915
 21
1478.549
 31
0.0
  0
LINE
  5
65E
330
1D
100
AcDbEntity
  8
0
100
AcDbLine
 10
111.714192729744
 20
1477.56770669579
 30
0.0
 11
125.45815
 21
1515.349
 31
0.0
  0
LINE
  5
65F
330
1D
100
AcDbEntity
  8
0
100
AcDbLine
 10
132.382478799452
 20
1470.04845778464
 30
0.0
 11
146.70815
 21
1509.659
 31
0.0
  0
LINE
  5
678
330
1D
100
AcDbEntity
  8
0
100
AcDbLine
 10
146.70815
 20
1509.659
 30
0.0
 11
148.50715
 21
1513.999
 31
0.0
  0
LINE
  5
679
330
1D
100
AcDbEntity
  8
0
100
AcDbLine
 10
125.45815
 20
1515.349
 30
0.0
 11
129.45415
 21
1524.999
 31
0.0
  0
LINE
  5
67A
330
1D
100
AcDbEntity
  8
0
100
AcDbLine
 10
148.50715
 20
1513.999
 30
0.0
 11
151.36715
 21
1517.729
 31
0.0
  0
LINE
  5
6BF
330
1D
100
AcDbEntity
  8
0
100
AcDbLine
 10
168.75415
 20
1522.389
 30
0.0
 11
426.79515
 21
1473.589
 31
0.0
  0
LINE
  5
6C0
330
1D
100
AcDbEntity
  8
0
100
AcDbLine
 10
155.09515
 20
1520.589
 30
0.0
 11
159.43615
 21
1522.389
 31
0.0
  0
LINE
  5
6C1
330
1D
100
AcDbEntity
  8
0
100
AcDbLine
 10
159.43615
 20
1522.389
 30
0.0
 11
164.09515
 21
1522.999
 31
0.0
  0
LINE
  5
6C2
330
1D
100
AcDbEntity
  8
0
100
AcDbLine
 10
151.36715
 20
1517.729
 30
0.0
 11
155.09515
 21
1520.589
 31
0.0
  0
LINE
  5
6C3
330
1D
100
AcDbEntity
  8
0
100
AcDbLine
 10
129.45415
 20
1524.999
 30
0.0
 11
135.81115
 21
1533.279
 31
0.0
  0
LINE
  5
6C4
330
1D
100
AcDbEntity
  8
0
100
AcDbLine
 10
135.81115
 20
1533.279
 30
0.0
 11
144.09515
 21
1539.639
 31
0.0
  0
LINE
  5
6C5
330
1D
100
AcDbEntity
  8
0
100
AcDbLine
 10
153.74215
 20
1543.639
 30
0.0
 11
164.09515
 21
1544.999
 31
0.0
  0
LINE
  5
6C6
330
1D
100
AcDbEntity
  8
0
100
AcDbLine
 10
144.09515
 20
1539.639
 30
0.0
 11
153.74215
 21
1543.639
 31
0.0
  0
LINE
  5
6C7
330
1D
100
AcDbEntity
  8
0
100
AcDbLine
 10
164.09515
 20
1544.999
 30
0.0
 11
174.44815
 21
1543.639
 31
0.0
  0
LINE
  5
6C8
330
1D
100
AcDbEntity
  8
0
100
AcDbLine
 10
164.09515
 20
1522.999
 30
0.0
 11
168.75415
 21
1522.389
 31
0.0
  0
LINE
  5
6CB
330
1D
100
AcDbEntity
  8
0
100
AcDbLine
 10
196.88915
 20
1383.149
 30
0.0
 11
197.68715
 21
1382.869
 31
0.0
  0
LINE
  5
70A
330
1D
100
AcDbEntity
  8
0
100
AcDbLine
 10
200.04915
 20
1382.409
 30
0.0
 11
202.38315
 21
1382.709
 31
0.0
  0
LINE
  5
70C
330
1D
100
AcDbEntity
  8
0
100
AcDbLine
 10
197.68715
 20
1382.869
 30
0.0
 11
200.05115
 21
1382.409
 31
0.0
  0
LINE
  5
70D
330
1D
100
AcDbEntity
  8
0
100
AcDbLine
 10
202.38315
 20
1382.709
 30
0.0
 11
204.51815
 21
1383.729
 31
0.0
  0
LINE
  5
70E
330
1D
100
AcDbEntity
  8
0
100
AcDbLine
 10
202.38515
 20
1382.709
 30
0.0
 11
204.52015
 21
1383.729
 31
0.0
  0
LINE
  5
70F
330
1D
100
AcDbEntity
  8
0
100
AcDbLine
 10
204.51815
 20
1383.729
 30
0.0
 11
206.24215
 21
1385.349
 31
0.0
  0
LINE
  5
710
330
1D
100
AcDbEntity
  8
0
100
AcDbLine
 10
204.52015
 20
1383.729
 30
0.0
 11
206.24415
 21
1385.349
 31
0.0
  0
LINE
  5
711
330
1D
100
AcDbEntity
  8
0
100
AcDbLine
 10
200.05115
 20
1382.409
 30
0.0
 11
202.38515
 21
1382.709
 31
0.0
  0
LINE
  5
712
330
1D
100
AcDbEntity
  8
0
100
AcDbLine
 10
299.77115
 20
1048.709
 30
0.0
 11
300.418336664049
 21
1049.63242487431
 31
0.0
  0
LINE
  5
713
330
1D
100
AcDbEntity
  8
0
100
AcDbLine
 10
300.26915
 20
1048.36
 30
0.0
 11
300.915891354652
 21
1049.28415787295
 31
0.0
  0
LINE
  5
714
330
1D
100
AcDbEntity
  8
0
100
AcDbLine
 10
300.02315
 20
1048.533
 30
0.0
 11
300.26915
 21
1048.36
 31
0.0
  0
LINE
  5
715
330
1D
100
AcDbEntity
  8
0
100
AcDbLine
 10
300.02315
 20
1048.533
 30
0.0
 11
300.65934892004
 21
1049.44074723957
 31
0.0
  0
LINE
  5
716
330
1D
100
AcDbEntity
  8
0
100
AcDbLine
 10
299.771162051144
 20
1048.70901719492
 30
0.0
 11
300.26915
 21
1048.36
 31
0.0
  0
LINE
  5
717
330
1D
100
AcDbEntity
  8
0
100
AcDbLine
 10
299.326574778691
 20
1049.02057079651
 30
0.0
 11
299.43015
 21
1048.948
 31
0.0
  0
LINE
  5
718
330
1D
100
AcDbEntity
  8
0
100
AcDbLine
 10
299.10715
 20
1049.174
 30
0.0
 11
299.326574778691
 21
1049.02057079651
 31
0.0
  0
LINE
  5
719
330
1D
100
AcDbEntity
  8
0
100
AcDbLine
 10
299.43015
 20
1048.948
 30
0.0
 11
299.77115
 21
1048.709
 31
0.0
  0
LINE
  5
71A
330
1D
100
AcDbEntity
  8
0
100
AcDbLine
 10
299.43015
 20
1048.948
 30
0.0
 11
300.076538217846
 21
1049.87165325985
 31
0.0
  0
LINE
  5
71B
330
1D
100
AcDbEntity
  8
0
100
AcDbLine
 10
299.771317408905
 20
1048.70923886393
 30
0.0
 11
300.02315
 21
1048.533
 31
0.0
  0
LINE
  5
71C
330
1D
100
AcDbEntity
  8
0
100
AcDbLine
 10
302.895186599601
 20
1048.20006697241
 30
0.0
 11
305.73015
 21
1046.268
 31
0.0
  0
LINE
  5
71D
330
1D
100
AcDbEntity
  8
0
100
AcDbLine
 10
322.90315
 20
1041.649
 30
0.0
 11
324.51315
 21
1043.29
 31
0.0
  0
LINE
  5
71E
330
1D
100
AcDbEntity
  8
0
100
AcDbLine
 10
320.39415
 20
1040.866
 30
0.0
 11
322.90315
 21
1041.649
 31
0.0
  0
LINE
  5
71F
330
1D
100
AcDbEntity
  8
0
100
AcDbLine
 10
317.48415
 20
1040.827
 30
0.0
 11
320.39415
 21
1040.866
 31
0.0
  0
LINE
  5
720
330
1D
100
AcDbEntity
  8
0
100
AcDbLine
 10
324.51315
 20
1043.29
 30
0.0
 11
324.82715
 21
1044.45
 31
0.0
  0
LINE
  5
721
330
1D
100
AcDbEntity
  8
0
100
AcDbLine
 10
314.33115
 20
1041.752
 30
0.0
 11
317.48415
 21
1040.827
 31
0.0
  0
LINE
  5
722
330
1D
100
AcDbEntity
  8
0
100
AcDbLine
 10
311.52515
 20
1043.071
 30
0.0
 11
314.33115
 21
1041.752
 31
0.0
  0
LINE
  5
726
330
1D
100
AcDbEntity
  8
0
100
AcDbLine
 10
308.93015
 20
1044.385
 30
0.0
 11
311.52515
 21
1043.071
 31
0.0
  0
LINE
  5
727
330
1D
100
AcDbEntity
  8
0
100
AcDbLine
 10
305.73015
 20
1046.268
 30
0.0
 11
308.93015
 21
1044.385
 31
0.0
  0
LINE
  5
728
330
1D
100
AcDbEntity
  8
0
100
AcDbLine
 10
302.21585766734
 20
1048.66303908459
 30
0.0
 11
305.73015
 21
1046.268
 31
0.0
  0
LINE
  5
729
330
1D
100
AcDbEntity
  8
0
100
AcDbLine
 10
302.14415
 20
1048.423
 30
0.0
 11
302.895186599601
 21
1048.20006697241
 31
0.0
  0
LINE
  5
72A
330
1D
100
AcDbEntity
  8
0
100
AcDbLine
 10
295.95315
 20
1051.383
 30
0.0
 11
296.599330261366
 21
1052.30579273594
 31
0.0
  0
LINE
  5
72B
330
1D
100
AcDbEntity
  8
0
100
AcDbLine
 10
295.879451725319
 20
1051.43443114891
 30
0.0
 11
295.95315
 21
1051.383
 31
0.0
  0
LINE
  5
72C
330
1D
100
AcDbEntity
  8
0
100
AcDbLine
 10
295.879521356033
 20
1051.43453064737
 30
0.0
 11
295.95315
 21
1051.383
 31
0.0
  0
LINE
  5
72D
330
1D
100
AcDbEntity
  8
0
100
AcDbLine
 10
295.87915
 20
1051.434
 30
0.0
 11
295.95315
 21
1051.383
 31
0.0
  0
LINE
  5
72E
330
1D
100
AcDbEntity
  8
0
100
AcDbLine
 10
295.87915
 20
1051.434
 30
0.0
 11
296.525452966695
 21
1052.35753144064
 31
0.0
  0
LINE
  5
72F
330
1D
100
AcDbEntity
  8
0
100
AcDbLine
 10
295.38015
 20
1051.784
 30
0.0
 11
295.87915
 21
1051.434
 31
0.0
  0
LINE
  5
730
330
1D
100
AcDbEntity
  8
0
100
AcDbLine
 10
295.38015
 20
1051.784
 30
0.0
 11
296.02646688379
 21
1052.70698784276
 31
0.0
  0
LINE
  5
731
330
1D
100
AcDbEntity
  8
0
100
AcDbLine
 10
294.76015
 20
1052.218
 30
0.0
 11
295.38015
 21
1051.784
 31
0.0
  0
LINE
  5
732
330
1D
100
AcDbEntity
  8
0
100
AcDbLine
 10
294.76015
 20
1052.218
 30
0.0
 11
295.406563875282
 21
1053.14112635372
 31
0.0
  0
LINE
  5
733
330
1D
100
AcDbEntity
  8
0
100
AcDbLine
 10
294.38715
 20
1052.479
 30
0.0
 11
294.76015
 21
1052.218
 31
0.0
  0
LINE
  5
734
330
1D
100
AcDbEntity
  8
0
100
AcDbLine
 10
294.38715
 20
1052.479
 30
0.0
 11
294.731666132
 21
1052.97129462977
 31
0.0
  0
LINE
  5
735
330
1D
100
AcDbEntity
  8
0
100
AcDbLine
 10
294.38715
 20
1052.479
 30
0.0
 11
295.033404490806
 21
1053.40246217126
 31
0.0
  0
LINE
  5
736
330
1D
100
AcDbEntity
  8
0
100
AcDbLine
 10
294.96015
 20
1052.078
 30
0.0
 11
295.57915
 21
1051.644
 31
0.0
  0
LINE
  5
737
330
1D
100
AcDbEntity
  8
0
100
AcDbLine
 10
295.57915
 20
1051.644
 30
0.0
 11
295.697969969756
 21
1051.56108018153
 31
0.0
  0
LINE
  5
738
330
1D
100
AcDbEntity
  8
0
100
AcDbLine
 10
295.697969969756
 20
1051.56108018153
 30
0.0
 11
295.87915
 21
1051.434
 31
0.0
  0
LINE
  5
739
330
1D
100
AcDbEntity
  8
0
100
AcDbLine
 10
296.78815
 20
1050.798
 30
0.0
 11
297.24315
 21
1050.479
 31
0.0
  0
LINE
  5
73A
330
1D
100
AcDbEntity
  8
0
100
AcDbLine
 10
296.78815
 20
1050.798
 30
0.0
 11
297.42877206705
 21
1051.71205831518
 31
0.0
  0
LINE
  5
73B
330
1D
100
AcDbEntity
  8
0
100
AcDbLine
 10
296.75415
 20
1050.822
 30
0.0
 11
297.209427636961
 21
1051.47216980762
 31
0.0
  0
LINE
  5
73C
330
1D
100
AcDbEntity
  8
0
100
AcDbLine
 10
296.75415
 20
1050.822
 30
0.0
 11
297.392608425674
 21
1051.73376538906
 31
0.0
  0
LINE
  5
73D
330
1D
100
AcDbEntity
  8
0
100
AcDbLine
 10
298.047190685258
 20
1049.91622912203
 30
0.0
 11
298.25815
 21
1049.768
 31
0.0
  0
LINE
  5
73E
330
1D
100
AcDbEntity
  8
0
100
AcDbLine
 10
298.29315
 20
1049.744
 30
0.0
 11
298.939708331328
 21
1050.66733264753
 31
0.0
  0
LINE
  5
73F
330
1D
100
AcDbEntity
  8
0
100
AcDbLine
 10
298.30015
 20
1049.739
 30
0.0
 11
298.82215
 21
1049.374
 31
0.0
  0
LINE
  5
740
330
1D
100
AcDbEntity
  8
0
100
AcDbLine
 10
298.30015
 20
1049.739
 30
0.0
 11
298.87201408119
 21
1050.55495240853
 31
0.0
  0
LINE
  5
741
330
1D
100
AcDbEntity
  8
0
100
AcDbLine
 10
298.82215
 20
1049.374
 30
0.0
 11
299.43015
 21
1048.948
 31
0.0
  0
LINE
  5
742
330
1D
100
AcDbEntity
  8
0
100
AcDbLine
 10
298.82215
 20
1049.374
 30
0.0
 11
299.468967668599
 21
1050.29689838081
 31
0.0
  0
LINE
  5
743
330
1D
100
AcDbEntity
  8
0
100
AcDbLine
 10
298.836422300582
 20
1049.36399999992
 30
0.0
 11
299.10715
 21
1049.174
 31
0.0
  0
LINE
  5
745
330
1D
100
AcDbEntity
  8
0
100
AcDbLine
 10
297.86615
 20
1050.043
 30
0.0
 11
298.047190685258
 21
1049.91622912203
 31
0.0
  0
LINE
  5
746
330
1D
100
AcDbEntity
  8
0
100
AcDbLine
 10
297.86615
 20
1050.043
 30
0.0
 11
298.047190685258
 21
1049.91622912203
 31
0.0
  0
LINE
  5
747
330
1D
100
AcDbEntity
  8
0
100
AcDbLine
 10
297.86615
 20
1050.043
 30
0.0
 11
298.29315
 21
1049.744
 31
0.0
  0
LINE
  5
748
330
1D
100
AcDbEntity
  8
0
100
AcDbLine
 10
297.86615
 20
1050.043
 30
0.0
 11
298.512643417139
 21
1050.96623994531
 31
0.0
  0
LINE
  5
749
330
1D
100
AcDbEntity
  8
0
100
AcDbLine
 10
297.24315
 20
1050.479
 30
0.0
 11
297.86615
 21
1050.043
 31
0.0
  0
LINE
  5
74A
330
1D
100
AcDbEntity
  8
0
100
AcDbLine
 10
297.24315
 20
1050.479
 30
0.0
 11
297.889399492624
 21
1051.40245502913
 31
0.0
  0
LINE
  5
74D
330
1D
100
AcDbEntity
  8
0
100
AcDbLine
 10
296.363986229375
 20
1051.96970422294
 30
0.0
 11
297.199030372789
 21
1051.45732175295
 31
0.0
  0
LINE
  5
74E
330
1D
100
AcDbEntity
  8
0
100
AcDbLine
 10
300.732077149003
 20
1049.28944685903
 30
0.0
 11
302.14415
 21
1048.423
 31
0.0
  0
LINE
  5
74F
330
1D
100
AcDbEntity
  8
0
100
AcDbLine
 10
325.02715
 20
1044.744
 30
0.0
 11
333.49515
 21
1036.735
 31
0.0
  0
LINE
  5
750
330
1D
100
AcDbEntity
  8
0
100
AcDbLine
 10
333.49515
 20
1036.735
 30
0.0
 11
341.83715
 21
1028.13
 31
0.0
  0
LINE
  5
751
330
1D
100
AcDbEntity
  8
0
100
AcDbLine
 10
346.79615
 20
1052.22
 30
0.0
 11
356.40615
 21
1043.019
 31
0.0
  0
LINE
  5
752
330
1D
100
AcDbEntity
  8
0
100
AcDbLine
 10
341.83715
 20
1028.13
 30
0.0
 11
352.20815
 21
1016.487
 31
0.0
  0
LINE
  5
753
330
1D
100
AcDbEntity
  8
0
100
AcDbLine
 10
356.40615
 20
1043.019
 30
0.0
 11
368.65715
 21
1030.791
 31
0.0
  0
LINE
  5
754
330
1D
100
AcDbEntity
  8
0
100
AcDbLine
 10
368.65715
 20
1030.791
 30
0.0
 11
380.61115
 21
1017.933
 31
0.0
  0
LINE
  5
755
330
1D
100
AcDbEntity
  8
0
100
AcDbLine
 10
352.20815
 20
1016.487
 30
0.0
 11
362.60715
 21
1003.558
 31
0.0
  0
LINE
  5
756
330
1D
100
AcDbEntity
  8
0
100
AcDbLine
 10
362.60715
 20
1003.558
 30
0.0
 11
372.86415
 21
989.44
 31
0.0
  0
LINE
  5
757
330
1D
100
AcDbEntity
  8
0
100
AcDbLine
 10
380.61115
 20
1017.933
 30
0.0
 11
393.06915
 21
1003.286
 31
0.0
  0
LINE
  5
758
330
1D
100
AcDbEntity
  8
0
100
AcDbLine
 10
372.86415
 20
989.44
 30
0.0
 11
384.19815
 21
972.216
 31
0.0
  0
LINE
  5
759
330
1D
100
AcDbEntity
  8
0
100
AcDbLine
 10
393.06915
 20
1003.286
 30
0.0
 11
405.44615
 21
987.2
 31
0.0
  0
LINE
  5
75A
330
1D
100
AcDbEntity
  8
0
100
AcDbLine
 10
384.19815
 20
972.216
 30
0.0
 11
393.01615
 21
958.688
 31
0.0
  0
LINE
  5
75B
330
1D
100
AcDbEntity
  8
0
100
AcDbLine
 10
393.01615
 20
958.688
 30
0.0
 11
401.91015
 21
945.133
 31
0.0
  0
LINE
  5
75E
330
1D
100
AcDbEntity
  8
0
100
AcDbLine
 10
406.03115
 20
941.739
 30
0.0
 11
407.65215
 21
942.675
 31
0.0
  0
LINE
  5
760
330
1D
100
AcDbEntity
  8
0
100
AcDbLine
 10
407.65215
 20
942.675
 30
0.0
 11
409.77215
 21
943.899
 31
0.0
  0
LINE
  5
761
330
1D
100
AcDbEntity
  8
0
100
AcDbLine
 10
405.44615
 20
987.2
 30
0.0
 11
414.57615
 21
973.22
 31
0.0
  0
LINE
  5
762
330
1D
100
AcDbEntity
  8
0
100
AcDbLine
 10
401.91015
 20
945.133
 30
0.0
 11
404.11015
 21
941.322
 31
0.0
  0
LINE
  5
763
330
1D
100
AcDbEntity
  8
0
100
AcDbLine
 10
262.35115
 20
1073.479
 30
0.0
 11
262.809780902166
 21
1074.13435836848
 31
0.0
  0
LINE
  5
764
330
1D
100
AcDbEntity
  8
0
100
AcDbLine
 10
262.20815
 20
1073.579
 30
0.0
 11
262.35115
 21
1073.479
 31
0.0
  0
LINE
  5
765
330
1D
100
AcDbEntity
  8
0
100
AcDbLine
 10
262.20815
 20
1073.579
 30
0.0
 11
262.666827873787
 21
1074.23442548835
 31
0.0
  0
LINE
  5
766
330
1D
100
AcDbEntity
  8
0
100
AcDbLine
 10
262.95515
 20
1073.056
 30
0.0
 11
263.413832665052
 21
1073.7114323348
 31
0.0
  0
LINE
  5
767
330
1D
100
AcDbEntity
  8
0
100
AcDbLine
 10
262.95515
 20
1073.056
 30
0.0
 11
263.23615
 21
1072.859
 31
0.0
  0
LINE
  5
768
330
1D
100
AcDbEntity
  8
0
100
AcDbLine
 10
263.23615
 20
1072.859
 30
0.0
 11
263.83315
 21
1072.441
 31
0.0
  0
LINE
  5
769
330
1D
100
AcDbEntity
  8
0
100
AcDbLine
 10
263.23615
 20
1072.859
 30
0.0
 11
263.747102844052
 21
1073.58912354961
 31
0.0
  0
LINE
  5
76A
330
1D
100
AcDbEntity
  8
0
100
AcDbLine
 10
263.83315
 20
1072.441
 30
0.0
 11
264.39015
 21
1072.051
 31
0.0
  0
LINE
  5
76B
330
1D
100
AcDbEntity
  8
0
100
AcDbLine
 10
263.83315
 20
1072.441
 30
0.0
 11
264.304098368516
 21
1073.11395935135
 31
0.0
  0
LINE
  5
76C
330
1D
100
AcDbEntity
  8
0
100
AcDbLine
 10
258.57615
 20
1076.394
 30
0.0
 11
258.919674635408
 21
1076.88457833723
 31
0.0
  0
LINE
  5
76D
330
1D
100
AcDbEntity
  8
0
100
AcDbLine
 10
258.11315
 20
1076.719
 30
0.0
 11
258.574956342864
 21
1077.37849327778
 31
0.0
  0
LINE
  5
76E
330
1D
100
AcDbEntity
  8
0
100
AcDbLine
 10
257.88115
 20
1076.881
 30
0.0
 11
258.11315
 21
1076.719
 31
0.0
  0
LINE
  5
76F
330
1D
100
AcDbEntity
  8
0
100
AcDbLine
 10
257.88115
 20
1076.881
 30
0.0
 11
258.349560382254
 21
1077.54992432967
 31
0.0
  0
LINE
  5
770
330
1D
100
AcDbEntity
  8
0
100
AcDbLine
 10
258.34415
 20
1076.556
 30
0.0
 11
258.57615
 21
1076.394
 31
0.0
  0
LINE
  5
771
330
1D
100
AcDbEntity
  8
0
100
AcDbLine
 10
258.34415
 20
1076.556
 30
0.0
 11
258.693546206849
 21
1077.05483308626
 31
0.0
  0
LINE
  5
772
330
1D
100
AcDbEntity
  8
0
100
AcDbLine
 10
257.76515
 20
1076.962
 30
0.0
 11
258.34415
 21
1076.556
 31
0.0
  0
LINE
  5
773
330
1D
100
AcDbEntity
  8
0
100
AcDbLine
 10
249.23815
 20
1083.234
 30
0.0
 11
249.38015
 21
1083.134
 31
0.0
  0
LINE
  5
774
330
1D
100
AcDbEntity
  8
0
100
AcDbLine
 10
249.23815
 20
1083.234
 30
0.0
 11
249.439693815806
 21
1083.52181932894
 31
0.0
  0
LINE
  5
775
330
1D
100
AcDbEntity
  8
0
100
AcDbLine
 10
250.39815
 20
1082.421
 30
0.0
 11
250.598150000028
 21
1082.28099999998
 31
0.0
  0
LINE
  5
776
330
1D
100
AcDbEntity
  8
0
100
AcDbLine
 10
250.17615
 20
1083.006
 30
0.0
 11
250.740075433685
 21
1083.81062531392
 31
0.0
  0
LINE
  5
777
330
1D
100
AcDbEntity
  8
0
100
AcDbLine
 10
250.02515
 20
1082.683
 30
0.0
 11
250.09815
 21
1082.631
 31
0.0
  0
LINE
  5
778
330
1D
100
AcDbEntity
  8
0
100
AcDbLine
 10
250.02515
 20
1082.683
 30
0.0
 11
250.437060390621
 21
1083.27123820387
 31
0.0
  0
LINE
  5
779
330
1D
100
AcDbEntity
  8
0
100
AcDbLine
 10
250.02515
 20
1082.683
 30
0.0
 11
250.098489961612
 21
1082.63148506718
 31
0.0
  0
LINE
  5
77A
330
1D
100
AcDbEntity
  8
0
100
AcDbLine
 10
250.02515
 20
1082.683
 30
0.0
 11
250.501392351365
 21
1083.36310895513
 31
0.0
  0
LINE
  5
77B
330
1D
100
AcDbEntity
  8
0
100
AcDbLine
 10
250.09815
 20
1082.631
 30
0.0
 11
250.39815
 21
1082.421
 31
0.0
  0
LINE
  5
77C
330
1D
100
AcDbEntity
  8
0
100
AcDbLine
 10
250.09815
 20
1082.631
 30
0.0
 11
250.59815
 21
1082.281
 31
0.0
  0
LINE
  5
77D
330
1D
100
AcDbEntity
  8
0
100
AcDbLine
 10
250.09815
 20
1082.631
 30
0.0
 11
250.575093009569
 21
1083.31151624536
 31
0.0
  0
LINE
  5
77E
330
1D
100
AcDbEntity
  8
0
100
AcDbLine
 10
251.59115
 20
1081.586
 30
0.0
 11
251.994669363933
 21
1082.16225520324
 31
0.0
  0
LINE
  5
77F
330
1D
100
AcDbEntity
  8
0
100
AcDbLine
 10
251.51715
 20
1081.637
 30
0.0
 11
251.59115
 21
1081.586
 31
0.0
  0
LINE
  5
780
330
1D
100
AcDbEntity
  8
0
100
AcDbLine
 10
250.82015
 20
1082.985
 30
0.0
 11
251.120150000128
 21
1082.77499999991
 31
0.0
  0
LINE
  5
781
330
1D
100
AcDbEntity
  8
0
100
AcDbLine
 10
250.82015
 20
1082.985
 30
0.0
 11
251.120150000128
 21
1082.77499999991
 31
0.0
  0
LINE
  5
782
330
1D
100
AcDbEntity
  8
0
100
AcDbLine
 10
250.74615
 20
1083.037
 30
0.0
 11
251.12015
 21
1082.775
 31
0.0
  0
LINE
  5
783
330
1D
100
AcDbEntity
  8
0
100
AcDbLine
 10
250.74615
 20
1083.037
 30
0.0
 11
250.82015
 21
1082.985
 31
0.0
  0
LINE
  5
784
330
1D
100
AcDbEntity
  8
0
100
AcDbLine
 10
250.74615
 20
1083.037
 30
0.0
 11
251.392408558762
 21
1083.95990455035
 31
0.0
  0
LINE
  5
785
330
1D
100
AcDbEntity
  8
0
100
AcDbLine
 10
251.12015
 20
1082.775
 30
0.0
 11
251.73915
 21
1082.341
 31
0.0
  0
LINE
  5
786
330
1D
100
AcDbEntity
  8
0
100
AcDbLine
 10
251.12015
 20
1082.775
 30
0.0
 11
251.766480866038
 21
1083.69800781044
 31
0.0
  0
LINE
  5
787
330
1D
100
AcDbEntity
  8
0
100
AcDbLine
 10
250.598150000028
 20
1082.28099999998
 30
0.0
 11
251.21715
 21
1081.847
 31
0.0
  0
LINE
  5
788
330
1D
100
AcDbEntity
  8
0
100
AcDbLine
 10
251.93915
 20
1082.201
 30
0.0
 11
252.31315
 21
1081.94
 31
0.0
  0
LINE
  5
789
330
1D
100
AcDbEntity
  8
0
100
AcDbLine
 10
251.811389422153
 20
1082.29057688334
 30
0.0
 11
251.93915
 21
1082.201
 31
0.0
  0
LINE
  5
78A
330
1D
100
AcDbEntity
  8
0
100
AcDbLine
 10
251.73915
 20
1082.341
 30
0.0
 11
252.23915
 21
1081.992
 31
0.0
  0
LINE
  5
78B
330
1D
100
AcDbEntity
  8
0
100
AcDbLine
 10
251.73915
 20
1082.341
 30
0.0
 11
252.385887235366
 21
1083.26434697628
 31
0.0
  0
LINE
  5
78C
330
1D
100
AcDbEntity
  8
0
100
AcDbLine
 10
251.21715
 20
1081.847
 30
0.0
 11
251.33596996979
 21
1081.76408018151
 31
0.0
  0
LINE
  5
78D
330
1D
100
AcDbEntity
  8
0
100
AcDbLine
 10
251.21715
 20
1081.847
 30
0.0
 11
251.33596996979
 21
1081.76408018151
 31
0.0
  0
LINE
  5
78E
330
1D
100
AcDbEntity
  8
0
100
AcDbLine
 10
251.21715
 20
1081.847
 30
0.0
 11
251.59115
 21
1081.586
 31
0.0
  0
LINE
  5
78F
330
1D
100
AcDbEntity
  8
0
100
AcDbLine
 10
251.21715
 20
1081.847
 30
0.0
 11
251.621122989999
 21
1082.42375237858
 31
0.0
  0
LINE
  5
790
330
1D
100
AcDbEntity
  8
0
100
AcDbLine
 10
251.33596996979
 20
1081.76408018151
 30
0.0
 11
251.51715
 21
1081.637
 31
0.0
  0
LINE
  5
791
330
1D
100
AcDbEntity
  8
0
100
AcDbLine
 10
250.59815
 20
1082.281
 30
0.0
 11
251.21715
 21
1081.847
 31
0.0
  0
LINE
  5
792
330
1D
100
AcDbEntity
  8
0
100
AcDbLine
 10
250.59815
 20
1082.281
 30
0.0
 11
251.001989485436
 21
1082.8577123602
 31
0.0
  0
LINE
  5
793
330
1D
100
AcDbEntity
  8
0
100
AcDbLine
 10
249.94515
 20
1083.168
 30
0.0
 11
250.17615
 21
1083.006
 31
0.0
  0
LINE
  5
794
330
1D
100
AcDbEntity
  8
0
100
AcDbLine
 10
249.94515
 20
1083.168
 30
0.0
 11
250.517995837698
 21
1083.986565238
 31
0.0
  0
LINE
  5
795
330
1D
100
AcDbEntity
  8
0
100
AcDbLine
 10
249.38015
 20
1083.134
 30
0.0
 11
249.58197576099
 21
1083.42222196731
 31
0.0
  0
LINE
  5
796
330
1D
100
AcDbEntity
  8
0
100
AcDbLine
 10
247.32215
 20
1085.005
 30
0.0
 11
247.523836014883
 21
1085.29302239963
 31
0.0
  0
LINE
  5
797
330
1D
100
AcDbEntity
  8
0
100
AcDbLine
 10
246.99315
 20
1085.235
 30
0.0
 11
247.32215
 21
1085.005
 31
0.0
  0
LINE
  5
798
330
1D
100
AcDbEntity
  8
0
100
AcDbLine
 10
246.99315
 20
1085.235
 30
0.0
 11
247.195199187884
 21
1085.52354103728
 31
0.0
  0
LINE
  5
799
330
1D
100
AcDbEntity
  8
0
100
AcDbLine
 10
247.19415
 20
1085.094
 30
0.0
 11
247.32215
 21
1085.005
 31
0.0
  0
LINE
  5
79A
330
1D
100
AcDbEntity
  8
0
100
AcDbLine
 10
247.59515
 20
1085.243
 30
0.0
 11
247.77615
 21
1085.117
 31
0.0
  0
LINE
  5
79B
330
1D
100
AcDbEntity
  8
0
100
AcDbLine
 10
247.59515
 20
1085.243
 30
0.0
 11
248.242072500706
 21
1086.16604795832
 31
0.0
  0
LINE
  5
79C
330
1D
100
AcDbEntity
  8
0
100
AcDbLine
 10
245.07515
 20
1086.578
 30
0.0
 11
245.423957408374
 21
1087.07642662801
 31
0.0
  0
LINE
  5
79D
330
1D
100
AcDbEntity
  8
0
100
AcDbLine
 10
245.07515
 20
1086.578
 30
0.0
 11
245.569104062009
 21
1087.28383322374
 31
0.0
  0
LINE
  5
79E
330
1D
100
AcDbEntity
  8
0
100
AcDbLine
 10
244.65915
 20
1086.869
 30
0.0
 11
245.07515
 21
1086.578
 31
0.0
  0
LINE
  5
79F
330
1D
100
AcDbEntity
  8
0
100
AcDbLine
 10
244.65915
 20
1086.869
 30
0.0
 11
245.173743687761
 21
1087.60432611529
 31
0.0
  0
LINE
  5
7A0
330
1D
100
AcDbEntity
  8
0
100
AcDbLine
 10
246.16015
 20
1086.248
 30
0.0
 11
246.44115
 21
1086.051
 31
0.0
  0
LINE
  5
7A1
330
1D
100
AcDbEntity
  8
0
100
AcDbLine
 10
246.16015
 20
1086.248
 30
0.0
 11
246.80665813575
 21
1087.17126096457
 31
0.0
  0
LINE
  5
7A2
330
1D
100
AcDbEntity
  8
0
100
AcDbLine
 10
245.72515
 20
1086.123
 30
0.0
 11
245.85215
 21
1086.034
 31
0.0
  0
LINE
  5
7A3
330
1D
100
AcDbEntity
  8
0
100
AcDbLine
 10
245.72515
 20
1086.123
 30
0.0
 11
246.046444775711
 21
1086.58183246958
 31
0.0
  0
LINE
  5
7A4
330
1D
100
AcDbEntity
  8
0
100
AcDbLine
 10
245.72515
 20
1086.123
 30
0.0
 11
246.272219742512
 21
1086.9042556567
 31
0.0
  0
LINE
  5
7A5
330
1D
100
AcDbEntity
  8
0
100
AcDbLine
 10
245.85215
 20
1086.034
 30
0.0
 11
246.38315
 21
1085.662
 31
0.0
  0
LINE
  5
7A6
330
1D
100
AcDbEntity
  8
0
100
AcDbLine
 10
245.85215
 20
1086.034
 30
0.0
 11
246.39467265175
 21
1086.80808719823
 31
0.0
  0
LINE
  5
7A7
330
1D
100
AcDbEntity
  8
0
100
AcDbLine
 10
246.66415
 20
1085.465
 30
0.0
 11
247.19415
 21
1085.094
 31
0.0
  0
LINE
  5
7A8
330
1D
100
AcDbEntity
  8
0
100
AcDbLine
 10
246.679439340184
 20
1085.88443654817
 30
0.0
 11
246.89715
 21
1085.732
 31
0.0
  0
LINE
  5
7A9
330
1D
100
AcDbEntity
  8
0
100
AcDbLine
 10
246.89715
 20
1085.732
 30
0.0
 11
247.144598275814
 21
1085.55903448279
 31
0.0
  0
LINE
  5
7AA
330
1D
100
AcDbEntity
  8
0
100
AcDbLine
 10
246.679439340184
 20
1085.88443654817
 30
0.0
 11
246.89715
 21
1085.732
 31
0.0
  0
LINE
  5
7AB
330
1D
100
AcDbEntity
  8
0
100
AcDbLine
 10
246.44115
 20
1086.051
 30
0.0
 11
247.03915
 21
1085.633
 31
0.0
  0
LINE
  5
7AC
330
1D
100
AcDbEntity
  8
0
100
AcDbLine
 10
246.44115
 20
1086.051
 30
0.0
 11
247.088138331787
 21
1086.97414188804
 31
0.0
  0
LINE
  5
7AD
330
1D
100
AcDbEntity
  8
0
100
AcDbLine
 10
247.03915
 20
1085.633
 30
0.0
 11
247.59515
 21
1085.243
 31
0.0
  0
LINE
  5
7AE
330
1D
100
AcDbEntity
  8
0
100
AcDbLine
 10
247.03915
 20
1085.633
 30
0.0
 11
247.685395492724
 21
1086.55588589109
 31
0.0
  0
LINE
  5
7AF
330
1D
100
AcDbEntity
  8
0
100
AcDbLine
 10
246.481149999998
 20
1085.5934
 30
0.0
 11
246.66415
 21
1085.465
 31
0.0
  0
LINE
  5
7B0
330
1D
100
AcDbEntity
  8
0
100
AcDbLine
 10
246.38315
 20
1085.662
 30
0.0
 11
246.481149999998
 21
1085.5934
 31
0.0
  0
LINE
  5
7B1
330
1D
100
AcDbEntity
  8
0
100
AcDbLine
 10
246.38315
 20
1085.662
 30
0.0
 11
246.481149999998
 21
1085.5934
 31
0.0
  0
LINE
  5
7B2
330
1D
100
AcDbEntity
  8
0
100
AcDbLine
 10
246.38315
 20
1085.662
 30
0.0
 11
246.99315
 21
1085.235
 31
0.0
  0
LINE
  5
7B3
330
1D
100
AcDbEntity
  8
0
100
AcDbLine
 10
246.38315
 20
1085.662
 30
0.0
 11
246.585007879866
 21
1085.9504438231
 31
0.0
  0
LINE
  5
7B4
330
1D
100
AcDbEntity
  8
0
100
AcDbLine
 10
247.523836014883
 20
1085.29302239963
 30
0.0
 11
247.59515
 21
1085.243
 31
0.0
  0
LINE
  5
7B5
330
1D
100
AcDbEntity
  8
0
100
AcDbLine
 10
247.83124487561
 20
1085.19567951722
 30
0.0
 11
248.216793799852
 21
1084.90612427564
 31
0.0
  0
LINE
  5
7B6
330
1D
100
AcDbEntity
  8
0
100
AcDbLine
 10
247.77615
 20
1085.117
 30
0.0
 11
248.422340445805
 21
1086.03980728006
 31
0.0
  0
LINE
  5
7B7
330
1D
100
AcDbEntity
  8
0
100
AcDbLine
 10
247.76715
 20
1084.264
 30
0.0
 11
247.90915
 21
1084.164
 31
0.0
  0
LINE
  5
7B8
330
1D
100
AcDbEntity
  8
0
100
AcDbLine
 10
247.76715
 20
1084.264
 30
0.0
 11
248.234247101133
 21
1084.93104886805
 31
0.0
  0
LINE
  5
7B9
330
1D
100
AcDbEntity
  8
0
100
AcDbLine
 10
247.76715
 20
1084.264
 30
0.0
 11
248.10815
 21
1084.024
 31
0.0
  0
LINE
  5
7BA
330
1D
100
AcDbEntity
  8
0
100
AcDbLine
 10
247.76715
 20
1084.264
 30
0.0
 11
248.243512094552
 21
1084.94427995717
 31
0.0
  0
LINE
  5
7BB
330
1D
100
AcDbEntity
  8
0
100
AcDbLine
 10
242.819925193807
 20
1088.15738242893
 30
0.0
 11
243.01315
 21
1088.022
 31
0.0
  0
LINE
  5
7BC
330
1D
100
AcDbEntity
  8
0
100
AcDbLine
 10
243.503278578344
 20
1087.67916394779
 30
0.0
 11
243.551468900529
 21
1087.64545569134
 31
0.0
  0
LINE
  5
7BD
330
1D
100
AcDbEntity
  8
0
100
AcDbLine
 10
243.57015
 20
1087.632
 30
0.0
 11
244.03515
 21
1087.306
 31
0.0
  0
LINE
  5
7BE
330
1D
100
AcDbEntity
  8
0
100
AcDbLine
 10
243.57015
 20
1087.632
 30
0.0
 11
243.772140825688
 21
1087.92020642202
 31
0.0
  0
LINE
  5
7BF
330
1D
100
AcDbEntity
  8
0
100
AcDbLine
 10
243.83815
 20
1087.874
 30
0.0
 11
244.464394782169
 21
1088.76832341168
 31
0.0
  0
LINE
  5
7C0
330
1D
100
AcDbEntity
  8
0
100
AcDbLine
 10
243.65815
 20
1088.0
 30
0.0
 11
243.83815
 21
1087.874
 31
0.0
  0
LINE
  5
7C1
330
1D
100
AcDbEntity
  8
0
100
AcDbLine
 10
243.55115
 20
1087.645
 30
0.0
 11
243.757076910259
 21
1087.50095016614
 31
0.0
  0
LINE
  5
7C2
330
1D
100
AcDbEntity
  8
0
100
AcDbLine
 10
243.55115
 20
1087.645
 30
0.0
 11
243.757076910259
 21
1087.50095016614
 31
0.0
  0
LINE
  5
7C3
330
1D
100
AcDbEntity
  8
0
100
AcDbLine
 10
243.55115
 20
1087.645
 30
0.0
 11
243.753080996355
 21
1087.93354830255
 31
0.0
  0
LINE
  5
7C4
330
1D
100
AcDbEntity
  8
0
100
AcDbLine
 10
243.757076910259
 20
1087.50095016614
 30
0.0
 11
244.03515
 21
1087.306
 31
0.0
  0
LINE
  5
7C5
330
1D
100
AcDbEntity
  8
0
100
AcDbLine
 10
244.03515
 20
1087.306
 30
0.0
 11
244.65915
 21
1086.869
 31
0.0
  0
LINE
  5
7C6
330
1D
100
AcDbEntity
  8
0
100
AcDbLine
 10
244.03515
 20
1087.306
 30
0.0
 11
244.580995548724
 21
1088.08482840489
 31
0.0
  0
LINE
  5
7C7
330
1D
100
AcDbEntity
  8
0
100
AcDbLine
 10
243.50315
 20
1087.679
 30
0.0
 11
243.551414303984
 21
1087.64537767588
 31
0.0
  0
LINE
  5
7C8
330
1D
100
AcDbEntity
  8
0
100
AcDbLine
 10
243.50315
 20
1087.679
 30
0.0
 11
243.70497576099
 21
1087.96722196731
 31
0.0
  0
LINE
  5
7C9
330
1D
100
AcDbEntity
  8
0
100
AcDbLine
 10
243.55715
 20
1088.071
 30
0.0
 11
243.83815
 21
1087.874
 31
0.0
  0
LINE
  5
7CA
330
1D
100
AcDbEntity
  8
0
100
AcDbLine
 10
243.55715
 20
1088.071
 30
0.0
 11
244.200250770984
 21
1088.98939499814
 31
0.0
  0
LINE
  5
7CB
330
1D
100
AcDbEntity
  8
0
100
AcDbLine
 10
243.01315
 20
1088.022
 30
0.0
 11
243.50315
 21
1087.679
 31
0.0
  0
LINE
  5
7CC
330
1D
100
AcDbEntity
  8
0
100
AcDbLine
 10
243.01315
 20
1088.022
 30
0.0
 11
243.214930486424
 21
1088.31033323213
 31
0.0
  0
LINE
  5
7CD
330
1D
100
AcDbEntity
  8
0
100
AcDbLine
 10
242.819925193807
 20
1088.15738242893
 30
0.0
 11
243.01315
 21
1088.022
 31
0.0
  0
LINE
  5
7CE
330
1D
100
AcDbEntity
  8
0
100
AcDbLine
 10
242.39515
 20
1088.455
 30
0.0
 11
243.01315
 21
1088.022
 31
0.0
  0
LINE
  5
7CF
330
1D
100
AcDbEntity
  8
0
100
AcDbLine
 10
242.39515
 20
1088.455
 30
0.0
 11
242.596874480763
 21
1088.74307733173
 31
0.0
  0
LINE
  5
7D0
330
1D
100
AcDbEntity
  8
0
100
AcDbLine
 10
242.238435714353
 20
1088.56399999995
 30
0.0
 11
242.65415
 21
1088.273
 31
0.0
  0
LINE
  5
7D1
330
1D
100
AcDbEntity
  8
0
100
AcDbLine
 10
242.58915
 20
1088.319
 30
0.0
 11
242.742566216375
 21
1088.21158378367
 31
0.0
  0
LINE
  5
7D2
330
1D
100
AcDbEntity
  8
0
100
AcDbLine
 10
242.554150000156
 20
1088.34299999989
 30
0.0
 11
242.65415
 21
1088.273
 31
0.0
  0
LINE
  5
7D3
330
1D
100
AcDbEntity
  8
0
100
AcDbLine
 10
243.10115
 20
1088.39
 30
0.0
 11
243.65815
 21
1088.0
 31
0.0
  0
LINE
  5
7D4
330
1D
100
AcDbEntity
  8
0
100
AcDbLine
 10
242.96015
 20
1088.489
 30
0.0
 11
243.55715
 21
1088.071
 31
0.0
  0
LINE
  5
7D5
330
1D
100
AcDbEntity
  8
0
100
AcDbLine
 10
242.96015
 20
1088.489
 30
0.0
 11
243.606593984707
 21
1089.41216935218
 31
0.0
  0
LINE
  5
7D6
330
1D
100
AcDbEntity
  8
0
100
AcDbLine
 10
242.65415
 20
1088.273
 30
0.0
 11
242.819925193807
 21
1088.15738242893
 31
0.0
  0
LINE
  5
7D7
330
1D
100
AcDbEntity
  8
0
100
AcDbLine
 10
242.65415
 20
1088.273
 30
0.0
 11
242.819925193807
 21
1088.15738242893
 31
0.0
  0
LINE
  5
7D8
330
1D
100
AcDbEntity
  8
0
100
AcDbLine
 10
242.238435714353
 20
1088.56399999995
 30
0.0
 11
242.65415
 21
1088.273
 31
0.0
  0
LINE
  5
7D9
330
1D
100
AcDbEntity
  8
0
100
AcDbLine
 10
245.423957408374
 20
1087.07642662801
 30
0.0
 11
246.046444775711
 21
1086.58183246958
 31
0.0
  0
LINE
  5
7DA
330
1D
100
AcDbEntity
  8
0
100
AcDbLine
 10
249.03815
 20
1083.373
 30
0.0
 11
249.38015
 21
1083.134
 31
0.0
  0
LINE
  5
7DB
330
1D
100
AcDbEntity
  8
0
100
AcDbLine
 10
248.71615
 20
1083.599
 30
0.0
 11
249.23815
 21
1083.234
 31
0.0
  0
LINE
  5
7DC
330
1D
100
AcDbEntity
  8
0
100
AcDbLine
 10
248.71615
 20
1083.599
 30
0.0
 11
248.917772853673
 21
1083.8869322008
 31
0.0
  0
LINE
  5
7DD
330
1D
100
AcDbEntity
  8
0
100
AcDbLine
 10
248.43115
 20
1083.798
 30
0.0
 11
249.03815
 21
1083.373
 31
0.0
  0
LINE
  5
7DE
330
1D
100
AcDbEntity
  8
0
100
AcDbLine
 10
249.36515
 20
1083.574
 30
0.0
 11
249.94515
 21
1083.168
 31
0.0
  0
LINE
  5
7DF
330
1D
100
AcDbEntity
  8
0
100
AcDbLine
 10
249.36515
 20
1083.574
 30
0.0
 11
249.962650405027
 21
1084.42653106571
 31
0.0
  0
LINE
  5
7E0
330
1D
100
AcDbEntity
  8
0
100
AcDbLine
 10
249.58197576099
 20
1083.42222196731
 30
0.0
 11
249.94515
 21
1083.168
 31
0.0
  0
LINE
  5
7E1
330
1D
100
AcDbEntity
  8
0
100
AcDbLine
 10
248.78615
 20
1083.979
 30
0.0
 11
249.36515
 21
1083.574
 31
0.0
  0
LINE
  5
7E2
330
1D
100
AcDbEntity
  8
0
100
AcDbLine
 10
248.78615
 20
1083.979
 30
0.0
 11
249.407260201358
 21
1084.86653236271
 31
0.0
  0
LINE
  5
7E3
330
1D
100
AcDbEntity
  8
0
100
AcDbLine
 10
248.328751769854
 20
1083.86979646022
 30
0.0
 11
248.43115
 21
1083.798
 31
0.0
  0
LINE
  5
7E4
330
1D
100
AcDbEntity
  8
0
100
AcDbLine
 10
248.328751769853
 20
1083.86979646022
 30
0.0
 11
248.43115
 21
1083.798
 31
0.0
  0
LINE
  5
7E5
330
1D
100
AcDbEntity
  8
0
100
AcDbLine
 10
248.55515
 20
1084.142
 30
0.0
 11
248.78615
 21
1083.979
 31
0.0
  0
LINE
  5
7E6
330
1D
100
AcDbEntity
  8
0
100
AcDbLine
 10
248.55515
 20
1084.142
 30
0.0
 11
249.086107615333
 21
1084.90024635912
 31
0.0
  0
LINE
  5
7E7
330
1D
100
AcDbEntity
  8
0
100
AcDbLine
 10
247.931175316509
 20
1084.14855696199
 30
0.0
 11
248.10815
 21
1084.024
 31
0.0
  0
LINE
  5
7E8
330
1D
100
AcDbEntity
  8
0
100
AcDbLine
 10
248.10815
 20
1084.024
 30
0.0
 11
248.328751769854
 21
1083.86979646022
 31
0.0
  0
LINE
  5
7E9
330
1D
100
AcDbEntity
  8
0
100
AcDbLine
 10
248.10815
 20
1084.024
 30
0.0
 11
248.71615
 21
1083.599
 31
0.0
  0
LINE
  5
7EA
330
1D
100
AcDbEntity
  8
0
100
AcDbLine
 10
248.10815
 20
1084.024
 30
0.0
 11
248.584862402896
 21
1084.70519583988
 31
0.0
  0
LINE
  5
7EB
330
1D
100
AcDbEntity
  8
0
100
AcDbLine
 10
247.83124487561
 20
1085.19567951722
 30
0.0
 11
248.216793799852
 21
1084.90612427564
 31
0.0
  0
LINE
  5
7EC
330
1D
100
AcDbEntity
  8
0
100
AcDbLine
 10
250.372952861911
 20
1083.28680408346
 30
0.0
 11
250.422109128836
 21
1083.24988670709
 31
0.0
  0
LINE
  5
7ED
330
1D
100
AcDbEntity
  8
0
100
AcDbLine
 10
253.42315
 20
1080.732
 30
0.0
 11
253.55115
 21
1080.643
 31
0.0
  0
LINE
  5
7EE
330
1D
100
AcDbEntity
  8
0
100
AcDbLine
 10
253.42315
 20
1080.732
 30
0.0
 11
254.015919289269
 21
1081.57829692083
 31
0.0
  0
LINE
  5
7EF
330
1D
100
AcDbEntity
  8
0
100
AcDbLine
 10
255.65615
 20
1078.439
 30
0.0
 11
255.797263564669
 21
1078.64052050473
 31
0.0
  0
LINE
  5
7F0
330
1D
100
AcDbEntity
  8
0
100
AcDbLine
 10
256.49115
 20
1077.854
 30
0.0
 11
256.72215
 21
1077.692
 31
0.0
  0
LINE
  5
7F1
330
1D
100
AcDbEntity
  8
0
100
AcDbLine
 10
256.49115
 20
1077.854
 30
0.0
 11
256.834468969824
 21
1078.34428463171
 31
0.0
  0
LINE
  5
7F2
330
1D
100
AcDbEntity
  8
0
100
AcDbLine
 10
256.72215
 20
1077.692
 30
0.0
 11
257.30215
 21
1077.286
 31
0.0
  0
LINE
  5
7F3
330
1D
100
AcDbEntity
  8
0
100
AcDbLine
 10
256.72215
 20
1077.692
 30
0.0
 11
257.0657026825
 21
1078.18219102259
 31
0.0
  0
LINE
  5
7F4
330
1D
100
AcDbEntity
  8
0
100
AcDbLine
 10
257.30215
 20
1077.286
 30
0.0
 11
257.88115
 21
1076.881
 31
0.0
  0
LINE
  5
7F5
330
1D
100
AcDbEntity
  8
0
100
AcDbLine
 10
257.30215
 20
1077.286
 30
0.0
 11
257.786530020312
 21
1077.97815244402
 31
0.0
  0
LINE
  5
7F6
330
1D
100
AcDbEntity
  8
0
100
AcDbLine
 10
256.85915
 20
1078.327
 30
0.0
 11
257.32415
 21
1078.001
 31
0.0
  0
LINE
  5
7F7
330
1D
100
AcDbEntity
  8
0
100
AcDbLine
 10
256.85915
 20
1078.327
 30
0.0
 11
257.060725226477
 21
1078.61486418568
 31
0.0
  0
LINE
  5
7F8
330
1D
100
AcDbEntity
  8
0
100
AcDbLine
 10
257.32415
 20
1078.001
 30
0.0
 11
257.832309079492
 21
1078.7271314135
 31
0.0
  0
LINE
  5
7F9
330
1D
100
AcDbEntity
  8
0
100
AcDbLine
 10
257.34415
 20
1077.988
 30
0.0
 11
257.851072666985
 21
1078.71192269269
 31
0.0
  0
LINE
  5
7FA
330
1D
100
AcDbEntity
  8
0
100
AcDbLine
 10
257.34615
 20
1078.415
 30
0.0
 11
257.992701060452
 21
1079.33888595299
 31
0.0
  0
LINE
  5
7FB
330
1D
100
AcDbEntity
  8
0
100
AcDbLine
 10
257.108816666622
 20
1077.42133333336
 30
0.0
 11
257.18615
 21
1077.367
 31
0.0
  0
LINE
  5
7FC
330
1D
100
AcDbEntity
  8
0
100
AcDbLine
 10
257.18615
 20
1077.367
 30
0.0
 11
257.76515
 21
1076.962
 31
0.0
  0
LINE
  5
7FD
330
1D
100
AcDbEntity
  8
0
100
AcDbLine
 10
256.727149999993
 20
1078.4194423077
 30
0.0
 11
256.834468969824
 21
1078.34428463171
 31
0.0
  0
LINE
  5
7FE
330
1D
100
AcDbEntity
  8
0
100
AcDbLine
 10
255.81515
 20
1078.628
 30
0.0
 11
256.0170268563
 21
1078.91629493515
 31
0.0
  0
LINE
  5
7FF
330
1D
100
AcDbEntity
  8
0
100
AcDbLine
 10
253.55115
 20
1080.643
 30
0.0
 11
254.132625079422
 21
1081.47338899747
 31
0.0
  0
LINE
  5
800
330
1D
100
AcDbEntity
  8
0
100
AcDbLine
 10
253.97715
 20
1079.614
 30
0.0
 11
254.39315
 21
1079.323
 31
0.0
  0
LINE
  5
801
330
1D
100
AcDbEntity
  8
0
100
AcDbLine
 10
253.97715
 20
1079.614
 30
0.0
 11
254.466410314092
 21
1080.31209093596
 31
0.0
  0
LINE
  5
802
330
1D
100
AcDbEntity
  8
0
100
AcDbLine
 10
254.991149999973
 20
1078.90426003212
 30
0.0
 11
255.17115
 21
1078.778
 31
0.0
  0
LINE
  5
803
330
1D
100
AcDbEntity
  8
0
100
AcDbLine
 10
254.991149999973
 20
1078.90426003212
 30
0.0
 11
255.17115
 21
1078.778
 31
0.0
  0
LINE
  5
804
330
1D
100
AcDbEntity
  8
0
100
AcDbLine
 10
254.883674064066
 20
1078.9794759359
 30
0.0
 11
255.01715
 21
1078.886
 31
0.0
  0
LINE
  5
805
330
1D
100
AcDbEntity
  8
0
100
AcDbLine
 10
255.24015
 20
1078.73
 30
0.0
 11
255.65615
 21
1078.439
 31
0.0
  0
LINE
  5
806
330
1D
100
AcDbEntity
  8
0
100
AcDbLine
 10
255.24015
 20
1078.73
 30
0.0
 11
255.38137895559
 21
1078.93168529142
 31
0.0
  0
LINE
  5
807
330
1D
100
AcDbEntity
  8
0
100
AcDbLine
 10
255.63515
 20
1078.754
 30
0.0
 11
255.81515
 21
1078.628
 31
0.0
  0
LINE
  5
808
330
1D
100
AcDbEntity
  8
0
100
AcDbLine
 10
255.63515
 20
1078.754
 30
0.0
 11
255.837034024735
 21
1079.04248118269
 31
0.0
  0
LINE
  5
809
330
1D
100
AcDbEntity
  8
0
100
AcDbLine
 10
255.17115
 20
1078.778
 30
0.0
 11
255.63615
 21
1078.452
 31
0.0
  0
LINE
  5
80A
330
1D
100
AcDbEntity
  8
0
100
AcDbLine
 10
254.13215
 20
1079.506
 30
0.0
 11
254.273367805219
 21
1079.70766936787
 31
0.0
  0
LINE
  5
80B
330
1D
100
AcDbEntity
  8
0
100
AcDbLine
 10
254.15215
 20
1079.492
 30
0.0
 11
254.61715
 21
1079.166
 31
0.0
  0
LINE
  5
80C
330
1D
100
AcDbEntity
  8
0
100
AcDbLine
 10
254.15215
 20
1079.492
 30
0.0
 11
254.293357776614
 21
1079.69365504629
 31
0.0
  0
LINE
  5
80D
330
1D
100
AcDbEntity
  8
0
100
AcDbLine
 10
254.20015
 20
1079.759
 30
0.0
 11
254.48115
 21
1079.562
 31
0.0
  0
LINE
  5
80E
330
1D
100
AcDbEntity
  8
0
100
AcDbLine
 10
254.20015
 20
1079.759
 30
0.0
 11
254.6766399822
 21
1080.43987801293
 31
0.0
  0
LINE
  5
80F
330
1D
100
AcDbEntity
  8
0
100
AcDbLine
 10
254.61715
 20
1079.166
 30
0.0
 11
255.24015
 21
1078.73
 31
0.0
  0
LINE
  5
810
330
1D
100
AcDbEntity
  8
0
100
AcDbLine
 10
254.61715
 20
1079.166
 30
0.0
 11
254.758418818989
 21
1079.36786538302
 31
0.0
  0
LINE
  5
811
330
1D
100
AcDbEntity
  8
0
100
AcDbLine
 10
255.07815
 20
1079.144
 30
0.0
 11
255.63515
 21
1078.754
 31
0.0
  0
LINE
  5
812
330
1D
100
AcDbEntity
  8
0
100
AcDbLine
 10
255.07815
 20
1079.144
 30
0.0
 11
255.554899564564
 21
1079.82483329273
 31
0.0
  0
LINE
  5
813
330
1D
100
AcDbEntity
  8
0
100
AcDbLine
 10
255.83915
 20
1079.041
 30
0.0
 11
256.30415
 21
1078.715
 31
0.0
  0
LINE
  5
814
330
1D
100
AcDbEntity
  8
0
100
AcDbLine
 10
255.81915
 20
1079.055
 30
0.0
 11
256.23515
 21
1078.764
 31
0.0
  0
LINE
  5
815
330
1D
100
AcDbEntity
  8
0
100
AcDbLine
 10
255.81915
 20
1079.055
 30
0.0
 11
256.021117265062
 21
1079.34317280503
 31
0.0
  0
LINE
  5
816
330
1D
100
AcDbEntity
  8
0
100
AcDbLine
 10
254.48115
 20
1079.562
 30
0.0
 11
255.07815
 21
1079.144
 31
0.0
  0
LINE
  5
817
330
1D
100
AcDbEntity
  8
0
100
AcDbLine
 10
254.48115
 20
1079.562
 30
0.0
 11
254.957741355658
 21
1080.24302287003
 31
0.0
  0
LINE
  5
818
330
1D
100
AcDbEntity
  8
0
100
AcDbLine
 10
255.80715
 20
1079.493
 30
0.0
 11
256.23415
 21
1079.194
 31
0.0
  0
LINE
  5
819
330
1D
100
AcDbEntity
  8
0
100
AcDbLine
 10
255.80715
 20
1079.493
 30
0.0
 11
256.453461409023
 21
1080.41654350426
 31
0.0
  0
LINE
  5
81A
330
1D
100
AcDbEntity
  8
0
100
AcDbLine
 10
255.84215
 20
1079.469
 30
0.0
 11
256.29615
 21
1079.151
 31
0.0
  0
LINE
  5
81B
330
1D
100
AcDbEntity
  8
0
100
AcDbLine
 10
255.84215
 20
1079.469
 30
0.0
 11
256.488489209185
 21
1080.39201972506
 31
0.0
  0
LINE
  5
81C
330
1D
100
AcDbEntity
  8
0
100
AcDbLine
 10
254.39315
 20
1079.323
 30
0.0
 11
254.44728698634
 21
1079.28508675796
 31
0.0
  0
LINE
  5
81D
330
1D
100
AcDbEntity
  8
0
100
AcDbLine
 10
254.39315
 20
1079.323
 30
0.0
 11
254.44728698634
 21
1079.28508675796
 31
0.0
  0
LINE
  5
81E
330
1D
100
AcDbEntity
  8
0
100
AcDbLine
 10
254.883674064066
 20
1078.9794759359
 30
0.0
 11
255.01715
 21
1078.886
 31
0.0
  0
LINE
  5
81F
330
1D
100
AcDbEntity
  8
0
100
AcDbLine
 10
256.91915
 20
1078.714
 30
0.0
 11
257.34615
 21
1078.415
 31
0.0
  0
LINE
  5
820
330
1D
100
AcDbEntity
  8
0
100
AcDbLine
 10
256.91915
 20
1078.714
 30
0.0
 11
257.56567882117
 21
1079.63785417428
 31
0.0
  0
LINE
  5
821
330
1D
100
AcDbEntity
  8
0
100
AcDbLine
 10
256.23515
 20
1078.764
 30
0.0
 11
256.85915
 21
1078.327
 31
0.0
  0
LINE
  5
822
330
1D
100
AcDbEntity
  8
0
100
AcDbLine
 10
256.23515
 20
1078.764
 30
0.0
 11
256.436897071814
 21
1079.0521095934
 31
0.0
  0
LINE
  5
823
330
1D
100
AcDbEntity
  8
0
100
AcDbLine
 10
256.23415
 20
1079.194
 30
0.0
 11
256.539149999943
 21
1078.9805489567
 31
0.0
  0
LINE
  5
824
330
1D
100
AcDbEntity
  8
0
100
AcDbLine
 10
256.29615
 20
1079.151
 30
0.0
 11
256.91915
 21
1078.714
 31
0.0
  0
LINE
  5
825
330
1D
100
AcDbEntity
  8
0
100
AcDbLine
 10
256.29615
 20
1079.151
 30
0.0
 11
256.94293493792
 21
1080.07385167972
 31
0.0
  0
LINE
  5
826
330
1D
100
AcDbEntity
  8
0
100
AcDbLine
 10
256.30415
 20
1078.715
 30
0.0
 11
256.727149999993
 21
1078.4194423077
 31
0.0
  0
LINE
  5
827
330
1D
100
AcDbEntity
  8
0
100
AcDbLine
 10
256.0170268563
 20
1078.91629493515
 30
0.0
 11
256.30415
 21
1078.715
 31
0.0
  0
LINE
  5
828
330
1D
100
AcDbEntity
  8
0
100
AcDbLine
 10
256.58115
 20
1078.521
 30
0.0
 11
256.834199311432
 21
1078.34389953978
 31
0.0
  0
LINE
  5
829
330
1D
100
AcDbEntity
  8
0
100
AcDbLine
 10
256.58115
 20
1078.521
 30
0.0
 11
257.32415
 21
1078.001
 31
0.0
  0
LINE
  5
82A
330
1D
100
AcDbEntity
  8
0
100
AcDbLine
 10
252.384578571322
 20
1081.46000000007
 30
0.0
 11
252.795150000043
 21
1081.17259999997
 31
0.0
  0
LINE
  5
82B
330
1D
100
AcDbEntity
  8
0
100
AcDbLine
 10
253.25046557375
 20
1080.85320491805
 30
0.0
 11
253.42315
 21
1080.732
 31
0.0
  0
LINE
  5
82C
330
1D
100
AcDbEntity
  8
0
100
AcDbLine
 10
252.89315
 20
1081.104
 30
0.0
 11
253.42315
 21
1080.732
 31
0.0
  0
LINE
  5
82D
330
1D
100
AcDbEntity
  8
0
100
AcDbLine
 10
252.89315
 20
1081.104
 30
0.0
 11
253.530698700144
 21
1082.01446623438
 31
0.0
  0
LINE
  5
82E
330
1D
100
AcDbEntity
  8
0
100
AcDbLine
 10
252.795150000043
 20
1081.17259999997
 30
0.0
 11
253.22215
 21
1080.873
 31
0.0
  0
LINE
  5
82F
330
1D
100
AcDbEntity
  8
0
100
AcDbLine
 10
252.795150000043
 20
1081.17259999997
 30
0.0
 11
253.22215
 21
1080.873
 31
0.0
  0
LINE
  5
830
330
1D
100
AcDbEntity
  8
0
100
AcDbLine
 10
252.28315
 20
1081.531
 30
0.0
 11
252.89315
 21
1081.104
 31
0.0
  0
LINE
  5
831
330
1D
100
AcDbEntity
  8
0
100
AcDbLine
 10
252.28315
 20
1081.531
 30
0.0
 11
252.972582894278
 21
1082.51616173821
 31
0.0
  0
LINE
  5
832
330
1D
100
AcDbEntity
  8
0
100
AcDbLine
 10
252.31315
 20
1081.94
 30
0.0
 11
252.95936475724
 21
1082.86284199857
 31
0.0
  0
LINE
  5
833
330
1D
100
AcDbEntity
  8
0
100
AcDbLine
 10
252.23915
 20
1081.992
 30
0.0
 11
252.31315
 21
1081.94
 31
0.0
  0
LINE
  5
834
330
1D
100
AcDbEntity
  8
0
100
AcDbLine
 10
252.23915
 20
1081.992
 30
0.0
 11
252.885275068407
 21
1082.91471391635
 31
0.0
  0
LINE
  5
835
330
1D
100
AcDbEntity
  8
0
100
AcDbLine
 10
252.08115
 20
1081.672
 30
0.0
 11
252.384578571322
 21
1081.46000000007
 31
0.0
  0
LINE
  5
836
330
1D
100
AcDbEntity
  8
0
100
AcDbLine
 10
252.08115
 20
1081.672
 30
0.0
 11
252.384578571322
 21
1081.46000000007
 31
0.0
  0
LINE
  5
837
330
1D
100
AcDbEntity
  8
0
100
AcDbLine
 10
251.95415
 20
1081.761
 30
0.0
 11
252.08115
 21
1081.672
 31
0.0
  0
LINE
  5
838
330
1D
100
AcDbEntity
  8
0
100
AcDbLine
 10
251.95415
 20
1081.761
 30
0.0
 11
252.28315
 21
1081.531
 31
0.0
  0
LINE
  5
839
330
1D
100
AcDbEntity
  8
0
100
AcDbLine
 10
251.95415
 20
1081.761
 30
0.0
 11
252.156111099487
 21
1082.04959131827
 31
0.0
  0
LINE
  5
83A
330
1D
100
AcDbEntity
  8
0
100
AcDbLine
 10
252.384578571322
 20
1081.46000000007
 30
0.0
 11
252.795150000043
 21
1081.17259999997
 31
0.0
  0
LINE
  5
83B
330
1D
100
AcDbEntity
  8
0
100
AcDbLine
 10
253.25046557375
 20
1080.85320491805
 30
0.0
 11
253.42315
 21
1080.732
 31
0.0
  0
LINE
  5
83C
330
1D
100
AcDbEntity
  8
0
100
AcDbLine
 10
253.66904858202
 20
1080.81136780937
 30
0.0
 11
254.499925170016
 21
1080.18736225253
 31
0.0
  0
LINE
  5
83D
330
1D
100
AcDbEntity
  8
0
100
AcDbLine
 10
251.951810331071
 20
1082.10104936556
 30
0.0
 11
252.109332352941
 21
1081.98274705882
 31
0.0
  0
LINE
  5
83E
330
1D
100
AcDbEntity
  8
0
100
AcDbLine
 10
258.459512039915
 20
1077.21363035866
 30
0.0
 11
259.09815
 21
1076.734
 31
0.0
  0
LINE
  5
83F
330
1D
100
AcDbEntity
  8
0
100
AcDbLine
 10
260.88015
 20
1074.509
 30
0.0
 11
261.237587288021
 21
1074.25906779669
 31
0.0
  0
LINE
  5
840
330
1D
100
AcDbEntity
  8
0
100
AcDbLine
 10
260.934149999965
 20
1074.47124137933
 30
0.0
 11
261.14415
 21
1074.324
 31
0.0
  0
LINE
  5
841
330
1D
100
AcDbEntity
  8
0
100
AcDbLine
 10
261.68615
 20
1073.945
 30
0.0
 11
262.20815
 21
1073.579
 31
0.0
  0
LINE
  5
842
330
1D
100
AcDbEntity
  8
0
100
AcDbLine
 10
261.68615
 20
1073.945
 30
0.0
 11
262.144733842025
 21
1074.59989131058
 31
0.0
  0
LINE
  5
843
330
1D
100
AcDbEntity
  8
0
100
AcDbLine
 10
261.76215
 20
1074.163
 30
0.0
 11
262.202803085946
 21
1074.79228487775
 31
0.0
  0
LINE
  5
844
330
1D
100
AcDbEntity
  8
0
100
AcDbLine
 10
261.78215
 20
1074.149
 30
0.0
 11
262.22191263924
 21
1074.77739665712
 31
0.0
  0
LINE
  5
845
330
1D
100
AcDbEntity
  8
0
100
AcDbLine
 10
261.75115
 20
1073.899
 30
0.0
 11
261.934541304345
 21
1073.77084057971
 31
0.0
  0
LINE
  5
846
330
1D
100
AcDbEntity
  8
0
100
AcDbLine
 10
261.75115
 20
1073.899
 30
0.0
 11
261.934541304345
 21
1073.77084057971
 31
0.0
  0
LINE
  5
847
330
1D
100
AcDbEntity
  8
0
100
AcDbLine
 10
261.29715
 20
1074.489
 30
0.0
 11
261.76215
 21
1074.163
 31
0.0
  0
LINE
  5
848
330
1D
100
AcDbEntity
  8
0
100
AcDbLine
 10
261.29715
 20
1074.489
 30
0.0
 11
261.754240735848
 21
1075.14175904561
 31
0.0
  0
LINE
  5
849
330
1D
100
AcDbEntity
  8
0
100
AcDbLine
 10
261.07915
 20
1074.37
 30
0.0
 11
261.68615
 21
1073.945
 31
0.0
  0
LINE
  5
84A
330
1D
100
AcDbEntity
  8
0
100
AcDbLine
 10
261.07915
 20
1074.37
 30
0.0
 11
261.206722709045
 21
1074.55218317124
 31
0.0
  0
LINE
  5
84B
330
1D
100
AcDbEntity
  8
0
100
AcDbLine
 10
261.14415
 20
1074.324
 30
0.0
 11
261.75115
 21
1073.899
 31
0.0
  0
LINE
  5
84C
330
1D
100
AcDbEntity
  8
0
100
AcDbLine
 10
260.934149999965
 20
1074.47124137934
 30
0.0
 11
261.14415
 21
1074.324
 31
0.0
  0
LINE
  5
84D
330
1D
100
AcDbEntity
  8
0
100
AcDbLine
 10
260.27715
 20
1075.203
 30
0.0
 11
260.525782652992
 21
1075.02868979597
 31
0.0
  0
LINE
  5
84E
330
1D
100
AcDbEntity
  8
0
100
AcDbLine
 10
260.25815
 20
1075.217
 30
0.0
 11
260.67315
 21
1074.925
 31
0.0
  0
LINE
  5
84F
330
1D
100
AcDbEntity
  8
0
100
AcDbLine
 10
260.25815
 20
1075.217
 30
0.0
 11
260.399076651655
 21
1075.41825357926
 31
0.0
  0
LINE
  5
850
330
1D
100
AcDbEntity
  8
0
100
AcDbLine
 10
259.93015
 20
1075.747
 30
0.0
 11
260.38515
 21
1075.428
 31
0.0
  0
LINE
  5
851
330
1D
100
AcDbEntity
  8
0
100
AcDbLine
 10
259.93015
 20
1075.747
 30
0.0
 11
260.132021259653
 21
1076.03528694273
 31
0.0
  0
LINE
  5
852
330
1D
100
AcDbEntity
  8
0
100
AcDbLine
 10
259.94515
 20
1076.166
 30
0.0
 11
260.03415
 21
1076.104
 31
0.0
  0
LINE
  5
853
330
1D
100
AcDbEntity
  8
0
100
AcDbLine
 10
259.94515
 20
1076.166
 30
0.0
 11
260.133364876066
 21
1076.03434710742
 31
0.0
  0
LINE
  5
854
330
1D
100
AcDbEntity
  8
0
100
AcDbLine
 10
259.94515
 20
1076.166
 30
0.0
 11
260.564246574868
 21
1077.05011524815
 31
0.0
  0
LINE
  5
855
330
1D
100
AcDbEntity
  8
0
100
AcDbLine
 10
260.03415
 20
1076.104
 30
0.0
 11
260.52415
 21
1075.76
 31
0.0
  0
LINE
  5
856
330
1D
100
AcDbEntity
  8
0
100
AcDbLine
 10
260.03415
 20
1076.104
 30
0.0
 11
260.63862488222
 21
1076.96723440024
 31
0.0
  0
LINE
  5
857
330
1D
100
AcDbEntity
  8
0
100
AcDbLine
 10
259.89615
 20
1075.771
 30
0.0
 11
260.085916593584
 21
1076.0420005931
 31
0.0
  0
LINE
  5
858
330
1D
100
AcDbEntity
  8
0
100
AcDbLine
 10
259.89615
 20
1075.771
 30
0.0
 11
260.097918974837
 21
1076.05914087252
 31
0.0
  0
LINE
  5
859
330
1D
100
AcDbEntity
  8
0
100
AcDbLine
 10
260.38515
 20
1075.428
 30
0.0
 11
261.00815
 21
1074.992
 31
0.0
  0
LINE
  5
85A
330
1D
100
AcDbEntity
  8
0
100
AcDbLine
 10
260.38515
 20
1075.428
 30
0.0
 11
260.586910411941
 21
1075.71612864408
 31
0.0
  0
LINE
  5
85B
330
1D
100
AcDbEntity
  8
0
100
AcDbLine
 10
260.73715
 20
1074.609
 30
0.0
 11
261.07915
 21
1074.37
 31
0.0
  0
LINE
  5
85C
330
1D
100
AcDbEntity
  8
0
100
AcDbLine
 10
260.73715
 20
1074.609
 30
0.0
 11
260.88015
 21
1074.509
 31
0.0
  0
LINE
  5
85D
330
1D
100
AcDbEntity
  8
0
100
AcDbLine
 10
260.73715
 20
1074.609
 30
0.0
 11
260.864704624741
 21
1074.79115734553
 31
0.0
  0
LINE
  5
85E
330
1D
100
AcDbEntity
  8
0
100
AcDbLine
 10
262.76215
 20
1074.623
 30
0.0
 11
263.408937603916
 21
1075.54666006558
 31
0.0
  0
LINE
  5
85F
330
1D
100
AcDbEntity
  8
0
100
AcDbLine
 10
260.67315
 20
1074.925
 30
0.0
 11
261.29715
 21
1074.489
 31
0.0
  0
LINE
  5
860
330
1D
100
AcDbEntity
  8
0
100
AcDbLine
 10
260.67315
 20
1074.925
 30
0.0
 11
260.814837700978
 21
1075.12728758005
 31
0.0
  0
LINE
  5
861
330
1D
100
AcDbEntity
  8
0
100
AcDbLine
 10
260.52415
 20
1075.76
 30
0.0
 11
261.14215
 21
1075.328
 31
0.0
  0
LINE
  5
862
330
1D
100
AcDbEntity
  8
0
100
AcDbLine
 10
260.52415
 20
1075.76
 30
0.0
 11
261.048986440644
 21
1076.50996244657
 31
0.0
  0
LINE
  5
863
330
1D
100
AcDbEntity
  8
0
100
AcDbLine
 10
260.94515
 20
1075.036
 30
0.0
 11
261.40015
 21
1074.717
 31
0.0
  0
LINE
  5
864
330
1D
100
AcDbEntity
  8
0
100
AcDbLine
 10
261.43515
 20
1074.693
 30
0.0
 11
261.838928651233
 21
1075.2696254845
 31
0.0
  0
LINE
  5
865
330
1D
100
AcDbEntity
  8
0
100
AcDbLine
 10
261.00815
 20
1074.992
 30
0.0
 11
261.43515
 21
1074.693
 31
0.0
  0
LINE
  5
866
330
1D
100
AcDbEntity
  8
0
100
AcDbLine
 10
261.00815
 20
1074.992
 30
0.0
 11
261.210075280755
 21
1075.28036408882
 31
0.0
  0
LINE
  5
867
330
1D
100
AcDbEntity
  8
0
100
AcDbLine
 10
260.86526009165
 20
1075.09200000007
 30
0.0
 11
260.94515
 21
1075.036
 31
0.0
  0
LINE
  5
868
330
1D
100
AcDbEntity
  8
0
100
AcDbLine
 10
261.52715
 20
1075.058
 30
0.0
 11
261.729301940265
 21
1075.34643630501
 31
0.0
  0
LINE
  5
869
330
1D
100
AcDbEntity
  8
0
100
AcDbLine
 10
262.09815
 20
1075.088
 30
0.0
 11
262.317574778661
 21
1074.93457079653
 31
0.0
  0
LINE
  5
86A
330
1D
100
AcDbEntity
  8
0
100
AcDbLine
 10
261.14215
 20
1075.328
 30
0.0
 11
261.52715
 21
1075.058
 31
0.0
  0
LINE
  5
86B
330
1D
100
AcDbEntity
  8
0
100
AcDbLine
 10
261.14215
 20
1075.328
 30
0.0
 11
261.343900773932
 21
1075.6161148803
 31
0.0
  0
LINE
  5
86C
330
1D
100
AcDbEntity
  8
0
100
AcDbLine
 10
261.14915
 20
1075.753
 30
0.0
 11
261.29115
 21
1075.653
 31
0.0
  0
LINE
  5
86D
330
1D
100
AcDbEntity
  8
0
100
AcDbLine
 10
261.14915
 20
1075.753
 30
0.0
 11
261.795644423802
 21
1076.6762413829
 31
0.0
  0
LINE
  5
86E
330
1D
100
AcDbEntity
  8
0
100
AcDbLine
 10
261.593725221251
 20
1075.44142920353
 30
0.0
 11
262.09815
 21
1075.088
 31
0.0
  0
LINE
  5
86F
330
1D
100
AcDbEntity
  8
0
100
AcDbLine
 10
261.593725221251
 20
1075.44142920353
 30
0.0
 11
262.09815
 21
1075.088
 31
0.0
  0
LINE
  5
870
330
1D
100
AcDbEntity
  8
0
100
AcDbLine
 10
261.29115
 20
1075.653
 30
0.0
 11
261.81315
 21
1075.288
 31
0.0
  0
LINE
  5
871
330
1D
100
AcDbEntity
  8
0
100
AcDbLine
 10
261.29115
 20
1075.653
 30
0.0
 11
261.93791492789
 21
1076.57662768255
 31
0.0
  0
LINE
  5
872
330
1D
100
AcDbEntity
  8
0
100
AcDbLine
 10
261.81315
 20
1075.288
 30
0.0
 11
262.42115
 21
1074.862
 31
0.0
  0
LINE
  5
873
330
1D
100
AcDbEntity
  8
0
100
AcDbLine
 10
261.81315
 20
1075.288
 30
0.0
 11
262.459685004776
 21
1076.2112993355
 31
0.0
  0
LINE
  5
874
330
1D
100
AcDbEntity
  8
0
100
AcDbLine
 10
262.42115
 20
1074.862
 30
0.0
 11
262.76215
 21
1074.623
 31
0.0
  0
LINE
  5
875
330
1D
100
AcDbEntity
  8
0
100
AcDbLine
 10
262.42115
 20
1074.862
 30
0.0
 11
263.067559260109
 21
1075.78568332809
 31
0.0
  0
LINE
  5
876
330
1D
100
AcDbEntity
  8
0
100
AcDbLine
 10
263.40015
 20
1087.76
 30
0.0
 11
273.88515
 21
1080.418
 31
0.0
  0
LINE
  5
877
330
1D
100
AcDbEntity
  8
0
100
AcDbLine
 10
260.62215
 20
1074.69
 30
0.0
 11
260.737322746655
 21
1074.60924669487
 31
0.0
  0
LINE
  5
878
330
1D
100
AcDbEntity
  8
0
100
AcDbLine
 10
260.62215
 20
1074.69
 30
0.0
 11
260.749400205623
 21
1074.87172261274
 31
0.0
  0
LINE
  5
879
330
1D
100
AcDbEntity
  8
0
100
AcDbLine
 10
260.48015
 20
1074.789
 30
0.0
 11
260.82115
 21
1074.55
 31
0.0
  0
LINE
  5
87A
330
1D
100
AcDbEntity
  8
0
100
AcDbLine
 10
260.48015
 20
1074.789
 30
0.0
 11
260.62215
 21
1074.69
 31
0.0
  0
LINE
  5
87B
330
1D
100
AcDbEntity
  8
0
100
AcDbLine
 10
260.48015
 20
1074.789
 30
0.0
 11
260.607601349559
 21
1074.97112097814
 31
0.0
  0
LINE
  5
87C
330
1D
100
AcDbEntity
  8
0
100
AcDbLine
 10
260.82115
 20
1074.55
 30
0.0
 11
261.041751769901
 21
1074.39579646018
 31
0.0
  0
LINE
  5
87D
330
1D
100
AcDbEntity
  8
0
100
AcDbLine
 10
259.09815
 20
1076.734
 30
0.0
 11
259.42515
 21
1076.504
 31
0.0
  0
LINE
  5
87E
330
1D
100
AcDbEntity
  8
0
100
AcDbLine
 10
263.19315
 20
1073.866
 30
0.0
 11
263.413832665052
 21
1073.7114323348
 31
0.0
  0
LINE
  5
87F
330
1D
100
AcDbEntity
  8
0
100
AcDbLine
 10
263.19315
 20
1073.866
 30
0.0
 11
265.15915
 21
1072.489
 31
0.0
  0
LINE
  5
880
330
1D
100
AcDbEntity
  8
0
100
AcDbLine
 10
272.305267370733
 20
1066.50900000011
 30
0.0
 11
272.51615
 21
1066.361
 31
0.0
  0
LINE
  5
881
330
1D
100
AcDbEntity
  8
0
100
AcDbLine
 10
272.58215
 20
1066.315
 30
0.0
 11
272.92315
 21
1066.076
 31
0.0
  0
LINE
  5
882
330
1D
100
AcDbEntity
  8
0
100
AcDbLine
 10
272.58215
 20
1066.315
 30
0.0
 11
272.709697137584
 21
1066.49725785397
 31
0.0
  0
LINE
  5
883
330
1D
100
AcDbEntity
  8
0
100
AcDbLine
 10
272.51615
 20
1066.361
 30
0.0
 11
272.602661278283
 21
1066.30062406009
 31
0.0
  0
LINE
  5
884
330
1D
100
AcDbEntity
  8
0
100
AcDbLine
 10
270.42515
 20
1067.826
 30
0.0
 11
270.70615
 21
1067.629
 31
0.0
  0
LINE
  5
885
330
1D
100
AcDbEntity
  8
0
100
AcDbLine
 10
270.42515
 20
1067.826
 30
0.0
 11
270.936274469089
 21
1068.55592317382
 31
0.0
  0
LINE
  5
886
330
1D
100
AcDbEntity
  8
0
100
AcDbLine
 10
270.186860659824
 20
1067.99256345183
 30
0.0
 11
270.52615
 21
1067.755
 31
0.0
  0
LINE
  5
887
330
1D
100
AcDbEntity
  8
0
100
AcDbLine
 10
270.186860659824
 20
1067.99256345183
 30
0.0
 11
270.52615
 21
1067.755
 31
0.0
  0
LINE
  5
888
330
1D
100
AcDbEntity
  8
0
100
AcDbLine
 10
271.72915
 20
1067.184
 30
0.0
 11
271.935076910248
 21
1067.03995016615
 31
0.0
  0
LINE
  5
889
330
1D
100
AcDbEntity
  8
0
100
AcDbLine
 10
271.72915
 20
1067.184
 30
0.0
 11
272.154705575086
 21
1067.79209554278
 31
0.0
  0
LINE
  5
88A
330
1D
100
AcDbEntity
  8
0
100
AcDbLine
 10
271.74815
 20
1067.171
 30
0.0
 11
272.21315
 21
1066.845
 31
0.0
  0
LINE
  5
88B
330
1D
100
AcDbEntity
  8
0
100
AcDbLine
 10
271.74815
 20
1067.171
 30
0.0
 11
272.174674254315
 21
1067.77957728969
 31
0.0
  0
LINE
  5
88C
330
1D
100
AcDbEntity
  8
0
100
AcDbLine
 10
271.45215
 20
1067.106
 30
0.0
 11
271.97415
 21
1066.741
 31
0.0
  0
LINE
  5
88D
330
1D
100
AcDbEntity
  8
0
100
AcDbLine
 10
271.45215
 20
1067.106
 30
0.0
 11
271.91137819946
 21
1067.76164026038
 31
0.0
  0
LINE
  5
88E
330
1D
100
AcDbEntity
  8
0
100
AcDbLine
 10
270.70615
 20
1067.629
 30
0.0
 11
271.164963908166
 21
1068.28421986188
 31
0.0
  0
LINE
  5
88F
330
1D
100
AcDbEntity
  8
0
100
AcDbLine
 10
271.31015
 20
1067.206
 30
0.0
 11
271.45215
 21
1067.106
 31
0.0
  0
LINE
  5
890
330
1D
100
AcDbEntity
  8
0
100
AcDbLine
 10
271.31015
 20
1067.206
 30
0.0
 11
271.76901578721
 21
1067.86129394895
 31
0.0
  0
LINE
  5
891
330
1D
100
AcDbEntity
  8
0
100
AcDbLine
 10
270.52615
 20
1067.755
 30
0.0
 11
270.70615
 21
1067.629
 31
0.0
  0
LINE
  5
892
330
1D
100
AcDbEntity
  8
0
100
AcDbLine
 10
271.920149999927
 20
1066.77875862074
 30
0.0
 11
272.23215
 21
1066.56
 31
0.0
  0
LINE
  5
893
330
1D
100
AcDbEntity
  8
0
100
AcDbLine
 10
272.21315
 20
1066.845
 30
0.0
 11
272.83715
 21
1066.408
 31
0.0
  0
LINE
  5
894
330
1D
100
AcDbEntity
  8
0
100
AcDbLine
 10
272.21315
 20
1066.845
 30
0.0
 11
272.656470139245
 21
1067.4775421499
 31
0.0
  0
LINE
  5
895
330
1D
100
AcDbEntity
  8
0
100
AcDbLine
 10
272.38615
 20
1067.884
 30
0.0
 11
272.90815
 21
1067.519
 31
0.0
  0
LINE
  5
896
330
1D
100
AcDbEntity
  8
0
100
AcDbLine
 10
272.24415
 20
1067.984
 30
0.0
 11
272.58515
 21
1067.745
 31
0.0
  0
LINE
  5
897
330
1D
100
AcDbEntity
  8
0
100
AcDbLine
 10
272.24415
 20
1067.984
 30
0.0
 11
272.38615
 21
1067.884
 31
0.0
  0
LINE
  5
898
330
1D
100
AcDbEntity
  8
0
100
AcDbLine
 10
272.24415
 20
1067.984
 30
0.0
 11
272.89074897962
 21
1068.90739069627
 31
0.0
  0
LINE
  5
899
330
1D
100
AcDbEntity
  8
0
100
AcDbLine
 10
271.97415
 20
1066.741
 30
0.0
 11
272.58215
 21
1066.315
 31
0.0
  0
LINE
  5
89A
330
1D
100
AcDbEntity
  8
0
100
AcDbLine
 10
271.97415
 20
1066.741
 30
0.0
 11
272.101767092079
 21
1066.92308780211
 31
0.0
  0
LINE
  5
89B
330
1D
100
AcDbEntity
  8
0
100
AcDbLine
 10
271.920149999927
 20
1066.77875862074
 30
0.0
 11
272.23215
 21
1066.56
 31
0.0
  0
LINE
  5
89C
330
1D
100
AcDbEntity
  8
0
100
AcDbLine
 10
272.23215
 20
1066.56
 30
0.0
 11
272.42314999987
 21
1066.42626853386
 31
0.0
  0
LINE
  5
89D
330
1D
100
AcDbEntity
  8
0
100
AcDbLine
 10
272.92315
 20
1066.076
 30
0.0
 11
273.050941859765
 21
1066.25844848271
 31
0.0
  0
LINE
  5
89E
330
1D
100
AcDbEntity
  8
0
100
AcDbLine
 10
273.81315
 20
1066.026
 30
0.0
 11
274.26815
 21
1065.707
 31
0.0
  0
LINE
  5
89F
330
1D
100
AcDbEntity
  8
0
100
AcDbLine
 10
273.81315
 20
1066.026
 30
0.0
 11
274.015078004304
 21
1066.31411678663
 31
0.0
  0
LINE
  5
8A0
330
1D
100
AcDbEntity
  8
0
100
AcDbLine
 10
273.18115
 20
1065.896
 30
0.0
 11
273.450098321875
 21
1066.28007789994
 31
0.0
  0
LINE
  5
8A1
330
1D
100
AcDbEntity
  8
0
100
AcDbLine
 10
273.03915
 20
1065.996
 30
0.0
 11
273.18115
 21
1065.896
 31
0.0
  0
LINE
  5
8A2
330
1D
100
AcDbEntity
  8
0
100
AcDbLine
 10
273.03915
 20
1065.996
 30
0.0
 11
273.166381657284
 21
1066.17769612435
 31
0.0
  0
LINE
  5
8A3
330
1D
100
AcDbEntity
  8
0
100
AcDbLine
 10
272.79815
 20
1066.736
 30
0.0
 11
273.167068918912
 21
1066.47816216217
 31
0.0
  0
LINE
  5
8A4
330
1D
100
AcDbEntity
  8
0
100
AcDbLine
 10
272.76315
 20
1066.761
 30
0.0
 11
273.19015
 21
1066.462
 31
0.0
  0
LINE
  5
8A5
330
1D
100
AcDbEntity
  8
0
100
AcDbLine
 10
272.76315
 20
1066.761
 30
0.0
 11
273.16719257646
 21
1067.33749977373
 31
0.0
  0
LINE
  5
8A6
330
1D
100
AcDbEntity
  8
0
100
AcDbLine
 10
272.83715
 20
1066.408
 30
0.0
 11
273.25315
 21
1066.117
 31
0.0
  0
LINE
  5
8A7
330
1D
100
AcDbEntity
  8
0
100
AcDbLine
 10
272.83715
 20
1066.408
 30
0.0
 11
272.978486747439
 21
1066.60996244904
 31
0.0
  0
LINE
  5
8A8
330
1D
100
AcDbEntity
  8
0
100
AcDbLine
 10
272.90815
 20
1067.519
 30
0.0
 11
273.51615
 21
1067.093
 31
0.0
  0
LINE
  5
8A9
330
1D
100
AcDbEntity
  8
0
100
AcDbLine
 10
272.58515
 20
1067.745
 30
0.0
 11
273.19315
 21
1067.32
 31
0.0
  0
LINE
  5
8AA
330
1D
100
AcDbEntity
  8
0
100
AcDbLine
 10
272.58515
 20
1067.745
 30
0.0
 11
273.23222792116
 21
1068.66826971678
 31
0.0
  0
LINE
  5
8AB
330
1D
100
AcDbEntity
  8
0
100
AcDbLine
 10
273.07515
 20
1066.972
 30
0.0
 11
273.46115
 21
1066.702
 31
0.0
  0
LINE
  5
8AC
330
1D
100
AcDbEntity
  8
0
100
AcDbLine
 10
273.07515
 20
1066.972
 30
0.0
 11
273.27706093733
 21
1067.26051963931
 31
0.0
  0
LINE
  5
8AD
330
1D
100
AcDbEntity
  8
0
100
AcDbLine
 10
273.19015
 20
1066.462
 30
0.0
 11
273.81315
 21
1066.026
 31
0.0
  0
LINE
  5
8AE
330
1D
100
AcDbEntity
  8
0
100
AcDbLine
 10
273.19015
 20
1066.462
 30
0.0
 11
273.392171039494
 21
1066.75024953196
 31
0.0
  0
LINE
  5
8AF
330
1D
100
AcDbEntity
  8
0
100
AcDbLine
 10
273.46115
 20
1066.702
 30
0.0
 11
274.07815
 21
1066.27
 31
0.0
  0
LINE
  5
8B0
330
1D
100
AcDbEntity
  8
0
100
AcDbLine
 10
273.46115
 20
1066.702
 30
0.0
 11
273.66283249479
 21
1066.99019320746
 31
0.0
  0
LINE
  5
8B1
330
1D
100
AcDbEntity
  8
0
100
AcDbLine
 10
273.25315
 20
1066.117
 30
0.0
 11
273.394560927904
 21
1066.31894516121
 31
0.0
  0
LINE
  5
8B2
330
1D
100
AcDbEntity
  8
0
100
AcDbLine
 10
273.51615
 20
1067.093
 30
0.0
 11
273.85715
 21
1066.854
 31
0.0
  0
LINE
  5
8B3
330
1D
100
AcDbEntity
  8
0
100
AcDbLine
 10
273.924733783751
 20
1066.37741621624
 30
0.0
 11
274.27215
 21
1066.134
 31
0.0
  0
LINE
  5
8B4
330
1D
100
AcDbEntity
  8
0
100
AcDbLine
 10
274.07815
 20
1066.27
 30
0.0
 11
274.56815
 21
1065.927
 31
0.0
  0
LINE
  5
8B5
330
1D
100
AcDbEntity
  8
0
100
AcDbLine
 10
274.07815
 20
1066.27
 30
0.0
 11
274.603008312107
 21
1067.01953610744
 31
0.0
  0
LINE
  5
8B6
330
1D
100
AcDbEntity
  8
0
100
AcDbLine
 10
273.85715
 20
1066.854
 30
0.0
 11
274.5037167435
 21
1067.77790836321
 31
0.0
  0
LINE
  5
8B7
330
1D
100
AcDbEntity
  8
0
100
AcDbLine
 10
273.71515
 20
1066.954
 30
0.0
 11
273.85715
 21
1066.854
 31
0.0
  0
LINE
  5
8B8
330
1D
100
AcDbEntity
  8
0
100
AcDbLine
 10
273.71515
 20
1066.954
 30
0.0
 11
274.361716437299
 21
1067.87734422345
 31
0.0
  0
LINE
  5
8B9
330
1D
100
AcDbEntity
  8
0
100
AcDbLine
 10
273.19315
 20
1067.32
 30
0.0
 11
273.71515
 21
1066.954
 31
0.0
  0
LINE
  5
8BA
330
1D
100
AcDbEntity
  8
0
100
AcDbLine
 10
273.19315
 20
1067.32
 30
0.0
 11
273.839496093081
 21
1068.24302955577
 31
0.0
  0
LINE
  5
8BB
330
1D
100
AcDbEntity
  8
0
100
AcDbLine
 10
272.923599766772
 20
1066.07664213218
 30
0.0
 11
273.03915
 21
1065.996
 31
0.0
  0
LINE
  5
8BC
330
1D
100
AcDbEntity
  8
0
100
AcDbLine
 10
272.923290249847
 20
1066.07620023476
 30
0.0
 11
273.18115
 21
1065.896
 31
0.0
  0
LINE
  5
8BD
330
1D
100
AcDbEntity
  8
0
100
AcDbLine
 10
272.583704166772
 20
1066.31385416659
 30
0.0
 11
272.662791891961
 21
1066.25847972968
 31
0.0
  0
LINE
  5
8BE
330
1D
100
AcDbEntity
  8
0
100
AcDbLine
 10
264.57015
 20
1071.925
 30
0.0
 11
265.029214997551
 21
1072.58000737455
 31
0.0
  0
LINE
  5
8BF
330
1D
100
AcDbEntity
  8
0
100
AcDbLine
 10
264.27415
 20
1073.135
 30
0.0
 11
264.46915
 21
1072.998
 31
0.0
  0
LINE
  5
8C0
330
1D
100
AcDbEntity
  8
0
100
AcDbLine
 10
264.27415
 20
1073.135
 30
0.0
 11
264.747398939158
 21
1073.81024543758
 31
0.0
  0
LINE
  5
8C1
330
1D
100
AcDbEntity
  8
0
100
AcDbLine
 10
264.46915
 20
1072.998
 30
0.0
 11
265.01915
 21
1072.613
 31
0.0
  0
LINE
  5
8C2
330
1D
100
AcDbEntity
  8
0
100
AcDbLine
 10
264.46915
 20
1072.998
 30
0.0
 11
264.929582200301
 21
1073.65553090156
 31
0.0
  0
LINE
  5
8C3
330
1D
100
AcDbEntity
  8
0
100
AcDbLine
 10
265.01915
 20
1072.613
 30
0.0
 11
265.61215
 21
1072.198
 31
0.0
  0
LINE
  5
8C4
330
1D
100
AcDbEntity
  8
0
100
AcDbLine
 10
265.01915
 20
1072.613
 30
0.0
 11
265.443542289133
 21
1073.21906326905
 31
0.0
  0
LINE
  5
8C5
330
1D
100
AcDbEntity
  8
0
100
AcDbLine
 10
264.39015
 20
1072.051
 30
0.0
 11
264.57015
 21
1071.925
 31
0.0
  0
LINE
  5
8C6
330
1D
100
AcDbEntity
  8
0
100
AcDbLine
 10
264.39015
 20
1072.051
 30
0.0
 11
264.859853904901
 21
1072.7221810812
 31
0.0
  0
LINE
  5
8C7
330
1D
100
AcDbEntity
  8
0
100
AcDbLine
 10
269.27115
 20
1068.634
 30
0.0
 11
269.82715
 21
1068.244
 31
0.0
  0
LINE
  5
8C8
330
1D
100
AcDbEntity
  8
0
100
AcDbLine
 10
269.27115
 20
1068.634
 30
0.0
 11
269.741123520062
 21
1069.30515660494
 31
0.0
  0
LINE
  5
8C9
330
1D
100
AcDbEntity
  8
0
100
AcDbLine
 10
269.44015
 20
1069.517
 30
0.0
 11
270.03315
 21
1069.102
 31
0.0
  0
LINE
  5
8CA
330
1D
100
AcDbEntity
  8
0
100
AcDbLine
 10
269.44015
 20
1069.517
 30
0.0
 11
270.033149999716
 21
1069.1020000002
 31
0.0
  0
LINE
  5
8CB
330
1D
100
AcDbEntity
  8
0
100
AcDbLine
 10
269.58315
 20
1069.417
 30
0.0
 11
270.13315
 21
1069.032
 31
0.0
  0
LINE
  5
8CC
330
1D
100
AcDbEntity
  8
0
100
AcDbLine
 10
269.58315
 20
1069.417
 30
0.0
 11
270.00748548345
 21
1070.02335209884
 31
0.0
  0
LINE
  5
8CD
330
1D
100
AcDbEntity
  8
0
100
AcDbLine
 10
269.09015
 20
1068.76
 30
0.0
 11
269.37115
 21
1068.563
 31
0.0
  0
LINE
  5
8CE
330
1D
100
AcDbEntity
  8
0
100
AcDbLine
 10
269.09015
 20
1068.76
 30
0.0
 11
269.27115
 21
1068.634
 31
0.0
  0
LINE
  5
8CF
330
1D
100
AcDbEntity
  8
0
100
AcDbLine
 10
269.09015
 20
1068.76
 30
0.0
 11
269.549178793594
 21
1069.41592693348
 31
0.0
  0
LINE
  5
8D0
330
1D
100
AcDbEntity
  8
0
100
AcDbLine
 10
269.37115
 20
1068.563
 30
0.0
 11
269.72170172418
 21
1068.31796551721
 31
0.0
  0
LINE
  5
8D1
330
1D
100
AcDbEntity
  8
0
100
AcDbLine
 10
270.32815
 20
1068.896
 30
0.0
 11
270.801090303495
 21
1069.57139338895
 31
0.0
  0
LINE
  5
8D2
330
1D
100
AcDbEntity
  8
0
100
AcDbLine
 10
270.13315
 20
1069.032
 30
0.0
 11
270.32815
 21
1068.896
 31
0.0
  0
LINE
  5
8D3
330
1D
100
AcDbEntity
  8
0
100
AcDbLine
 10
270.13315
 20
1069.032
 30
0.0
 11
270.593400623787
 21
1069.68967286172
 31
0.0
  0
LINE
  5
8D4
330
1D
100
AcDbEntity
  8
0
100
AcDbLine
 10
269.72170172418
 20
1068.31796551721
 30
0.0
 11
269.82715
 21
1068.244
 31
0.0
  0
LINE
  5
8D5
330
1D
100
AcDbEntity
  8
0
100
AcDbLine
 10
269.82715
 20
1068.244
 30
0.0
 11
270.186860659824
 21
1067.99256345183
 31
0.0
  0
LINE
  5
8D6
330
1D
100
AcDbEntity
  8
0
100
AcDbLine
 10
269.82715
 20
1068.244
 30
0.0
 11
270.42515
 21
1067.826
 31
0.0
  0
LINE
  5
8D7
330
1D
100
AcDbEntity
  8
0
100
AcDbLine
 10
269.82715
 20
1068.244
 30
0.0
 11
270.298567316807
 21
1068.9166320252
 31
0.0
  0
LINE
  5
8D8
330
1D
100
AcDbEntity
  8
0
100
AcDbLine
 10
269.72170172418
 20
1068.31796551721
 30
0.0
 11
269.82715
 21
1068.244
 31
0.0
  0
LINE
  5
8D9
330
1D
100
AcDbEntity
  8
0
100
AcDbLine
 10
267.64915
 20
1069.769
 30
0.0
 11
267.776914182641
 21
1069.95129767523
 31
0.0
  0
LINE
  5
8DA
330
1D
100
AcDbEntity
  8
0
100
AcDbLine
 10
267.53515
 20
1069.605
 30
0.0
 11
267.777303707552
 21
1069.95102434758
 31
0.0
  0
LINE
  5
8DB
330
1D
100
AcDbEntity
  8
0
100
AcDbLine
 10
266.25715
 20
1070.744
 30
0.0
 11
266.83015
 21
1070.343
 31
0.0
  0
LINE
  5
8DC
330
1D
100
AcDbEntity
  8
0
100
AcDbLine
 10
266.25715
 20
1070.744
 30
0.0
 11
266.384759640074
 21
1070.92634716659
 31
0.0
  0
LINE
  5
8DD
330
1D
100
AcDbEntity
  8
0
100
AcDbLine
 10
266.14215
 20
1070.58
 30
0.0
 11
266.71615
 21
1070.179
 31
0.0
  0
LINE
  5
8DE
330
1D
100
AcDbEntity
  8
0
100
AcDbLine
 10
266.14215
 20
1070.58
 30
0.0
 11
266.256995553043
 21
1070.7441079873
 31
0.0
  0
LINE
  5
8DF
330
1D
100
AcDbEntity
  8
0
100
AcDbLine
 10
266.01115
 20
1070.916
 30
0.0
 11
266.25715
 21
1070.744
 31
0.0
  0
LINE
  5
8E0
330
1D
100
AcDbEntity
  8
0
100
AcDbLine
 10
266.01115
 20
1070.916
 30
0.0
 11
266.469874845407
 21
1071.57149260821
 31
0.0
  0
LINE
  5
8E1
330
1D
100
AcDbEntity
  8
0
100
AcDbLine
 10
265.90615
 20
1071.992
 30
0.0
 11
266.272663860116
 21
1072.51495270285
 31
0.0
  0
LINE
  5
8E2
330
1D
100
AcDbEntity
  8
0
100
AcDbLine
 10
265.15915
 20
1072.489
 30
0.0
 11
266.470056261518
 21
1071.57136561694
 31
0.0
  0
LINE
  5
8E3
330
1D
100
AcDbEntity
  8
0
100
AcDbLine
 10
265.61215
 20
1072.198
 30
0.0
 11
265.90615
 21
1071.992
 31
0.0
  0
LINE
  5
8E4
330
1D
100
AcDbEntity
  8
0
100
AcDbLine
 10
265.61215
 20
1072.198
 30
0.0
 11
265.997640800495
 21
1072.74850909434
 31
0.0
  0
LINE
  5
8E5
330
1D
100
AcDbEntity
  8
0
100
AcDbLine
 10
266.28215
 20
1070.998
 30
0.0
 11
266.47715
 21
1070.862
 31
0.0
  0
LINE
  5
8E6
330
1D
100
AcDbEntity
  8
0
100
AcDbLine
 10
266.28215
 20
1070.998
 30
0.0
 11
266.577149999863
 21
1070.7920000001
 31
0.0
  0
LINE
  5
8E7
330
1D
100
AcDbEntity
  8
0
100
AcDbLine
 10
266.28215
 20
1070.998
 30
0.0
 11
266.423401396387
 21
1071.19984048708
 31
0.0
  0
LINE
  5
8E8
330
1D
100
AcDbEntity
  8
0
100
AcDbLine
 10
266.47715
 20
1070.862
 30
0.0
 11
267.02715
 21
1070.477
 31
0.0
  0
LINE
  5
8E9
330
1D
100
AcDbEntity
  8
0
100
AcDbLine
 10
266.47715
 20
1070.862
 30
0.0
 11
266.618271119383
 21
1071.06353129342
 31
0.0
  0
LINE
  5
8EA
330
1D
100
AcDbEntity
  8
0
100
AcDbLine
 10
266.577150000228
 20
1070.79199999984
 30
0.0
 11
267.16915
 21
1070.377
 31
0.0
  0
LINE
  5
8EB
330
1D
100
AcDbEntity
  8
0
100
AcDbLine
 10
266.577150000228
 20
1070.79199999984
 30
0.0
 11
267.16915
 21
1070.377
 31
0.0
  0
LINE
  5
8EC
330
1D
100
AcDbEntity
  8
0
100
AcDbLine
 10
266.52615
 20
1071.128
 30
0.0
 11
267.09915
 21
1070.727
 31
0.0
  0
LINE
  5
8ED
330
1D
100
AcDbEntity
  8
0
100
AcDbLine
 10
266.52615
 20
1071.128
 30
0.0
 11
266.930011939988
 21
1071.70509652976
 31
0.0
  0
LINE
  5
8EE
330
1D
100
AcDbEntity
  8
0
100
AcDbLine
 10
266.28015
 20
1071.3
 30
0.0
 11
266.52615
 21
1071.128
 31
0.0
  0
LINE
  5
8EF
330
1D
100
AcDbEntity
  8
0
100
AcDbLine
 10
266.28015
 20
1071.3
 30
0.0
 11
266.757071933402
 21
1071.98149524747
 31
0.0
  0
LINE
  5
8F0
330
1D
100
AcDbEntity
  8
0
100
AcDbLine
 10
266.68415
 20
1071.877
 30
0.0
 11
266.93015
 21
1071.705
 31
0.0
  0
LINE
  5
8F1
330
1D
100
AcDbEntity
  8
0
100
AcDbLine
 10
266.68415
 20
1071.877
 30
0.0
 11
267.330904152757
 21
1072.80061229487
 31
0.0
  0
LINE
  5
8F2
330
1D
100
AcDbEntity
  8
0
100
AcDbLine
 10
266.160211012817
 20
1071.12900000001
 30
0.0
 11
266.469874845407
 21
1071.57149260821
 31
0.0
  0
LINE
  5
8F3
330
1D
100
AcDbEntity
  8
0
100
AcDbLine
 10
266.160211012817
 20
1071.12900000001
 30
0.0
 11
266.469874845407
 21
1071.57149260821
 31
0.0
  0
LINE
  5
8F4
330
1D
100
AcDbEntity
  8
0
100
AcDbLine
 10
265.89615
 20
1070.752
 30
0.0
 11
266.14215
 21
1070.58
 31
0.0
  0
LINE
  5
8F5
330
1D
100
AcDbEntity
  8
0
100
AcDbLine
 10
265.89615
 20
1070.752
 30
0.0
 11
266.160211012817
 21
1071.12900000001
 31
0.0
  0
LINE
  5
8F6
330
1D
100
AcDbEntity
  8
0
100
AcDbLine
 10
265.89615
 20
1070.752
 30
0.0
 11
266.160211012817
 21
1071.12900000001
 31
0.0
  0
LINE
  5
8F7
330
1D
100
AcDbEntity
  8
0
100
AcDbLine
 10
267.40415
 20
1069.941
 30
0.0
 11
267.64915
 21
1069.769
 31
0.0
  0
LINE
  5
8F8
330
1D
100
AcDbEntity
  8
0
100
AcDbLine
 10
267.40415
 20
1069.941
 30
0.0
 11
267.531677949547
 21
1070.12323043532
 31
0.0
  0
LINE
  5
8F9
330
1D
100
AcDbEntity
  8
0
100
AcDbLine
 10
267.91415
 20
1069.855
 30
0.0
 11
268.532407308429
 21
1070.73845573541
 31
0.0
  0
LINE
  5
8FA
330
1D
100
AcDbEntity
  8
0
100
AcDbLine
 10
267.61915
 20
1070.062
 30
0.0
 11
267.91415
 21
1069.855
 31
0.0
  0
LINE
  5
8FB
330
1D
100
AcDbEntity
  8
0
100
AcDbLine
 10
267.61915
 20
1070.062
 30
0.0
 11
267.760414832257
 21
1070.26373652593
 31
0.0
  0
LINE
  5
8FC
330
1D
100
AcDbEntity
  8
0
100
AcDbLine
 10
267.91815
 20
1070.153
 30
0.0
 11
268.395406757148
 21
1070.83437963847
 31
0.0
  0
LINE
  5
8FD
330
1D
100
AcDbEntity
  8
0
100
AcDbLine
 10
266.83015
 20
1070.343
 30
0.0
 11
267.40415
 21
1069.941
 31
0.0
  0
LINE
  5
8FE
330
1D
100
AcDbEntity
  8
0
100
AcDbLine
 10
266.83015
 20
1070.343
 30
0.0
 11
266.957736901441
 21
1070.52520343902
 31
0.0
  0
LINE
  5
8FF
330
1D
100
AcDbEntity
  8
0
100
AcDbLine
 10
267.02715
 20
1070.477
 30
0.0
 11
267.61915
 21
1070.062
 31
0.0
  0
LINE
  5
900
330
1D
100
AcDbEntity
  8
0
100
AcDbLine
 10
267.02715
 20
1070.477
 30
0.0
 11
267.168299233643
 21
1070.67857144264
 31
0.0
  0
LINE
  5
901
330
1D
100
AcDbEntity
  8
0
100
AcDbLine
 10
268.245534782342
 20
1070.32853065236
 30
0.0
 11
269.41915
 21
1069.507
 31
0.0
  0
LINE
  5
902
330
1D
100
AcDbEntity
  8
0
100
AcDbLine
 10
267.16915
 20
1070.377
 30
0.0
 11
267.619150000029
 21
1070.06199999998
 31
0.0
  0
LINE
  5
903
330
1D
100
AcDbEntity
  8
0
100
AcDbLine
 10
267.09915
 20
1070.727
 30
0.0
 11
267.67315
 21
1070.325
 31
0.0
  0
LINE
  5
904
330
1D
100
AcDbEntity
  8
0
100
AcDbLine
 10
267.09915
 20
1070.727
 30
0.0
 11
267.503177428647
 21
1071.30398075687
 31
0.0
  0
LINE
  5
905
330
1D
100
AcDbEntity
  8
0
100
AcDbLine
 10
267.67315
 20
1070.325
 30
0.0
 11
267.91815
 21
1070.153
 31
0.0
  0
LINE
  5
906
330
1D
100
AcDbEntity
  8
0
100
AcDbLine
 10
267.67315
 20
1070.325
 30
0.0
 11
268.076683395062
 21
1070.90162705711
 31
0.0
  0
LINE
  5
907
330
1D
100
AcDbEntity
  8
0
100
AcDbLine
 10
268.89115
 20
1069.902
 30
0.0
 11
269.44015
 21
1069.517
 31
0.0
  0
LINE
  5
908
330
1D
100
AcDbEntity
  8
0
100
AcDbLine
 10
268.99115
 20
1069.832
 30
0.0
 11
269.58315
 21
1069.417
 31
0.0
  0
LINE
  5
909
330
1D
100
AcDbEntity
  8
0
100
AcDbLine
 10
268.99115
 20
1069.832
 30
0.0
 11
269.376527499121
 21
1070.38268327904
 31
0.0
  0
LINE
  5
90A
330
1D
100
AcDbEntity
  8
0
100
AcDbLine
 10
268.69615
 20
1070.039
 30
0.0
 11
268.99115
 21
1069.832
 31
0.0
  0
LINE
  5
90B
330
1D
100
AcDbEntity
  8
0
100
AcDbLine
 10
268.69615
 20
1070.039
 30
0.0
 11
268.89115
 21
1069.902
 31
0.0
  0
LINE
  5
90C
330
1D
100
AcDbEntity
  8
0
100
AcDbLine
 10
268.69615
 20
1070.039
 30
0.0
 11
269.06217341037
 21
1070.56170823556
 31
0.0
  0
LINE
  5
90D
330
1D
100
AcDbEntity
  8
0
100
AcDbLine
 10
268.32215
 20
1070.73
 30
0.0
 11
268.968929651155
 21
1071.65364870845
 31
0.0
  0
LINE
  5
90E
330
1D
100
AcDbEntity
  8
0
100
AcDbLine
 10
266.93015
 20
1071.705
 30
0.0
 11
267.50315
 21
1071.304
 31
0.0
  0
LINE
  5
90F
330
1D
100
AcDbEntity
  8
0
100
AcDbLine
 10
266.93015
 20
1071.705
 30
0.0
 11
267.576790397371
 21
1072.62844984385
 31
0.0
  0
LINE
  5
910
330
1D
100
AcDbEntity
  8
0
100
AcDbLine
 10
273.88515
 20
1080.418
 30
0.0
 11
284.37015
 21
1073.077
 31
0.0
  0
LINE
  5
911
330
1D
100
AcDbEntity
  8
0
100
AcDbLine
 10
267.50315
 20
1071.304
 30
0.0
 11
268.07615
 21
1070.902
 31
0.0
  0
LINE
  5
912
330
1D
100
AcDbEntity
  8
0
100
AcDbLine
 10
267.50315
 20
1071.304
 30
0.0
 11
268.14969733453
 21
1072.2273169433
 31
0.0
  0
LINE
  5
913
330
1D
100
AcDbEntity
  8
0
100
AcDbLine
 10
268.07615
 20
1070.902
 30
0.0
 11
268.32215
 21
1070.73
 31
0.0
  0
LINE
  5
914
330
1D
100
AcDbEntity
  8
0
100
AcDbLine
 10
268.07615
 20
1070.902
 30
0.0
 11
268.723430960237
 21
1071.82555941888
 31
0.0
  0
LINE
  5
915
330
1D
100
AcDbEntity
  8
0
100
AcDbLine
 10
266.71615
 20
1070.179
 30
0.0
 11
267.28915
 21
1069.777
 31
0.0
  0
LINE
  5
916
330
1D
100
AcDbEntity
  8
0
100
AcDbLine
 10
266.71615
 20
1070.179
 30
0.0
 11
266.83071363421
 21
1070.34260525966
 31
0.0
  0
LINE
  5
917
330
1D
100
AcDbEntity
  8
0
100
AcDbLine
 10
267.28915
 20
1069.777
 30
0.0
 11
267.53515
 21
1069.605
 31
0.0
  0
LINE
  5
918
330
1D
100
AcDbEntity
  8
0
100
AcDbLine
 10
267.28915
 20
1069.777
 30
0.0
 11
267.403995637287
 21
1069.94110810768
 31
0.0
  0
LINE
  5
919
330
1D
100
AcDbEntity
  8
0
100
AcDbLine
 10
265.029214997551
 20
1072.58000737455
 30
0.0
 11
265.15915
 21
1072.489
 31
0.0
  0
LINE
  5
91A
330
1D
100
AcDbEntity
  8
0
100
AcDbLine
 10
271.38515
 20
1068.13
 30
0.0
 11
271.76901578721
 21
1067.86129394895
 31
0.0
  0
LINE
  5
91B
330
1D
100
AcDbEntity
  8
0
100
AcDbLine
 10
271.38515
 20
1068.13
 30
0.0
 11
272.06039386748
 21
1067.65732929276
 31
0.0
  0
LINE
  5
91C
330
1D
100
AcDbEntity
  8
0
100
AcDbLine
 10
274.30315
 20
1065.683
 30
0.0
 11
274.504739836439
 21
1065.97088504977
 31
0.0
  0
LINE
  5
91D
330
1D
100
AcDbEntity
  8
0
100
AcDbLine
 10
274.27215
 20
1066.134
 30
0.0
 11
274.65715
 21
1065.864
 31
0.0
  0
LINE
  5
91E
330
1D
100
AcDbEntity
  8
0
100
AcDbLine
 10
274.26815
 20
1065.707
 30
0.0
 11
274.469995993917
 21
1065.99525086141
 31
0.0
  0
LINE
  5
91F
330
1D
100
AcDbEntity
  8
0
100
AcDbLine
 10
282.32015
 20
1060.499
 30
0.0
 11
282.64815
 21
1060.269
 31
0.0
  0
LINE
  5
920
330
1D
100
AcDbEntity
  8
0
100
AcDbLine
 10
282.32015
 20
1060.499
 30
0.0
 11
283.00990038283
 21
1061.48401406022
 31
0.0
  0
LINE
  5
921
330
1D
100
AcDbEntity
  8
0
100
AcDbLine
 10
282.32015
 20
1060.499
 30
0.0
 11
283.00990038283
 21
1061.48401406022
 31
0.0
  0
LINE
  5
922
330
1D
100
AcDbEntity
  8
0
100
AcDbLine
 10
281.17915
 20
1061.298
 30
0.0
 11
281.70915
 21
1060.927
 31
0.0
  0
LINE
  5
923
330
1D
100
AcDbEntity
  8
0
100
AcDbLine
 10
281.17915
 20
1061.298
 30
0.0
 11
281.771400592007
 21
1062.14377721858
 31
0.0
  0
LINE
  5
924
330
1D
100
AcDbEntity
  8
0
100
AcDbLine
 10
279.78415
 20
1061.544
 30
0.0
 11
279.925394548166
 21
1061.74570755876
 31
0.0
  0
LINE
  5
925
330
1D
100
AcDbEntity
  8
0
100
AcDbLine
 10
279.93815
 20
1061.436
 30
0.0
 11
280.427280691758
 21
1062.13451444908
 31
0.0
  0
LINE
  5
926
330
1D
100
AcDbEntity
  8
0
100
AcDbLine
 10
279.71815
 20
1061.891
 30
0.0
 11
279.99915
 21
1061.694
 31
0.0
  0
LINE
  5
927
330
1D
100
AcDbEntity
  8
0
100
AcDbLine
 10
279.71815
 20
1061.891
 30
0.0
 11
280.194517327592
 21
1062.57170274623
 31
0.0
  0
LINE
  5
928
330
1D
100
AcDbEntity
  8
0
100
AcDbLine
 10
279.99915
 20
1061.694
 30
0.0
 11
280.475639995396
 21
1062.37487803178
 31
0.0
  0
LINE
  5
929
330
1D
100
AcDbEntity
  8
0
100
AcDbLine
 10
279.76415
 20
1061.558
 30
0.0
 11
279.905404576772
 21
1061.75972188034
 31
0.0
  0
LINE
  5
92A
330
1D
100
AcDbEntity
  8
0
100
AcDbLine
 10
279.29915
 20
1061.883
 30
0.0
 11
279.76415
 21
1061.558
 31
0.0
  0
LINE
  5
92B
330
1D
100
AcDbEntity
  8
0
100
AcDbLine
 10
279.29915
 20
1061.883
 30
0.0
 11
279.440544660612
 21
1062.08504520379
 31
0.0
  0
LINE
  5
92C
330
1D
100
AcDbEntity
  8
0
100
AcDbLine
 10
279.775572680407
 20
1061.55
 30
0.0
 11
279.93815
 21
1061.436
 31
0.0
  0
LINE
  5
92D
330
1D
100
AcDbEntity
  8
0
100
AcDbLine
 10
281.05115
 20
1061.387
 30
0.0
 11
281.169020285514
 21
1061.55543016387
 31
0.0
  0
LINE
  5
92E
330
1D
100
AcDbEntity
  8
0
100
AcDbLine
 10
281.05115
 20
1061.387
 30
0.0
 11
281.38015
 21
1061.157
 31
0.0
  0
LINE
  5
92F
330
1D
100
AcDbEntity
  8
0
100
AcDbLine
 10
281.05115
 20
1061.387
 30
0.0
 11
281.17915
 21
1061.298
 31
0.0
  0
LINE
  5
930
330
1D
100
AcDbEntity
  8
0
100
AcDbLine
 10
281.05115
 20
1061.387
 30
0.0
 11
281.632527502827
 21
1062.21775651886
 31
0.0
  0
LINE
  5
931
330
1D
100
AcDbEntity
  8
0
100
AcDbLine
 10
281.70915
 20
1060.927
 30
0.0
 11
282.32015
 21
1060.499
 31
0.0
  0
LINE
  5
932
330
1D
100
AcDbEntity
  8
0
100
AcDbLine
 10
281.70915
 20
1060.927
 30
0.0
 11
282.346618645606
 21
1061.83735191064
 31
0.0
  0
LINE
  5
933
330
1D
100
AcDbEntity
  8
0
100
AcDbLine
 10
281.38015
 20
1061.157
 30
0.0
 11
281.99115
 21
1060.729
 31
0.0
  0
LINE
  5
934
330
1D
100
AcDbEntity
  8
0
100
AcDbLine
 10
281.99115
 20
1060.729
 30
0.0
 11
282.52115
 21
1060.358
 31
0.0
  0
LINE
  5
935
330
1D
100
AcDbEntity
  8
0
100
AcDbLine
 10
282.69315
 20
1060.667
 30
0.0
 11
283.067149999996
 21
1060.406
 31
0.0
  0
LINE
  5
936
330
1D
100
AcDbEntity
  8
0
100
AcDbLine
 10
282.69315
 20
1060.667
 30
0.0
 11
282.76715
 21
1060.616
 31
0.0
  0
LINE
  5
937
330
1D
100
AcDbEntity
  8
0
100
AcDbLine
 10
282.69315
 20
1060.667
 30
0.0
 11
283.339533722381
 21
1061.59064683608
 31
0.0
  0
LINE
  5
938
330
1D
100
AcDbEntity
  8
0
100
AcDbLine
 10
282.76715
 20
1060.616
 30
0.0
 11
283.26715
 21
1060.266
 31
0.0
  0
LINE
  5
939
330
1D
100
AcDbEntity
  8
0
100
AcDbLine
 10
282.76715
 20
1060.616
 30
0.0
 11
283.413414047623
 21
1061.53891238885
 31
0.0
  0
LINE
  5
93A
330
1D
100
AcDbEntity
  8
0
100
AcDbLine
 10
282.64815
 20
1060.269
 30
0.0
 11
282.850251810927
 21
1060.55736477901
 31
0.0
  0
LINE
  5
93B
330
1D
100
AcDbEntity
  8
0
100
AcDbLine
 10
282.60715
 20
1059.868
 30
0.0
 11
282.68115
 21
1059.816
 31
0.0
  0
LINE
  5
93C
330
1D
100
AcDbEntity
  8
0
100
AcDbLine
 10
282.60715
 20
1059.868
 30
0.0
 11
282.981736100661
 21
1060.40293638438
 31
0.0
  0
LINE
  5
93D
330
1D
100
AcDbEntity
  8
0
100
AcDbLine
 10
282.60715
 20
1059.868
 30
0.0
 11
282.98115
 21
1059.606
 31
0.0
  0
LINE
  5
93E
330
1D
100
AcDbEntity
  8
0
100
AcDbLine
 10
282.60715
 20
1059.868
 30
0.0
 11
283.011215207642
 21
1060.44503470804
 31
0.0
  0
LINE
  5
93F
330
1D
100
AcDbEntity
  8
0
100
AcDbLine
 10
282.68115
 20
1059.816
 30
0.0
 11
283.18115
 21
1059.466
 31
0.0
  0
LINE
  5
940
330
1D
100
AcDbEntity
  8
0
100
AcDbLine
 10
282.52115
 20
1060.358
 30
0.0
 11
282.64815
 21
1060.269
 31
0.0
  0
LINE
  5
941
330
1D
100
AcDbEntity
  8
0
100
AcDbLine
 10
277.42515
 20
1063.196
 30
0.0
 11
277.768010320956
 21
1063.68562964754
 31
0.0
  0
LINE
  5
942
330
1D
100
AcDbEntity
  8
0
100
AcDbLine
 10
277.19315
 20
1063.358
 30
0.0
 11
277.42515
 21
1063.196
 31
0.0
  0
LINE
  5
943
330
1D
100
AcDbEntity
  8
0
100
AcDbLine
 10
277.19315
 20
1063.358
 30
0.0
 11
277.536488427598
 21
1063.84788531743
 31
0.0
  0
LINE
  5
944
330
1D
100
AcDbEntity
  8
0
100
AcDbLine
 10
278.26015
 20
1062.611
 30
0.0
 11
278.67615
 21
1062.32
 31
0.0
  0
LINE
  5
945
330
1D
100
AcDbEntity
  8
0
100
AcDbLine
 10
278.26015
 20
1062.611
 30
0.0
 11
278.401567210758
 21
1062.81307742671
 31
0.0
  0
LINE
  5
946
330
1D
100
AcDbEntity
  8
0
100
AcDbLine
 10
275.34015
 20
1064.656
 30
0.0
 11
275.57115
 21
1064.494
 31
0.0
  0
LINE
  5
947
330
1D
100
AcDbEntity
  8
0
100
AcDbLine
 10
275.34015
 20
1064.656
 30
0.0
 11
275.68393830535
 21
1065.14695487721
 31
0.0
  0
LINE
  5
948
330
1D
100
AcDbEntity
  8
0
100
AcDbLine
 10
278.14915
 20
1063.849
 30
0.0
 11
278.77215
 21
1063.413
 31
0.0
  0
LINE
  5
949
330
1D
100
AcDbEntity
  8
0
100
AcDbLine
 10
278.08715
 20
1063.893
 30
0.0
 11
278.71015
 21
1063.457
 31
0.0
  0
LINE
  5
94A
330
1D
100
AcDbEntity
  8
0
100
AcDbLine
 10
278.08715
 20
1063.893
 30
0.0
 11
278.73348646658
 21
1064.81601580842
 31
0.0
  0
LINE
  5
94B
330
1D
100
AcDbEntity
  8
0
100
AcDbLine
 10
277.74315
 20
1063.703
 30
0.0
 11
278.36715
 21
1063.267
 31
0.0
  0
LINE
  5
94C
330
1D
100
AcDbEntity
  8
0
100
AcDbLine
 10
277.74315
 20
1063.703
 30
0.0
 11
277.945382314253
 21
1063.99172714552
 31
0.0
  0
LINE
  5
94D
330
1D
100
AcDbEntity
  8
0
100
AcDbLine
 10
277.69515
 20
1064.167
 30
0.0
 11
278.14915
 21
1063.849
 31
0.0
  0
LINE
  5
94E
330
1D
100
AcDbEntity
  8
0
100
AcDbLine
 10
277.25915
 20
1064.043
 30
0.0
 11
277.766421600783
 21
1064.76742099571
 31
0.0
  0
LINE
  5
94F
330
1D
100
AcDbEntity
  8
0
100
AcDbLine
 10
277.27815
 20
1064.029
 30
0.0
 11
277.74315
 21
1063.703
 31
0.0
  0
LINE
  5
950
330
1D
100
AcDbEntity
  8
0
100
AcDbLine
 10
277.27815
 20
1064.029
 30
0.0
 11
277.787013233265
 21
1064.75506095478
 31
0.0
  0
LINE
  5
951
330
1D
100
AcDbEntity
  8
0
100
AcDbLine
 10
276.61415
 20
1063.764
 30
0.0
 11
277.19315
 21
1063.358
 31
0.0
  0
LINE
  5
952
330
1D
100
AcDbEntity
  8
0
100
AcDbLine
 10
276.61415
 20
1063.764
 30
0.0
 11
277.098460337183
 21
1064.45563062974
 31
0.0
  0
LINE
  5
953
330
1D
100
AcDbEntity
  8
0
100
AcDbLine
 10
277.66015
 20
1064.192
 30
0.0
 11
278.08715
 21
1063.893
 31
0.0
  0
LINE
  5
954
330
1D
100
AcDbEntity
  8
0
100
AcDbLine
 10
277.66015
 20
1064.192
 30
0.0
 11
278.306488957792
 21
1065.11501936605
 31
0.0
  0
LINE
  5
955
330
1D
100
AcDbEntity
  8
0
100
AcDbLine
 10
275.80315
 20
1064.331
 30
0.0
 11
276.03515
 21
1064.169
 31
0.0
  0
LINE
  5
956
330
1D
100
AcDbEntity
  8
0
100
AcDbLine
 10
275.80315
 20
1064.331
 30
0.0
 11
276.265333502001
 21
1064.99143483852
 31
0.0
  0
LINE
  5
957
330
1D
100
AcDbEntity
  8
0
100
AcDbLine
 10
276.03515
 20
1064.169
 30
0.0
 11
276.61415
 21
1063.764
 31
0.0
  0
LINE
  5
958
330
1D
100
AcDbEntity
  8
0
100
AcDbLine
 10
276.03515
 20
1064.169
 30
0.0
 11
276.503705701927
 21
1064.83813185681
 31
0.0
  0
LINE
  5
959
330
1D
100
AcDbEntity
  8
0
100
AcDbLine
 10
275.57115
 20
1064.494
 30
0.0
 11
275.803431829723
 21
1064.33140271919
 31
0.0
  0
LINE
  5
95A
330
1D
100
AcDbEntity
  8
0
100
AcDbLine
 10
275.57115
 20
1064.494
 30
0.0
 11
275.920843006095
 21
1064.99295221601
 31
0.0
  0
LINE
  5
95B
330
1D
100
AcDbEntity
  8
0
100
AcDbLine
 10
278.220568867914
 20
1063.36941886793
 30
0.0
 11
278.29815
 21
1063.315
 31
0.0
  0
LINE
  5
95C
330
1D
100
AcDbEntity
  8
0
100
AcDbLine
 10
279.12015
 20
1062.309
 30
0.0
 11
279.71815
 21
1061.891
 31
0.0
  0
LINE
  5
95D
330
1D
100
AcDbEntity
  8
0
100
AcDbLine
 10
279.12015
 20
1062.309
 30
0.0
 11
279.597116800415
 21
1062.98996566714
 31
0.0
  0
LINE
  5
95E
330
1D
100
AcDbEntity
  8
0
100
AcDbLine
 10
278.74415
 20
1062.272
 30
0.0
 11
279.012598512399
 21
1062.08400000013
 31
0.0
  0
LINE
  5
95F
330
1D
100
AcDbEntity
  8
0
100
AcDbLine
 10
278.74415
 20
1062.272
 30
0.0
 11
279.012598512399
 21
1062.08400000013
 31
0.0
  0
LINE
  5
960
330
1D
100
AcDbEntity
  8
0
100
AcDbLine
 10
278.466076910492
 20
1062.46695016598
 30
0.0
 11
278.74415
 21
1062.272
 31
0.0
  0
LINE
  5
961
330
1D
100
AcDbEntity
  8
0
100
AcDbLine
 10
278.67615
 20
1062.32
 30
0.0
 11
279.29915
 21
1061.883
 31
0.0
  0
LINE
  5
962
330
1D
100
AcDbEntity
  8
0
100
AcDbLine
 10
278.67615
 20
1062.32
 30
0.0
 11
278.81723342059
 21
1062.52147745678
 31
0.0
  0
LINE
  5
963
330
1D
100
AcDbEntity
  8
0
100
AcDbLine
 10
278.56415
 20
1062.699
 30
0.0
 11
279.12015
 21
1062.309
 31
0.0
  0
LINE
  5
964
330
1D
100
AcDbEntity
  8
0
100
AcDbLine
 10
278.56415
 20
1062.699
 30
0.0
 11
278.765862880837
 21
1062.98723662746
 31
0.0
  0
LINE
  5
965
330
1D
100
AcDbEntity
  8
0
100
AcDbLine
 10
278.450323912924
 20
1062.47769565226
 30
0.0
 11
278.642189867224
 21
1062.34348172749
 31
0.0
  0
LINE
  5
966
330
1D
100
AcDbEntity
  8
0
100
AcDbLine
 10
278.43415
 20
1062.489
 30
0.0
 11
278.589150000074
 21
1062.38066666662
 31
0.0
  0
LINE
  5
967
330
1D
100
AcDbEntity
  8
0
100
AcDbLine
 10
279.19915
 20
1063.114
 30
0.0
 11
279.845639531287
 21
1064.03723439603
 31
0.0
  0
LINE
  5
968
330
1D
100
AcDbEntity
  8
0
100
AcDbLine
 10
279.16515
 20
1063.138
 30
0.0
 11
279.81154950004
 21
1064.06110582482
 31
0.0
  0
LINE
  5
969
330
1D
100
AcDbEntity
  8
0
100
AcDbLine
 10
278.78315
 20
1062.976
 30
0.0
 11
278.984858370948
 21
1063.26405432573
 31
0.0
  0
LINE
  5
96A
330
1D
100
AcDbEntity
  8
0
100
AcDbLine
 10
278.77215
 20
1063.413
 30
0.0
 11
279.19915
 21
1063.114
 31
0.0
  0
LINE
  5
96B
330
1D
100
AcDbEntity
  8
0
100
AcDbLine
 10
278.71015
 20
1063.457
 30
0.0
 11
279.16515
 21
1063.138
 31
0.0
  0
LINE
  5
96C
330
1D
100
AcDbEntity
  8
0
100
AcDbLine
 10
278.71015
 20
1063.457
 30
0.0
 11
279.356367293945
 21
1064.37984562117
 31
0.0
  0
LINE
  5
96D
330
1D
100
AcDbEntity
  8
0
100
AcDbLine
 10
278.36715
 20
1063.267
 30
0.0
 11
278.78315
 21
1062.976
 31
0.0
  0
LINE
  5
96E
330
1D
100
AcDbEntity
  8
0
100
AcDbLine
 10
278.36715
 20
1063.267
 30
0.0
 11
278.568960435062
 21
1063.55520008076
 31
0.0
  0
LINE
  5
96F
330
1D
100
AcDbEntity
  8
0
100
AcDbLine
 10
278.38315
 20
1062.826
 30
0.0
 11
278.584830907403
 21
1063.11401510578
 31
0.0
  0
LINE
  5
970
330
1D
100
AcDbEntity
  8
0
100
AcDbLine
 10
278.38315
 20
1062.826
 30
0.0
 11
278.56415
 21
1062.699
 31
0.0
  0
LINE
  5
971
330
1D
100
AcDbEntity
  8
0
100
AcDbLine
 10
278.29815
 20
1063.315
 30
0.0
 11
278.584830907403
 21
1063.11401510578
 31
0.0
  0
LINE
  5
972
330
1D
100
AcDbEntity
  8
0
100
AcDbLine
 10
278.29815
 20
1063.315
 30
0.0
 11
278.76315
 21
1062.989
 31
0.0
  0
LINE
  5
973
330
1D
100
AcDbEntity
  8
0
100
AcDbLine
 10
280.298961685182
 20
1062.1224144307
 30
0.0
 11
281.169020285514
 21
1061.55543016387
 31
0.0
  0
LINE
  5
974
330
1D
100
AcDbEntity
  8
0
100
AcDbLine
 10
280.298961685182
 20
1062.1224144307
 30
0.0
 11
281.169020285514
 21
1061.55543016387
 31
0.0
  0
LINE
  5
975
330
1D
100
AcDbEntity
  8
0
100
AcDbLine
 10
284.17415
 20
1058.771
 30
0.0
 11
284.650929361626
 21
1059.45187584511
 31
0.0
  0
LINE
  5
976
330
1D
100
AcDbEntity
  8
0
100
AcDbLine
 10
284.10015
 20
1058.823
 30
0.0
 11
284.17415
 21
1058.771
 31
0.0
  0
LINE
  5
977
330
1D
100
AcDbEntity
  8
0
100
AcDbLine
 10
284.10015
 20
1058.823
 30
0.0
 11
284.57683644236
 21
1059.5037431496
 31
0.0
  0
LINE
  5
978
330
1D
100
AcDbEntity
  8
0
100
AcDbLine
 10
283.60015
 20
1059.173
 30
0.0
 11
284.10015
 21
1058.823
 31
0.0
  0
LINE
  5
979
330
1D
100
AcDbEntity
  8
0
100
AcDbLine
 10
283.60015
 20
1059.173
 30
0.0
 11
284.004101994114
 21
1059.74937052819
 31
0.0
  0
LINE
  5
97A
330
1D
100
AcDbEntity
  8
0
100
AcDbLine
 10
283.80015
 20
1059.033
 30
0.0
 11
284.17415
 21
1058.771
 31
0.0
  0
LINE
  5
97B
330
1D
100
AcDbEntity
  8
0
100
AcDbLine
 10
284.42615
 20
1059.024
 30
0.0
 11
284.65815
 21
1058.862
 31
0.0
  0
LINE
  5
97C
330
1D
100
AcDbEntity
  8
0
100
AcDbLine
 10
284.42615
 20
1059.024
 30
0.0
 11
284.637779088455
 21
1059.32640634349
 31
0.0
  0
LINE
  5
97D
330
1D
100
AcDbEntity
  8
0
100
AcDbLine
 10
284.42615
 20
1059.024
 30
0.0
 11
284.989431904478
 21
1059.82889890274
 31
0.0
  0
LINE
  5
97E
330
1D
100
AcDbEntity
  8
0
100
AcDbLine
 10
284.81815
 20
1058.32
 30
0.0
 11
285.020123138021
 21
1058.60818118474
 31
0.0
  0
LINE
  5
97F
330
1D
100
AcDbEntity
  8
0
100
AcDbLine
 10
284.81815
 20
1058.32
 30
0.0
 11
284.96115
 21
1058.22
 31
0.0
  0
LINE
  5
980
330
1D
100
AcDbEntity
  8
0
100
AcDbLine
 10
284.65815
 20
1058.862
 30
0.0
 11
285.020123138021
 21
1058.60818118474
 31
0.0
  0
LINE
  5
981
330
1D
100
AcDbEntity
  8
0
100
AcDbLine
 10
284.65815
 20
1058.862
 30
0.0
 11
285.23715
 21
1058.456
 31
0.0
  0
LINE
  5
982
330
1D
100
AcDbEntity
  8
0
100
AcDbLine
 10
284.65815
 20
1058.862
 30
0.0
 11
285.231071768151
 21
1059.68017424257
 31
0.0
  0
LINE
  5
983
330
1D
100
AcDbEntity
  8
0
100
AcDbLine
 10
283.68615
 20
1059.972
 30
0.0
 11
283.886149999932
 21
1059.83200000005
 31
0.0
  0
LINE
  5
984
330
1D
100
AcDbEntity
  8
0
100
AcDbLine
 10
284.26015
 20
1059.57
 30
0.0
 11
284.906399194099
 21
1060.49345460255
 31
0.0
  0
LINE
  5
985
330
1D
100
AcDbEntity
  8
0
100
AcDbLine
 10
283.88615
 20
1059.832
 30
0.0
 11
284.26015
 21
1059.57
 31
0.0
  0
LINE
  5
986
330
1D
100
AcDbEntity
  8
0
100
AcDbLine
 10
283.88615
 20
1059.832
 30
0.0
 11
284.532613286657
 21
1060.75519691678
 31
0.0
  0
LINE
  5
987
330
1D
100
AcDbEntity
  8
0
100
AcDbLine
 10
283.067150000007
 20
1060.40599999999
 30
0.0
 11
283.68615
 21
1059.972
 31
0.0
  0
LINE
  5
988
330
1D
100
AcDbEntity
  8
0
100
AcDbLine
 10
283.26715
 20
1060.266
 30
0.0
 11
283.88615
 21
1059.832
 31
0.0
  0
LINE
  5
989
330
1D
100
AcDbEntity
  8
0
100
AcDbLine
 10
283.26715
 20
1060.266
 30
0.0
 11
283.913356112458
 21
1061.18882965319
 31
0.0
  0
LINE
  5
98A
330
1D
100
AcDbEntity
  8
0
100
AcDbLine
 10
282.98115
 20
1059.606
 30
0.0
 11
283.60015
 21
1059.173
 31
0.0
  0
LINE
  5
98B
330
1D
100
AcDbEntity
  8
0
100
AcDbLine
 10
282.98115
 20
1059.606
 30
0.0
 11
283.385031026675
 21
1060.18312380359
 31
0.0
  0
LINE
  5
98C
330
1D
100
AcDbEntity
  8
0
100
AcDbLine
 10
283.18115
 20
1059.466
 30
0.0
 11
283.80015
 21
1059.033
 31
0.0
  0
LINE
  5
98D
330
1D
100
AcDbEntity
  8
0
100
AcDbLine
 10
284.571364398129
 20
1059.33825125034
 30
0.0
 11
284.622670502275
 21
1059.30481700369
 31
0.0
  0
LINE
  5
98E
330
1D
100
AcDbEntity
  8
0
100
AcDbLine
 10
282.80332855633
 20
1060.49041330598
 30
0.0
 11
282.967895626448
 21
1060.3831711736
 31
0.0
  0
LINE
  5
98F
330
1D
100
AcDbEntity
  8
0
100
AcDbLine
 10
274.65715
 20
1065.864
 30
0.0
 11
275.276304547814
 21
1066.74873784121
 31
0.0
  0
LINE
  5
990
330
1D
100
AcDbEntity
  8
0
100
AcDbLine
 10
274.56815
 20
1065.927
 30
0.0
 11
274.65715
 21
1065.864
 31
0.0
  0
LINE
  5
991
330
1D
100
AcDbEntity
  8
0
100
AcDbLine
 10
274.56815
 20
1065.927
 30
0.0
 11
275.172735890152
 21
1066.7903929277
 31
0.0
  0
LINE
  5
992
330
1D
100
AcDbEntity
  8
0
100
AcDbLine
 10
284.37015
 20
1073.077
 30
0.0
 11
294.28215
 21
1066.136
 31
0.0
  0
LINE
  5
993
330
1D
100
AcDbEntity
  8
0
100
AcDbLine
 10
275.48115
 20
1065.262
 30
0.0
 11
276.149762648774
 21
1064.82629043709
 31
0.0
  0
LINE
  5
994
330
1D
100
AcDbEntity
  8
0
100
AcDbLine
 10
274.493035179355
 20
1065.95416994227
 30
0.0
 11
275.15315
 21
1065.492
 31
0.0
  0
LINE
  5
995
330
1D
100
AcDbEntity
  8
0
100
AcDbLine
 10
284.49315
 20
1073.601
 30
0.0
 11
294.15915
 21
1066.833
 31
0.0
  0
LINE
  5
996
330
1D
100
AcDbEntity
  8
0
100
AcDbLine
 10
274.17215
 20
1080.828
 30
0.0
 11
284.49315
 21
1073.601
 31
0.0
  0
LINE
  5
997
330
1D
100
AcDbEntity
  8
0
100
AcDbLine
 10
274.45915
 20
1081.237
 30
0.0
 11
284.94415
 21
1073.896
 31
0.0
  0
LINE
  5
998
330
1D
100
AcDbEntity
  8
0
100
AcDbLine
 10
263.85115
 20
1088.055
 30
0.0
 11
274.17215
 21
1080.828
 31
0.0
  0
LINE
  5
999
330
1D
100
AcDbEntity
  8
0
100
AcDbLine
 10
240.24615
 20
1090.389
 30
0.0
 11
240.62015
 21
1090.128
 31
0.0
  0
LINE
  5
99A
330
1D
100
AcDbEntity
  8
0
100
AcDbLine
 10
240.24615
 20
1090.389
 30
0.0
 11
240.892423974462
 21
1091.31249001233
 31
0.0
  0
LINE
  5
99B
330
1D
100
AcDbEntity
  8
0
100
AcDbLine
 10
240.62015
 20
1090.128
 30
0.0
 11
241.266286818288
 21
1091.05073069604
 31
0.0
  0
LINE
  5
99C
330
1D
100
AcDbEntity
  8
0
100
AcDbLine
 10
240.54615
 20
1090.179
 30
0.0
 11
240.62015
 21
1090.128
 31
0.0
  0
LINE
  5
99D
330
1D
100
AcDbEntity
  8
0
100
AcDbLine
 10
240.246150000068
 20
1090.38899999995
 30
0.0
 11
240.54615
 21
1090.179
 31
0.0
  0
LINE
  5
99E
330
1D
100
AcDbEntity
  8
0
100
AcDbLine
 10
241.21715
 20
1089.28
 30
0.0
 11
241.41215
 21
1089.143
 31
0.0
  0
LINE
  5
99F
330
1D
100
AcDbEntity
  8
0
100
AcDbLine
 10
241.21715
 20
1089.28
 30
0.0
 11
241.51215
 21
1089.073
 31
0.0
  0
LINE
  5
9A0
330
1D
100
AcDbEntity
  8
0
100
AcDbLine
 10
241.21715
 20
1089.28
 30
0.0
 11
241.770984679545
 21
1090.07091648221
 31
0.0
  0
LINE
  5
9A1
330
1D
100
AcDbEntity
  8
0
100
AcDbLine
 10
242.00915
 20
1088.725
 30
0.0
 11
242.39515
 21
1088.455
 31
0.0
  0
LINE
  5
9A2
330
1D
100
AcDbEntity
  8
0
100
AcDbLine
 10
242.00915
 20
1088.725
 30
0.0
 11
242.09815
 21
1088.662
 31
0.0
  0
LINE
  5
9A3
330
1D
100
AcDbEntity
  8
0
100
AcDbLine
 10
242.00915
 20
1088.725
 30
0.0
 11
242.571382008293
 21
1089.52790848264
 31
0.0
  0
LINE
  5
9A4
330
1D
100
AcDbEntity
  8
0
100
AcDbLine
 10
242.09815
 20
1088.662
 30
0.0
 11
242.196081694043
 21
1088.59358743166
 31
0.0
  0
LINE
  5
9A5
330
1D
100
AcDbEntity
  8
0
100
AcDbLine
 10
242.09815
 20
1088.662
 30
0.0
 11
242.196081694043
 21
1088.59358743166
 31
0.0
  0
LINE
  5
9A6
330
1D
100
AcDbEntity
  8
0
100
AcDbLine
 10
242.09815
 20
1088.662
 30
0.0
 11
242.58915
 21
1088.319
 31
0.0
  0
LINE
  5
9A7
330
1D
100
AcDbEntity
  8
0
100
AcDbLine
 10
242.196081694043
 20
1088.59358743166
 30
0.0
 11
242.55415
 21
1088.343
 31
0.0
  0
LINE
  5
9A8
330
1D
100
AcDbEntity
  8
0
100
AcDbLine
 10
242.196081694043
 20
1088.59358743166
 30
0.0
 11
242.55415
 21
1088.343
 31
0.0
  0
LINE
  5
9A9
330
1D
100
AcDbEntity
  8
0
100
AcDbLine
 10
242.50415
 20
1088.808
 30
0.0
 11
243.10115
 21
1088.39
 31
0.0
  0
LINE
  5
9AA
330
1D
100
AcDbEntity
  8
0
100
AcDbLine
 10
242.22215
 20
1089.005
 30
0.0
 11
242.40315
 21
1088.879
 31
0.0
  0
LINE
  5
9AB
330
1D
100
AcDbEntity
  8
0
100
AcDbLine
 10
242.22215
 20
1089.005
 30
0.0
 11
242.50415
 21
1088.808
 31
0.0
  0
LINE
  5
9AC
330
1D
100
AcDbEntity
  8
0
100
AcDbLine
 10
242.22215
 20
1089.005
 30
0.0
 11
242.869040568208
 21
1089.92856588963
 31
0.0
  0
LINE
  5
9AD
330
1D
100
AcDbEntity
  8
0
100
AcDbLine
 10
242.40315
 20
1088.879
 30
0.0
 11
242.96015
 21
1088.489
 31
0.0
  0
LINE
  5
9AE
330
1D
100
AcDbEntity
  8
0
100
AcDbLine
 10
242.40315
 20
1088.879
 30
0.0
 11
243.049585727545
 21
1089.80215756035
 31
0.0
  0
LINE
  5
9AF
330
1D
100
AcDbEntity
  8
0
100
AcDbLine
 10
241.51215
 20
1089.073
 30
0.0
 11
242.068072437669
 21
1088.68329085873
 31
0.0
  0
LINE
  5
9B0
330
1D
100
AcDbEntity
  8
0
100
AcDbLine
 10
241.51215
 20
1089.073
 30
0.0
 11
242.052978920929
 21
1089.8458148225
 31
0.0
  0
LINE
  5
9B1
330
1D
100
AcDbEntity
  8
0
100
AcDbLine
 10
241.51215
 20
1089.073
 30
0.0
 11
242.068072437669
 21
1088.68329085873
 31
0.0
  0
LINE
  5
9B2
330
1D
100
AcDbEntity
  8
0
100
AcDbLine
 10
241.96115
 20
1088.758
 30
0.0
 11
242.082826886782
 21
1088.67284669812
 31
0.0
  0
LINE
  5
9B3
330
1D
100
AcDbEntity
  8
0
100
AcDbLine
 10
241.41215
 20
1089.143
 30
0.0
 11
241.96115
 21
1088.758
 31
0.0
  0
LINE
  5
9B4
330
1D
100
AcDbEntity
  8
0
100
AcDbLine
 10
241.41215
 20
1089.143
 30
0.0
 11
241.603226923245
 21
1089.00915384604
 31
0.0
  0
LINE
  5
9B5
330
1D
100
AcDbEntity
  8
0
100
AcDbLine
 10
235.57615
 20
1093.659
 30
0.0
 11
236.18415
 21
1093.234
 31
0.0
  0
LINE
  5
9B6
330
1D
100
AcDbEntity
  8
0
100
AcDbLine
 10
235.57615
 20
1093.659
 30
0.0
 11
236.222615092016
 21
1094.58219949496
 31
0.0
  0
LINE
  5
9B7
330
1D
100
AcDbEntity
  8
0
100
AcDbLine
 10
235.37715
 20
1093.798
 30
0.0
 11
235.89915
 21
1093.433
 31
0.0
  0
LINE
  5
9B8
330
1D
100
AcDbEntity
  8
0
100
AcDbLine
 10
235.23515
 20
1093.898
 30
0.0
 11
235.37715
 21
1093.798
 31
0.0
  0
LINE
  5
9B9
330
1D
100
AcDbEntity
  8
0
100
AcDbLine
 10
235.23515
 20
1093.898
 30
0.0
 11
235.57615
 21
1093.659
 31
0.0
  0
LINE
  5
9BA
330
1D
100
AcDbEntity
  8
0
100
AcDbLine
 10
235.23515
 20
1093.898
 30
0.0
 11
235.881507522989
 21
1094.82104587851
 31
0.0
  0
LINE
  5
9BB
330
1D
100
AcDbEntity
  8
0
100
AcDbLine
 10
238.037831724763
 20
1091.93542094462
 30
0.0
 11
238.21815
 21
1091.809
 31
0.0
  0
LINE
  5
9BC
330
1D
100
AcDbEntity
  8
0
100
AcDbLine
 10
238.21815
 20
1091.809
 30
0.0
 11
238.85834714044
 21
1092.72380655029
 31
0.0
  0
LINE
  5
9BD
330
1D
100
AcDbEntity
  8
0
100
AcDbLine
 10
237.76315
 20
1092.128
 30
0.0
 11
238.21815
 21
1091.809
 31
0.0
  0
LINE
  5
9BE
330
1D
100
AcDbEntity
  8
0
100
AcDbLine
 10
237.76315
 20
1092.128
 30
0.0
 11
238.409447933385
 21
1093.0509607802
 31
0.0
  0
LINE
  5
9BF
330
1D
100
AcDbEntity
  8
0
100
AcDbLine
 10
237.28303990826
 20
1092.464
 30
0.0
 11
237.82515
 21
1092.084
 31
0.0
  0
LINE
  5
9C0
330
1D
100
AcDbEntity
  8
0
100
AcDbLine
 10
237.82515
 20
1092.084
 30
0.0
 11
238.037831724763
 21
1091.93542094462
 31
0.0
  0
LINE
  5
9C1
330
1D
100
AcDbEntity
  8
0
100
AcDbLine
 10
237.82515
 20
1092.084
 30
0.0
 11
238.037831724763
 21
1091.93542094462
 31
0.0
  0
LINE
  5
9C2
330
1D
100
AcDbEntity
  8
0
100
AcDbLine
 10
238.25315
 20
1091.785
 30
0.0
 11
238.891643448005
 21
1092.69681540352
 31
0.0
  0
LINE
  5
9C3
330
1D
100
AcDbEntity
  8
0
100
AcDbLine
 10
237.28303990826
 20
1092.464
 30
0.0
 11
237.82515
 21
1092.084
 31
0.0
  0
LINE
  5
9C4
330
1D
100
AcDbEntity
  8
0
100
AcDbLine
 10
237.14015
 20
1092.564
 30
0.0
 11
237.28303990826
 21
1092.464
 31
0.0
  0
LINE
  5
9C5
330
1D
100
AcDbEntity
  8
0
100
AcDbLine
 10
237.14015
 20
1092.564
 30
0.0
 11
237.28303990826
 21
1092.464
 31
0.0
  0
LINE
  5
9C6
330
1D
100
AcDbEntity
  8
0
100
AcDbLine
 10
237.14015
 20
1092.564
 30
0.0
 11
237.76315
 21
1092.128
 31
0.0
  0
LINE
  5
9C7
330
1D
100
AcDbEntity
  8
0
100
AcDbLine
 10
237.14015
 20
1092.564
 30
0.0
 11
237.786555922057
 21
1093.48711499593
 31
0.0
  0
LINE
  5
9C8
330
1D
100
AcDbEntity
  8
0
100
AcDbLine
 10
236.730794628091
 20
1092.85064462811
 30
0.0
 11
236.84815
 21
1092.768
 31
0.0
  0
LINE
  5
9C9
330
1D
100
AcDbEntity
  8
0
100
AcDbLine
 10
236.730794628091
 20
1092.85064462811
 30
0.0
 11
236.84815
 21
1092.768
 31
0.0
  0
LINE
  5
9CA
330
1D
100
AcDbEntity
  8
0
100
AcDbLine
 10
236.70615
 20
1092.868
 30
0.0
 11
237.277130514666
 21
1093.68340199043
 31
0.0
  0
LINE
  5
9CB
330
1D
100
AcDbEntity
  8
0
100
AcDbLine
 10
236.71315
 20
1092.863
 30
0.0
 11
237.14015
 21
1092.564
 31
0.0
  0
LINE
  5
9CC
330
1D
100
AcDbEntity
  8
0
100
AcDbLine
 10
236.71315
 20
1092.863
 30
0.0
 11
237.359550746434
 21
1093.78610760476
 31
0.0
  0
LINE
  5
9CD
330
1D
100
AcDbEntity
  8
0
100
AcDbLine
 10
236.848369983391
 20
1092.76831434418
 30
0.0
 11
237.14015
 21
1092.564
 31
0.0
  0
LINE
  5
9CE
330
1D
100
AcDbEntity
  8
0
100
AcDbLine
 10
236.50715
 20
1093.007
 30
0.0
 11
236.84815
 21
1092.768
 31
0.0
  0
LINE
  5
9CF
330
1D
100
AcDbEntity
  8
0
100
AcDbLine
 10
236.375378606981
 20
1093.09932666682
 30
0.0
 11
236.50715
 21
1093.007
 31
0.0
  0
LINE
  5
9D0
330
1D
100
AcDbEntity
  8
0
100
AcDbLine
 10
236.18415
 20
1093.234
 30
0.0
 11
236.70615
 21
1092.868
 31
0.0
  0
LINE
  5
9D1
330
1D
100
AcDbEntity
  8
0
100
AcDbLine
 10
236.18415
 20
1093.234
 30
0.0
 11
236.830273640788
 21
1094.1567118776
 31
0.0
  0
LINE
  5
9D2
330
1D
100
AcDbEntity
  8
0
100
AcDbLine
 10
235.89915
 20
1093.433
 30
0.0
 11
236.286059090909
 21
1093.16190909091
 31
0.0
  0
LINE
  5
9D3
330
1D
100
AcDbEntity
  8
0
100
AcDbLine
 10
235.89915
 20
1093.433
 30
0.0
 11
236.50715
 21
1093.007
 31
0.0
  0
LINE
  5
9D4
330
1D
100
AcDbEntity
  8
0
100
AcDbLine
 10
236.286059090909
 20
1093.16190909091
 30
0.0
 11
236.37515
 21
1093.099
 31
0.0
  0
LINE
  5
9D5
330
1D
100
AcDbEntity
  8
0
100
AcDbLine
 10
235.656604545477
 20
1093.60259595958
 30
0.0
 11
236.37515
 21
1093.099
 31
0.0
  0
LINE
  5
9D6
330
1D
100
AcDbEntity
  8
0
100
AcDbLine
 10
234.73715
 20
1094.247
 30
0.0
 11
234.98315
 21
1094.075
 31
0.0
  0
LINE
  5
9D7
330
1D
100
AcDbEntity
  8
0
100
AcDbLine
 10
234.73715
 20
1094.247
 30
0.0
 11
235.242757142821
 21
1093.89264285717
 31
0.0
  0
LINE
  5
9D8
330
1D
100
AcDbEntity
  8
0
100
AcDbLine
 10
234.73715
 20
1094.247
 30
0.0
 11
235.383358725611
 21
1095.16983338496
 31
0.0
  0
LINE
  5
9D9
330
1D
100
AcDbEntity
  8
0
100
AcDbLine
 10
234.98315
 20
1094.075
 30
0.0
 11
235.235245879166
 21
1093.89813692247
 31
0.0
  0
LINE
  5
9DA
330
1D
100
AcDbEntity
  8
0
100
AcDbLine
 10
234.98315
 20
1094.075
 30
0.0
 11
235.61841274226
 21
1094.98220171911
 31
0.0
  0
LINE
  5
9DB
330
1D
100
AcDbEntity
  8
0
100
AcDbLine
 10
239.05315
 20
1091.225
 30
0.0
 11
239.464070393796
 21
1091.8118244159
 31
0.0
  0
LINE
  5
9DC
330
1D
100
AcDbEntity
  8
0
100
AcDbLine
 10
239.05315
 20
1091.225
 30
0.0
 11
239.12715
 21
1091.173
 31
0.0
  0
LINE
  5
9DD
330
1D
100
AcDbEntity
  8
0
100
AcDbLine
 10
239.05315
 20
1091.225
 30
0.0
 11
239.127225367474
 21
1091.17310763027
 31
0.0
  0
LINE
  5
9DE
330
1D
100
AcDbEntity
  8
0
100
AcDbLine
 10
239.05315
 20
1091.225
 30
0.0
 11
239.69934879046
 21
1092.14781919684
 31
0.0
  0
LINE
  5
9DF
330
1D
100
AcDbEntity
  8
0
100
AcDbLine
 10
253.48815
 20
1094.7
 30
0.0
 11
263.40015
 21
1087.76
 31
0.0
  0
LINE
  5
9E0
330
1D
100
AcDbEntity
  8
0
100
AcDbLine
 10
239.12715
 20
1091.173
 30
0.0
 11
239.62615
 21
1090.823
 31
0.0
  0
LINE
  5
9E1
330
1D
100
AcDbEntity
  8
0
100
AcDbLine
 10
239.12715
 20
1091.173
 30
0.0
 11
239.773437620138
 21
1092.09594605212
 31
0.0
  0
LINE
  5
9E2
330
1D
100
AcDbEntity
  8
0
100
AcDbLine
 10
239.62615
 20
1090.823
 30
0.0
 11
240.24615
 21
1090.389
 31
0.0
  0
LINE
  5
9E3
330
1D
100
AcDbEntity
  8
0
100
AcDbLine
 10
239.62615
 20
1090.823
 30
0.0
 11
240.27273183585
 21
1091.74636621371
 31
0.0
  0
LINE
  5
9E4
330
1D
100
AcDbEntity
  8
0
100
AcDbLine
 10
238.698100492424
 20
1092.42042188892
 30
0.0
 11
239.464070393796
 21
1091.8118244159
 31
0.0
  0
LINE
  5
9E5
330
1D
100
AcDbEntity
  8
0
100
AcDbLine
 10
240.964458930093
 20
1090.61969836747
 30
0.0
 11
241.729574493698
 21
1090.01177970417
 31
0.0
  0
LINE
  5
9E6
330
1D
100
AcDbEntity
  8
0
100
AcDbLine
 10
240.964458930093
 20
1090.61969836747
 30
0.0
 11
241.729574493698
 21
1090.01177970417
 31
0.0
  0
LINE
  5
9E7
330
1D
100
AcDbEntity
  8
0
100
AcDbLine
 10
254.18515
 20
1094.823
 30
0.0
 11
263.85115
 21
1088.055
 31
0.0
  0
LINE
  5
9E8
330
1D
100
AcDbEntity
  8
0
100
AcDbLine
 10
263.97415
 20
1088.579
 30
0.0
 11
274.45915
 21
1081.237
 31
0.0
  0
LINE
  5
9E9
330
1D
100
AcDbEntity
  8
0
100
AcDbLine
 10
285.931712711708
 20
1057.5399322035
 30
0.0
 11
286.09015
 21
1057.429
 31
0.0
  0
LINE
  5
9EA
330
1D
100
AcDbEntity
  8
0
100
AcDbLine
 10
286.43215
 20
1057.19
 30
0.0
 11
286.968538387825
 21
1057.95600189996
 31
0.0
  0
LINE
  5
9EB
330
1D
100
AcDbEntity
  8
0
100
AcDbLine
 10
286.09015
 20
1057.429
 30
0.0
 11
286.43215
 21
1057.19
 31
0.0
  0
LINE
  5
9EC
330
1D
100
AcDbEntity
  8
0
100
AcDbLine
 10
286.09015
 20
1057.429
 30
0.0
 11
286.613678933822
 21
1058.17663765789
 31
0.0
  0
LINE
  5
9ED
330
1D
100
AcDbEntity
  8
0
100
AcDbLine
 10
285.23715
 20
1058.456
 30
0.0
 11
285.81615
 21
1058.051
 31
0.0
  0
LINE
  5
9EE
330
1D
100
AcDbEntity
  8
0
100
AcDbLine
 10
285.23715
 20
1058.456
 30
0.0
 11
285.834106492272
 21
1059.30901803909
 31
0.0
  0
LINE
  5
9EF
330
1D
100
AcDbEntity
  8
0
100
AcDbLine
 10
284.96115
 20
1058.22
 30
0.0
 11
285.48315
 21
1057.854
 31
0.0
  0
LINE
  5
9F0
330
1D
100
AcDbEntity
  8
0
100
AcDbLine
 10
284.96115
 20
1058.22
 30
0.0
 11
285.162876983687
 21
1058.50808090608
 31
0.0
  0
LINE
  5
9F1
330
1D
100
AcDbEntity
  8
0
100
AcDbLine
 10
286.04815
 20
1057.889
 30
0.0
 11
286.579089663614
 21
1058.64722072275
 31
0.0
  0
LINE
  5
9F2
330
1D
100
AcDbEntity
  8
0
100
AcDbLine
 10
285.81615
 20
1058.051
 30
0.0
 11
286.04815
 21
1057.889
 31
0.0
  0
LINE
  5
9F3
330
1D
100
AcDbEntity
  8
0
100
AcDbLine
 10
285.81615
 20
1058.051
 30
0.0
 11
286.437161230838
 21
1058.9378495171
 31
0.0
  0
LINE
  5
9F4
330
1D
100
AcDbEntity
  8
0
100
AcDbLine
 10
285.81615
 20
1058.051
 30
0.0
 11
286.437161230838
 21
1058.9378495171
 31
0.0
  0
LINE
  5
9F5
330
1D
100
AcDbEntity
  8
0
100
AcDbLine
 10
285.674150000058
 20
1057.72026853373
 30
0.0
 11
285.76715
 21
1057.655
 31
0.0
  0
LINE
  5
9F6
330
1D
100
AcDbEntity
  8
0
100
AcDbLine
 10
285.76715
 20
1057.655
 30
0.0
 11
285.931712711708
 21
1057.5399322035
 31
0.0
  0
LINE
  5
9F7
330
1D
100
AcDbEntity
  8
0
100
AcDbLine
 10
285.76715
 20
1057.655
 30
0.0
 11
285.931712711708
 21
1057.5399322035
 31
0.0
  0
LINE
  5
9F8
330
1D
100
AcDbEntity
  8
0
100
AcDbLine
 10
285.48315
 20
1057.854
 30
0.0
 11
285.674150000057
 21
1057.72026853373
 31
0.0
  0
LINE
  5
9F9
330
1D
100
AcDbEntity
  8
0
100
AcDbLine
 10
285.48315
 20
1057.854
 30
0.0
 11
285.674150000058
 21
1057.72026853373
 31
0.0
  0
LINE
  5
9FA
330
1D
100
AcDbEntity
  8
0
100
AcDbLine
 10
285.48315
 20
1057.854
 30
0.0
 11
286.09015
 21
1057.429
 31
0.0
  0
LINE
  5
9FB
330
1D
100
AcDbEntity
  8
0
100
AcDbLine
 10
285.48315
 20
1057.854
 30
0.0
 11
285.685143055614
 21
1058.14263698182
 31
0.0
  0
LINE
  5
9FC
330
1D
100
AcDbEntity
  8
0
100
AcDbLine
 10
285.931712711708
 20
1057.5399322035
 30
0.0
 11
286.09015
 21
1057.429
 31
0.0
  0
LINE
  5
9FD
330
1D
100
AcDbEntity
  8
0
100
AcDbLine
 10
291.05215
 20
1054.385
 30
0.0
 11
291.253791823452
 21
1054.67295929103
 31
0.0
  0
LINE
  5
9FE
330
1D
100
AcDbEntity
  8
0
100
AcDbLine
 10
291.03215
 20
1054.399
 30
0.0
 11
291.233801852057
 21
1054.68697361262
 31
0.0
  0
LINE
  5
9FF
330
1D
100
AcDbEntity
  8
0
100
AcDbLine
 10
291.09915
 20
1054.351
 30
0.0
 11
291.59015
 21
1054.008
 31
0.0
  0
LINE
  5
A00
330
1D
100
AcDbEntity
  8
0
100
AcDbLine
 10
291.09915
 20
1054.351
 30
0.0
 11
291.301320303547
 21
1054.63963861282
 31
0.0
  0
LINE
  5
A01
330
1D
100
AcDbEntity
  8
0
100
AcDbLine
 10
289.844115909022
 20
1055.23044318187
 30
0.0
 11
289.94315
 21
1055.161
 31
0.0
  0
LINE
  5
A02
330
1D
100
AcDbEntity
  8
0
100
AcDbLine
 10
289.844115909022
 20
1055.23044318187
 30
0.0
 11
289.94315
 21
1055.161
 31
0.0
  0
LINE
  5
A03
330
1D
100
AcDbEntity
  8
0
100
AcDbLine
 10
288.87715
 20
1055.907
 30
0.0
 11
289.424454370127
 21
1056.68838663993
 31
0.0
  0
LINE
  5
A04
330
1D
100
AcDbEntity
  8
0
100
AcDbLine
 10
288.75015
 20
1055.997
 30
0.0
 11
288.87715
 21
1055.907
 31
0.0
  0
LINE
  5
A05
330
1D
100
AcDbEntity
  8
0
100
AcDbLine
 10
288.75015
 20
1055.997
 30
0.0
 11
289.291945301687
 21
1056.77072336893
 31
0.0
  0
LINE
  5
A06
330
1D
100
AcDbEntity
  8
0
100
AcDbLine
 10
289.52815
 20
1055.452
 30
0.0
 11
289.876966124323
 21
1055.95013497092
 31
0.0
  0
LINE
  5
A07
330
1D
100
AcDbEntity
  8
0
100
AcDbLine
 10
289.52815
 20
1055.452
 30
0.0
 11
289.94315
 21
1055.161
 31
0.0
  0
LINE
  5
A08
330
1D
100
AcDbEntity
  8
0
100
AcDbLine
 10
289.52815
 20
1055.452
 30
0.0
 11
290.022339285773
 21
1056.1577384918
 31
0.0
  0
LINE
  5
A09
330
1D
100
AcDbEntity
  8
0
100
AcDbLine
 10
289.54715
 20
1055.438
 30
0.0
 11
289.844115909022
 21
1055.23044318187
 31
0.0
  0
LINE
  5
A0A
330
1D
100
AcDbEntity
  8
0
100
AcDbLine
 10
289.54715
 20
1055.438
 30
0.0
 11
289.844115909022
 21
1055.23044318187
 31
0.0
  0
LINE
  5
A0B
330
1D
100
AcDbEntity
  8
0
100
AcDbLine
 10
291.44915
 20
1054.536
 30
0.0
 11
292.04715
 21
1054.118
 31
0.0
  0
LINE
  5
A0C
330
1D
100
AcDbEntity
  8
0
100
AcDbLine
 10
291.44915
 20
1054.536
 30
0.0
 11
292.092323955952
 21
1055.45506025615
 31
0.0
  0
LINE
  5
A0D
330
1D
100
AcDbEntity
  8
0
100
AcDbLine
 10
291.16815
 20
1054.733
 30
0.0
 11
291.44915
 21
1054.536
 31
0.0
  0
LINE
  5
A0E
330
1D
100
AcDbEntity
  8
0
100
AcDbLine
 10
291.16815
 20
1054.733
 30
0.0
 11
291.794513222226
 21
1055.62749255275
 31
0.0
  0
LINE
  5
A0F
330
1D
100
AcDbEntity
  8
0
100
AcDbLine
 10
290.56715
 20
1054.724
 30
0.0
 11
291.010327040281
 21
1054.41425260626
 31
0.0
  0
LINE
  5
A10
330
1D
100
AcDbEntity
  8
0
100
AcDbLine
 10
290.56715
 20
1054.724
 30
0.0
 11
291.03215
 21
1054.399
 31
0.0
  0
LINE
  5
A11
330
1D
100
AcDbEntity
  8
0
100
AcDbLine
 10
290.56715
 20
1054.724
 30
0.0
 11
291.112548740912
 21
1055.50334484425
 31
0.0
  0
LINE
  5
A12
330
1D
100
AcDbEntity
  8
0
100
AcDbLine
 10
289.94315
 20
1055.161
 30
0.0
 11
290.56715
 21
1054.724
 31
0.0
  0
LINE
  5
A13
330
1D
100
AcDbEntity
  8
0
100
AcDbLine
 10
289.94315
 20
1055.161
 30
0.0
 11
290.531157666941
 21
1056.00071801085
 31
0.0
  0
LINE
  5
A14
330
1D
100
AcDbEntity
  8
0
100
AcDbLine
 10
291.01015
 20
1054.414
 30
0.0
 11
291.09915
 21
1054.351
 31
0.0
  0
LINE
  5
A15
330
1D
100
AcDbEntity
  8
0
100
AcDbLine
 10
291.01015
 20
1054.414
 30
0.0
 11
291.099473593446
 21
1054.35151976624
 31
0.0
  0
LINE
  5
A16
330
1D
100
AcDbEntity
  8
0
100
AcDbLine
 10
292.50415
 20
1053.368
 30
0.0
 11
292.59315
 21
1053.306
 31
0.0
  0
LINE
  5
A17
330
1D
100
AcDbEntity
  8
0
100
AcDbLine
 10
292.048150000292
 20
1053.6869999998
 30
0.0
 11
292.49815
 21
1053.372
 31
0.0
  0
LINE
  5
A18
330
1D
100
AcDbEntity
  8
0
100
AcDbLine
 10
292.04815
 20
1053.687
 30
0.0
 11
292.56915
 21
1053.322
 31
0.0
  0
LINE
  5
A19
330
1D
100
AcDbEntity
  8
0
100
AcDbLine
 10
291.94815
 20
1053.757
 30
0.0
 11
292.56915
 21
1053.322
 31
0.0
  0
LINE
  5
A1A
330
1D
100
AcDbEntity
  8
0
100
AcDbLine
 10
291.94815
 20
1053.757
 30
0.0
 11
292.49815
 21
1053.372
 31
0.0
  0
LINE
  5
A1B
330
1D
100
AcDbEntity
  8
0
100
AcDbLine
 10
292.01415
 20
1053.711
 30
0.0
 11
292.50415
 21
1053.368
 31
0.0
  0
LINE
  5
A1C
330
1D
100
AcDbEntity
  8
0
100
AcDbLine
 10
291.75315
 20
1053.893
 30
0.0
 11
292.56915
 21
1053.322
 31
0.0
  0
LINE
  5
A1D
330
1D
100
AcDbEntity
  8
0
100
AcDbLine
 10
291.75315
 20
1053.893
 30
0.0
 11
292.04815
 21
1053.687
 31
0.0
  0
LINE
  5
A1E
330
1D
100
AcDbEntity
  8
0
100
AcDbLine
 10
291.75315
 20
1053.893
 30
0.0
 11
291.94815
 21
1053.757
 31
0.0
  0
LINE
  5
A1F
330
1D
100
AcDbEntity
  8
0
100
AcDbLine
 10
292.025969548907
 20
1053.70248872178
 30
0.0
 11
292.56915
 21
1053.322
 31
0.0
  0
LINE
  5
A20
330
1D
100
AcDbEntity
  8
0
100
AcDbLine
 10
292.20715
 20
1053.576
 30
0.0
 11
292.59315
 21
1053.306
 31
0.0
  0
LINE
  5
A21
330
1D
100
AcDbEntity
  8
0
100
AcDbLine
 10
292.20715
 20
1053.576
 30
0.0
 11
292.408966081493
 21
1053.86420814428
 31
0.0
  0
LINE
  5
A22
330
1D
100
AcDbEntity
  8
0
100
AcDbLine
 10
292.048150000292
 20
1053.6869999998
 30
0.0
 11
292.49815
 21
1053.372
 31
0.0
  0
LINE
  5
A23
330
1D
100
AcDbEntity
  8
0
100
AcDbLine
 10
292.49815
 20
1053.372
 30
0.0
 11
292.56915
 21
1053.322
 31
0.0
  0
LINE
  5
A24
330
1D
100
AcDbEntity
  8
0
100
AcDbLine
 10
292.49815
 20
1053.372
 30
0.0
 11
293.09115
 21
1052.957
 31
0.0
  0
LINE
  5
A25
330
1D
100
AcDbEntity
  8
0
100
AcDbLine
 10
293.091150000096
 20
1052.95699999993
 30
0.0
 11
293.19115
 21
1052.887
 31
0.0
  0
LINE
  5
A26
330
1D
100
AcDbEntity
  8
0
100
AcDbLine
 10
293.38615
 20
1052.751
 30
0.0
 11
293.940093768662
 21
1053.54207226946
 31
0.0
  0
LINE
  5
A27
330
1D
100
AcDbEntity
  8
0
100
AcDbLine
 10
293.19115
 20
1052.887
 30
0.0
 11
293.38615
 21
1052.751
 31
0.0
  0
LINE
  5
A28
330
1D
100
AcDbEntity
  8
0
100
AcDbLine
 10
292.78415
 20
1053.602
 30
0.0
 11
293.430497128449
 21
1054.52503103435
 31
0.0
  0
LINE
  5
A29
330
1D
100
AcDbEntity
  8
0
100
AcDbLine
 10
292.60315
 20
1053.728
 30
0.0
 11
292.78415
 21
1053.602
 31
0.0
  0
LINE
  5
A2A
330
1D
100
AcDbEntity
  8
0
100
AcDbLine
 10
292.60315
 20
1053.728
 30
0.0
 11
293.249854328297
 21
1054.65154114189
 31
0.0
  0
LINE
  5
A2B
330
1D
100
AcDbEntity
  8
0
100
AcDbLine
 10
292.59315
 20
1053.306
 30
0.0
 11
293.155572464699
 21
1054.10918046833
 31
0.0
  0
LINE
  5
A2C
330
1D
100
AcDbEntity
  8
0
100
AcDbLine
 10
293.09115
 20
1052.957
 30
0.0
 11
293.38615
 21
1052.751
 31
0.0
  0
LINE
  5
A2D
330
1D
100
AcDbEntity
  8
0
100
AcDbLine
 10
293.09115
 20
1052.957
 30
0.0
 11
293.632370049718
 21
1053.72990186699
 31
0.0
  0
LINE
  5
A2E
330
1D
100
AcDbEntity
  8
0
100
AcDbLine
 10
293.091150000096
 20
1052.95699999993
 30
0.0
 11
293.19115
 21
1052.887
 31
0.0
  0
LINE
  5
A2F
330
1D
100
AcDbEntity
  8
0
100
AcDbLine
 10
292.56915
 20
1053.322
 30
0.0
 11
292.627063043436
 21
1053.28178260873
 31
0.0
  0
LINE
  5
A30
330
1D
100
AcDbEntity
  8
0
100
AcDbLine
 10
292.56915
 20
1053.322
 30
0.0
 11
293.19115
 21
1052.887
 31
0.0
  0
LINE
  5
A31
330
1D
100
AcDbEntity
  8
0
100
AcDbLine
 10
292.56915
 20
1053.322
 30
0.0
 11
292.903541592816
 21
1053.08829424786
 31
0.0
  0
LINE
  5
A32
330
1D
100
AcDbEntity
  8
0
100
AcDbLine
 10
292.56915
 20
1053.322
 30
0.0
 11
293.09115
 21
1052.957
 31
0.0
  0
LINE
  5
A33
330
1D
100
AcDbEntity
  8
0
100
AcDbLine
 10
292.56915
 20
1053.322
 30
0.0
 11
292.903541592816
 21
1053.08829424786
 31
0.0
  0
LINE
  5
A34
330
1D
100
AcDbEntity
  8
0
100
AcDbLine
 10
291.687439340105
 20
1054.36943654822
 30
0.0
 11
291.90515
 21
1054.217
 31
0.0
  0
LINE
  5
A35
330
1D
100
AcDbEntity
  8
0
100
AcDbLine
 10
291.687439340105
 20
1054.36943654822
 30
0.0
 11
291.90515
 21
1054.217
 31
0.0
  0
LINE
  5
A36
330
1D
100
AcDbEntity
  8
0
100
AcDbLine
 10
291.90515
 20
1054.217
 30
0.0
 11
292.380486492952
 21
1053.88418483408
 31
0.0
  0
LINE
  5
A37
330
1D
100
AcDbEntity
  8
0
100
AcDbLine
 10
291.90515
 20
1054.217
 30
0.0
 11
292.380486492952
 21
1053.88418483408
 31
0.0
  0
LINE
  5
A38
330
1D
100
AcDbEntity
  8
0
100
AcDbLine
 10
292.04715
 20
1054.118
 30
0.0
 11
292.60315
 21
1053.728
 31
0.0
  0
LINE
  5
A39
330
1D
100
AcDbEntity
  8
0
100
AcDbLine
 10
292.04715
 20
1054.118
 30
0.0
 11
292.69356543966
 21
1055.04112858776
 31
0.0
  0
LINE
  5
A3A
330
1D
100
AcDbEntity
  8
0
100
AcDbLine
 10
291.743566216091
 20
1053.90058378387
 30
0.0
 11
292.01415
 21
1053.711
 31
0.0
  0
LINE
  5
A3B
330
1D
100
AcDbEntity
  8
0
100
AcDbLine
 10
291.743566216091
 20
1053.90058378387
 30
0.0
 11
292.01415
 21
1053.711
 31
0.0
  0
LINE
  5
A3C
330
1D
100
AcDbEntity
  8
0
100
AcDbLine
 10
291.59015
 20
1054.008
 30
0.0
 11
291.743566216091
 21
1053.90058378387
 31
0.0
  0
LINE
  5
A3D
330
1D
100
AcDbEntity
  8
0
100
AcDbLine
 10
291.59015
 20
1054.008
 30
0.0
 11
291.743566216091
 21
1053.90058378387
 31
0.0
  0
LINE
  5
A3E
330
1D
100
AcDbEntity
  8
0
100
AcDbLine
 10
291.59015
 20
1054.008
 30
0.0
 11
292.20715
 21
1053.576
 31
0.0
  0
LINE
  5
A3F
330
1D
100
AcDbEntity
  8
0
100
AcDbLine
 10
291.59015
 20
1054.008
 30
0.0
 11
291.791985308039
 21
1054.29623560119
 31
0.0
  0
LINE
  5
A40
330
1D
100
AcDbEntity
  8
0
100
AcDbLine
 10
288.84615
 20
1056.359
 30
0.0
 11
289.492702143761
 21
1057.28232381123
 31
0.0
  0
LINE
  5
A41
330
1D
100
AcDbEntity
  8
0
100
AcDbLine
 10
288.54915
 20
1056.137
 30
0.0
 11
288.87715
 21
1055.907
 31
0.0
  0
LINE
  5
A42
330
1D
100
AcDbEntity
  8
0
100
AcDbLine
 10
293.898427232034
 20
1053.48256940372
 30
0.0
 11
294.731666132
 21
1052.97129462977
 31
0.0
  0
LINE
  5
A43
330
1D
100
AcDbEntity
  8
0
100
AcDbLine
 10
288.66615
 20
1056.485
 30
0.0
 11
288.84615
 21
1056.359
 31
0.0
  0
LINE
  5
A44
330
1D
100
AcDbEntity
  8
0
100
AcDbLine
 10
288.56515
 20
1056.556
 30
0.0
 11
288.84615
 21
1056.359
 31
0.0
  0
LINE
  5
A45
330
1D
100
AcDbEntity
  8
0
100
AcDbLine
 10
288.56515
 20
1056.556
 30
0.0
 11
289.211581559985
 21
1057.47915160877
 31
0.0
  0
LINE
  5
A46
330
1D
100
AcDbEntity
  8
0
100
AcDbLine
 10
288.22015
 20
1056.368
 30
0.0
 11
288.75015
 21
1055.997
 31
0.0
  0
LINE
  5
A47
330
1D
100
AcDbEntity
  8
0
100
AcDbLine
 10
288.22015
 20
1056.368
 30
0.0
 11
288.421855398118
 21
1056.65605008031
 31
0.0
  0
LINE
  5
A48
330
1D
100
AcDbEntity
  8
0
100
AcDbLine
 10
287.28015
 20
1057.026
 30
0.0
 11
287.40815
 21
1056.936
 31
0.0
  0
LINE
  5
A49
330
1D
100
AcDbEntity
  8
0
100
AcDbLine
 10
287.28015
 20
1057.026
 30
0.0
 11
287.48190861312
 21
1057.31412607523
 31
0.0
  0
LINE
  5
A4A
330
1D
100
AcDbEntity
  8
0
100
AcDbLine
 10
287.28015
 20
1057.026
 30
0.0
 11
287.60915
 21
1056.795
 31
0.0
  0
LINE
  5
A4B
330
1D
100
AcDbEntity
  8
0
100
AcDbLine
 10
287.41115
 20
1057.364
 30
0.0
 11
287.96715
 21
1056.974
 31
0.0
  0
LINE
  5
A4C
330
1D
100
AcDbEntity
  8
0
100
AcDbLine
 10
287.41115
 20
1057.364
 30
0.0
 11
288.057571275092
 21
1058.28713692119
 31
0.0
  0
LINE
  5
A4D
330
1D
100
AcDbEntity
  8
0
100
AcDbLine
 10
288.326860659823
 20
1056.72256345183
 30
0.0
 11
288.66615
 21
1056.485
 31
0.0
  0
LINE
  5
A4E
330
1D
100
AcDbEntity
  8
0
100
AcDbLine
 10
288.326860659823
 20
1056.72256345183
 30
0.0
 11
288.66615
 21
1056.485
 31
0.0
  0
LINE
  5
A4F
330
1D
100
AcDbEntity
  8
0
100
AcDbLine
 10
287.51215
 20
1057.293
 30
0.0
 11
287.633813507055
 21
1057.20781516592
 31
0.0
  0
LINE
  5
A50
330
1D
100
AcDbEntity
  8
0
100
AcDbLine
 10
302.80115
 20
1060.171
 30
0.0
 11
309.35515
 21
1055.582
 31
0.0
  0
LINE
  5
A51
330
1D
100
AcDbEntity
  8
0
100
AcDbLine
 10
287.96715
 20
1056.974
 30
0.0
 11
288.56515
 21
1056.556
 31
0.0
  0
LINE
  5
A52
330
1D
100
AcDbEntity
  8
0
100
AcDbLine
 10
287.96715
 20
1056.974
 30
0.0
 11
288.614020190612
 21
1057.89753679653
 31
0.0
  0
LINE
  5
A53
330
1D
100
AcDbEntity
  8
0
100
AcDbLine
 10
287.60915
 20
1056.795
 30
0.0
 11
288.22015
 21
1056.368
 31
0.0
  0
LINE
  5
A54
330
1D
100
AcDbEntity
  8
0
100
AcDbLine
 10
287.60915
 20
1056.795
 30
0.0
 11
287.811045584765
 21
1057.08349770133
 31
0.0
  0
LINE
  5
A55
330
1D
100
AcDbEntity
  8
0
100
AcDbLine
 10
287.468150000003
 20
1056.894
 30
0.0
 11
287.60915
 21
1056.795
 31
0.0
  0
LINE
  5
A56
330
1D
100
AcDbEntity
  8
0
100
AcDbLine
 10
287.871007142821
 20
1056.61200000003
 30
0.0
 11
287.93815
 21
1056.565
 31
0.0
  0
LINE
  5
A57
330
1D
100
AcDbEntity
  8
0
100
AcDbLine
 10
287.40815
 20
1056.936
 30
0.0
 11
287.468150000003
 21
1056.894
 31
0.0
  0
LINE
  5
A58
330
1D
100
AcDbEntity
  8
0
100
AcDbLine
 10
287.93815
 20
1056.565
 30
0.0
 11
288.54915
 21
1056.137
 31
0.0
  0
LINE
  5
A59
330
1D
100
AcDbEntity
  8
0
100
AcDbLine
 10
287.23015
 20
1057.49
 30
0.0
 11
287.48190861312
 21
1057.31412607523
 31
0.0
  0
LINE
  5
A5A
330
1D
100
AcDbEntity
  8
0
100
AcDbLine
 10
287.23015
 20
1057.49
 30
0.0
 11
287.51215
 21
1057.293
 31
0.0
  0
LINE
  5
A5B
330
1D
100
AcDbEntity
  8
0
100
AcDbLine
 10
287.23015
 20
1057.49
 30
0.0
 11
287.41115
 21
1057.364
 31
0.0
  0
LINE
  5
A5C
330
1D
100
AcDbEntity
  8
0
100
AcDbLine
 10
287.23015
 20
1057.49
 30
0.0
 11
287.876648472221
 21
1058.4138108073
 31
0.0
  0
LINE
  5
A5D
330
1D
100
AcDbEntity
  8
0
100
AcDbLine
 10
289.198818315356
 20
1056.36624596591
 30
0.0
 11
289.876966124323
 21
1055.95013497092
 31
0.0
  0
LINE
  5
A5E
330
1D
100
AcDbEntity
  8
0
100
AcDbLine
 10
286.882037850232
 20
1057.83247279745
 30
0.0
 11
287.285720931464
 21
1057.56940780878
 31
0.0
  0
LINE
  5
A5F
330
1D
100
AcDbEntity
  8
0
100
AcDbLine
 10
302.51515
 20
1060.982
 30
0.0
 11
308.90415
 21
1056.508
 31
0.0
  0
LINE
  5
A60
330
1D
100
AcDbEntity
  8
0
100
AcDbLine
 10
309.35515
 20
1055.582
 30
0.0
 11
313.36815
 21
1052.772
 31
0.0
  0
LINE
  5
A61
330
1D
100
AcDbEntity
  8
0
100
AcDbLine
 10
308.90415
 20
1056.508
 30
0.0
 11
312.83615
 21
1053.755
 31
0.0
  0
LINE
  5
A62
330
1D
100
AcDbEntity
  8
0
100
AcDbLine
 10
294.28215
 20
1066.136
 30
0.0
 11
302.80115
 21
1060.171
 31
0.0
  0
LINE
  5
A63
330
1D
100
AcDbEntity
  8
0
100
AcDbLine
 10
294.15915
 20
1066.833
 30
0.0
 11
302.51515
 21
1060.982
 31
0.0
  0
LINE
  5
A64
330
1D
100
AcDbEntity
  8
0
100
AcDbLine
 10
294.85615
 20
1066.955
 30
0.0
 11
303.37515
 21
1060.99
 31
0.0
  0
LINE
  5
A65
330
1D
100
AcDbEntity
  8
0
100
AcDbLine
 10
303.37515
 20
1060.99
 30
0.0
 11
309.92815
 21
1056.402
 31
0.0
  0
LINE
  5
A66
330
1D
100
AcDbEntity
  8
0
100
AcDbLine
 10
313.36815
 20
1052.772
 30
0.0
 11
314.84315
 21
1051.739
 31
0.0
  0
LINE
  5
A67
330
1D
100
AcDbEntity
  8
0
100
AcDbLine
 10
312.83615
 20
1053.755
 30
0.0
 11
324.82715
 21
1044.45
 31
0.0
  0
LINE
  5
A68
330
1D
100
AcDbEntity
  8
0
100
AcDbLine
 10
309.92815
 20
1056.402
 30
0.0
 11
313.94215
 21
1053.591
 31
0.0
  0
LINE
  5
A6A
330
1D
100
AcDbEntity
  8
0
100
AcDbLine
 10
313.94215
 20
1053.591
 30
0.0
 11
315.41615
 21
1052.559
 31
0.0
  0
LINE
  5
A6B
330
1D
100
AcDbEntity
  8
0
100
AcDbLine
 10
298.510339819723
 20
1093.55802432706
 30
0.0
 11
300.27515
 21
1092.278
 31
0.0
  0
LINE
  5
A6C
330
1D
100
AcDbEntity
  8
0
100
AcDbLine
 10
300.27515
 20
1092.278
 30
0.0
 11
300.72267218667
 21
1091.91383587638
 31
0.0
  0
LINE
  5
A6D
330
1D
100
AcDbEntity
  8
0
100
AcDbLine
 10
300.27515
 20
1092.278
 30
0.0
 11
307.93715
 21
1086.639
 31
0.0
  0
LINE
  5
A6E
330
1D
100
AcDbEntity
  8
0
100
AcDbLine
 10
307.93715
 20
1086.639
 30
0.0
 11
319.48915
 21
1076.779
 31
0.0
  0
LINE
  5
A6F
330
1D
100
AcDbEntity
  8
0
100
AcDbLine
 10
284.94415
 20
1073.896
 30
0.0
 11
294.85615
 21
1066.955
 31
0.0
  0
LINE
  5
A70
330
1D
100
AcDbEntity
  8
0
100
AcDbLine
 10
231.45215
 20
1099.144
 30
0.0
 11
233.21315
 21
1097.3
 31
0.0
  0
LINE
  5
A71
330
1D
100
AcDbEntity
  8
0
100
AcDbLine
 10
233.21315
 20
1097.3
 30
0.0
 11
234.15515
 21
1096.03
 31
0.0
  0
LINE
  5
A72
330
1D
100
AcDbEntity
  8
0
100
AcDbLine
 10
244.96915
 20
1100.666
 30
0.0
 11
253.48815
 21
1094.7
 31
0.0
  0
LINE
  5
A73
330
1D
100
AcDbEntity
  8
0
100
AcDbLine
 10
234.15515
 20
1096.03
 30
0.0
 11
235.445840220188
 21
1095.00448867762
 31
0.0
  0
LINE
  5
A74
330
1D
100
AcDbEntity
  8
0
100
AcDbLine
 10
245.82915
 20
1100.674
 30
0.0
 11
254.18515
 21
1094.823
 31
0.0
  0
LINE
  5
A75
330
1D
100
AcDbEntity
  8
0
100
AcDbLine
 10
254.06215
 20
1095.52
 30
0.0
 11
263.97415
 21
1088.579
 31
0.0
  0
LINE
  5
A76
330
1D
100
AcDbEntity
  8
0
100
AcDbLine
 10
234.40215
 20
1108.065
 30
0.0
 11
238.41615
 21
1105.254
 31
0.0
  0
LINE
  5
A77
330
1D
100
AcDbEntity
  8
0
100
AcDbLine
 10
231.49415
 20
1107.049
 30
0.0
 11
232.92815
 21
1109.097
 31
0.0
  0
LINE
  5
A78
330
1D
100
AcDbEntity
  8
0
100
AcDbLine
 10
230.46915
 20
1104.715
 30
0.0
 11
231.49415
 21
1107.049
 31
0.0
  0
LINE
  5
A79
330
1D
100
AcDbEntity
  8
0
100
AcDbLine
 10
230.26415
 20
1101.806
 30
0.0
 11
231.45215
 21
1099.144
 31
0.0
  0
LINE
  5
A7A
330
1D
100
AcDbEntity
  8
0
100
AcDbLine
 10
230.26415
 20
1101.806
 30
0.0
 11
230.46915
 21
1104.715
 31
0.0
  0
LINE
  5
A7B
330
1D
100
AcDbEntity
  8
0
100
AcDbLine
 10
232.92815
 20
1109.097
 30
0.0
 11
234.03415
 21
1108.933
 31
0.0
  0
LINE
  5
A7C
330
1D
100
AcDbEntity
  8
0
100
AcDbLine
 10
232.92815
 20
1109.097
 30
0.0
 11
234.40215
 21
1108.065
 31
0.0
  0
LINE
  5
A7D
330
1D
100
AcDbEntity
  8
0
100
AcDbLine
 10
234.03415
 20
1108.933
 30
0.0
 11
235.50815
 21
1107.901
 31
0.0
  0
LINE
  5
A7E
330
1D
100
AcDbEntity
  8
0
100
AcDbLine
 10
238.41615
 20
1105.254
 30
0.0
 11
244.96915
 21
1100.666
 31
0.0
  0
LINE
  5
A7F
330
1D
100
AcDbEntity
  8
0
100
AcDbLine
 10
239.44015
 20
1105.148
 30
0.0
 11
245.82915
 21
1100.674
 31
0.0
  0
LINE
  5
A80
330
1D
100
AcDbEntity
  8
0
100
AcDbLine
 10
235.50815
 20
1107.901
 30
0.0
 11
239.44015
 21
1105.148
 31
0.0
  0
LINE
  5
A81
330
1D
100
AcDbEntity
  8
0
100
AcDbLine
 10
238.99015
 20
1106.073
 30
0.0
 11
245.54315
 21
1101.485
 31
0.0
  0
LINE
  5
A82
330
1D
100
AcDbEntity
  8
0
100
AcDbLine
 10
234.97615
 20
1108.884
 30
0.0
 11
238.99015
 21
1106.073
 31
0.0
  0
LINE
  5
A83
330
1D
100
AcDbEntity
  8
0
100
AcDbLine
 10
233.50115
 20
1109.916
 30
0.0
 11
239.52415
 21
1118.517
 31
0.0
  0
LINE
  5
A84
330
1D
100
AcDbEntity
  8
0
100
AcDbLine
 10
233.50115
 20
1109.916
 30
0.0
 11
234.03415
 21
1108.933
 31
0.0
  0
LINE
  5
A85
330
1D
100
AcDbEntity
  8
0
100
AcDbLine
 10
233.50115
 20
1109.916
 30
0.0
 11
234.97615
 21
1108.884
 31
0.0
  0
LINE
  5
A86
330
1D
100
AcDbEntity
  8
0
100
AcDbLine
 10
245.54315
 20
1101.485
 30
0.0
 11
254.06215
 21
1095.52
 31
0.0
  0
LINE
  5
A87
330
1D
100
AcDbEntity
  8
0
100
AcDbLine
 10
284.35815
 20
1104.093
 30
0.0
 11
288.51115
 21
1101.307
 31
0.0
  0
LINE
  5
A88
330
1D
100
AcDbEntity
  8
0
100
AcDbLine
 10
280.14815
 20
1106.797
 30
0.0
 11
284.35815
 21
1104.093
 31
0.0
  0
LINE
  5
A89
330
1D
100
AcDbEntity
  8
0
100
AcDbLine
 10
274.01215
 20
1110.238
 30
0.0
 11
280.14815
 21
1106.797
 31
0.0
  0
LINE
  5
A8A
330
1D
100
AcDbEntity
  8
0
100
AcDbLine
 10
268.52415
 20
1112.861
 30
0.0
 11
274.01215
 21
1110.238
 31
0.0
  0
LINE
  5
A8B
330
1D
100
AcDbEntity
  8
0
100
AcDbLine
 10
263.85415
 20
1114.909
 30
0.0
 11
268.52415
 21
1112.861
 31
0.0
  0
LINE
  5
A8C
330
1D
100
AcDbEntity
  8
0
100
AcDbLine
 10
256.97315
 20
1117.286
 30
0.0
 11
263.85415
 21
1114.909
 31
0.0
  0
LINE
  5
A8D
330
1D
100
AcDbEntity
  8
0
100
AcDbLine
 10
250.21515
 20
1118.966
 30
0.0
 11
256.97315
 21
1117.286
 31
0.0
  0
LINE
  5
A8E
330
1D
100
AcDbEntity
  8
0
100
AcDbLine
 10
245.09515
 20
1119.5
 30
0.0
 11
250.21515
 21
1118.966
 31
0.0
  0
LINE
  5
A8F
330
1D
100
AcDbEntity
  8
0
100
AcDbLine
 10
240.50715
 20
1119.05
 30
0.0
 11
245.09515
 21
1119.5
 31
0.0
  0
LINE
  5
A90
330
1D
100
AcDbEntity
  8
0
100
AcDbLine
 10
239.52415
 20
1118.517
 30
0.0
 11
240.50715
 21
1119.05
 31
0.0
  0
LINE
  5
A91
330
1D
100
AcDbEntity
  8
0
100
AcDbLine
 10
288.51115
 20
1101.307
 30
0.0
 11
292.55015
 21
1098.357
 31
0.0
  0
LINE
  5
A92
330
1D
100
AcDbEntity
  8
0
100
AcDbLine
 10
292.55015
 20
1098.357
 30
0.0
 11
296.53115
 21
1095.325
 31
0.0
  0
LINE
  5
A93
330
1D
100
AcDbEntity
  8
0
100
AcDbLine
 10
296.53115
 20
1095.325
 30
0.0
 11
299.210951745748
 21
1093.01912407924
 31
0.0
  0
LINE
  5
A98
330
1D
100
AcDbEntity
  8
0
100
AcDbLine
 10
324.169621911254
 20
1072.57347365327
 30
0.0
 11
328.83815
 21
1068.626
 31
0.0
  0
LINE
  5
A9A
330
1D
100
AcDbEntity
  8
0
100
AcDbLine
 10
324.169621911254
 20
1072.57347365327
 30
0.0
 11
328.83815
 21
1068.626
 31
0.0
  0
LINE
  5
A9B
330
1D
100
AcDbEntity
  8
0
100
AcDbLine
 10
328.83815
 20
1068.626
 30
0.0
 11
337.69915
 21
1060.748
 31
0.0
  0
LINE
  5
A9D
330
1D
100
AcDbEntity
  8
0
100
AcDbLine
 10
337.69915
 20
1060.748
 30
0.0
 11
346.79615
 21
1052.22
 31
0.0
  0
LINE
  5
A9E
330
1D
100
AcDbEntity
  8
0
100
AcDbLine
 10
319.48915
 20
1076.779
 30
0.0
 11
324.169621911254
 21
1072.57347365327
 31
0.0
  0
LINE
  5
AA3
330
1D
100
AcDbEntity
  8
0
100
AcDbLine
 10
206.24215
 20
1385.349
 30
0.0
 11
207.39215
 21
1387.429
 31
0.0
  0
LINE
  5
AAB
330
1D
100
AcDbEntity
  8
0
100
AcDbLine
 10
207.39315
 20
1387.429
 30
0.0
 11
211.20315
 21
1397.909
 31
0.0
  0
LINE
  5
AB6
330
1D
100
AcDbEntity
  8
0
100
AcDbLine
 10
206.24415
 20
1385.349
 30
0.0
 11
207.39315
 21
1387.429
 31
0.0
  0
LINE
  5
AB8
330
1D
100
AcDbEntity
  8
0
100
AcDbLine
 10
174.44815
 20
1543.639
 30
0.0
 11
437.79515
 21
1492.639
 31
0.0
  0
LINE
  5
AB9
330
1D
100
AcDbEntity
  8
0
100
AcDbLine
 10
168.75415
 20
1522.389
 30
0.0
 11
426.79515
 21
1473.589
 31
0.0
  0
LINE
  5
ABA
330
1D
100
AcDbEntity
  8
0
100
AcDbLine
 10
406.34615
 20
941.547
 30
0.0
 11
408.87615
 21
943.007
 31
0.0
  0
LINE
  5
ABC
330
1D
100
AcDbEntity
  8
0
100
AcDbLine
 10
409.77215
 20
943.899
 30
0.0
 11
412.18315
 21
945.291
 31
0.0
  0
LINE
  5
ABD
330
1D
100
AcDbEntity
  8
0
100
AcDbLine
 10
408.87615
 20
943.007
 30
0.0
 11
411.74015
 21
944.661
 31
0.0
  0
LINE
  5
ABE
330
1D
100
AcDbEntity
  8
0
100
AcDbLine
 10
427.40515
 20
10.553
 30
0.0
 11
427.81015
 21
7.775
 31
0.0
  0
LINE
  5
ABF
330
1D
100
AcDbEntity
  8
0
100
AcDbLine
 10
427.81015
 20
7.775
 30
0.0
 11
427.868102952624
 21
7.577779484757
 31
0.0
  0
LINE
  5
AC0
330
1D
100
AcDbEntity
  8
0
100
AcDbLine
 10
427.808961310454
 20
8.079750282345
 30
0.0
 11
427.81015
 21
7.775
 31
0.0
  0
LINE
  5
AC1
330
1D
100
AcDbEntity
  8
0
100
AcDbLine
 10
427.80215
 20
9.826
 30
0.0
 11
427.837543522815
 21
9.971587789724
 31
0.0
  0
LINE
  5
AC2
330
1D
100
AcDbEntity
  8
0
100
AcDbLine
 10
427.80215
 20
9.826
 30
0.0
 11
427.806871200024
 21
8.61560234392
 31
0.0
  0
LINE
  5
AC3
330
1D
100
AcDbEntity
  8
0
100
AcDbLine
 10
427.81815
 20
9.121
 30
0.0
 11
427.88215
 21
11.928
 31
0.0
  0
LINE
  5
AC4
330
1D
100
AcDbEntity
  8
0
100
AcDbLine
 10
427.79715
 20
8.18
 30
0.0
 11
427.81815
 21
9.121
 31
0.0
  0
LINE
  5
AC5
330
1D
100
AcDbEntity
  8
0
100
AcDbLine
 10
427.79715
 20
8.18
 30
0.0
 11
428.03915
 21
6.126
 31
0.0
  0
LINE
  5
AC6
330
1D
100
AcDbEntity
  8
0
100
AcDbLine
 10
427.79715
 20
8.18
 30
0.0
 11
427.80715
 21
8.056
 31
0.0
  0
LINE
  5
AC7
330
1D
100
AcDbEntity
  8
0
100
AcDbLine
 10
426.73715
 20
15.13
 30
0.0
 11
427.40515
 21
10.553
 31
0.0
  0
LINE
  5
AC8
330
1D
100
AcDbEntity
  8
0
100
AcDbLine
 10
425.81815
 20
21.427
 30
0.0
 11
426.73715
 21
15.13
 31
0.0
  0
LINE
  5
AC9
330
1D
100
AcDbEntity
  8
0
100
AcDbLine
 10
427.88215
 20
11.928
 30
0.0
 11
427.98715
 21
16.551
 31
0.0
  0
LINE
  5
ACA
330
1D
100
AcDbEntity
  8
0
100
AcDbLine
 10
428.03915
 20
6.126
 30
0.0
 11
428.76315
 21
4.189
 31
0.0
  0
LINE
  5
ACB
330
1D
100
AcDbEntity
  8
0
100
AcDbLine
 10
427.98715
 20
16.551
 30
0.0
 11
428.13115
 21
22.914
 31
0.0
  0
LINE
  5
ACC
330
1D
100
AcDbEntity
  8
0
100
AcDbLine
 10
423.29515
 20
38.725
 30
0.0
 11
424.66415
 21
29.337
 31
0.0
  0
LINE
  5
ACD
330
1D
100
AcDbEntity
  8
0
100
AcDbLine
 10
424.66415
 20
29.337
 30
0.0
 11
425.81815
 21
21.427
 31
0.0
  0
LINE
  5
ACE
330
1D
100
AcDbEntity
  8
0
100
AcDbLine
 10
428.13115
 20
22.914
 30
0.0
 11
428.31215
 21
30.906
 31
0.0
  0
LINE
  5
ACF
330
1D
100
AcDbEntity
  8
0
100
AcDbLine
 10
428.76315
 20
4.189
 30
0.0
 11
430.00415
 21
2.465
 31
0.0
  0
LINE
  5
AD0
330
1D
100
AcDbEntity
  8
0
100
AcDbLine
 10
430.00415
 20
2.465
 30
0.0
 11
431.67115
 21
1.147
 31
0.0
  0
LINE
  5
AD1
330
1D
100
AcDbEntity
  8
0
100
AcDbLine
 10
428.31215
 20
30.906
 30
0.0
 11
428.52815
 21
40.39
 31
0.0
  0
LINE
  5
AD2
330
1D
100
AcDbEntity
  8
0
100
AcDbLine
 10
416.17615
 20
87.52
 30
0.0
 11
418.14315
 21
74.037
 31
0.0
  0
LINE
  5
AD3
330
1D
100
AcDbEntity
  8
0
100
AcDbLine
 10
414.13815
 20
101.484
 30
0.0
 11
416.17615
 21
87.52
 31
0.0
  0
LINE
  5
AD4
330
1D
100
AcDbEntity
  8
0
100
AcDbLine
 10
420.00615
 20
61.268
 30
0.0
 11
421.73315
 21
49.429
 31
0.0
  0
LINE
  5
AD5
330
1D
100
AcDbEntity
  8
0
100
AcDbLine
 10
421.73315
 20
49.429
 30
0.0
 11
423.29515
 21
38.725
 31
0.0
  0
LINE
  5
AD6
330
1D
100
AcDbEntity
  8
0
100
AcDbLine
 10
418.14315
 20
74.037
 30
0.0
 11
420.00615
 21
61.268
 31
0.0
  0
LINE
  5
AD7
330
1D
100
AcDbEntity
  8
0
100
AcDbLine
 10
417.27415
 20
332.994
 30
0.0
 11
417.93615
 21
327.9459
 31
0.0
  0
LINE
  5
AD8
330
1D
100
AcDbEntity
  8
0
100
AcDbLine
 10
417.27415
 20
332.994
 30
0.0
 11
417.90615
 21
337.9947
 31
0.0
  0
LINE
  5
ADB
330
1D
100
AcDbEntity
  8
0
100
AcDbLine
 10
417.93615
 20
327.9459
 30
0.0
 11
419.88715
 21
323.2428
 31
0.0
  0
LINE
  5
ADD
330
1D
100
AcDbEntity
  8
0
100
AcDbLine
 10
422.93415
 20
319.2281
 30
0.0
 11
427.03015
 21
316.0859
 31
0.0
  0
LINE
  5
AE0
330
1D
100
AcDbEntity
  8
0
100
AcDbLine
 10
419.88715
 20
323.2428
 30
0.0
 11
422.93415
 21
319.2281
 31
0.0
  0
LINE
  5
AE4
330
1D
100
AcDbEntity
  8
0
100
AcDbLine
 10
417.90615
 20
337.9947
 30
0.0
 11
419.88215
 21
342.7638
 31
0.0
  0
LINE
  5
AE6
330
1D
100
AcDbEntity
  8
0
100
AcDbLine
 10
419.88215
 20
342.7638
 30
0.0
 11
423.02415
 21
346.8595
 31
0.0
  0
LINE
  5
AE8
330
1D
100
AcDbEntity
  8
0
100
AcDbLine
 10
423.02415
 20
346.8595
 30
0.0
 11
427.03915
 21
349.9071
 31
0.0
  0
LINE
  5
AEF
330
1D
100
AcDbEntity
  8
0
100
AcDbLine
 10
427.03915
 20
349.9071
 30
0.0
 11
429.012992877047
 21
350.725680299254
 31
0.0
  0
LINE
  5
AF0
330
1D
100
AcDbEntity
  8
0
100
AcDbLine
 10
427.03015
 20
316.0859
 30
0.0
 11
431.79915
 21
314.11
 31
0.0
  0
LINE
  5
AF5
330
1D
100
AcDbEntity
  8
0
100
AcDbLine
 10
427.11615
 20
358.358
 30
0.0
 11
429.398225687846
 21
349.839851190575
 31
0.0
  0
LINE
  5
AF6
330
1D
100
AcDbEntity
  8
0
100
AcDbLine
 10
427.11615
 20
359.7926
 30
0.0
 11
427.39215
 21
360.473
 31
0.0
  0
LINE
  5
AF7
330
1D
100
AcDbEntity
  8
0
100
AcDbLine
 10
427.02815
 20
359.0738
 30
0.0
 11
427.11615
 21
358.358
 31
0.0
  0
LINE
  5
AF8
330
1D
100
AcDbEntity
  8
0
100
AcDbLine
 10
427.02815
 20
359.0738
 30
0.0
 11
427.11615
 21
359.7926
 31
0.0
  0
LINE
  5
AF9
330
1D
100
AcDbEntity
  8
0
100
AcDbLine
 10
427.39215
 20
360.473
 30
0.0
 11
427.84315
 21
361.0524
 31
0.0
  0
LINE
  5
AFB
330
1D
100
AcDbEntity
  8
0
100
AcDbLine
 10
427.84315
 20
361.0524
 30
0.0
 11
428.42215
 21
361.4883
 31
0.0
  0
LINE
  5
B02
330
1D
100
AcDbEntity
  8
0
100
AcDbLine
 10
428.42215
 20
361.4883
 30
0.0
 11
429.08615
 21
361.7698
 31
0.0
  0
LINE
  5
B04
330
1D
100
AcDbEntity
  8
0
100
AcDbLine
 10
427.89815
 20
118.002
 30
0.0
 11
429.965879554244
 21
103.830122765702
 31
0.0
  0
LINE
  5
B05
330
1D
100
AcDbEntity
  8
0
100
AcDbLine
 10
412.06615
 20
115.692
 30
0.0
 11
414.13815
 21
101.484
 31
0.0
  0
LINE
  5
B06
330
1D
100
AcDbEntity
  8
0
100
AcDbLine
 10
429.04415
 20
63.166
 30
0.0
 11
429.33715
 21
76.068
 31
0.0
  0
LINE
  5
B07
330
1D
100
AcDbEntity
  8
0
100
AcDbLine
 10
429.33715
 20
76.068
 30
0.0
 11
429.64615
 21
89.689
 31
0.0
  0
LINE
  5
B08
330
1D
100
AcDbEntity
  8
0
100
AcDbLine
 10
429.64615
 20
89.689
 30
0.0
 11
429.96515
 21
103.798
 31
0.0
  0
LINE
  5
B09
330
1D
100
AcDbEntity
  8
0
100
AcDbLine
 10
429.80215
 20
361.8581
 30
0.0
 11
430.52115
 21
361.7697
 31
0.0
  0
LINE
  5
B0A
330
1D
100
AcDbEntity
  8
0
100
AcDbLine
 10
429.08615
 20
361.7698
 30
0.0
 11
429.80215
 21
361.8581
 31
0.0
  0
LINE
  5
B0D
330
1D
100
AcDbEntity
  8
0
100
AcDbLine
 10
430.52115
 20
361.7697
 30
0.0
 11
431.20115
 21
361.4935
 31
0.0
  0
LINE
  5
B0E
330
1D
100
AcDbEntity
  8
0
100
AcDbLine
 10
431.20115
 20
361.4935
 30
0.0
 11
431.78015
 21
361.0423
 31
0.0
  0
LINE
  5
B10
330
1D
100
AcDbEntity
  8
0
100
AcDbLine
 10
430.29115
 20
118.152
 30
0.0
 11
431.83715
 21
186.328
 31
0.0
  0
LINE
  5
B11
330
1D
100
AcDbEntity
  8
0
100
AcDbLine
 10
429.96515
 20
103.798
 30
0.0
 11
430.29115
 21
118.152
 31
0.0
  0
LINE
  5
B12
330
1D
100
AcDbEntity
  8
0
100
AcDbLine
 10
428.77315
 20
51.206
 30
0.0
 11
429.04415
 21
63.166
 31
0.0
  0
LINE
  5
B13
330
1D
100
AcDbEntity
  8
0
100
AcDbLine
 10
428.52815
 20
40.39
 30
0.0
 11
428.77315
 21
51.206
 31
0.0
  0
LINE
  5
B14
330
1D
100
AcDbEntity
  8
0
100
AcDbLine
 10
435.61415
 20
0.001
 30
0.0
 11
437.66815
 21
0.243
 31
0.0
  0
LINE
  5
B16
330
1D
100
AcDbEntity
  8
0
100
AcDbLine
 10
431.78015
 20
361.0423
 30
0.0
 11
432.21615
 21
360.4641
 31
0.0
  0
LINE
  5
B17
330
1D
100
AcDbEntity
  8
0
100
AcDbLine
 10
432.49815
 20
359.8
 30
0.0
 11
434.780209125699
 21
351.281913010976
 31
0.0
  0
LINE
  5
B18
330
1D
100
AcDbEntity
  8
0
100
AcDbLine
 10
432.21615
 20
360.4641
 30
0.0
 11
432.49815
 21
359.8
 31
0.0
  0
LINE
  5
B19
330
1D
100
AcDbEntity
  8
0
100
AcDbLine
 10
431.79915
 20
314.11
 30
0.0
 11
434.72684648271
 21
313.740013161953
 31
0.0
  0
LINE
  5
B1C
330
1D
100
AcDbEntity
  8
0
100
AcDbLine
 10
434.670918163129
 20
352.241871812217
 30
0.0
 11
435.602488704797
 21
352.364131218686
 31
0.0
  0
LINE
  5
B20
330
1D
100
AcDbEntity
  8
0
100
AcDbLine
 10
435.79515
 20
874.378713138995
 30
0.0
 11
435.79515
 21
360.86231966046
 31
0.0
  0
LINE
  5
B21
330
1D
100
AcDbEntity
  8
0
100
AcDbLine
 10
434.55815
 20
306.2989
 30
0.0
 11
436.38415
 21
386.8428
 31
0.0
  0
LINE
  5
B22
330
1D
100
AcDbEntity
  8
0
100
AcDbLine
 10
433.19315
 20
246.123
 30
0.0
 11
434.55815
 21
306.2989
 31
0.0
  0
LINE
  5
B23
330
1D
100
AcDbEntity
  8
0
100
AcDbLine
 10
431.83715
 20
186.328
 30
0.0
 11
433.19315
 21
246.123
 31
0.0
  0
LINE
  5
B24
330
1D
100
AcDbEntity
  8
0
100
AcDbLine
 10
431.67115
 20
1.147
 30
0.0
 11
433.57315
 21
0.335
 31
0.0
  0
LINE
  5
B25
330
1D
100
AcDbEntity
  8
0
100
AcDbLine
 10
433.57315
 20
0.335
 30
0.0
 11
435.61415
 21
0.001
 31
0.0
  0
LINE
  5
B26
330
1D
100
AcDbEntity
  8
0
100
AcDbLine
 10
436.38415
 20
386.8428
 30
0.0
 11
438.31315
 21
471.907
 31
0.0
  0
LINE
  5
B27
330
1D
100
AcDbEntity
  8
0
100
AcDbLine
 10
438.31315
 20
471.907
 30
0.0
 11
440.08815
 21
550.142
 31
0.0
  0
LINE
  5
B28
330
1D
100
AcDbEntity
  8
0
100
AcDbLine
 10
440.08815
 20
550.142
 30
0.0
 11
443.91815
 21
676.313
 31
0.0
  0
LINE
  5
B29
330
1D
100
AcDbEntity
  8
0
100
AcDbLine
 10
439.60515
 20
0.967
 30
0.0
 11
441.32915
 21
2.208
 31
0.0
  0
LINE
  5
B2A
330
1D
100
AcDbEntity
  8
0
100
AcDbLine
 10
437.66815
 20
0.243
 30
0.0
 11
439.60515
 21
0.967
 31
0.0
  0
LINE
  5
B2B
330
1D
100
AcDbEntity
  8
0
100
AcDbLine
 10
436.84415
 20
870.976
 30
0.0
 11
442.18915
 21
846.401
 31
0.0
  0
LINE
  5
B2C
330
1D
100
AcDbEntity
  8
0
100
AcDbLine
 10
435.79515
 20
360.86231966046
 30
0.0
 11
435.79515
 21
874.378713138995
 31
0.0
  0
LINE
  5
B2D
330
1D
100
AcDbEntity
  8
0
100
AcDbLine
 10
434.03015
 20
878.308
 30
0.0
 11
434.75659340575
 21
877.74755028756
 31
0.0
  0
LINE
  5
B2E
330
1D
100
AcDbEntity
  8
0
100
AcDbLine
 10
431.20615
 20
881.999
 30
0.0
 11
434.03015
 21
878.308
 31
0.0
  0
LINE
  5
B2F
330
1D
100
AcDbEntity
  8
0
100
AcDbLine
 10
429.42215
 20
886.29
 30
0.0
 11
431.20615
 21
881.999
 31
0.0
  0
LINE
  5
B30
330
1D
100
AcDbEntity
  8
0
100
AcDbLine
 10
438.969195092678
 20
885.357690050649
 30
0.0
 11
440.61115
 21
888.041
 31
0.0
  0
LINE
  5
B31
330
1D
100
AcDbEntity
  8
0
100
AcDbLine
 10
442.64715
 20
3.875
 30
0.0
 11
443.45915
 21
5.777
 31
0.0
  0
LINE
  5
B32
330
1D
100
AcDbEntity
  8
0
100
AcDbLine
 10
441.32915
 20
2.208
 30
0.0
 11
442.64715
 21
3.875
 31
0.0
  0
LINE
  5
B33
330
1D
100
AcDbEntity
  8
0
100
AcDbLine
 10
442.18915
 20
846.401
 30
0.0
 11
445.94015
 21
822.072
 31
0.0
  0
LINE
  5
B34
330
1D
100
AcDbEntity
  8
0
100
AcDbLine
 10
443.45915
 20
5.777
 30
0.0
 11
443.79315
 21
7.818
 31
0.0
  0
LINE
  5
B35
330
1D
100
AcDbEntity
  8
0
100
AcDbLine
 10
443.91815
 20
676.313
 30
0.0
 11
446.888745702314
 21
726.297161402284
 31
0.0
  0
LINE
  5
B36
330
1D
100
AcDbEntity
  8
0
100
AcDbLine
 10
443.91815
 20
676.313
 30
0.0
 11
446.888745702314
 21
726.297161402284
 31
0.0
  0
LINE
  5
B37
330
1D
100
AcDbEntity
  8
0
100
AcDbLine
 10
443.87815
 20
11.565
 30
0.0
 11
443.98315
 21
16.189
 31
0.0
  0
LINE
  5
B38
330
1D
100
AcDbEntity
  8
0
100
AcDbLine
 10
443.81415
 20
8.758
 30
0.0
 11
443.87815
 21
11.565
 31
0.0
  0
LINE
  5
B39
330
1D
100
AcDbEntity
  8
0
100
AcDbLine
 10
444.30815
 20
30.543
 30
0.0
 11
444.52315
 21
40.028
 31
0.0
  0
LINE
  5
B3A
330
1D
100
AcDbEntity
  8
0
100
AcDbLine
 10
445.04015
 20
62.803
 30
0.0
 11
445.33315
 21
75.705
 31
0.0
  0
LINE
  5
B3B
330
1D
100
AcDbEntity
  8
0
100
AcDbLine
 10
445.64115
 20
89.327
 30
0.0
 11
445.96115
 21
103.435
 31
0.0
  0
LINE
  5
B3C
330
1D
100
AcDbEntity
  8
0
100
AcDbLine
 10
445.33315
 20
75.705
 30
0.0
 11
445.64115
 21
89.327
 31
0.0
  0
LINE
  5
B3D
330
1D
100
AcDbEntity
  8
0
100
AcDbLine
 10
444.76915
 20
50.843
 30
0.0
 11
445.04015
 21
62.803
 31
0.0
  0
LINE
  5
B3E
330
1D
100
AcDbEntity
  8
0
100
AcDbLine
 10
444.52315
 20
40.028
 30
0.0
 11
444.76915
 21
50.843
 31
0.0
  0
LINE
  5
B3F
330
1D
100
AcDbEntity
  8
0
100
AcDbLine
 10
444.12715
 20
22.551
 30
0.0
 11
444.30815
 21
30.543
 31
0.0
  0
LINE
  5
B40
330
1D
100
AcDbEntity
  8
0
100
AcDbLine
 10
443.98315
 20
16.189
 30
0.0
 11
444.12715
 21
22.551
 31
0.0
  0
LINE
  5
B41
330
1D
100
AcDbEntity
  8
0
100
AcDbLine
 10
443.79315
 20
7.818
 30
0.0
 11
443.81415
 21
8.758
 31
0.0
  0
LINE
  5
B42
330
1D
100
AcDbEntity
  8
0
100
AcDbLine
 10
443.09140422078
 20
887.573067447435
 30
0.0
 11
444.68915
 21
889.103
 31
0.0
  0
LINE
  5
B43
330
1D
100
AcDbEntity
  8
0
100
AcDbLine
 10
444.68915
 20
889.103
 30
0.0
 11
446.93115
 21
890.764
 31
0.0
  0
LINE
  5
B44
330
1D
100
AcDbEntity
  8
0
100
AcDbLine
 10
440.61115
 20
888.041
 30
0.0
 11
442.98315
 21
890.546
 31
0.0
  0
LINE
  5
B45
330
1D
100
AcDbEntity
  8
0
100
AcDbLine
 10
429.74315
 20
894.01
 30
0.0
 11
436.84415
 21
870.976
 31
0.0
  0
LINE
  5
B46
330
1D
100
AcDbEntity
  8
0
100
AcDbLine
 10
428.80015
 20
890.919
 30
0.0
 11
429.42215
 21
886.29
 31
0.0
  0
LINE
  5
B47
330
1D
100
AcDbEntity
  8
0
100
AcDbLine
 10
428.80015
 20
890.919
 30
0.0
 11
429.3142618645
 21
895.11507308341
 31
0.0
  0
LINE
  5
B48
330
1D
100
AcDbEntity
  8
0
100
AcDbLine
 10
442.98315
 20
890.546
 30
0.0
 11
445.79515
 21
892.731
 31
0.0
  0
LINE
  5
B49
330
1D
100
AcDbEntity
  8
0
100
AcDbLine
 10
446.28715
 20
117.789
 30
0.0
 11
447.83315
 21
185.966
 31
0.0
  0
LINE
  5
B4A
330
1D
100
AcDbEntity
  8
0
100
AcDbLine
 10
445.96115
 20
103.435
 30
0.0
 11
446.28715
 21
117.789
 31
0.0
  0
LINE
  5
B4B
330
1D
100
AcDbEntity
  8
0
100
AcDbLine
 10
445.94015
 20
822.072
 30
0.0
 11
448.08015
 21
800.307
 31
0.0
  0
LINE
  5
B4C
330
1D
100
AcDbEntity
  8
0
100
AcDbLine
 10
445.79515
 20
892.731
 30
0.0
 11
449.05515
 21
894.14
 31
0.0
  0
LINE
  5
B4E
330
1D
100
AcDbEntity
  8
0
100
AcDbLine
 10
424.908530541873
 20
906.466879520543
 30
0.0
 11
429.74315
 21
894.01
 31
0.0
  0
LINE
  5
B59
330
1D
100
AcDbEntity
  8
0
100
AcDbLine
 10
447.077308887256
 20
890.829182843629
 30
0.0
 11
451.01415
 21
878.489
 31
0.0
  0
LINE
  5
B5A
330
1D
100
AcDbEntity
  8
0
100
AcDbLine
 10
446.93115
 20
890.764
 30
0.0
 11
449.47615
 21
891.899
 31
0.0
  0
LINE
  5
B5C
330
1D
100
AcDbEntity
  8
0
100
AcDbLine
 10
412.18315
 20
945.291
 30
0.0
 11
414.80215
 21
946.803
 31
0.0
  0
LINE
  5
B5D
330
1D
100
AcDbEntity
  8
0
100
AcDbLine
 10
435.79515
 20
937.609543863636
 30
0.0
 11
435.79515
 21
1457.999
 31
0.0
  0
LINE
  5
B5E
330
1D
100
AcDbEntity
  8
0
100
AcDbLine
 10
414.80215
 20
946.803
 30
0.0
 11
421.73115
 21
950.803
 31
0.0
  0
LINE
  5
B5F
330
1D
100
AcDbEntity
  8
0
100
AcDbLine
 10
423.04015
 20
951.559
 30
0.0
 11
424.24515
 21
952.255
 31
0.0
  0
LINE
  5
B60
330
1D
100
AcDbEntity
  8
0
100
AcDbLine
 10
421.73115
 20
950.803
 30
0.0
 11
423.04015
 21
951.559
 31
0.0
  0
LINE
  5
B61
330
1D
100
AcDbEntity
  8
0
100
AcDbLine
 10
423.24415
 20
951.303
 30
0.0
 11
425.15315
 21
952.405
 31
0.0
  0
LINE
  5
B62
330
1D
100
AcDbEntity
  8
0
100
AcDbLine
 10
420.71415
 20
949.842
 30
0.0
 11
423.24415
 21
951.303
 31
0.0
  0
LINE
  5
B63
330
1D
100
AcDbEntity
  8
0
100
AcDbLine
 10
417.85015
 20
948.188
 30
0.0
 11
420.71415
 21
949.842
 31
0.0
  0
LINE
  5
B64
330
1D
100
AcDbEntity
  8
0
100
AcDbLine
 10
414.79515
 20
946.425
 30
0.0
 11
417.85015
 21
948.188
 31
0.0
  0
LINE
  5
B65
330
1D
100
AcDbEntity
  8
0
100
AcDbLine
 10
411.74015
 20
944.661
 30
0.0
 11
414.79515
 21
946.425
 31
0.0
  0
LINE
  5
B66
330
1D
100
AcDbEntity
  8
0
100
AcDbLine
 10
447.83315
 20
185.966
 30
0.0
 11
449.18915
 21
245.7602
 31
0.0
  0
LINE
  5
B67
330
1D
100
AcDbEntity
  8
0
100
AcDbLine
 10
449.18915
 20
245.7602
 30
0.0
 11
450.55415
 21
305.9361
 31
0.0
  0
LINE
  5
B68
330
1D
100
AcDbEntity
  8
0
100
AcDbLine
 10
451.455994409259
 20
345.716032146422
 30
0.0
 11
453.70315
 21
342.7552
 31
0.0
  0
LINE
  5
B6A
330
1D
100
AcDbEntity
  8
0
100
AcDbLine
 10
450.862208654484
 20
319.524422161416
 30
0.0
 11
453.70815
 21
323.2342
 31
0.0
  0
LINE
  5
B6C
330
1D
100
AcDbEntity
  8
0
100
AcDbLine
 10
451.55309288091
 20
349.999
 30
0.0
 11
469.19515
 21
349.999
 31
0.0
  0
LINE
  5
B6D
330
1D
100
AcDbEntity
  8
0
100
AcDbLine
 10
450.782284378725
 20
315.999
 30
0.0
 11
469.19515
 21
315.999
 31
0.0
  0
LINE
  5
B6E
330
1D
100
AcDbEntity
  8
0
100
AcDbLine
 10
450.55415
 20
305.9361
 30
0.0
 11
452.38015
 21
386.4801
 31
0.0
  0
LINE
  5
B6F
330
1D
100
AcDbEntity
  8
0
100
AcDbLine
 10
448.08015
 20
800.307
 30
0.0
 11
448.77715
 21
768.692
 31
0.0
  0
LINE
  5
B70
330
1D
100
AcDbEntity
  8
0
100
AcDbLine
 10
453.70315
 20
342.7552
 30
0.0
 11
455.65415
 21
338.0521
 31
0.0
  0
LINE
  5
B71
330
1D
100
AcDbEntity
  8
0
100
AcDbLine
 10
453.70815
 20
323.2342
 30
0.0
 11
455.68415
 21
328.0033
 31
0.0
  0
LINE
  5
B7A
330
1D
100
AcDbEntity
  8
0
100
AcDbLine
 10
452.38015
 20
386.4801
 30
0.0
 11
454.30915
 21
471.544
 31
0.0
  0
LINE
  5
B7B
330
1D
100
AcDbEntity
  8
0
100
AcDbLine
 10
455.68415
 20
328.0033
 30
0.0
 11
456.31615
 21
333.004
 31
0.0
  0
LINE
  5
B7D
330
1D
100
AcDbEntity
  8
0
100
AcDbLine
 10
455.65415
 20
338.0521
 30
0.0
 11
456.31615
 21
333.004
 31
0.0
  0
LINE
  5
B81
330
1D
100
AcDbEntity
  8
0
100
AcDbLine
 10
457.79515
 20
349.999
 30
0.0
 11
457.79515
 21
606.569313109996
 31
0.0
  0
LINE
  5
B82
330
1D
100
AcDbEntity
  8
0
100
AcDbLine
 10
457.79515
 20
847.235387173397
 30
0.0
 11
457.79515
 21
876.973585219525
 31
0.0
  0
LINE
  5
B83
330
1D
100
AcDbEntity
  8
0
100
AcDbLine
 10
457.79515
 20
606.569313109996
 30
0.0
 11
457.79515
 21
349.999
 31
0.0
  0
LINE
  5
B84
330
1D
100
AcDbEntity
  8
0
100
AcDbLine
 10
454.30915
 20
471.544
 30
0.0
 11
456.08415
 21
549.78
 31
0.0
  0
LINE
  5
B85
330
1D
100
AcDbEntity
  8
0
100
AcDbLine
 10
456.91315
 20
852.585
 30
0.0
 11
461.12315
 21
827.05
 31
0.0
  0
LINE
  5
B86
330
1D
100
AcDbEntity
  8
0
100
AcDbLine
 10
452.058787086297
 20
873.90173451713
 30
0.0
 11
455.79515
 21
875.411
 31
0.0
  0
LINE
  5
B87
330
1D
100
AcDbEntity
  8
0
100
AcDbLine
 10
457.79515
 20
876.973585219526
 30
0.0
 11
457.79515
 21
847.235387173397
 31
0.0
  0
LINE
  5
B88
330
1D
100
AcDbEntity
  8
0
100
AcDbLine
 10
451.01415
 20
878.489
 30
0.0
 11
456.91315
 21
852.585
 31
0.0
  0
LINE
  5
B89
330
1D
100
AcDbEntity
  8
0
100
AcDbLine
 10
455.79515
 20
875.411
 30
0.0
 11
459.46215
 21
878.276
 31
0.0
  0
LINE
  5
B8A
330
1D
100
AcDbEntity
  8
0
100
AcDbLine
 10
459.87515
 20
675.606
 30
0.0
 11
464.76815
 21
768.142
 31
0.0
  0
LINE
  5
B8B
330
1D
100
AcDbEntity
  8
0
100
AcDbLine
 10
459.46215
 20
878.276
 30
0.0
 11
462.33915
 21
881.932
 31
0.0
  0
LINE
  5
B8E
330
1D
100
AcDbEntity
  8
0
100
AcDbLine
 10
449.47615
 20
891.899
 30
0.0
 11
452.08515
 21
892.576
 31
0.0
  0
LINE
  5
B8F
330
1D
100
AcDbEntity
  8
0
100
AcDbLine
 10
449.05515
 20
894.14
 30
0.0
 11
452.34315
 21
895.058
 31
0.0
  0
LINE
  5
B90
330
1D
100
AcDbEntity
  8
0
100
AcDbLine
 10
454.61215
 20
892.79
 30
0.0
 11
456.76315
 21
892.529
 31
0.0
  0
LINE
  5
B91
330
1D
100
AcDbEntity
  8
0
100
AcDbLine
 10
452.08515
 20
892.576
 30
0.0
 11
454.61215
 21
892.79
 31
0.0
  0
LINE
  5
B92
330
1D
100
AcDbEntity
  8
0
100
AcDbLine
 10
455.74915
 20
895.002
 30
0.0
 11
458.55615
 21
894.549
 31
0.0
  0
LINE
  5
B93
330
1D
100
AcDbEntity
  8
0
100
AcDbLine
 10
453.04159670689
 20
907.737986799557
 30
0.0
 11
455.86215
 21
906.543
 31
0.0
  0
LINE
  5
B94
330
1D
100
AcDbEntity
  8
0
100
AcDbLine
 10
455.86215
 20
906.543
 30
0.0
 11
459.51815
 21
903.666
 31
0.0
  0
LINE
  5
B95
330
1D
100
AcDbEntity
  8
0
100
AcDbLine
 10
452.34315
 20
895.058
 30
0.0
 11
455.74915
 21
895.002
 31
0.0
  0
LINE
  5
B96
330
1D
100
AcDbEntity
  8
0
100
AcDbLine
 10
458.31415
 20
891.921
 30
0.0
 11
459.34815
 21
890.91
 31
0.0
  0
LINE
  5
B97
330
1D
100
AcDbEntity
  8
0
100
AcDbLine
 10
456.76315
 20
892.529
 30
0.0
 11
458.31415
 21
891.921
 31
0.0
  0
LINE
  5
B98
330
1D
100
AcDbEntity
  8
0
100
AcDbLine
 10
457.79515
 20
905.021872811816
 30
0.0
 11
457.79515
 21
1362.255
 31
0.0
  0
LINE
  5
B99
330
1D
100
AcDbEntity
  8
0
100
AcDbLine
 10
457.79515
 20
905.021872811816
 30
0.0
 11
457.79515
 21
1362.255
 31
0.0
  0
LINE
  5
B9A
330
1D
100
AcDbEntity
  8
0
100
AcDbLine
 10
458.55615
 20
894.549
 30
0.0
 11
460.55515
 21
893.733
 31
0.0
  0
LINE
  5
B9B
330
1D
100
AcDbEntity
  8
0
100
AcDbLine
 10
459.51815
 20
903.666
 30
0.0
 11
462.38415
 21
899.999
 31
0.0
  0
LINE
  5
B9C
330
1D
100
AcDbEntity
  8
0
100
AcDbLine
 10
459.34815
 20
890.91
 30
0.0
 11
459.57215
 21
889.743
 31
0.0
  0
LINE
  5
B9D
330
1D
100
AcDbEntity
  8
0
100
AcDbLine
 10
459.14315
 20
888.407
 30
0.0
 11
459.57215
 21
889.743
 31
0.0
  0
LINE
  5
B9E
330
1D
100
AcDbEntity
  8
0
100
AcDbLine
 10
457.94015
 20
887.026
 30
0.0
 11
459.14315
 21
888.407
 31
0.0
  0
LINE
  5
B9F
330
1D
100
AcDbEntity
  8
0
100
AcDbLine
 10
456.22215
 20
885.411
 30
0.0
 11
457.94015
 21
887.026
 31
0.0
  0
LINE
  5
BA0
330
1D
100
AcDbEntity
  8
0
100
AcDbLine
 10
454.13215
 20
883.834
 30
0.0
 11
456.22215
 21
885.411
 31
0.0
  0
LINE
  5
BA1
330
1D
100
AcDbEntity
  8
0
100
AcDbLine
 10
451.79515
 20
882.339
 30
0.0
 11
454.13215
 21
883.834
 31
0.0
  0
LINE
  5
BA2
330
1D
100
AcDbEntity
  8
0
100
AcDbLine
 10
450.070782075045
 20
881.446023753148
 30
0.0
 11
451.79515
 21
882.339
 31
0.0
  0
LINE
  5
BA3
330
1D
100
AcDbEntity
  8
0
100
AcDbLine
 10
463.97015
 20
802.561
 30
0.0
 11
464.76815
 21
768.142
 31
0.0
  0
LINE
  5
BA4
330
1D
100
AcDbEntity
  8
0
100
AcDbLine
 10
461.12315
 20
827.05
 30
0.0
 11
463.97015
 21
802.561
 31
0.0
  0
LINE
  5
BA5
330
1D
100
AcDbEntity
  8
0
100
AcDbLine
 10
462.33915
 20
881.932
 30
0.0
 11
464.20415
 21
886.334
 31
0.0
  0
LINE
  5
BA7
330
1D
100
AcDbEntity
  8
0
100
AcDbLine
 10
469.79515
 20
316.407
 30
0.0
 11
469.79515
 21
317.019
 31
0.0
  0
LINE
  5
BA8
330
1D
100
AcDbEntity
  8
0
100
AcDbLine
 10
469.79515
 20
317.019
 30
0.0
 11
469.79515
 21
316.407
 31
0.0
  0
LINE
  5
BA9
330
1D
100
AcDbEntity
  8
0
100
AcDbLine
 10
469.79515
 20
317.019
 30
0.0
 11
469.79515
 21
318.651
 31
0.0
  0
LINE
  5
BAC
330
1D
100
AcDbEntity
  8
0
100
AcDbLine
 10
469.19515
 20
315.999
 30
0.0
 11
469.79515
 21
316.407
 31
0.0
  0
LINE
  5
BAD
330
1D
100
AcDbEntity
  8
0
100
AcDbLine
 10
471.79515
 20
317.8626
 30
0.0
 11
472.09515
 21
316.6354
 31
0.0
  0
LINE
  5
BAE
330
1D
100
AcDbEntity
  8
0
100
AcDbLine
 10
471.79515
 20
317.8626
 30
0.0
 11
471.79515
 21
318.4354
 31
0.0
  0
LINE
  5
BAF
330
1D
100
AcDbEntity
  8
0
100
AcDbLine
 10
469.79515
 20
318.651
 30
0.0
 11
469.79515
 21
317.019
 31
0.0
  0
LINE
  5
BB0
330
1D
100
AcDbEntity
  8
0
100
AcDbLine
 10
469.79515
 20
318.651
 30
0.0
 11
469.79515
 21
321.303
 31
0.0
  0
LINE
  5
BB5
330
1D
100
AcDbEntity
  8
0
100
AcDbLine
 10
469.79515
 20
337.283
 30
0.0
 11
469.79515
 21
332.999
 31
0.0
  0
LINE
  5
BB6
330
1D
100
AcDbEntity
  8
0
100
AcDbLine
 10
469.79515
 20
337.283
 30
0.0
 11
469.79515
 21
341.227
 31
0.0
  0
LINE
  5
BB7
330
1D
100
AcDbEntity
  8
0
100
AcDbLine
 10
469.79515
 20
341.227
 30
0.0
 11
469.79515
 21
337.283
 31
0.0
  0
LINE
  5
BB8
330
1D
100
AcDbEntity
  8
0
100
AcDbLine
 10
469.79515
 20
341.227
 30
0.0
 11
469.79515
 21
344.695
 31
0.0
  0
LINE
  5
BB9
330
1D
100
AcDbEntity
  8
0
100
AcDbLine
 10
469.79515
 20
332.999
 30
0.0
 11
469.79515
 21
328.715
 31
0.0
  0
LINE
  5
BBA
330
1D
100
AcDbEntity
  8
0
100
AcDbLine
 10
469.79515
 20
332.999
 30
0.0
 11
469.79515
 21
337.283
 31
0.0
  0
LINE
  5
BBB
330
1D
100
AcDbEntity
  8
0
100
AcDbLine
 10
469.79515
 20
328.715
 30
0.0
 11
469.79515
 21
324.771
 31
0.0
  0
LINE
  5
BBC
330
1D
100
AcDbEntity
  8
0
100
AcDbLine
 10
469.79515
 20
328.715
 30
0.0
 11
469.79515
 21
332.999
 31
0.0
  0
LINE
  5
BBD
330
1D
100
AcDbEntity
  8
0
100
AcDbLine
 10
469.79515
 20
324.771
 30
0.0
 11
469.79515
 21
321.303
 31
0.0
  0
LINE
  5
BBE
330
1D
100
AcDbEntity
  8
0
100
AcDbLine
 10
469.79515
 20
324.771
 30
0.0
 11
469.79515
 21
328.715
 31
0.0
  0
LINE
  5
BBF
330
1D
100
AcDbEntity
  8
0
100
AcDbLine
 10
469.79515
 20
321.303
 30
0.0
 11
469.79515
 21
318.651
 31
0.0
  0
LINE
  5
BC0
330
1D
100
AcDbEntity
  8
0
100
AcDbLine
 10
469.79515
 20
321.303
 30
0.0
 11
469.79515
 21
324.771
 31
0.0
  0
LINE
  5
BC7
330
1D
100
AcDbEntity
  8
0
100
AcDbLine
 10
471.79515
 20
319.9081
 30
0.0
 11
471.79515
 21
318.4354
 31
0.0
  0
LINE
  5
BCA
330
1D
100
AcDbEntity
  8
0
100
AcDbLine
 10
469.79515
 20
344.695
 30
0.0
 11
469.79515
 21
341.227
 31
0.0
  0
LINE
  5
BCB
330
1D
100
AcDbEntity
  8
0
100
AcDbLine
 10
469.79515
 20
344.695
 30
0.0
 11
469.79515
 21
347.347
 31
0.0
  0
LINE
  5
BD0
330
1D
100
AcDbEntity
  8
0
100
AcDbLine
 10
469.79515
 20
347.347
 30
0.0
 11
469.79515
 21
344.695
 31
0.0
  0
LINE
  5
BD1
330
1D
100
AcDbEntity
  8
0
100
AcDbLine
 10
469.79515
 20
347.347
 30
0.0
 11
469.79515
 21
348.979
 31
0.0
  0
LINE
  5
BD2
330
1D
100
AcDbEntity
  8
0
100
AcDbLine
 10
469.79515
 20
346.98464048
 30
0.0
 11
471.79515
 21
346.98440048
 31
0.0
  0
LINE
  5
BD3
330
1D
100
AcDbEntity
  8
0
100
AcDbLine
 10
471.79515
 20
319.4884
 30
0.0
 11
471.79515
 21
318.9844
 31
0.0
  0
LINE
  5
BD4
330
1D
100
AcDbEntity
  8
0
100
AcDbLine
 10
469.79515
 20
318.98464
 30
0.0
 11
471.79515
 21
318.9844
 31
0.0
  0
LINE
  5
BD5
330
1D
100
AcDbEntity
  8
0
100
AcDbLine
 10
471.79515
 20
317.8626
 30
0.0
 11
471.79515
 21
347.5627
 31
0.0
  0
LINE
  5
BD6
330
1D
100
AcDbEntity
  8
0
100
AcDbLine
 10
469.79515
 20
348.979
 30
0.0
 11
469.79515
 21
347.347
 31
0.0
  0
LINE
  5
BD7
330
1D
100
AcDbEntity
  8
0
100
AcDbLine
 10
469.79515
 20
348.979
 30
0.0
 11
469.79515
 21
349.591
 31
0.0
  0
LINE
  5
BDA
330
1D
100
AcDbEntity
  8
0
100
AcDbLine
 10
471.79515
 20
347.5627
 30
0.0
 11
471.79515
 21
348.1353
 31
0.0
  0
LINE
  5
BDB
330
1D
100
AcDbEntity
  8
0
100
AcDbLine
 10
471.79515
 20
347.5627
 30
0.0
 11
471.79515
 21
317.8626
 31
0.0
  0
LINE
  5
BDE
330
1D
100
AcDbEntity
  8
0
100
AcDbLine
 10
471.79515
 20
318.9844
 30
0.0
 11
471.79515
 21
318.4354
 31
0.0
  0
LINE
  5
BDF
330
1D
100
AcDbEntity
  8
0
100
AcDbLine
 10
471.79515
 20
318.4354
 30
0.0
 11
471.79515
 21
317.8626
 31
0.0
  0
LINE
  5
BE0
330
1D
100
AcDbEntity
  8
0
100
AcDbLine
 10
471.79515
 20
318.4354
 30
0.0
 11
471.79515
 21
318.9844
 31
0.0
  0
LINE
  5
BE3
330
1D
100
AcDbEntity
  8
0
100
AcDbLine
 10
471.79515
 20
318.4354
 30
0.0
 11
471.79515
 21
319.9081
 31
0.0
  0
LINE
  5
BE4
330
1D
100
AcDbEntity
  8
0
100
AcDbLine
 10
472.79515
 20
315.6876
 30
0.0
 11
472.79515
 21
315.4081
 31
0.0
  0
LINE
  5
BE5
330
1D
100
AcDbEntity
  8
0
100
AcDbLine
 10
483.79515
 20
314.999
 30
0.0
 11
484.79515
 21
315.4081
 31
0.0
  0
LINE
  5
BE6
330
1D
100
AcDbEntity
  8
0
100
AcDbLine
 10
485.79515
 20
304.899
 30
0.0
 11
485.79515
 21
301.699
 31
0.0
  0
LINE
  5
BE7
330
1D
100
AcDbEntity
  8
0
100
AcDbLine
 10
485.79515
 20
304.899
 30
0.0
 11
485.79515
 21
309.999
 31
0.0
  0
LINE
  5
BE8
330
1D
100
AcDbEntity
  8
0
100
AcDbLine
 10
485.79515
 20
301.699
 30
0.0
 11
485.79515
 21
300.499
 31
0.0
  0
LINE
  5
BE9
330
1D
100
AcDbEntity
  8
0
100
AcDbLine
 10
485.79515
 20
301.699
 30
0.0
 11
485.79515
 21
304.899
 31
0.0
  0
LINE
  5
BEA
330
1D
100
AcDbEntity
  8
0
100
AcDbLine
 10
485.79515
 20
300.499
 30
0.0
 11
486.29515
 21
299.499
 31
0.0
  0
LINE
  5
BEB
330
1D
100
AcDbEntity
  8
0
100
AcDbLine
 10
485.79515
 20
300.499
 30
0.0
 11
485.79515
 21
301.699
 31
0.0
  0
LINE
  5
BEC
330
1D
100
AcDbEntity
  8
0
100
AcDbLine
 10
511.79515
 20
298.999
 30
0.0
 11
511.79515
 21
300.199
 31
0.0
  0
LINE
  5
BED
330
1D
100
AcDbEntity
  8
0
100
AcDbLine
 10
486.29515
 20
309.299
 30
0.0
 11
486.29515
 21
303.999
 31
0.0
  0
LINE
  5
BEE
330
1D
100
AcDbEntity
  8
0
100
AcDbLine
 10
486.29515
 20
309.299
 30
0.0
 11
486.29515
 21
316.299
 31
0.0
  0
LINE
  5
BEF
330
1D
100
AcDbEntity
  8
0
100
AcDbLine
 10
486.29515
 20
303.999
 30
0.0
 11
486.29515
 21
300.699
 31
0.0
  0
LINE
  5
BF0
330
1D
100
AcDbEntity
  8
0
100
AcDbLine
 10
486.29515
 20
303.999
 30
0.0
 11
486.29515
 21
309.299
 31
0.0
  0
LINE
  5
BF1
330
1D
100
AcDbEntity
  8
0
100
AcDbLine
 10
486.29515
 20
300.699
 30
0.0
 11
486.29515
 21
299.499
 31
0.0
  0
LINE
  5
BF2
330
1D
100
AcDbEntity
  8
0
100
AcDbLine
 10
486.29515
 20
300.699
 30
0.0
 11
486.29515
 21
303.999
 31
0.0
  0
LINE
  5
BF3
330
1D
100
AcDbEntity
  8
0
100
AcDbLine
 10
511.79515
 20
308.999
 30
0.0
 11
511.79515
 21
303.599
 31
0.0
  0
LINE
  5
BF4
330
1D
100
AcDbEntity
  8
0
100
AcDbLine
 10
511.79515
 20
308.999
 30
0.0
 11
511.79515
 21
316.099
 31
0.0
  0
LINE
  5
BF5
330
1D
100
AcDbEntity
  8
0
100
AcDbLine
 10
511.79515
 20
303.599
 30
0.0
 11
511.79515
 21
300.199
 31
0.0
  0
LINE
  5
BF6
330
1D
100
AcDbEntity
  8
0
100
AcDbLine
 10
511.79515
 20
303.599
 30
0.0
 11
511.79515
 21
308.999
 31
0.0
  0
LINE
  5
BF7
330
1D
100
AcDbEntity
  8
0
100
AcDbLine
 10
511.79515
 20
300.199
 30
0.0
 11
511.79515
 21
298.999
 31
0.0
  0
LINE
  5
BF8
330
1D
100
AcDbEntity
  8
0
100
AcDbLine
 10
511.79515
 20
300.199
 30
0.0
 11
511.79515
 21
303.599
 31
0.0
  0
LINE
  5
BF9
330
1D
100
AcDbEntity
  8
0
100
AcDbLine
 10
486.29515
 20
299.499
 30
0.0
 11
487.29515
 21
298.999
 31
0.0
  0
LINE
  5
BFA
330
1D
100
AcDbEntity
  8
0
100
AcDbLine
 10
486.29515
 20
299.499
 30
0.0
 11
486.29515
 21
300.699
 31
0.0
  0
LINE
  5
BFB
330
1D
100
AcDbEntity
  8
0
100
AcDbLine
 10
487.29515
 20
298.999
 30
0.0
 11
511.79515
 21
298.999
 31
0.0
  0
LINE
  5
BFC
330
1D
100
AcDbEntity
  8
0
100
AcDbLine
 10
485.79515
 20
309.999
 30
0.0
 11
485.79515
 21
316.799
 31
0.0
  0
LINE
  5
BFD
330
1D
100
AcDbEntity
  8
0
100
AcDbLine
 10
485.79515
 20
309.999
 30
0.0
 11
485.79515
 21
304.899
 31
0.0
  0
LINE
  5
BFF
330
1D
100
AcDbEntity
  8
0
100
AcDbLine
 10
484.79515
 20
315.4081
 30
0.0
 11
484.79515
 21
315.6876
 31
0.0
  0
LINE
  5
C00
330
1D
100
AcDbEntity
  8
0
100
AcDbLine
 10
484.79515
 20
315.4081
 30
0.0
 11
485.49515
 21
316.6354
 31
0.0
  0
LINE
  5
C01
330
1D
100
AcDbEntity
  8
0
100
AcDbLine
 10
486.29515
 20
316.299
 30
0.0
 11
486.29515
 21
309.299
 31
0.0
  0
LINE
  5
C02
330
1D
100
AcDbEntity
  8
0
100
AcDbLine
 10
486.29515
 20
316.299
 30
0.0
 11
486.29515
 21
324.399
 31
0.0
  0
LINE
  5
C03
330
1D
100
AcDbEntity
  8
0
100
AcDbLine
 10
511.79515
 20
316.099
 30
0.0
 11
511.79515
 21
308.999
 31
0.0
  0
LINE
  5
C04
330
1D
100
AcDbEntity
  8
0
100
AcDbLine
 10
511.79515
 20
316.099
 30
0.0
 11
511.79515
 21
324.299
 31
0.0
  0
LINE
  5
C05
330
1D
100
AcDbEntity
  8
0
100
AcDbLine
 10
485.49515
 20
316.6354
 30
0.0
 11
485.79515
 21
317.8626
 31
0.0
  0
LINE
  5
C06
330
1D
100
AcDbEntity
  8
0
100
AcDbLine
 10
484.79515
 20
315.6876
 30
0.0
 11
485.37615
 21
317.014
 31
0.0
  0
LINE
  5
C07
330
1D
100
AcDbEntity
  8
0
100
AcDbLine
 10
484.79515
 20
315.6876
 30
0.0
 11
484.79515
 21
315.4081
 31
0.0
  0
LINE
  5
C08
330
1D
100
AcDbEntity
  8
0
100
AcDbLine
 10
473.79515
 20
314.999
 30
0.0
 11
483.79515
 21
314.999
 31
0.0
  0
LINE
  5
C09
330
1D
100
AcDbEntity
  8
0
100
AcDbLine
 10
472.79515
 20
315.4081
 30
0.0
 11
473.79515
 21
314.999
 31
0.0
  0
LINE
  5
C0A
330
1D
100
AcDbEntity
  8
0
100
AcDbLine
 10
472.79515
 20
315.4081
 30
0.0
 11
472.79515
 21
315.6876
 31
0.0
  0
LINE
  5
C0B
330
1D
100
AcDbEntity
  8
0
100
AcDbLine
 10
472.21415
 20
317.014
 30
0.0
 11
472.79515
 21
315.6876
 31
0.0
  0
LINE
  5
C0E
330
1D
100
AcDbEntity
  8
0
100
AcDbLine
 10
485.79515
 20
316.799
 30
0.0
 11
485.79515
 21
319.9081
 31
0.0
  0
LINE
  5
C0F
330
1D
100
AcDbEntity
  8
0
100
AcDbLine
 10
485.37615
 20
317.014
 30
0.0
 11
485.59315
 21
319.1914
 31
0.0
  0
LINE
  5
C13
330
1D
100
AcDbEntity
  8
0
100
AcDbLine
 10
471.99715
 20
319.1914
 30
0.0
 11
472.15915
 21
321.3808
 31
0.0
  0
LINE
  5
C14
330
1D
100
AcDbEntity
  8
0
100
AcDbLine
 10
471.99715
 20
319.1914
 30
0.0
 11
472.21415
 21
317.014
 31
0.0
  0
LINE
  5
C15
330
1D
100
AcDbEntity
  8
0
100
AcDbLine
 10
472.79515
 20
322.9142
 30
0.0
 11
472.79515
 21
324.2445
 31
0.0
  0
LINE
  5
C1A
330
1D
100
AcDbEntity
  8
0
100
AcDbLine
 10
472.79515
 20
324.2445
 30
0.0
 11
472.79515
 21
322.9142
 31
0.0
  0
LINE
  5
C1B
330
1D
100
AcDbEntity
  8
0
100
AcDbLine
 10
472.79515
 20
324.2445
 30
0.0
 11
472.79515
 21
325.0549
 31
0.0
  0
LINE
  5
C1C
330
1D
100
AcDbEntity
  8
0
100
AcDbLine
 10
472.79515
 20
325.0549
 30
0.0
 11
472.79515
 21
324.2445
 31
0.0
  0
LINE
  5
C1F
330
1D
100
AcDbEntity
  8
0
100
AcDbLine
 10
473.79515
 20
323.9762
 30
0.0
 11
483.79515
 21
323.9762
 31
0.0
  0
LINE
  5
C20
330
1D
100
AcDbEntity
  8
0
100
AcDbLine
 10
472.03515
 20
328.8753
 30
0.0
 11
472.79515
 21
325.0549
 31
0.0
  0
LINE
  5
C21
330
1D
100
AcDbEntity
  8
0
100
AcDbLine
 10
472.15915
 20
321.3808
 30
0.0
 11
472.79515
 21
322.9142
 31
0.0
  0
LINE
  5
C22
330
1D
100
AcDbEntity
  8
0
100
AcDbLine
 10
485.79515
 20
322.2808
 30
0.0
 11
485.79515
 21
325.4717
 31
0.0
  0
LINE
  5
C23
330
1D
100
AcDbEntity
  8
0
100
AcDbLine
 10
485.79515
 20
322.2808
 30
0.0
 11
485.79515
 21
319.9081
 31
0.0
  0
LINE
  5
C24
330
1D
100
AcDbEntity
  8
0
100
AcDbLine
 10
485.43115
 20
321.3808
 30
0.0
 11
485.59315
 21
319.1914
 31
0.0
  0
LINE
  5
C27
330
1D
100
AcDbEntity
  8
0
100
AcDbLine
 10
484.79515
 20
324.2445
 30
0.0
 11
484.79515
 21
325.0549
 31
0.0
  0
LINE
  5
C2A
330
1D
100
AcDbEntity
  8
0
100
AcDbLine
 10
484.79515
 20
324.2445
 30
0.0
 11
484.79515
 21
322.9142
 31
0.0
  0
LINE
  5
C2B
330
1D
100
AcDbEntity
  8
0
100
AcDbLine
 10
485.79515
 20
324.599
 30
0.0
 11
485.79515
 21
332.999
 31
0.0
  0
LINE
  5
C2E
330
1D
100
AcDbEntity
  8
0
100
AcDbLine
 10
484.79515
 20
325.0549
 30
0.0
 11
485.55515
 21
328.8753
 31
0.0
  0
LINE
  5
C2F
330
1D
100
AcDbEntity
  8
0
100
AcDbLine
 10
484.79515
 20
325.0549
 30
0.0
 11
484.79515
 21
324.2445
 31
0.0
  0
LINE
  5
C30
330
1D
100
AcDbEntity
  8
0
100
AcDbLine
 10
485.79515
 20
329.0718
 30
0.0
 11
485.79515
 21
325.4717
 31
0.0
  0
LINE
  5
C31
330
1D
100
AcDbEntity
  8
0
100
AcDbLine
 10
485.79515
 20
329.0718
 30
0.0
 11
485.79515
 21
332.999
 31
0.0
  0
LINE
  5
C32
330
1D
100
AcDbEntity
  8
0
100
AcDbLine
 10
485.55515
 20
328.8753
 30
0.0
 11
485.69515
 21
332.999
 31
0.0
  0
LINE
  5
C34
330
1D
100
AcDbEntity
  8
0
100
AcDbLine
 10
485.55515
 20
328.8753
 30
0.0
 11
485.79515
 21
329.0718
 31
0.0
  0
LINE
  5
C35
330
1D
100
AcDbEntity
  8
0
100
AcDbLine
 10
485.79515
 20
325.4717
 30
0.0
 11
485.79515
 21
329.0718
 31
0.0
  0
LINE
  5
C36
330
1D
100
AcDbEntity
  8
0
100
AcDbLine
 10
485.79515
 20
325.4717
 30
0.0
 11
485.79515
 21
322.2808
 31
0.0
  0
LINE
  5
C37
330
1D
100
AcDbEntity
  8
0
100
AcDbLine
 10
484.79515
 20
322.9142
 30
0.0
 11
485.43115
 21
321.3808
 31
0.0
  0
LINE
  5
C38
330
1D
100
AcDbEntity
  8
0
100
AcDbLine
 10
484.79515
 20
322.9142
 30
0.0
 11
484.79515
 21
324.2445
 31
0.0
  0
LINE
  5
C3B
330
1D
100
AcDbEntity
  8
0
100
AcDbLine
 10
485.79515
 20
319.9081
 30
0.0
 11
485.79515
 21
322.2808
 31
0.0
  0
LINE
  5
C3C
330
1D
100
AcDbEntity
  8
0
100
AcDbLine
 10
485.79515
 20
319.9081
 30
0.0
 11
485.79515
 21
316.799
 31
0.0
  0
LINE
  5
C3D
330
1D
100
AcDbEntity
  8
0
100
AcDbLine
 10
485.79515
 20
332.999
 30
0.0
 11
485.79515
 21
336.9262
 31
0.0
  0
LINE
  5
C3E
330
1D
100
AcDbEntity
  8
0
100
AcDbLine
 10
485.79515
 20
332.999
 30
0.0
 11
485.79515
 21
329.0718
 31
0.0
  0
LINE
  5
C3F
330
1D
100
AcDbEntity
  8
0
100
AcDbLine
 10
485.79515
 20
332.999
 30
0.0
 11
485.79515
 21
324.599
 31
0.0
  0
LINE
  5
C40
330
1D
100
AcDbEntity
  8
0
100
AcDbLine
 10
485.79515
 20
332.999
 30
0.0
 11
485.79515
 21
341.399
 31
0.0
  0
LINE
  5
C41
330
1D
100
AcDbEntity
  8
0
100
AcDbLine
 10
472.79515
 20
340.9431
 30
0.0
 11
472.79515
 21
341.7536
 31
0.0
  0
LINE
  5
C42
330
1D
100
AcDbEntity
  8
0
100
AcDbLine
 10
472.79515
 20
341.7536
 30
0.0
 11
472.79515
 21
340.9431
 31
0.0
  0
LINE
  5
C43
330
1D
100
AcDbEntity
  8
0
100
AcDbLine
 10
472.79515
 20
341.7536
 30
0.0
 11
472.79515
 21
343.0838
 31
0.0
  0
LINE
  5
C48
330
1D
100
AcDbEntity
  8
0
100
AcDbLine
 10
484.79515
 20
341.7536
 30
0.0
 11
484.79515
 21
343.0838
 31
0.0
  0
LINE
  5
C49
330
1D
100
AcDbEntity
  8
0
100
AcDbLine
 10
484.79515
 20
341.7536
 30
0.0
 11
484.79515
 21
340.9431
 31
0.0
  0
LINE
  5
C4A
330
1D
100
AcDbEntity
  8
0
100
AcDbLine
 10
473.79515
 20
342.0218
 30
0.0
 11
483.79515
 21
342.0218
 31
0.0
  0
LINE
  5
C4B
330
1D
100
AcDbEntity
  8
0
100
AcDbLine
 10
472.79515
 20
343.0838
 30
0.0
 11
472.79515
 21
341.7536
 31
0.0
  0
LINE
  5
C4C
330
1D
100
AcDbEntity
  8
0
100
AcDbLine
 10
472.21415
 20
348.984
 30
0.0
 11
472.79515
 21
350.3104
 31
0.0
  0
LINE
  5
C4D
330
1D
100
AcDbEntity
  8
0
100
AcDbLine
 10
484.79515
 20
343.0838
 30
0.0
 11
485.43115
 21
344.6172
 31
0.0
  0
LINE
  5
C4E
330
1D
100
AcDbEntity
  8
0
100
AcDbLine
 10
484.79515
 20
343.0838
 30
0.0
 11
484.79515
 21
341.7536
 31
0.0
  0
LINE
  5
C4F
330
1D
100
AcDbEntity
  8
0
100
AcDbLine
 10
472.15915
 20
344.6172
 30
0.0
 11
472.79515
 21
343.0838
 31
0.0
  0
LINE
  5
C52
330
1D
100
AcDbEntity
  8
0
100
AcDbLine
 10
471.99715
 20
346.8066
 30
0.0
 11
472.21415
 21
348.984
 31
0.0
  0
LINE
  5
C53
330
1D
100
AcDbEntity
  8
0
100
AcDbLine
 10
471.99715
 20
346.8066
 30
0.0
 11
472.15915
 21
344.6172
 31
0.0
  0
LINE
  5
C5A
330
1D
100
AcDbEntity
  8
0
100
AcDbLine
 10
485.43115
 20
344.6172
 30
0.0
 11
485.59315
 21
346.8066
 31
0.0
  0
LINE
  5
C5F
330
1D
100
AcDbEntity
  8
0
100
AcDbLine
 10
485.37615
 20
348.984
 30
0.0
 11
485.59315
 21
346.8066
 31
0.0
  0
LINE
  5
C61
330
1D
100
AcDbEntity
  8
0
100
AcDbLine
 10
484.79515
 20
340.9431
 30
0.0
 11
485.55515
 21
337.1227
 31
0.0
  0
LINE
  5
C62
330
1D
100
AcDbEntity
  8
0
100
AcDbLine
 10
484.79515
 20
340.9431
 30
0.0
 11
484.79515
 21
341.7536
 31
0.0
  0
LINE
  5
C63
330
1D
100
AcDbEntity
  8
0
100
AcDbLine
 10
472.03515
 20
337.1227
 30
0.0
 11
472.79515
 21
340.9431
 31
0.0
  0
LINE
  5
C64
330
1D
100
AcDbEntity
  8
0
100
AcDbLine
 10
485.79515
 20
341.399
 30
0.0
 11
485.79515
 21
332.999
 31
0.0
  0
LINE
  5
C65
330
1D
100
AcDbEntity
  8
0
100
AcDbLine
 10
485.79515
 20
341.399
 30
0.0
 11
485.79515
 21
349.199
 31
0.0
  0
LINE
  5
C66
330
1D
100
AcDbEntity
  8
0
100
AcDbLine
 10
485.79515
 20
340.5262
 30
0.0
 11
485.79515
 21
336.9262
 31
0.0
  0
LINE
  5
C67
330
1D
100
AcDbEntity
  8
0
100
AcDbLine
 10
485.79515
 20
343.7172
 30
0.0
 11
485.79515
 21
346.0899
 31
0.0
  0
LINE
  5
C68
330
1D
100
AcDbEntity
  8
0
100
AcDbLine
 10
485.79515
 20
346.0899
 30
0.0
 11
485.79515
 21
347.5627
 31
0.0
  0
LINE
  5
C69
330
1D
100
AcDbEntity
  8
0
100
AcDbLine
 10
485.79515
 20
346.0899
 30
0.0
 11
485.79515
 21
343.7172
 31
0.0
  0
LINE
  5
C6C
330
1D
100
AcDbEntity
  8
0
100
AcDbLine
 10
485.79515
 20
347.5627
 30
0.0
 11
485.79515
 21
346.0899
 31
0.0
  0
LINE
  5
C6D
330
1D
100
AcDbEntity
  8
0
100
AcDbLine
 10
485.79515
 20
336.9262
 30
0.0
 11
485.79515
 21
332.999
 31
0.0
  0
LINE
  5
C6E
330
1D
100
AcDbEntity
  8
0
100
AcDbLine
 10
485.79515
 20
336.9262
 30
0.0
 11
485.79515
 21
340.5262
 31
0.0
  0
LINE
  5
C6F
330
1D
100
AcDbEntity
  8
0
100
AcDbLine
 10
485.55515
 20
337.1227
 30
0.0
 11
485.69515
 21
332.999
 31
0.0
  0
LINE
  5
C72
330
1D
100
AcDbEntity
  8
0
100
AcDbLine
 10
471.89515
 20
332.999
 30
0.0
 11
472.03515
 21
337.1227
 31
0.0
  0
LINE
  5
C73
330
1D
100
AcDbEntity
  8
0
100
AcDbLine
 10
471.89515
 20
332.999
 30
0.0
 11
472.03515
 21
328.8753
 31
0.0
  0
LINE
  5
C74
330
1D
100
AcDbEntity
  8
0
100
AcDbLine
 10
485.79515
 20
348.1353
 30
0.0
 11
485.79515
 21
349.199
 31
0.0
  0
LINE
  5
C75
330
1D
100
AcDbEntity
  8
0
100
AcDbLine
 10
485.49515
 20
349.3627
 30
0.0
 11
485.79515
 21
348.1353
 31
0.0
  0
LINE
  5
C76
330
1D
100
AcDbEntity
  8
0
100
AcDbLine
 10
485.79515
 20
349.199
 30
0.0
 11
485.79515
 21
348.1353
 31
0.0
  0
LINE
  5
C77
330
1D
100
AcDbEntity
  8
0
100
AcDbLine
 10
485.79515
 20
349.199
 30
0.0
 11
485.79515
 21
355.999
 31
0.0
  0
LINE
  5
C78
330
1D
100
AcDbEntity
  8
0
100
AcDbLine
 10
485.79515
 20
349.199
 30
0.0
 11
485.79515
 21
341.399
 31
0.0
  0
LINE
  5
C79
330
1D
100
AcDbEntity
  8
0
100
AcDbLine
 10
486.29515
 20
324.399
 30
0.0
 11
486.29515
 21
316.299
 31
0.0
  0
LINE
  5
C7A
330
1D
100
AcDbEntity
  8
0
100
AcDbLine
 10
486.29515
 20
324.399
 30
0.0
 11
486.29515
 21
332.999
 31
0.0
  0
LINE
  5
C7B
330
1D
100
AcDbEntity
  8
0
100
AcDbLine
 10
486.29515
 20
332.999
 30
0.0
 11
486.29515
 21
324.399
 31
0.0
  0
LINE
  5
C7C
330
1D
100
AcDbEntity
  8
0
100
AcDbLine
 10
486.29515
 20
332.999
 30
0.0
 11
486.29515
 21
341.599
 31
0.0
  0
LINE
  5
C7D
330
1D
100
AcDbEntity
  8
0
100
AcDbLine
 10
511.79515
 20
324.299
 30
0.0
 11
511.79515
 21
316.099
 31
0.0
  0
LINE
  5
C7E
330
1D
100
AcDbEntity
  8
0
100
AcDbLine
 10
511.79515
 20
324.299
 30
0.0
 11
511.79515
 21
332.999
 31
0.0
  0
LINE
  5
C7F
330
1D
100
AcDbEntity
  8
0
100
AcDbLine
 10
486.29515
 20
341.599
 30
0.0
 11
486.29515
 21
332.999
 31
0.0
  0
LINE
  5
C80
330
1D
100
AcDbEntity
  8
0
100
AcDbLine
 10
486.29515
 20
341.599
 30
0.0
 11
486.29515
 21
349.699
 31
0.0
  0
LINE
  5
C81
330
1D
100
AcDbEntity
  8
0
100
AcDbLine
 10
511.79515
 20
341.699
 30
0.0
 11
511.79515
 21
332.999
 31
0.0
  0
LINE
  5
C82
330
1D
100
AcDbEntity
  8
0
100
AcDbLine
 10
511.79515
 20
341.699
 30
0.0
 11
511.79515
 21
349.899
 31
0.0
  0
LINE
  5
C83
330
1D
100
AcDbEntity
  8
0
100
AcDbLine
 10
511.79515
 20
332.999
 30
0.0
 11
511.79515
 21
324.299
 31
0.0
  0
LINE
  5
C84
330
1D
100
AcDbEntity
  8
0
100
AcDbLine
 10
511.79515
 20
332.999
 30
0.0
 11
511.79515
 21
341.699
 31
0.0
  0
LINE
  5
C85
330
1D
100
AcDbEntity
  8
0
100
AcDbLine
 10
485.79515
 20
316.799
 30
0.0
 11
485.79515
 21
309.999
 31
0.0
  0
LINE
  5
C86
330
1D
100
AcDbEntity
  8
0
100
AcDbLine
 10
472.09515
 20
316.6354
 30
0.0
 11
472.79515
 21
315.4081
 31
0.0
  0
LINE
  5
C89
330
1D
100
AcDbEntity
  8
0
100
AcDbLine
 10
471.79515
 20
348.1353
 30
0.0
 11
472.09515
 21
349.3627
 31
0.0
  0
LINE
  5
C8A
330
1D
100
AcDbEntity
  8
0
100
AcDbLine
 10
471.79515
 20
348.1353
 30
0.0
 11
471.79515
 21
347.5627
 31
0.0
  0
LINE
  5
C8B
330
1D
100
AcDbEntity
  8
0
100
AcDbLine
 10
469.79515
 20
349.591
 30
0.0
 11
469.79515
 21
348.979
 31
0.0
  0
LINE
  5
C8D
330
1D
100
AcDbEntity
  8
0
100
AcDbLine
 10
472.79515
 20
350.3104
 30
0.0
 11
472.79515
 21
350.5899
 31
0.0
  0
LINE
  5
C8E
330
1D
100
AcDbEntity
  8
0
100
AcDbLine
 10
469.19515
 20
349.999
 30
0.0
 11
469.79515
 21
349.591
 31
0.0
  0
LINE
  5
C8F
330
1D
100
AcDbEntity
  8
0
100
AcDbLine
 10
483.79515
 20
350.999
 30
0.0
 11
484.79515
 21
350.5899
 31
0.0
  0
LINE
  5
C90
330
1D
100
AcDbEntity
  8
0
100
AcDbLine
 10
484.79515
 20
350.5899
 30
0.0
 11
485.49515
 21
349.3627
 31
0.0
  0
LINE
  5
C92
330
1D
100
AcDbEntity
  8
0
100
AcDbLine
 10
484.79515
 20
350.5899
 30
0.0
 11
484.79515
 21
350.3104
 31
0.0
  0
LINE
  5
C93
330
1D
100
AcDbEntity
  8
0
100
AcDbLine
 10
473.79515
 20
350.999
 30
0.0
 11
483.79515
 21
350.999
 31
0.0
  0
LINE
  5
C94
330
1D
100
AcDbEntity
  8
0
100
AcDbLine
 10
484.79515
 20
350.3104
 30
0.0
 11
485.37615
 21
348.984
 31
0.0
  0
LINE
  5
C95
330
1D
100
AcDbEntity
  8
0
100
AcDbLine
 10
484.79515
 20
350.3104
 30
0.0
 11
484.79515
 21
350.5899
 31
0.0
  0
LINE
  5
C96
330
1D
100
AcDbEntity
  8
0
100
AcDbLine
 10
485.79515
 20
355.999
 30
0.0
 11
485.79515
 21
361.099
 31
0.0
  0
LINE
  5
C97
330
1D
100
AcDbEntity
  8
0
100
AcDbLine
 10
485.79515
 20
355.999
 30
0.0
 11
485.79515
 21
349.199
 31
0.0
  0
LINE
  5
C98
330
1D
100
AcDbEntity
  8
0
100
AcDbLine
 10
485.79515
 20
361.099
 30
0.0
 11
485.79515
 21
355.999
 31
0.0
  0
LINE
  5
C99
330
1D
100
AcDbEntity
  8
0
100
AcDbLine
 10
485.79515
 20
361.099
 30
0.0
 11
485.79515
 21
364.299
 31
0.0
  0
LINE
  5
C9A
330
1D
100
AcDbEntity
  8
0
100
AcDbLine
 10
485.79515
 20
364.299
 30
0.0
 11
485.79515
 21
361.099
 31
0.0
  0
LINE
  5
C9B
330
1D
100
AcDbEntity
  8
0
100
AcDbLine
 10
485.79515
 20
364.299
 30
0.0
 11
485.79515
 21
365.499
 31
0.0
  0
LINE
  5
C9C
330
1D
100
AcDbEntity
  8
0
100
AcDbLine
 10
486.29515
 20
349.699
 30
0.0
 11
486.29515
 21
341.599
 31
0.0
  0
LINE
  5
C9D
330
1D
100
AcDbEntity
  8
0
100
AcDbLine
 10
486.29515
 20
349.699
 30
0.0
 11
486.29515
 21
356.699
 31
0.0
  0
LINE
  5
C9E
330
1D
100
AcDbEntity
  8
0
100
AcDbLine
 10
486.29515
 20
361.999
 30
0.0
 11
486.29515
 21
356.699
 31
0.0
  0
LINE
  5
C9F
330
1D
100
AcDbEntity
  8
0
100
AcDbLine
 10
486.29515
 20
361.999
 30
0.0
 11
486.29515
 21
365.299
 31
0.0
  0
LINE
  5
CA0
330
1D
100
AcDbEntity
  8
0
100
AcDbLine
 10
486.29515
 20
365.299
 30
0.0
 11
486.29515
 21
361.999
 31
0.0
  0
LINE
  5
CA1
330
1D
100
AcDbEntity
  8
0
100
AcDbLine
 10
486.29515
 20
365.299
 30
0.0
 11
486.29515
 21
366.499
 31
0.0
  0
LINE
  5
CA2
330
1D
100
AcDbEntity
  8
0
100
AcDbLine
 10
511.79515
 20
362.399
 30
0.0
 11
511.79515
 21
356.999
 31
0.0
  0
LINE
  5
CA3
330
1D
100
AcDbEntity
  8
0
100
AcDbLine
 10
511.79515
 20
362.399
 30
0.0
 11
511.79515
 21
365.799
 31
0.0
  0
LINE
  5
CA4
330
1D
100
AcDbEntity
  8
0
100
AcDbLine
 10
511.79515
 20
365.799
 30
0.0
 11
511.79515
 21
362.399
 31
0.0
  0
LINE
  5
CA5
330
1D
100
AcDbEntity
  8
0
100
AcDbLine
 10
511.79515
 20
365.799
 30
0.0
 11
511.79515
 21
366.999
 31
0.0
  0
LINE
  5
CA6
330
1D
100
AcDbEntity
  8
0
100
AcDbLine
 10
486.29515
 20
356.699
 30
0.0
 11
486.29515
 21
349.699
 31
0.0
  0
LINE
  5
CA7
330
1D
100
AcDbEntity
  8
0
100
AcDbLine
 10
486.29515
 20
356.699
 30
0.0
 11
486.29515
 21
361.999
 31
0.0
  0
LINE
  5
CA8
330
1D
100
AcDbEntity
  8
0
100
AcDbLine
 10
511.79515
 20
356.999
 30
0.0
 11
511.79515
 21
349.899
 31
0.0
  0
LINE
  5
CA9
330
1D
100
AcDbEntity
  8
0
100
AcDbLine
 10
511.79515
 20
356.999
 30
0.0
 11
511.79515
 21
362.399
 31
0.0
  0
LINE
  5
CAA
330
1D
100
AcDbEntity
  8
0
100
AcDbLine
 10
511.79515
 20
349.899
 30
0.0
 11
511.79515
 21
341.699
 31
0.0
  0
LINE
  5
CAB
330
1D
100
AcDbEntity
  8
0
100
AcDbLine
 10
511.79515
 20
349.899
 30
0.0
 11
511.79515
 21
356.999
 31
0.0
  0
LINE
  5
CAC
330
1D
100
AcDbEntity
  8
0
100
AcDbLine
 10
485.79515
 20
365.499
 30
0.0
 11
486.29515
 21
366.499
 31
0.0
  0
LINE
  5
CAD
330
1D
100
AcDbEntity
  8
0
100
AcDbLine
 10
485.79515
 20
365.499
 30
0.0
 11
485.79515
 21
364.299
 31
0.0
  0
LINE
  5
CAE
330
1D
100
AcDbEntity
  8
0
100
AcDbLine
 10
511.79515
 20
366.999
 30
0.0
 11
511.79515
 21
365.799
 31
0.0
  0
LINE
  5
CAF
330
1D
100
AcDbEntity
  8
0
100
AcDbLine
 10
487.29515
 20
366.999
 30
0.0
 11
511.79515
 21
366.999
 31
0.0
  0
LINE
  5
CB0
330
1D
100
AcDbEntity
  8
0
100
AcDbLine
 10
486.29515
 20
366.499
 30
0.0
 11
487.29515
 21
366.999
 31
0.0
  0
LINE
  5
CB1
330
1D
100
AcDbEntity
  8
0
100
AcDbLine
 10
486.29515
 20
366.499
 30
0.0
 11
486.29515
 21
365.299
 31
0.0
  0
LINE
  5
CB2
330
1D
100
AcDbEntity
  8
0
100
AcDbLine
 10
472.79515
 20
350.5899
 30
0.0
 11
473.79515
 21
350.999
 31
0.0
  0
LINE
  5
CB3
330
1D
100
AcDbEntity
  8
0
100
AcDbLine
 10
472.79515
 20
350.5899
 30
0.0
 11
472.79515
 21
350.3104
 31
0.0
  0
LINE
  5
CB4
330
1D
100
AcDbEntity
  8
0
100
AcDbLine
 10
472.09515
 20
349.3627
 30
0.0
 11
472.79515
 21
350.5899
 31
0.0
  0
LINE
  5
CB6
330
1D
100
AcDbEntity
  8
0
100
AcDbLine
 10
464.20415
 20
886.334
 30
0.0
 11
464.79015
 21
891.079
 31
0.0
  0
LINE
  5
CB7
330
1D
100
AcDbEntity
  8
0
100
AcDbLine
 10
460.55515
 20
893.733
 30
0.0
 11
461.86015
 21
892.464
 31
0.0
  0
LINE
  5
CB8
330
1D
100
AcDbEntity
  8
0
100
AcDbLine
 10
464.12615
 20
895.684
 30
0.0
 11
464.79015
 21
891.079
 31
0.0
  0
LINE
  5
CB9
330
1D
100
AcDbEntity
  8
0
100
AcDbLine
 10
462.38415
 20
899.999
 30
0.0
 11
464.12615
 21
895.684
 31
0.0
  0
LINE
  5
CBA
330
1D
100
AcDbEntity
  8
0
100
AcDbLine
 10
461.86015
 20
892.464
 30
0.0
 11
462.21615
 21
890.855
 31
0.0
  0
LINE
  5
CBB
330
1D
100
AcDbEntity
  8
0
100
AcDbLine
 10
461.63215
 20
889.222
 30
0.0
 11
462.21615
 21
890.855
 31
0.0
  0
LINE
  5
CBC
330
1D
100
AcDbEntity
  8
0
100
AcDbLine
 10
460.09115
 20
887.482
 30
0.0
 11
461.63215
 21
889.222
 31
0.0
  0
LINE
  5
CBD
330
1D
100
AcDbEntity
  8
0
100
AcDbLine
 10
460.045016773146
 20
887.448501493668
 30
0.0
 11
460.09115
 21
887.482
 31
0.0
  0
LINE
  5
CBE
330
1D
100
AcDbEntity
  8
0
100
AcDbLine
 10
448.72815
 20
915.209
 30
0.0
 11
461.86015
 21
892.464
 31
0.0
  0
LINE
  5
CC1
330
1D
100
AcDbEntity
  8
0
100
AcDbLine
 10
424.24515
 20
952.255
 30
0.0
 11
425.30515
 21
952.867
 31
0.0
  0
LINE
  5
CC3
330
1D
100
AcDbEntity
  8
0
100
AcDbLine
 10
414.57615
 20
973.22
 30
0.0
 11
424.42715
 21
958.133
 31
0.0
  0
LINE
  5
CC4
330
1D
100
AcDbEntity
  8
0
100
AcDbLine
 10
424.42715
 20
958.133
 30
0.0
 11
426.62715
 21
954.322
 31
0.0
  0
LINE
  5
CC6
330
1D
100
AcDbEntity
  8
0
100
AcDbLine
 10
425.30515
 20
952.867
 30
0.0
 11
426.11615
 21
953.335
 31
0.0
  0
LINE
  5
CC7
330
1D
100
AcDbEntity
  8
0
100
AcDbLine
 10
426.29915
 20
953.066
 30
0.0
 11
426.72815
 21
953.314
 31
0.0
  0
LINE
  5
CC8
330
1D
100
AcDbEntity
  8
0
100
AcDbLine
 10
426.62715
 20
954.322
 30
0.0
 11
426.80215
 21
953.731
 31
0.0
  0
LINE
  5
CC9
330
1D
100
AcDbEntity
  8
0
100
AcDbLine
 10
426.61515
 20
953.623
 30
0.0
 11
426.80215
 21
953.731
 31
0.0
  0
LINE
  5
CCA
330
1D
100
AcDbEntity
  8
0
100
AcDbLine
 10
426.11615
 20
953.335
 30
0.0
 11
426.61515
 21
953.623
 31
0.0
  0
LINE
  5
CCB
330
1D
100
AcDbEntity
  8
0
100
AcDbLine
 10
426.79515
 20
1473.589
 30
0.0
 11
430.52315
 21
1470.729
 31
0.0
  0
LINE
  5
CCC
330
1D
100
AcDbEntity
  8
0
100
AcDbLine
 10
433.38315
 20
1466.999
 30
0.0
 11
435.18215
 21
1462.659
 31
0.0
  0
LINE
  5
CCD
330
1D
100
AcDbEntity
  8
0
100
AcDbLine
 10
502.39515
 20
1340.999
 30
0.0
 11
502.39515
 21
1342.079
 31
0.0
  0
LINE
  5
CCE
330
1D
100
AcDbEntity
  8
0
100
AcDbLine
 10
502.39515
 20
1340.999
 30
0.0
 11
511.79515
 21
1340.999
 31
0.0
  0
LINE
  5
CCF
330
1D
100
AcDbEntity
  8
0
100
AcDbLine
 10
501.79515
 20
1341.719
 30
0.0
 11
501.79515
 21
1342.799
 31
0.0
  0
LINE
  5
CD0
330
1D
100
AcDbEntity
  8
0
100
AcDbLine
 10
501.79515
 20
1341.719
 30
0.0
 11
502.39515
 21
1340.999
 31
0.0
  0
LINE
  5
CD1
330
1D
100
AcDbEntity
  8
0
100
AcDbLine
 10
501.79515
 20
1342.799
 30
0.0
 11
501.79515
 21
1345.679
 31
0.0
  0
LINE
  5
CD2
330
1D
100
AcDbEntity
  8
0
100
AcDbLine
 10
501.79515
 20
1342.799
 30
0.0
 11
501.79515
 21
1341.719
 31
0.0
  0
LINE
  5
CD3
330
1D
100
AcDbEntity
  8
0
100
AcDbLine
 10
502.39515
 20
1342.079
 30
0.0
 11
502.39515
 21
1344.959
 31
0.0
  0
LINE
  5
CD4
330
1D
100
AcDbEntity
  8
0
100
AcDbLine
 10
502.39515
 20
1342.079
 30
0.0
 11
502.39515
 21
1340.999
 31
0.0
  0
LINE
  5
CD5
330
1D
100
AcDbEntity
  8
0
100
AcDbLine
 10
502.39515
 20
1344.959
 30
0.0
 11
502.39515
 21
1349.759
 31
0.0
  0
LINE
  5
CD6
330
1D
100
AcDbEntity
  8
0
100
AcDbLine
 10
502.39515
 20
1344.959
 30
0.0
 11
502.39515
 21
1342.079
 31
0.0
  0
LINE
  5
CD7
330
1D
100
AcDbEntity
  8
0
100
AcDbLine
 10
511.79515
 20
1340.999
 30
0.0
 11
511.79515
 21
1342.079
 31
0.0
  0
LINE
  5
CD8
330
1D
100
AcDbEntity
  8
0
100
AcDbLine
 10
511.79515
 20
1342.079
 30
0.0
 11
511.79515
 21
1344.959
 31
0.0
  0
LINE
  5
CD9
330
1D
100
AcDbEntity
  8
0
100
AcDbLine
 10
511.79515
 20
1342.079
 30
0.0
 11
511.79515
 21
1340.999
 31
0.0
  0
LINE
  5
CDA
330
1D
100
AcDbEntity
  8
0
100
AcDbLine
 10
501.79515
 20
1345.679
 30
0.0
 11
501.79515
 21
1350.359
 31
0.0
  0
LINE
  5
CDB
330
1D
100
AcDbEntity
  8
0
100
AcDbLine
 10
501.79515
 20
1345.679
 30
0.0
 11
501.79515
 21
1342.799
 31
0.0
  0
LINE
  5
CDC
330
1D
100
AcDbEntity
  8
0
100
AcDbLine
 10
501.79515
 20
1350.359
 30
0.0
 11
501.79515
 21
1356.479
 31
0.0
  0
LINE
  5
CDD
330
1D
100
AcDbEntity
  8
0
100
AcDbLine
 10
501.79515
 20
1350.359
 30
0.0
 11
501.79515
 21
1345.679
 31
0.0
  0
LINE
  5
CDE
330
1D
100
AcDbEntity
  8
0
100
AcDbLine
 10
502.39515
 20
1349.759
 30
0.0
 11
502.39515
 21
1356.119
 31
0.0
  0
LINE
  5
CDF
330
1D
100
AcDbEntity
  8
0
100
AcDbLine
 10
502.39515
 20
1349.759
 30
0.0
 11
502.39515
 21
1344.959
 31
0.0
  0
LINE
  5
CE0
330
1D
100
AcDbEntity
  8
0
100
AcDbLine
 10
502.39515
 20
1356.119
 30
0.0
 11
502.39515
 21
1363.319
 31
0.0
  0
LINE
  5
CE1
330
1D
100
AcDbEntity
  8
0
100
AcDbLine
 10
502.39515
 20
1356.119
 30
0.0
 11
502.39515
 21
1349.759
 31
0.0
  0
LINE
  5
CE2
330
1D
100
AcDbEntity
  8
0
100
AcDbLine
 10
511.79515
 20
1344.959
 30
0.0
 11
511.79515
 21
1349.759
 31
0.0
  0
LINE
  5
CE3
330
1D
100
AcDbEntity
  8
0
100
AcDbLine
 10
511.79515
 20
1344.959
 30
0.0
 11
511.79515
 21
1342.079
 31
0.0
  0
LINE
  5
CE4
330
1D
100
AcDbEntity
  8
0
100
AcDbLine
 10
511.79515
 20
1349.759
 30
0.0
 11
511.79515
 21
1356.119
 31
0.0
  0
LINE
  5
CE5
330
1D
100
AcDbEntity
  8
0
100
AcDbLine
 10
511.79515
 20
1349.759
 30
0.0
 11
511.79515
 21
1344.959
 31
0.0
  0
LINE
  5
CE6
330
1D
100
AcDbEntity
  8
0
100
AcDbLine
 10
457.761358
 20
1361.999
 30
0.0
 11
501.79515
 21
1361.999
 31
0.0
  0
LINE
  5
CE7
330
1D
100
AcDbEntity
  8
0
100
AcDbLine
 10
501.79515
 20
1362.319
 30
0.0
 11
501.79515
 21
1361.999
 31
0.0
  0
LINE
  5
CE8
330
1D
100
AcDbEntity
  8
0
100
AcDbLine
 10
501.79515
 20
1363.189
 30
0.0
 11
501.79515
 21
1362.319
 31
0.0
  0
LINE
  5
CE9
330
1D
100
AcDbEntity
  8
0
100
AcDbLine
 10
501.79515
 20
1364.629
 30
0.0
 11
501.79515
 21
1363.189
 31
0.0
  0
LINE
  5
CEA
330
1D
100
AcDbEntity
  8
0
100
AcDbLine
 10
501.79515
 20
1366.539
 30
0.0
 11
501.79515
 21
1364.629
 31
0.0
  0
LINE
  5
CEB
330
1D
100
AcDbEntity
  8
0
100
AcDbLine
 10
501.79515
 20
1368.699
 30
0.0
 11
501.79515
 21
1366.539
 31
0.0
  0
LINE
  5
CEC
330
1D
100
AcDbEntity
  8
0
100
AcDbLine
 10
501.79515
 20
1361.999
 30
0.0
 11
501.79515
 21
1356.479
 31
0.0
  0
LINE
  5
CED
330
1D
100
AcDbEntity
  8
0
100
AcDbLine
 10
501.79515
 20
1370.999
 30
0.0
 11
501.79515
 21
1363.439
 31
0.0
  0
LINE
  5
CEE
330
1D
100
AcDbEntity
  8
0
100
AcDbLine
 10
501.79515
 20
1370.999
 30
0.0
 11
501.79515
 21
1378.559
 31
0.0
  0
LINE
  5
CEF
330
1D
100
AcDbEntity
  8
0
100
AcDbLine
 10
501.79515
 20
1370.999
 30
0.0
 11
501.79515
 21
1368.699
 31
0.0
  0
LINE
  5
CF0
330
1D
100
AcDbEntity
  8
0
100
AcDbLine
 10
501.79515
 20
1356.479
 30
0.0
 11
501.79515
 21
1363.439
 31
0.0
  0
LINE
  5
CF1
330
1D
100
AcDbEntity
  8
0
100
AcDbLine
 10
501.79515
 20
1356.479
 30
0.0
 11
501.79515
 21
1350.359
 31
0.0
  0
LINE
  5
CF2
330
1D
100
AcDbEntity
  8
0
100
AcDbLine
 10
501.79515
 20
1356.479
 30
0.0
 11
501.79515
 21
1361.999
 31
0.0
  0
LINE
  5
CF3
330
1D
100
AcDbEntity
  8
0
100
AcDbLine
 10
501.79515
 20
1363.439
 30
0.0
 11
501.79515
 21
1370.999
 31
0.0
  0
LINE
  5
CF4
330
1D
100
AcDbEntity
  8
0
100
AcDbLine
 10
501.79515
 20
1363.439
 30
0.0
 11
501.79515
 21
1356.479
 31
0.0
  0
LINE
  5
CF5
330
1D
100
AcDbEntity
  8
0
100
AcDbLine
 10
501.79515
 20
1377.369
 30
0.0
 11
501.79515
 21
1375.459
 31
0.0
  0
LINE
  5
CF6
330
1D
100
AcDbEntity
  8
0
100
AcDbLine
 10
501.79515
 20
1375.459
 30
0.0
 11
501.79515
 21
1373.299
 31
0.0
  0
LINE
  5
CF7
330
1D
100
AcDbEntity
  8
0
100
AcDbLine
 10
501.79515
 20
1373.299
 30
0.0
 11
501.79515
 21
1370.999
 31
0.0
  0
LINE
  5
CF8
330
1D
100
AcDbEntity
  8
0
100
AcDbLine
 10
457.767694
 20
1379.999
 30
0.0
 11
501.79515
 21
1379.999
 31
0.0
  0
LINE
  5
CF9
330
1D
100
AcDbEntity
  8
0
100
AcDbLine
 10
457.79515
 20
1379.935
 30
0.0
 11
457.79515
 21
1457.999
 31
0.0
  0
LINE
  5
CFA
330
1D
100
AcDbEntity
  8
0
100
AcDbLine
 10
501.79515
 20
1379.679
 30
0.0
 11
501.79515
 21
1378.809
 31
0.0
  0
LINE
  5
CFB
330
1D
100
AcDbEntity
  8
0
100
AcDbLine
 10
501.79515
 20
1378.809
 30
0.0
 11
501.79515
 21
1377.369
 31
0.0
  0
LINE
  5
CFC
330
1D
100
AcDbEntity
  8
0
100
AcDbLine
 10
457.767694
 20
1379.999
 30
0.0
 11
501.79515
 21
1379.999
 31
0.0
  0
LINE
  5
CFD
330
1D
100
AcDbEntity
  8
0
100
AcDbLine
 10
501.79515
 20
1378.559
 30
0.0
 11
501.79515
 21
1385.519
 31
0.0
  0
LINE
  5
CFE
330
1D
100
AcDbEntity
  8
0
100
AcDbLine
 10
501.79515
 20
1378.559
 30
0.0
 11
501.79515
 21
1370.999
 31
0.0
  0
LINE
  5
CFF
330
1D
100
AcDbEntity
  8
0
100
AcDbLine
 10
502.39515
 20
1378.679
 30
0.0
 11
502.39515
 21
1385.879
 31
0.0
  0
LINE
  5
D00
330
1D
100
AcDbEntity
  8
0
100
AcDbLine
 10
502.39515
 20
1378.679
 30
0.0
 11
502.39515
 21
1370.999
 31
0.0
  0
LINE
  5
D01
330
1D
100
AcDbEntity
  8
0
100
AcDbLine
 10
501.79515
 20
1379.999
 30
0.0
 11
501.79515
 21
1385.519
 31
0.0
  0
LINE
  5
D02
330
1D
100
AcDbEntity
  8
0
100
AcDbLine
 10
501.79515
 20
1379.999
 30
0.0
 11
501.79515
 21
1379.679
 31
0.0
  0
LINE
  5
D03
330
1D
100
AcDbEntity
  8
0
100
AcDbLine
 10
435.79515
 20
1457.999
 30
0.0
 11
435.79515
 21
937.609543863636
 31
0.0
  0
LINE
  5
D04
330
1D
100
AcDbEntity
  8
0
100
AcDbLine
 10
457.79515
 20
1457.999
 30
0.0
 11
457.79515
 21
1379.935
 31
0.0
  0
LINE
  5
D05
330
1D
100
AcDbEntity
  8
0
100
AcDbLine
 10
501.79515
 20
1400.279
 30
0.0
 11
501.79515
 21
1399.199
 31
0.0
  0
LINE
  5
D06
330
1D
100
AcDbEntity
  8
0
100
AcDbLine
 10
501.79515
 20
1400.279
 30
0.0
 11
502.39515
 21
1400.999
 31
0.0
  0
LINE
  5
D07
330
1D
100
AcDbEntity
  8
0
100
AcDbLine
 10
501.79515
 20
1399.199
 30
0.0
 11
501.79515
 21
1396.319
 31
0.0
  0
LINE
  5
D08
330
1D
100
AcDbEntity
  8
0
100
AcDbLine
 10
501.79515
 20
1399.199
 30
0.0
 11
501.79515
 21
1400.279
 31
0.0
  0
LINE
  5
D09
330
1D
100
AcDbEntity
  8
0
100
AcDbLine
 10
501.79515
 20
1396.319
 30
0.0
 11
501.79515
 21
1391.639
 31
0.0
  0
LINE
  5
D0A
330
1D
100
AcDbEntity
  8
0
100
AcDbLine
 10
501.79515
 20
1396.319
 30
0.0
 11
501.79515
 21
1399.199
 31
0.0
  0
LINE
  5
D0B
330
1D
100
AcDbEntity
  8
0
100
AcDbLine
 10
502.39515
 20
1399.919
 30
0.0
 11
502.39515
 21
1400.999
 31
0.0
  0
LINE
  5
D0C
330
1D
100
AcDbEntity
  8
0
100
AcDbLine
 10
502.39515
 20
1399.919
 30
0.0
 11
502.39515
 21
1397.039
 31
0.0
  0
LINE
  5
D0D
330
1D
100
AcDbEntity
  8
0
100
AcDbLine
 10
502.39515
 20
1397.039
 30
0.0
 11
502.39515
 21
1399.919
 31
0.0
  0
LINE
  5
D0E
330
1D
100
AcDbEntity
  8
0
100
AcDbLine
 10
502.39515
 20
1397.039
 30
0.0
 11
502.39515
 21
1392.239
 31
0.0
  0
LINE
  5
D0F
330
1D
100
AcDbEntity
  8
0
100
AcDbLine
 10
502.39515
 20
1392.239
 30
0.0
 11
502.39515
 21
1397.039
 31
0.0
  0
LINE
  5
D10
330
1D
100
AcDbEntity
  8
0
100
AcDbLine
 10
502.39515
 20
1392.239
 30
0.0
 11
502.39515
 21
1385.879
 31
0.0
  0
LINE
  5
D11
330
1D
100
AcDbEntity
  8
0
100
AcDbLine
 10
502.39515
 20
1385.879
 30
0.0
 11
502.39515
 21
1392.239
 31
0.0
  0
LINE
  5
D12
330
1D
100
AcDbEntity
  8
0
100
AcDbLine
 10
502.39515
 20
1385.879
 30
0.0
 11
502.39515
 21
1378.679
 31
0.0
  0
LINE
  5
D13
330
1D
100
AcDbEntity
  8
0
100
AcDbLine
 10
501.79515
 20
1391.639
 30
0.0
 11
501.79515
 21
1385.519
 31
0.0
  0
LINE
  5
D14
330
1D
100
AcDbEntity
  8
0
100
AcDbLine
 10
501.79515
 20
1391.639
 30
0.0
 11
501.79515
 21
1396.319
 31
0.0
  0
LINE
  5
D15
330
1D
100
AcDbEntity
  8
0
100
AcDbLine
 10
501.79515
 20
1385.519
 30
0.0
 11
501.79515
 21
1379.999
 31
0.0
  0
LINE
  5
D16
330
1D
100
AcDbEntity
  8
0
100
AcDbLine
 10
501.79515
 20
1385.519
 30
0.0
 11
501.79515
 21
1391.639
 31
0.0
  0
LINE
  5
D17
330
1D
100
AcDbEntity
  8
0
100
AcDbLine
 10
501.79515
 20
1385.519
 30
0.0
 11
501.79515
 21
1378.559
 31
0.0
  0
LINE
  5
D18
330
1D
100
AcDbEntity
  8
0
100
AcDbLine
 10
502.39515
 20
1400.999
 30
0.0
 11
511.79515
 21
1400.999
 31
0.0
  0
LINE
  5
D19
330
1D
100
AcDbEntity
  8
0
100
AcDbLine
 10
502.39515
 20
1400.999
 30
0.0
 11
502.39515
 21
1399.919
 31
0.0
  0
LINE
  5
D1A
330
1D
100
AcDbEntity
  8
0
100
AcDbLine
 10
502.39515
 20
1370.999
 30
0.0
 11
502.39515
 21
1363.319
 31
0.0
  0
LINE
  5
D1B
330
1D
100
AcDbEntity
  8
0
100
AcDbLine
 10
502.39515
 20
1370.999
 30
0.0
 11
502.39515
 21
1378.679
 31
0.0
  0
LINE
  5
D1C
330
1D
100
AcDbEntity
  8
0
100
AcDbLine
 10
511.79515
 20
1400.999
 30
0.0
 11
511.79515
 21
1399.919
 31
0.0
  0
LINE
  5
D1D
330
1D
100
AcDbEntity
  8
0
100
AcDbLine
 10
511.79515
 20
1399.919
 30
0.0
 11
511.79515
 21
1400.999
 31
0.0
  0
LINE
  5
D1E
330
1D
100
AcDbEntity
  8
0
100
AcDbLine
 10
511.79515
 20
1399.919
 30
0.0
 11
511.79515
 21
1397.039
 31
0.0
  0
LINE
  5
D1F
330
1D
100
AcDbEntity
  8
0
100
AcDbLine
 10
511.79515
 20
1397.039
 30
0.0
 11
511.79515
 21
1399.919
 31
0.0
  0
LINE
  5
D20
330
1D
100
AcDbEntity
  8
0
100
AcDbLine
 10
511.79515
 20
1397.039
 30
0.0
 11
511.79515
 21
1392.239
 31
0.0
  0
LINE
  5
D21
330
1D
100
AcDbEntity
  8
0
100
AcDbLine
 10
511.79515
 20
1392.239
 30
0.0
 11
511.79515
 21
1397.039
 31
0.0
  0
LINE
  5
D22
330
1D
100
AcDbEntity
  8
0
100
AcDbLine
 10
511.79515
 20
1392.239
 30
0.0
 11
511.79515
 21
1385.879
 31
0.0
  0
LINE
  5
D23
330
1D
100
AcDbEntity
  8
0
100
AcDbLine
 10
511.79515
 20
1385.879
 30
0.0
 11
511.79515
 21
1392.239
 31
0.0
  0
LINE
  5
D24
330
1D
100
AcDbEntity
  8
0
100
AcDbLine
 10
511.79515
 20
1385.879
 30
0.0
 11
511.79515
 21
1378.679
 31
0.0
  0
LINE
  5
D25
330
1D
100
AcDbEntity
  8
0
100
AcDbLine
 10
511.79515
 20
1378.679
 30
0.0
 11
511.79515
 21
1385.879
 31
0.0
  0
LINE
  5
D26
330
1D
100
AcDbEntity
  8
0
100
AcDbLine
 10
511.79515
 20
1378.679
 30
0.0
 11
511.79515
 21
1370.999
 31
0.0
  0
LINE
  5
D27
330
1D
100
AcDbEntity
  8
0
100
AcDbLine
 10
511.79515
 20
1370.999
 30
0.0
 11
511.79515
 21
1363.319
 31
0.0
  0
LINE
  5
D28
330
1D
100
AcDbEntity
  8
0
100
AcDbLine
 10
511.79515
 20
1370.999
 30
0.0
 11
511.79515
 21
1378.679
 31
0.0
  0
LINE
  5
D29
330
1D
100
AcDbEntity
  8
0
100
AcDbLine
 10
502.39515
 20
1363.319
 30
0.0
 11
502.39515
 21
1370.999
 31
0.0
  0
LINE
  5
D2A
330
1D
100
AcDbEntity
  8
0
100
AcDbLine
 10
502.39515
 20
1363.319
 30
0.0
 11
502.39515
 21
1356.119
 31
0.0
  0
LINE
  5
D2B
330
1D
100
AcDbEntity
  8
0
100
AcDbLine
 10
511.79515
 20
1356.119
 30
0.0
 11
511.79515
 21
1363.319
 31
0.0
  0
LINE
  5
D2C
330
1D
100
AcDbEntity
  8
0
100
AcDbLine
 10
511.79515
 20
1356.119
 30
0.0
 11
511.79515
 21
1349.759
 31
0.0
  0
LINE
  5
D2D
330
1D
100
AcDbEntity
  8
0
100
AcDbLine
 10
511.79515
 20
1363.319
 30
0.0
 11
511.79515
 21
1370.999
 31
0.0
  0
LINE
  5
D2E
330
1D
100
AcDbEntity
  8
0
100
AcDbLine
 10
511.79515
 20
1363.319
 30
0.0
 11
511.79515
 21
1356.119
 31
0.0
  0
LINE
  5
D2F
330
1D
100
AcDbEntity
  8
0
100
AcDbLine
 10
452.43615
 20
1477.999
 30
0.0
 11
456.43215
 21
1468.349
 31
0.0
  0
LINE
  5
D30
330
1D
100
AcDbEntity
  8
0
100
AcDbLine
 10
456.43215
 20
1468.349
 30
0.0
 11
457.79515
 21
1457.999
 31
0.0
  0
LINE
  5
D31
330
1D
100
AcDbEntity
  8
0
100
AcDbLine
 10
435.18215
 20
1462.659
 30
0.0
 11
435.79515
 21
1457.999
 31
0.0
  0
LINE
  5
D32
330
1D
100
AcDbEntity
  8
0
100
AcDbLine
 10
437.79515
 20
1492.639
 30
0.0
 11
446.07915
 21
1486.279
 31
0.0
  0
LINE
  5
D33
330
1D
100
AcDbEntity
  8
0
100
AcDbLine
 10
446.07915
 20
1486.279
 30
0.0
 11
452.43615
 21
1477.999
 31
0.0
  0
LINE
  5
D34
330
1D
100
AcDbEntity
  8
0
100
AcDbLine
 10
430.52315
 20
1470.729
 30
0.0
 11
433.38315
 21
1466.999
 31
0.0
  0
LINE
  5
D35
330
1D
100
AcDbEntity
  8
0
100
AcDbLine
 10
426.72815
 20
953.314
 30
0.0
 11
448.72815
 21
915.209
 31
0.0
  0
LINE
  5
D36
330
1D
100
AcDbEntity
  8
0
100
AcDbLine
 10
425.15315
 20
952.405
 30
0.0
 11
426.29915
 21
953.066
 31
0.0
  0
LINE
  5
D37
330
1D
100
AcDbEntity
  8
0
100
AcDbLine
 10
424.807879275504
 20
952.20568709356
 30
0.0
 11
425.15315
 21
952.405
 31
0.0
  0
LINE
  5
D38
330
1D
100
AcDbEntity
  8
0
100
AcDbLine
 10
410.389307068499
 20
931.614834541129
 30
0.0
 11
424.908530541873
 21
906.466879520543
 31
0.0
  0
LINE
  5
D60
330
1D
100
AcDbEntity
  8
0
100
AcDbLine
 10
5.95635
 20
1452.649
 30
0.0
 11
196.88915
 21
1383.149
 31
0.0
  0
LINE
  5
D61
330
1D
100
AcDbEntity
  8
0
100
AcDbLine
 10
211.20315
 20
1397.908999999999
 30
0.0
 11
4.47505
 21
1473.149
 31
0.0
  0
LINE
  5
D62
330
1D
100
AcDbEntity
  8
0
100
AcDbLine
 10
101.60615
 20
1459.289
 30
0.0
 11
127.87915
 21
1449.729
 31
0.0
  0
LINE
  5
D63
330
1D
100
AcDbEntity
  8
0
100
AcDbLine
 10
130.97515
 20
1459.359
 30
0.0
 11
105.43115
 21
1468.659
 31
0.0
  0
LINE
  5
D64
330
1D
100
AcDbEntity
  8
0
100
AcDbLine
 10
109.02915
 20
1478.549
 30
0.0
 11
134.57315
 21
1469.249
 31
0.0
  0
LINE
  5
D65
330
1D
100
AcDbEntity
  8
0
100
AcDbLine
 10
125.56515
 20
1440.759
 30
0.0
 11
97.981663101767
 21
1450.79491102986
 31
0.0
  0
LINE
  5
D66
330
1D
100
AcDbEntity
  8
0
100
AcDbLine
 10
325.02715
 20
1044.744
 30
0.0
 11
315.41615
 21
1052.559
 31
0.0
  0
LINE
  5
D67
330
1D
100
AcDbEntity
  8
0
100
AcDbLine
 10
324.82715
 20
1044.45
 30
0.0
 11
314.84315
 21
1051.739
 31
0.0
  0
LINE
  5
D68
330
1D
100
AcDbEntity
  8
0
100
AcDbLine
 10
446.888745702314
 20
726.297161402284
 30
0.0
 11
448.77715
 21
768.692
 31
0.0
  0
LINE
  5
D69
330
1D
100
AcDbEntity
  8
0
100
AcDbLine
 10
459.87515
 20
675.606
 30
0.0
 11
457.79515
 21
606.569313109996
 31
0.0
  0
ENDSEC
  0
SECTION
  2
OBJECTS
  0
DICTIONARY
  5
C
330
0
100
AcDbDictionary
281
     1
  3
ACAD_GROUP
350
D
  3
ACAD_LAYOUT
350
1A
  3
ACAD_MLEADERSTYLE
350
D6C
  3
ACAD_MLINESTYLE
350
17
  3
ACAD_PLOTSETTINGS
350
19
  3
ACAD_PLOTSTYLENAME
350
E
  3
ACAD_SCALELIST
350
D3E
  3
AcDbVariableDictionary
350
D6A
  3
DWGPROPS
350
D6F
  0
DICTIONARY
  5
D
102
{ACAD_REACTORS
330
C
102
}
330
C
100
AcDbDictionary
281
     1
  0
DICTIONARY
  5
1A
102
{ACAD_REACTORS
330
C
102
}
330
C
100
AcDbDictionary
281
     1
  3
Layout1
350
1C
  3
Model
350
1E
  0
DICTIONARY
  5
D6C
102
{ACAD_REACTORS
330
C
102
}
330
C
100
AcDbDictionary
281
     1
  0
DICTIONARY
  5
17
102
{ACAD_REACTORS
330
C
102
}
330
C
100
AcDbDictionary
281
     1
  3
Standard
350
18
  0
DICTIONARY
  5
19
102
{ACAD_REACTORS
330
C
102
}
330
C
100
AcDbDictionary
281
     1
  0
ACDBDICTIONARYWDFLT
  5
E
102
{ACAD_REACTORS
330
C
102
}
330
C
100
AcDbDictionary
281
     1
  3
Normal
350
F
100
AcDbDictionaryWithDefault
340
F
  0
DICTIONARY
  5
D3E
102
{ACAD_REACTORS
330
C
102
}
330
C
100
AcDbDictionary
281
     1
  3
A0
350
D3F
  3
A1
350
D40
  3
A2
350
D41
  3
A3
350
D42
  3
A4
350
D43
  3
A5
350
D44
  3
A6
350
D45
  3
A7
350
D46
  3
A8
350
D47
  3
A9
350
D48
  3
B0
350
D49
  3
B1
350
D4A
  3
B2
350
D4B
  3
B3
350
D4C
  3
B4
350
D4D
  3
B5
350
D4E
  3
B6
350
D4F
  3
B7
350
D50
  3
B8
350
D51
  3
B9
350
D52
  3
C0
350
D53
  3
C1
350
D54
  3
C2
350
D55
  3
C3
350
D56
  3
C4
350
D57
  3
C5
350
D58
  3
C6
350
D59
  3
C7
350
D5A
  3
C8
350
D5B
  3
C9
350
D5C
  3
D0
350
D5D
  3
D1
350
D5E
  3
D2
350
D5F
  0
DICTIONARY
  5
D6A
102
{ACAD_REACTORS
330
C
102
}
330
C
100
AcDbDictionary
281
     1
  3
CANNOSCALE
350
D6D
  0
XRECORD
  5
D6F
102
{ACAD_REACTORS
330
C
102
}
330
C
100
AcDbXrecord
280
     1
  1
DWGPROPS COOKIE
  2

  3

  4

  6

  7

  8
MARTIN
  9

300
=
301
=
302
=
303
=
304
=
305
=
306
=
307
=
308
=
309
=
 40
0.0
 41
2455870.845532651
 42
2455870.852791401
  1

 90
        0
  0
LAYOUT
  5
1C
102
{ACAD_REACTORS
330
1A
102
}
330
1A
100
AcDbPlotSettings
  1

  2
none_device
  4

  6

 40
0.0
 41
0.0
 42
0.0
 43
0.0
 44
0.0
 45
0.0
 46
0.0
 47
0.0
 48
0.0
 49
0.0
140
0.0
141
0.0
142
1.0
143
1.0
 70
   688
 72
     0
 73
     0
 74
     5
  7

 75
    16
147
1.0
148
0.0
149
0.0
100
AcDbLayout
  1
Layout1
 70
     1
 71
     1
 10
0.0
 20
0.0
 11
12.0
 21
9.0
 12
0.0
 22
0.0
 32
0.0
 14
1.000000000000E+20
 24
1.000000000000E+20
 34
1.000000000000E+20
 15
-1.000000000000E+20
 25
-1.000000000000E+20
 35
-1.000000000000E+20
146
0.0
 13
0.0
 23
0.0
 33
0.0
 16
1.0
 26
0.0
 36
0.0
 17
0.0
 27
1.0
 37
0.0
 76
     0
330
1B
  0
LAYOUT
  5
1E
102
{ACAD_REACTORS
330
1A
102
}
330
1A
100
AcDbPlotSettings
  1

  2
none_device
  4

  6

 40
0.0
 41
0.0
 42
0.0
 43
0.0
 44
0.0
 45
0.0
 46
0.0
 47
0.0
 48
0.0
 49
0.0
140
0.0
141
0.0
142
1.0
143
1.0
 70
  1712
 72
     0
 73
     0
 74
     0
  7

 75
     0
147
1.0
148
0.0
149
0.0
100
AcDbLayout
  1
Model
 70
     1
 71
     0
 10
0.0
 20
0.0
 11
12.0
 21
9.0
 12
0.0
 22
0.0
 32
0.0
 14
0.20485
 24
0.001
 34
0.0
 15
511.79515
 25
1544.999
 35
0.0
146
0.0
 13
0.0
 23
0.0
 33
0.0
 16
1.0
 26
0.0
 36
0.0
 17
0.0
 27
1.0
 37
0.0
 76
     0
330
1D
331
D39
  0
MLINESTYLE
  5
18
102
{ACAD_REACTORS
330
17
102
}
330
17
100
AcDbMlineStyle
  2
Standard
 70
     0
  3

 62
   256
 51
90.0
 52
90.0
 71
     2
 49
0.5
 62
   256
  6
BYLAYER
 49
-0.5
 62
   256
  6
BYLAYER
  0
ACDBPLACEHOLDER
  5
F
102
{ACAD_REACTORS
330
E
102
}
330
E
  0
SCALE
  5
D3F
102
{ACAD_REACTORS
330
D3E
102
}
330
D3E
100
AcDbScale
 70
     0
300
1:1
140
1.0
141
1.0
290
     1
  0
SCALE
  5
D40
102
{ACAD_REACTORS
330
D3E
102
}
330
D3E
100
AcDbScale
 70
     0
300
1:2
140
1.0
141
2.0
290
     0
  0
SCALE
  5
D41
102
{ACAD_REACTORS
330
D3E
102
}
330
D3E
100
AcDbScale
 70
     0
300
1:4
140
1.0
141
4.0
290
     0
  0
SCALE
  5
D42
102
{ACAD_REACTORS
330
D3E
102
}
330
D3E
100
AcDbScale
 70
     0
300
1:5
140
1.0
141
5.0
290
     0
  0
SCALE
  5
D43
102
{ACAD_REACTORS
330
D3E
102
}
330
D3E
100
AcDbScale
 70
     0
300
1:8
140
1.0
141
8.0
290
     0
  0
SCALE
  5
D44
102
{ACAD_REACTORS
330
D3E
102
}
330
D3E
100
AcDbScale
 70
     0
300
1:10
140
1.0
141
10.0
290
     0
  0
SCALE
  5
D45
102
{ACAD_REACTORS
330
D3E
102
}
330
D3E
100
AcDbScale
 70
     0
300
1:16
140
1.0
141
16.0
290
     0
  0
SCALE
  5
D46
102
{ACAD_REACTORS
330
D3E
102
}
330
D3E
100
AcDbScale
 70
     0
300
1:20
140
1.0
141
20.0
290
     0
  0
SCALE
  5
D47
102
{ACAD_REACTORS
330
D3E
102
}
330
D3E
100
AcDbScale
 70
     0
300
1:30
140
1.0
141
30.0
290
     0
  0
SCALE
  5
D48
102
{ACAD_REACTORS
330
D3E
102
}
330
D3E
100
AcDbScale
 70
     0
300
1:40
140
1.0
141
40.0
290
     0
  0
SCALE
  5
D49
102
{ACAD_REACTORS
330
D3E
102
}
330
D3E
100
AcDbScale
 70
     0
300
1:50
140
1.0
141
50.0
290
     0
  0
SCALE
  5
D4A
102
{ACAD_REACTORS
330
D3E
102
}
330
D3E
100
AcDbScale
 70
     0
300
1:100
140
1.0
141
100.0
290
     0
  0
SCALE
  5
D4B
102
{ACAD_REACTORS
330
D3E
102
}
330
D3E
100
AcDbScale
 70
     0
300
2:1
140
2.0
141
1.0
290
     0
  0
SCALE
  5
D4C
102
{ACAD_REACTORS
330
D3E
102
}
330
D3E
100
AcDbScale
 70
     0
300
4:1
140
4.0
141
1.0
290
     0
  0
SCALE
  5
D4D
102
{ACAD_REACTORS
330
D3E
102
}
330
D3E
100
AcDbScale
 70
     0
300
8:1
140
8.0
141
1.0
290
     0
  0
SCALE
  5
D4E
102
{ACAD_REACTORS
330
D3E
102
}
330
D3E
100
AcDbScale
 70
     0
300
10:1
140
10.0
141
1.0
290
     0
  0
SCALE
  5
D4F
102
{ACAD_REACTORS
330
D3E
102
}
330
D3E
100
AcDbScale
 70
     0
300
100:1
140
100.0
141
1.0
290
     0
  0
SCALE
  5
D50
102
{ACAD_REACTORS
330
D3E
102
}
330
D3E
100
AcDbScale
 70
     0
300
1/128" = 1'-0"
140
0.0078125
141
12.0
290
     0
  0
SCALE
  5
D51
102
{ACAD_REACTORS
330
D3E
102
}
330
D3E
100
AcDbScale
 70
     0
300
1/64" = 1'-0"
140
0.015625
141
12.0
290
     0
  0
SCALE
  5
D52
102
{ACAD_REACTORS
330
D3E
102
}
330
D3E
100
AcDbScale
 70
     0
300
1/32" = 1'-0"
140
0.03125
141
12.0
290
     0
  0
SCALE
  5
D53
102
{ACAD_REACTORS
330
D3E
102
}
330
D3E
100
AcDbScale
 70
     0
300
1/16" = 1'-0"
140
0.0625
141
12.0
290
     0
  0
SCALE
  5
D54
102
{ACAD_REACTORS
330
D3E
102
}
330
D3E
100
AcDbScale
 70
     0
300
3/32" = 1'-0"
140
0.09375
141
12.0
290
     0
  0
SCALE
  5
D55
102
{ACAD_REACTORS
330
D3E
102
}
330
D3E
100
AcDbScale
 70
     0
300
1/8" = 1'-0"
140
0.125
141
12.0
290
     0
  0
SCALE
  5
D56
102
{ACAD_REACTORS
330
D3E
102
}
330
D3E
100
AcDbScale
 70
     0
300
3/16" = 1'-0"
140
0.1875
141
12.0
290
     0
  0
SCALE
  5
D57
102
{ACAD_REACTORS
330
D3E
102
}
330
D3E
100
AcDbScale
 70
     0
300
1/4" = 1'-0"
140
0.25
141
12.0
290
     0
  0
SCALE
  5
D58
102
{ACAD_REACTORS
330
D3E
102
}
330
D3E
100
AcDbScale
 70
     0
300
3/8" = 1'-0"
140
0.375
141
12.0
290
     0
  0
SCALE
  5
D59
102
{ACAD_REACTORS
330
D3E
102
}
330
D3E
100
AcDbScale
 70
     0
300
1/2" = 1'-0"
140
0.5
141
12.0
290
     0
  0
SCALE
  5
D5A
102
{ACAD_REACTORS
330
D3E
102
}
330
D3E
100
AcDbScale
 70
     0
300
3/4" = 1'-0"
140
0.75
141
12.0
290
     0
  0
SCALE
  5
D5B
102
{ACAD_REACTORS
330
D3E
102
}
330
D3E
100
AcDbScale
 70
     0
300
1" = 1'-0"
140
1.0
141
12.0
290
     0
  0
SCALE
  5
D5C
102
{ACAD_REACTORS
330
D3E
102
}
330
D3E
100
AcDbScale
 70
     0
300
1-1/2" = 1'-0"
140
1.5
141
12.0
290
     0
  0
SCALE
  5
D5D
102
{ACAD_REACTORS
330
D3E
102
}
330
D3E
100
AcDbScale
 70
     0
300
3" = 1'-0"
140
3.0
141
12.0
290
     0
  0
SCALE
  5
D5E
102
{ACAD_REACTORS
330
D3E
102
}
330
D3E
100
AcDbScale
 70
     0
300
6" = 1'-0"
140
6.0
141
12.0
290
     0
  0
SCALE
  5
D5F
102
{ACAD_REACTORS
330
D3E
102
}
330
D3E
100
AcDbScale
 70
     0
300
1'-0" = 1'-0"
140
12.0
141
12.0
290
     0
  0
DICTIONARYVAR
  5
D6D
102
{ACAD_REACTORS
330
D6A
102
}
330
D6A
100
DictionaryVariables
280
     0
  1
1:1
  0
ENDSEC
  0
SECTION
  2
THUMBNAILIMAGE
 90
    16364
310
28000000B40000005500000001000800000000000000000000000000000000000000000000000000FFFFFF000000FF0000FFFF0000FF0000FFFF0000FF000000FF00FF000000000080808000C0C0C0000000FF007F7FFF000000A5005252A50000007F003F3F7F0000004C0026264C000000260013132600003FFF007F9FFF
310
000029A5005267A500001F7F003F4F7F0000134C00262F4C000009260013172600007FFF007FBFFF000052A500527CA500003F7F003F5F7F0000264C0026394C0000132600131C260000BFFF007FDFFF00007CA5005291A500005F7F003F6F7F0000394C0026424C00001C26001321260000FFFF007FFFFF0000A5A50052A5
310
A500007F7F003F7F7F00004C4C00264C4C00002626001326260000FFBF007FFFDF0000A57C0052A59100007F5F003F7F6F00004C3900264C420000261C001326210000FF7F007FFFBF0000A5520052A57C00007F3F003F7F5F00004C2600264C39000026130013261C0000FF3F007FFF9F0000A5290052A56700007F1F003F
310
7F4F00004C1300264C2F00002609001326170000FF00007FFF7F0000A5000052A55200007F00003F7F3F00004C0000264C260000260000132613003FFF00009FFF7F0029A5000067A552001F7F00004F7F3F00134C00002F4C260009260000172613007FFF0000BFFF7F0052A500007CA552003F7F00005F7F3F00264C0000
310
394C2600132600001C261300BFFF0000DFFF7F007CA5000091A552005F7F00006F7F3F00394C0000424C26001C26000021261300FFFF0000FFFF7F00A5A50000A5A552007F7F00007F7F3F004C4C00004C4C26002626000026261300FFBF0000FFDF7F00A57C0000A59152007F5F00007F6F3F004C3900004C422600261C00
310
0026211300FF7F0000FFBF7F00A5520000A57C52007F3F00007F5F3F004C2600004C39260026130000261C1300FF3F0000FF9F7F00A5290000A56752007F1F00007F4F3F004C1300004C2F26002609000026171300FF000000FF7F7F00A5000000A55252007F0000007F3F3F004C0000004C2626002600000026131300FF00
310
3F00FF7F9F00A5002900A55267007F001F007F3F4F004C0013004C262F002600090026131700FF007F00FF7FBF00A5005200A5527C007F003F007F3F5F004C0026004C2639002600130026131C00FF00BF00FF7FDF00A5007C00A55291007F005F007F3F6F004C0039004C26420026001C0026132100FF00FF00FF7FFF00A5
310
00A500A552A5007F007F007F3F7F004C004C004C264C002600260026132600BF00FF00DF7FFF007C00A5009152A5005F007F006F3F7F0039004C0042264C001C002600211326007F00FF00BF7FFF005200A5007C52A5003F007F005F3F7F0026004C0039264C00130026001C1326003F00FF009F7FFF002900A5006752A500
310
1F007F004F3F7F0013004C002F264C000900260017132600000000002D2D2D005B5B5B0089898900B7B7B700B3B3B30000000000000000000000000000000000000000000000000000000000000000000000000000000000000000000000000000000000000000000000000000000000000000000000000000000000000000
310
00000000000000000000000000000000000000000000000000000000000000000000000000000000000000000000000000000000000000000000000000000000000000000000000000000000000000000000000000000000000000000000000000000000000000000000000000000000000000000000000000000000000000
310
00000000000000000000000000000000000000000000000000000000000000000000000000000000000000000000000000000000000000000000000000000000000000000000000000000000000000000000000000000000000000000000000000000000000000000000000000000000000000000000000000000000000000
310
00000000000000000000000000000000000000000000000000000000000000000000000000000000000000000000000000000000000000000000000000000000000000000000000000000000000000000000000000000000000000000000000000000000000000000000000000000000000000000000000000000000000000
310
00000000000000000000000000000000000000000000000000000000000000000000000000000000000000000000000000000000000000000000000000000000000000000000000000000000000000000000000000000000000000000000000000000000000000000000000000000000000000000000000000000000000000
310
00000000000000000000000000000000000000000000000000000000000000000000000000000000000000000000000000000000070000000000000000000000000000000000000000000000000000000000000000000000000000000000000000000000000000000000000000000000000000000000000000000000000000
310
00000000000000000000000000000000000000000000000000000000000000000000000000000000000000000000000000000000000000000000000000000000000000000000000000000000000000000000000000000000000000000000000000000000000000000707000000000000000000000000000000000000000000
310
00000000000000000000000000000000000000000000000000000000000000000000000000000000000000000000000000000000000000000000000000000000000000000000000000000000000000000000000000000000000000000000000000000000000000000000000000000000000000000000000000000000000000
310
00000000000000000000000000000000000000000000000000000000000007070000000000000000000000000000000000000000000000000000000000000000000000000000000000000000000000000000000000000000000000000000000000000000000000000000000000000000000000000000000000000000000000
310
00000000000000000000000000000000000000000000000000000000000000000000000000000000000000000000000000000000000000000000000000000000000000000000000000000000000000000000000707070000000000000000000000000000000000000000000000000000000000000000000000000000000000
310
00000000000000000000000000000000000000000000000000000000000000000000000000000000000000000000000000000000000000000000000000000000000000000000000000000000000000000000000000000000000000000000000000000000000000000000000000000000000000000000000000000000000000
310
00000000000000000007070700000000000000000000000000000000000000000000000000000000000000000000000000000000000000000000000000000000000000000000000000000000000000000000000000000000000000000000000000000000000000000000000000000000000000000000000000000000000000
310
00000000000000000000000000000000000000000000000000000000000000000000000000000000000000000000000000000000000000000000000000000707070000000000000000000000000000000000000000000000000000000000000000000000000000000000000000000000000000000000000000000000000000
310
00000000000000000000000000000000000000000000000000000000000000000000000000000000000000000000000000000000000000000000000000000000000000000000000000000000000000000000000000000000000000000000000000000000000000000000000000000000000000070707000000000000000000
310
00000000000000000000000000000000000000000000000000000000000000000000000000000000000000000000000000000000000000000000000000000000000000000000000000000000000000000000000000000000000000000000000000000000000000000000000000000000000000000000000000000000000000
310
00000000000000000000000000000000000000000000000000000000000000000000000000000000000707070000000000000000000000000000000000000000000000000000000000000000000000000000000000000000000000000000000000000000000000000000000000000000000000000000000000000000000000
310
00000000000000000000000000000000000000000000000000000000000000000000000000000000000000000000000000000000000000000000000000000000000000000000000000000000000000000000000000000000000000000000070707000000000000000000000000000000000000000000000000000000000000
310
00000000000000000000000000000000000000000000000000000000000000000000000000000000000000000000000000000000000000000000000000000000000000000000000000000000000000000000000000000000000000000000000000000000000000000000000000000000000000000000000000000000000000
310
00000000000000000000000000000000000000000707070000000000000000000000000000000000000000000000000000000000000000000000000000000000000000000000000000000000000000000000000000000000000000000000000000000000000000000000000000000000000000000000000000000000000000
310
00000000000000000000000000000000000000000000000000000000000000000000000000000000000000000000000000000000000000000000000000000000000000000000000007070707000000000000000000000000000000000000000000000000000000000000000000000000000000000000000000000000000000
310
00000000000000000000000000000000000000000000000000000000000000000000000000000000000000000000000000000000000000000000000000000000000000000000000000000000000000000000000000000000000000000000000000000000000000000000000000000000000000000000000000000000000707
310
07070000000000000000000000000000000000000000000000000000000000000000000000000000000000000000000000000000000000000000000000000000000000000000000000000000000000000000000000000000000000000000000000000000000000000000000000000000000000000000000000000000000000
310
00000000000000000000000000000000000000000000000000000000000000000000000000000000000000000000000000000007000707000000000000000000000000000000000000000000000000000000000000000000000000000000000000000000000000000000000000000000000000000000000000000000000000
310
00000000000000000000000000000000000000000000000000000000000000000000000000000000000000000000000000000000000000000000000000000000000000000000000000000000000000000000000000000000000000000000000000000000000000000700070700000000000000000000000000000000000000
310
00000000000000000000000000000000000000000000000000000000000000000000000000000000000000000000000000000000000000000000000000000000000000000000000000000000000000000000000000000000000000000000000000000000000000000000000000000000000000000000000000000000000000
310
00000000000000000000000000000000000000000000000000000000000007000707000000000000000000000000000000000000000000000000000000000000000000000000000000000000000000000000000000000000000000000000000000000000000000000000000000000000000000000000000000000000000000
310
00000000000000000000000000000000000000000000000000000000000000000000000000000000000000000000000000000000000000000000000000000000000000000000000000000000000000000000070707070707070700000000000000000000000000000000000000000000000000000000000000000000000000
310
00000000000000000000000000000000000000000000000000000000000000000000000000000000000000000000000000000000000000000000000000000000000000000000000000000000000000000000000000000000000000000000000000000000000000000000000000000000000000000000000000000000000000
310
00000000000007070707070707070707000000000000000000000000000000000000000000000000000000000000000000000000000000000000000000000000000000000000000000000000000000000000000000000000000000000000000000000000000000000000000000000000000000000000000000000000000000
310
00000000000000000000000000000000000000000000000000000000000000000000000000000000000000000000000000000000000000000000000707070707070707070700000000000000000000000000000000000000000000000000000000000000000000000000000000000000000000000000000000000000000000
310
00000000000000000000000000000000000000000000000000000000000000000000000000000000000000000000000000000000000000000000000000000000000000000000000000000000000000000000000000000000000000000000000000000000000000000000000000000000000000000007070007070000000000
310
00000000000000000000000000000000000000000000000000000000000000000000000000000000000000000000000000000000000000000000000000000000000000000000000000000000000000000000000000000000000000000000000000000000000000000000000000000000000000000000000000000000000000
310
00000000000000000000000000000000000000000000000000000000000000000000000000000000000000070700000000000000000000000000000000000000000000000000000000000000000000000000000000000000000000000000000000000000000000000000000000000000000000000000000000000000000000
310
00000000000000000000000000000000000000000000000000000000000000000000000000000000000000000000000000000000000000000000000000000000000000000000000000000000000000000000000000000000000000000000000007070000000000000000000000000000000000000000000000000000000000
310
00000000000000000000000000000000000000000000000000000000000000000000000000000000000000000000000000000000000000000000000000000000000000000000000000000000000000000000000000000000000000000000000000000000000000000000000000000000000000000000000000000000000000
310
00000000000000000000000000000000000000000000070700000000000000000000000000000000000000000000000000000000000000000000000000000000000000000000000000000000000000000000000000000000000000000000000000000000000000000000000000000000000000000000000000000000000000
310
00000000000000000000000000000000000000000000000000000000000000000000000000000000000000000000000000000000000000000000000000000000000000000000000000000007070000000000000000000000000000000000000000000000000000000000000000000000000000000000000000000000000000
310
00000000000000000000000000000000000000000000000000000000000000000000000000000000000000000000000000000000000000000000000000000000000000000000000000000000000000000000000000000000000000000000000000000000000000000000000000000000000000000000000000000000000000
310
00070700000000000000000000000000000000000000000000000000000000000000000000000000000000000000000000000000000000000000000000000000000000000000000000000000000000000000000000000000000000000000000000000000000000000000000000000000000000000000000000000000000000
310
00000000000000000000000000000000000000000000000000000000000000000000000000000000000000000000000000000000000007070000000000000000000000000000000000000000000000000000000000000000000000000000000000000000000000000000000000000000000000000000000000000000000000
310
00000000000000000000000000000000000000000000000000000000000000000000000000000000000000000000000000000000000000000000000000000000000000000000000000000000000000000000000000000000000000000000000000000000000000000000000707000000000000000000000000000000000000
310
00000000000000000000000000000000000000000000000000000000000000000000000000000000000000000000000000000000000000000000000000000000000000000000000000000000000000000000000000000000000000000000000000000000000000000000000000000000000000000000000000000000000000
310
00000000000000000000000000000000000000000000000000000000000000000007070000000000000000000000000000000000000000000000000000000000000000000000000000000000000000000000000000000000000000000000000000000000000000000000000000000000000000000000000000000000000000
310
00000000000000000000000000000000000000000000000000000000000000000000000000000000000000000000000000000000000000000000000000000000000000000000000000000000000000000000000000000707000000000000000000000000000000000000000000000000000000000000000000000000000000
310
00000000000000000000000000000000000000000000000000000000000000000000000000000000000000000000000000000000000000000000000000000000000000000000000000000000000000000000000000000000000000000000000000000000000000000000000000000000000000000000000000000000000000
310
00000000000000000000000007070000000000000000000000000000000000000000000000000000000000000000000000000000000000000000000000000000000000000000000000000000000000000000000000000000000000000000000000000000000000000000000000000000000000000000000000000000000000
310
00000000000000000000000000000000000000000000000000000000000000000000000000000000000000000000000000000000000000000000000000000000000707000000000000000000000000000000000000000000000000000000000000000000000000000000000000000000000000000000000000000000000000
310
00000000000000000000000000000000000000000000000000000000000000000000000000000000000000000000000000000000000000000000000000000000000000000000000000000000000000000000000000000000000000000000000000000000000000000000000000000000000000000000070700000000000000
310
00000000000000000000000000000000000000000000000000000000000000000000000000000000000000000000000000000000000000000000000000000000000000000000000000000000000000000000000000000000000000000000000000000000000000000000000000000000000000000000000000000000000000
310
00000000000000000000000000000000000000000000000000000000000000000000000000000000000000000707000000000000000000000000000000000000000000000000000000000000000000000000000000000000000000000000000000000000000000000000000000000000000000000000000000000000000000
310
00000000000000000000000000000000000000000000000000000000000000000000000000000000000000000000000000000000000000000000000000000000000000000000000000000000000000000000000000000000000000000000000000070700000000000000000000000000000000000000000000000000000000
310
00000000000000000000000000000000000000000000000000000000000000000000000000000000000000000000000000000000000000000000000000000000000000000000000000000000000000000000000000000000000000000000000000000000000000000000000000000000000000000000000000000000000000
310
00000000000000000000000000000000000000000000000707000000000000000000000000000000000000000000000000000000000000000000000000000000000000000000000000000000000000000000000000000000000000000000000000000000000000000000000000000000000000000000000000000000000000
310
00000000000000000000000000000000000000000000000000000000000000000000000000000000000000000000000000000000000000000000000000000000000000000000000000000000070700000000000000000000000000000000000000000000000000000000000000000000000000000000000000000000000000
310
00000000000000000000000000000000000000000000000000000000000000000000000000000000000000000000000000000000000000000000000000000000000000000000000000000000000000000000000000000000000000000000000000000000000000000000000000000000000000000000000000000000000000
310
00000707000000000000000000000000000000000000000000000000000000000000000000000000000000000000000000000000000000000000000000000000000000000000000000000000000000000000000000000000000000000000000000000000000000000000000000000000000000000000000000000000000000
310
00000000000000000000000000000000000000000000000000000000000000000000000000000000000000000000000000000000000000070700000000000000000000000000000000000000000000000000000000000000000000000000000000000000000000000000000000000000000000000000000000000000000000
310
00000000000000000000000000000000000000000000000000000000000000000000000000000000000000000000000000000000000000000000000000000000000000000000000000000000000000000000000000000000000000000000000000000000000000000000000007070700000000000000000000000000000000
310
00000000000000000000000000000000000000000000000000000000000000000000000000000000000000000000000000000000000000000000000000000000000000000000000000000000000000000000000000000000000000000000000000000000000000000000000000000000000000000000000000000000000000
310
00000000000000000000000000000000000000000000000000000000000000000000070000000000000000000000000000000000000000000000000000000000000000000000000000000000000000000000000000000000000000000000000000000000000000000000000000000000000000000000000000000000000000
310
00000000000000000000000000000000000000000000000000000000000000000000000000000000000000000000000000000000000000000000000000000000000000000000000000000000000000000000000000000007070000000000000000000000000000000000000000000000000000000000000000000000000000
310
00000000000000000000000000000000000000000000000000000000000000000000000000000000000000000000000000000000000000000000000000000000000000000000000000000000000000000000000000000000000000000000000000000000000000000000000000000000000000000000000000000000000000
310
00000000000000000000000000070700000000000000000000000000000000000000000000000000000000000000000000000000000000000000000000000000000000000000000000000000000000000000000000000000000000000000000000000000000000000000000000000000000000000000000000000000000000
310
00000000000000000000000000000000000000000000000000000000000000000000000000000000000000000000000000000000000000000000000000000000000007070000000000000000000000000000000000000000000000000000000000000000000000000000000000000000000000000000000000000000000000
310
00000000000000000000000000000000000000000000000000000000000000000000000000000000000000000000000000000000000000000000000000000000000000000000000000000000000000000000000000000000000000000000000000000000000000000000000000000000000000000000000707000000000000
310
00000000000000000000000000000000000000000000000000000000000000000000000000000000000000000000000000000000000000000000000000000000000000000000000000000000000000000000000000000000000000000000000000000000000000000000000000000000000000000000000000000000000000
310
00000000000000000000000000000000000000000000000000000000000000000000000000000000000000000007070000000000000000000000000000000000000000000000000000000000000000000000000000000000000000000000000000000000000000000000000000000000000000000000000000000000000000
310
00000000000000000000000000000000000000000000000000000000000000000000000000000000000000000000000000000000000000000000000000000000000000000000000000000000000000000000000000000000000000000000000000000707000000000000000000000000000000000000000000000000000000
310
00000000000000000000000000000000000000000000000000000000000000000000000000000000000000000000000000000000000000000000000000000000000000000000000000000000000000000000000000000000000000000000000000000000000000000000000000000000000000000000000000000000000000
310
00000000000000000000000000000000000000000000000707070000000000000000000000000000000000000000000000000000000000000000000000000000000000000000000000000000000000000000000000000000000000000000000000000000000000000000000000000000000000000000000000000000000000
310
00000000000000000000000000000000000000000000000000000000000000000000000000000000000000000000000000000000000000000000000000000000000000000000000000000000070007000000000000000000000000000000000000000000000000000000000000000000000000000000000000000000000000
310
00000000000000000000000000000000000000000000000000000000000000000000000000000000000000000000000000000000000000000000000000000000000000000000000000000000000000000000000000000000000000000000000000000000000000000000000000000000000000000000000000000000000000
310
00070707070000000000000000000000000000000000000000000000000000000000000000000000000000000000000000000000000000000000000000000000000000000000000000000000000000000000000000000000000000000000000000000000000000000000000000000000000000000000000000000000000000
310
00000000000000000000000000000000000000000000000000000000000000000000000000000000000000000000000000000000000007070707000000000000000000000000000000000000000000000000000000000000000000000000000000000000000000000000000000000000000000000000000000000000000000
310
00000000000000000000000000000000000000000000000000000000000000000000000000000000000000000000000000000000000000000000000000000000000000000000000000000000000000000000000000000000000000000000000000000000000000000000070007070700000000000000000000000000000000
310
00000000000000000000000000000000000000000000000000000000000000000000000000000000000000000000000000000000000000000000000000000000000000000000000000000000000000000000000000000000000000000000000000000000000000000000000000000000000000000000000000000000000000
310
00000000000000000000000000000000000000000000000000000000000000070007000707000000000000000000000000000000000000000000000000000000000000000000000000000000000000000000000000000000000000000000000000000000000000000000000000000000000000000000000000000000000000
310
00000000000000000000000000000000000000000000000000000000000000000000000000000000000000000000000000000000000000000000000000000000000000000000000000000000000000000000000707070000070700000000000000000000000000000000000000000000000000000000000000000000000000
310
00000000000000000000000000000000000000000000000000000000000000000000000000000000000000000000000000000000000000000000000000000000000000000000000000000000000000000000000000000000000000000000000000000000000000000000000000000000000000000000000000000000000000
310
00000000000000070707070000000707000000000000000000000000000000000000000000000000000000000000000000000000000000000000000000000000000000000000000000000000000000000000000000000000000000000000000000000000000000000000000000000000000000000000000000000000000000
310
00000000000000000000000000000000000000000000000000000000000000000000000000000000000000000000000000000000000000000000000707070707000000070700000000000000000000000000000000000000000000000000000000000000000000000000000000000000000000000000000000000000000000
310
00000000000000000000000000000000000000000000000000000000000000000000000000000000000000000000000000000000000000000000000000000000000000000000000000000000000000000000000000000000000000000000000000000000000000000000000000000707070007000000000007070000000000
310
00000000000000000000000000000000000000000000000000000000000000000000000000000000000000000000000000000000000000000000000000000000000000000000000000000000000000000000000000000000000000000000000000000000000000000000000000000000000000000000000000000000000000
310
00000000000000000000000000000000000000000000000000000000000000000000000007070707000000000000070700000000000000000000000000000000000000000000000000000000000000000000000000000000000000000000000000000000000000000000000000000000000000000000000000000000000000
310
00000000000000000000000000000000000000000000000000000000000000000000000000000000000000000000000000000000000000000000000000000000000000000000000000000000000000000000000000000000000707070000000000000007070000000000000000000000000000000000000000000000000000
310
00000000000000000000000000000000000000000000000000000000000000000000000000000000000000000000000000000000000000000000000000000000000000000000000000000000000000000000000000000000000000000000000000000000000000000000000000000000000000000000000000000000000000
310
00000000000000000000000000000000000000000000000000070700000000000000000000000000000000000000000000000000000000000000000000000000000000000000000000000000000000000000000000000000000000000000000000000000000000000000000000000000000000000000000000000000000000
310
00000000000000000000000000000000000000000000000000000000000000000000000000000000000000000000000000000000000000000000000000000000000000000000000000000000000007070000000000000000000000000000000000000000000000000000000000000000000000000000000000000000000000
310
00000000000000000000000000000000000000000000000000000000000000000000000000000000000000000000000000000000000000000000000000000000000000000000000000000000000000000000000000000000000000000000000000000000000000000000000000000000000000000000000000000000000000
310
00000000070700000000000000000000000000000000000000000000000000000000000000000000000000000000000000000000000000000000000000000000000000000000000000000000000000000000000000000000000000000000000000000000000000000000000000000000000000000000000000000000000000
310
00000000000000000000000000000000000000000000000000000000000000000000000000000000000000000000000000000000000000000007070000000000000000000000000000000000000000000000000000000000000000000000000000000000000000000000000000000000000000000000000000000000000000
310
00000000000000000000000000000000000000000000000000000000000000000000000000000000000000000000000000000000000000000000000000000000000000000000000000000000000000000000000000000000000000000000000000000000000000000000000000000707000000000000000000000000000000
310
00000000000000000000000000000000000000000000000000000000000000000000000000000000000000000000000000000000000000000000000000000000000000000000000000000000000000000000000000000000000000000000000000000000000000000000000000000000000000000000000000000000000000
310
00000000000000000000000000000000000000000000000000000000000000000000000007070000000000000000000000000000000000000000000000000000000000000000000000000000000000000000000000000000000000000000000000000000000000000000000000000000000000000000000000000000000000
310
00000000000000000000000000000000000000000000000000000000000000000000000000000000000000000000000000000000000000000000000000000000000000000000000000000000000000000000000000000000000707000000000000000000000000000000000000000000000000000000000000000000000000
310
00000000000000000000000000000000000000000000000000000000000000000000000000000000000000000000000000000000000000000000000000000000000000000000000000000000000000000000000000000000000000000000000000000000000000000000000000000000000000000000000000000000000000
310
00000000000000000000000000000007070000000000000000000000000000000000000000000000000000000000000000000000000000000000000000000000000000000000000000000000000000000000000000000000000000000000000000000000000000000000000000000000000000000000000000000000000000
310
00000000000000000000000000000000000000000000000000000000000000000000000000000000000000000000000000000000000000000000000000000000000000000707000000000000000000000000000000000000000000000000000000000000000000000000000000000000000000000000000000000000000000
310
00000000000000000000000000000000000000000000000000000000000000000000000000000000000000000000000000000000000000000000000000000000000000000000000000000000000000000000000000000000000000000000000000000000000000000000000000000000000000000000000000070700000000
310
00000000000000000000000000000000000000000000000000000000000000000000000000000000000000000000000000000000000000000000000000000000000000000000000000000000000000000000000000000000000000000000000000000000000000000000000000000000000000000000000000000000000000
310
00000000000000000000000000000000000000000000000000000000000000000000000000000000000000000000000707000707000000000000000000000000000000000000000000000000000000000000000000000000000000000000000000000000000000000000000000000000000000000000000000000000000000
310
00000000000000000000000000000000000000000000000000000000000000000000000000000000000000000000000000000000000000000000000000000000000000000000000000000000000000000000000000000000000000000000000000000000070707070700000000000000000000000000000000000000000000
310
00000000000000000000000000000000000000000000000000000000000000000000000000000000000000000000000000000000000000000000000000000000000000000000000000000000000000000000000000000000000000000000000000000000000000000000000000000000000000000000000000000000000000
310
00000000000000000000000000070707000000000000000000000707070707000000000000000000000000000000000000000000000000000000000000000000000000000000000000000000000000000000000000000000000000000000000000000000000000000000000000000000000000000000000000000000000000
310
00000000000000000000000000000000000000000000000000000000000000000000000000000000000000000000000000000000000000000000000000000000070700070700000000000000000000070700070700000000000000000000000000000000000000000000000000000000000000000000000000000000000000
310
00000000000000000000000000000000000000000000000000000000000000000000000000000000000000000000000000000000000000000000000000000000000000000000000000000000000000000000000000000000000000000000000000000000000000000000000000000000000007070707070700000000000000
310
00000000000707000000000000000000000000000000000000000000000000000000000000000000000000000000000000000000000000000000000000000000000000000000000000000000000000000000000000000000000000000000000000000000000000000000000000000000000000000000000000000000000000
310
00000000000000000000000000000000000000000000000000000000000000000000000000000707000707070000000000000000000000000000070700000000000000000000000000000000000000000000000000000000000000000000000000000000000000000000000000000000000000000000000000000000000000
310
00000000000000000000000000000000000000000000000000000000000000000000000000000000000000000000000000000000000000000000000000000000000000000000000000000000000000000000000000000000000707070707070707000000000000000000000000000007070000000000000000000000000000
310
00000000000000000000000000000000000000000000000000000000000000000000000000000000000000000000000000000000000000000000000000000000000000000000000000000000000000000000000000000000000000000000000000000000000000000000000000000000000000000000000000000000000000
310
00000000000000000000000000000000070000000707070000000000000000000000070707070700000000000000000000000000000000000000000000000000000000000000000000000000000000000000000000000000000000000000000000000000000000000000000000000000000000000000000000000000000000
310
00000000000000000000000000000000000000000000000000000000000000000000000000000000000000000000000000000000000000000000000000000000000000000000000000000707000000000007070707070707070707000000000000000000000000000000000000000000000000000000000000000000000000
310
00000000000000000000000000000000000000000000000000000000000000000000000000000000000000000000000000000000000000000000000000000000000000000000000000000000000000000000000000000000000000000000000000000000000000000000000000000000000000000000000000000000000000
310
07070707070707070707070707000000000000000000000000000000000000000000000000000000000000000000000000000000000000000000000000000000000000000000000000000000000000000000000000000000000000000000000000000000000000000000000000000000000000000000000000000000000000
310
00000000000000000000000000000000000000000000000000000000000000000000000000000000000000000000000000000000000007070707070700000000000000000000000000000000000000000000000000000000000000000000000000000000000000000000000000000000000000000000000000000000000000
310
00000000000000000000000000000000000000000000000000000000000000000000000000000000000000000000000000000000000000000000000000000000000000000000000000000000000000000000000000000000000000000000000000000000000000000000000000000000000000000000000000000000000000
310
00000000000000000000000000000000000000000000000000000000000000000000000000000000000000000000000000000000000000000000000000000000000000000000000000000000000000000000000000000000000000000000000000000000000000000000000000000000000000000000000000000000000000
310
00000000000000000000000000000000000000000000000000000000000000000000000000000000000000000000000000000000000000000000000000000000000000000000000000000000000000000000000000000000000000000000000000000000000000000000000000000000000000000000000000000000000000
310
00000000000000000000000000000000000000000000000000000000000000000000000000000000000000000000000000000000000000000000000000000000000000000000000000000000000000000000000000000000000000000000000000000000000000000000000000000000000000000000000000000000000000
310
00000000000000000000000000000000000000000000000000000000000000000000000000000000000000000000000000000000000000000000000000000000000000000000000000000000000000000000000000000000000000000000000000000000000000000000000000000000000000000000000000000000000000
310
000000000000000000000000000000000000000000000000000000000000000000000000000000000000000000000000000000000000000000000000000000000000000000000000000000000000000000000000000000000000000000000000000000000000000000000000
  0
ENDSEC
  0
EOF
