  0
SECTION
  2
HEADER
  9
$ACADVER
  1
AC1015
  9
$ACADMAINTVER
 70
     6
  9
$DWGCODEPAGE
  3
ANSI_1252
  9
$INSBASE
 10
0.0
 20
0.0
 30
0.0
  9
$EXTMIN
 10
0.0
 20
0.0127445
 30
0.0
  9
$EXTMAX
 10
360.0
 20
156.9872555
 30
0.0
  9
$LIMMIN
 10
0.0
 20
0.0
  9
$LIMMAX
 10
12.0
 20
9.0
  9
$ORTHOMODE
 70
     0
  9
$REGENMODE
 70
     1
  9
$FILLMODE
 70
     1
  9
$QTEXTMODE
 70
     0
  9
$MIRRTEXT
 70
     1
  9
$LTSCALE
 40
1.0
  9
$ATTMODE
 70
     1
  9
$TEXTSIZE
 40
0.2
  9
$TRACEWID
 40
0.05
  9
$TEXTSTYLE
  7
Standard
  9
$CLAYER
  8
0
  9
$CELTYPE
  6
ByBlock
  9
$CECOLOR
 62
   256
  9
$CELTSCALE
 40
1.0
  9
$DISPSILH
 70
     0
  9
$DIMSCALE
 40
1.0
  9
$DIMASZ
 40
0.18
  9
$DIMEXO
 40
0.0625
  9
$DIMDLI
 40
0.38
  9
$DIMRND
 40
0.0
  9
$DIMDLE
 40
0.0
  9
$DIMEXE
 40
0.18
  9
$DIMTP
 40
0.0
  9
$DIMTM
 40
0.0
  9
$DIMTXT
 40
0.18
  9
$DIMCEN
 40
0.09
  9
$DIMTSZ
 40
0.0
  9
$DIMTOL
 70
     0
  9
$DIMLIM
 70
     0
  9
$DIMTIH
 70
     1
  9
$DIMTOH
 70
     1
  9
$DIMSE1
 70
     0
  9
$DIMSE2
 70
     0
  9
$DIMTAD
 70
     0
  9
$DIMZIN
 70
     0
  9
$DIMBLK
  1

  9
$DIMASO
 70
     1
  9
$DIMSHO
 70
     1
  9
$DIMPOST
  1

  9
$DIMAPOST
  1

  9
$DIMALT
 70
     0
  9
$DIMALTD
 70
     2
  9
$DIMALTF
 40
25.4
  9
$DIMLFAC
 40
1.0
  9
$DIMTOFL
 70
     0
  9
$DIMTVP
 40
0.0
  9
$DIMTIX
 70
     0
  9
$DIMSOXD
 70
     0
  9
$DIMSAH
 70
     0
  9
$DIMBLK1
  1

  9
$DIMBLK2
  1

  9
$DIMSTYLE
  2
Standard
  9
$DIMCLRD
 70
     0
  9
$DIMCLRE
 70
     0
  9
$DIMCLRT
 70
     0
  9
$DIMTFAC
 40
1.0
  9
$DIMGAP
 40
0.09
  9
$DIMJUST
 70
     0
  9
$DIMSD1
 70
     0
  9
$DIMSD2
 70
     0
  9
$DIMTOLJ
 70
     1
  9
$DIMTZIN
 70
     0
  9
$DIMALTZ
 70
     0
  9
$DIMALTTZ
 70
     0
  9
$DIMUPT
 70
     0
  9
$DIMDEC
 70
     4
  9
$DIMTDEC
 70
     4
  9
$DIMALTU
 70
     2
  9
$DIMALTTD
 70
     2
  9
$DIMTXSTY
  7
Standard
  9
$DIMAUNIT
 70
     0
  9
$DIMADEC
 70
     0
  9
$DIMALTRND
 40
0.0
  9
$DIMAZIN
 70
     0
  9
$DIMDSEP
 70
    46
  9
$DIMATFIT
 70
     3
  9
$DIMFRAC
 70
     0
  9
$DIMLDRBLK
  1

  9
$DIMLUNIT
 70
     2
  9
$DIMLWD
 70
    -2
  9
$DIMLWE
 70
    -2
  9
$DIMTMOVE
 70
     2
  9
$LUNITS
 70
     2
  9
$LUPREC
 70
     4
  9
$SKETCHINC
 40
0.1
  9
$FILLETRAD
 40
0.5
  9
$AUNITS
 70
     0
  9
$AUPREC
 70
     0
  9
$MENU
  1
.
  9
$ELEVATION
 40
0.0
  9
$PELEVATION
 40
0.0
  9
$THICKNESS
 40
0.0
  9
$LIMCHECK
 70
     0
  9
$CHAMFERA
 40
0.5
  9
$CHAMFERB
 40
0.5
  9
$CHAMFERC
 40
1.0
  9
$CHAMFERD
 40
0.0
  9
$SKPOLY
 70
     0
  9
$TDCREATE
 40
2455870.875469178
  9
$TDUCREATE
 40
2455870.833802511
  9
$TDUPDATE
 40
2455870.878474815
  9
$TDUUPDATE
 40
2455870.836808148
  9
$TDINDWG
 40
0.0030052894
  9
$TDUSRTIMER
 40
0.0030052894
  9
$USRTIMER
 70
     1
  9
$ANGBASE
 50
0.0
  9
$ANGDIR
 70
     0
  9
$PDMODE
 70
     0
  9
$PDSIZE
 40
0.0
  9
$PLINEWID
 40
0.0
  9
$SPLFRAME
 70
     0
  9
$SPLINETYPE
 70
     6
  9
$SPLINESEGS
 70
     8
  9
$HANDSEED
  5
E70
  9
$SURFTAB1
 70
     6
  9
$SURFTAB2
 70
     6
  9
$SURFTYPE
 70
     6
  9
$SURFU
 70
     6
  9
$SURFV
 70
     6
  9
$UCSBASE
  2

  9
$UCSNAME
  2

  9
$UCSORG
 10
0.0
 20
0.0
 30
0.0
  9
$UCSXDIR
 10
1.0
 20
0.0
 30
0.0
  9
$UCSYDIR
 10
0.0
 20
1.0
 30
0.0
  9
$UCSORTHOREF
  2

  9
$UCSORTHOVIEW
 70
     0
  9
$UCSORGTOP
 10
0.0
 20
0.0
 30
0.0
  9
$UCSORGBOTTOM
 10
0.0
 20
0.0
 30
0.0
  9
$UCSORGLEFT
 10
0.0
 20
0.0
 30
0.0
  9
$UCSORGRIGHT
 10
0.0
 20
0.0
 30
0.0
  9
$UCSORGFRONT
 10
0.0
 20
0.0
 30
0.0
  9
$UCSORGBACK
 10
0.0
 20
0.0
 30
0.0
  9
$PUCSBASE
  2

  9
$PUCSNAME
  2

  9
$PUCSORG
 10
0.0
 20
0.0
 30
0.0
  9
$PUCSXDIR
 10
1.0
 20
0.0
 30
0.0
  9
$PUCSYDIR
 10
0.0
 20
1.0
 30
0.0
  9
$PUCSORTHOREF
  2

  9
$PUCSORTHOVIEW
 70
     0
  9
$PUCSORGTOP
 10
0.0
 20
0.0
 30
0.0
  9
$PUCSORGBOTTOM
 10
0.0
 20
0.0
 30
0.0
  9
$PUCSORGLEFT
 10
0.0
 20
0.0
 30
0.0
  9
$PUCSORGRIGHT
 10
0.0
 20
0.0
 30
0.0
  9
$PUCSORGFRONT
 10
0.0
 20
0.0
 30
0.0
  9
$PUCSORGBACK
 10
0.0
 20
0.0
 30
0.0
  9
$USERI1
 70
     0
  9
$USERI2
 70
     0
  9
$USERI3
 70
     0
  9
$USERI4
 70
     0
  9
$USERI5
 70
     0
  9
$USERR1
 40
0.0
  9
$USERR2
 40
0.0
  9
$USERR3
 40
0.0
  9
$USERR4
 40
0.0
  9
$USERR5
 40
0.0
  9
$WORLDVIEW
 70
     1
  9
$SHADEDGE
 70
     3
  9
$SHADEDIF
 70
    70
  9
$TILEMODE
 70
     1
  9
$MAXACTVP
 70
    64
  9
$PINSBASE
 10
0.0
 20
0.0
 30
0.0
  9
$PLIMCHECK
 70
     0
  9
$PEXTMIN
 10
1.000000000000E+20
 20
1.000000000000E+20
 30
1.000000000000E+20
  9
$PEXTMAX
 10
-1.000000000000E+20
 20
-1.000000000000E+20
 30
-1.000000000000E+20
  9
$PLIMMIN
 10
0.0
 20
0.0
  9
$PLIMMAX
 10
12.0
 20
9.0
  9
$UNITMODE
 70
     0
  9
$VISRETAIN
 70
     1
  9
$PLINEGEN
 70
     0
  9
$PSLTSCALE
 70
     1
  9
$TREEDEPTH
 70
  3020
  9
$CMLSTYLE
  2
Standard
  9
$CMLJUST
 70
     0
  9
$CMLSCALE
 40
1.0
  9
$PROXYGRAPHICS
 70
     1
  9
$MEASUREMENT
 70
     0
  9
$CELWEIGHT
370
    -1
  9
$ENDCAPS
280
     0
  9
$JOINSTYLE
280
     0
  9
$LWDISPLAY
290
     0
  9
$INSUNITS
 70
     0
  9
$HYPERLINKBASE
  1

  9
$STYLESHEET
  1

  9
$XEDIT
290
     1
  9
$CEPSNTYPE
380
     0
  9
$PSTYLEMODE
290
     1
  9
$FINGERPRINTGUID
  2
{D175BB5A-D391-42F4-AABD-D598ECC4A9A8}
  9
$VERSIONGUID
  2
{FAEB1C32-E019-11D5-929B-00C0DF256EC4}
  9
$EXTNAMES
290
     1
  9
$PSVPSCALE
 40
0.0
  9
$OLESTARTUP
290
     0
  0
ENDSEC
  0
SECTION
  2
CLASSES
  0
CLASS
  1
ACDBDICTIONARYWDFLT
  2
AcDbDictionaryWithDefault
  3
ObjectDBX Classes
 90
        0
280
     0
281
     0
  0
CLASS
  1
SCALE
  2
AcDbScale
  3
ObjectDBX Classes
 90
     1153
280
     0
281
     0
  0
CLASS
  1
DICTIONARYVAR
  2
AcDbDictionaryVar
  3
ObjectDBX Classes
 90
        0
280
     0
281
     0
  0
CLASS
  1
ACDBPLACEHOLDER
  2
AcDbPlaceHolder
  3
ObjectDBX Classes
 90
        0
280
     0
281
     0
  0
CLASS
  1
LAYOUT
  2
AcDbLayout
  3
ObjectDBX Classes
 90
        0
280
     0
281
     0
  0
ENDSEC
  0
SECTION
  2
TABLES
  0
TABLE
  2
VPORT
  5
8
330
0
100
AcDbSymbolTable
 70
     1
  0
VPORT
  5
9F5
330
8
100
AcDbSymbolTableRecord
100
AcDbViewportTableRecord
  2
*Active
 70
     0
 10
0.0
 20
0.0
 11
1.0
 21
1.0
 12
180.0
 22
78.49362775
 13
0.0
 23
0.0
 14
0.5
 24
0.5
 15
0.5
 25
0.5
 16
0.0
 26
0.0
 36
1.0
 17
0.0
 27
0.0
 37
0.0
 40
161.639344262295
 41
2.271724137931
 42
50.0
 43
0.0
 44
0.0
 50
0.0
 51
0.0
 71
    16
 72
   100
 73
     1
 74
     3
 75
     0
 76
     0
 77
     0
 78
     0
281
     0
 65
     1
110
0.0
120
0.0
130
0.0
111
1.0
121
0.0
131
0.0
112
0.0
122
1.0
132
0.0
 79
     0
146
0.0
  0
ENDTAB
  0
TABLE
  2
LTYPE
  5
5
330
0
100
AcDbSymbolTable
 70
     1
  0
LTYPE
  5
14
330
5
100
AcDbSymbolTableRecord
100
AcDbLinetypeTableRecord
  2
ByBlock
 70
     0
  3

 72
    65
 73
     0
 40
0.0
  0
LTYPE
  5
15
330
5
100
AcDbSymbolTableRecord
100
AcDbLinetypeTableRecord
  2
ByLayer
 70
     0
  3

 72
    65
 73
     0
 40
0.0
  0
LTYPE
  5
16
330
5
100
AcDbSymbolTableRecord
100
AcDbLinetypeTableRecord
  2
Continuous
 70
     0
  3
Solid line
 72
    65
 73
     0
 40
0.0
  0
ENDTAB
  0
TABLE
  2
LAYER
  5
2
330
0
100
AcDbSymbolTable
 70
     1
  0
LAYER
  5
10
330
2
100
AcDbSymbolTableRecord
100
AcDbLayerTableRecord
  2
0
 70
     0
 62
     7
  6
Continuous
370
    -3
390
F
  0
ENDTAB
  0
TABLE
  2
STYLE
  5
3
330
0
100
AcDbSymbolTable
 70
     1
  0
STYLE
  5
11
330
3
100
AcDbSymbolTableRecord
100
AcDbTextStyleTableRecord
  2
Standard
 70
     0
 40
0.0
 41
1.0
 50
0.0
 71
     0
 42
0.2
  3
txt
  4

  0
ENDTAB
  0
TABLE
  2
VIEW
  5
6
330
0
100
AcDbSymbolTable
 70
     0
  0
ENDTAB
  0
TABLE
  2
UCS
  5
7
330
0
100
AcDbSymbolTable
 70
     0
  0
ENDTAB
  0
TABLE
  2
APPID
  5
9
330
0
100
AcDbSymbolTable
 70
     1
  0
APPID
  5
12
330
9
100
AcDbSymbolTableRecord
100
AcDbRegAppTableRecord
  2
ACAD
 70
     0
  0
ENDTAB
  0
TABLE
  2
DIMSTYLE
  5
A
330
0
100
AcDbSymbolTable
 70
     1
100
AcDbDimStyleTable
  0
DIMSTYLE
105
20
330
A
100
AcDbSymbolTableRecord
100
AcDbDimStyleTableRecord
  2
Standard
 70
     0
340
11
  0
ENDTAB
  0
TABLE
  2
BLOCK_RECORD
  5
1
330
0
100
AcDbSymbolTable
 70
     0
  0
BLOCK_RECORD
  5
1D
330
1
100
AcDbSymbolTableRecord
100
AcDbBlockTableRecord
  2
*Model_Space
340
1E
  0
BLOCK_RECORD
  5
1B
330
1
100
AcDbSymbolTableRecord
100
AcDbBlockTableRecord
  2
*Paper_Space
340
1C
  0
ENDTAB
  0
ENDSEC
  0
SECTION
  2
BLOCKS
  0
BLOCK
  5
9F8
330
1D
100
AcDbEntity
  8
0
100
AcDbBlockBegin
  2
*Model_Space
 70
     0
 10
0.0
 20
0.0
 30
0.0
  3
*Model_Space
  1
*Model_Space
  0
ENDBLK
  5
9F9
330
1D
100
AcDbEntity
  8
0
100
AcDbBlockEnd
  0
BLOCK
  5
9F6
330
1B
100
AcDbEntity
 67
     1
  8
0
100
AcDbBlockBegin
  2
*Paper_Space
 70
     0
 10
0.0
 20
0.0
 30
0.0
  3
*Paper_Space
  1
*Paper_Space
  0
ENDBLK
  5
9F7
330
1B
100
AcDbEntity
 67
     1
  8
0
100
AcDbBlockEnd
  0
ENDSEC
  0
SECTION
  2
ENTITIES
  0
LINE
  5
21
330
1D
100
AcDbEntity
  8
0
100
AcDbLine
 10
0.0
 20
2.6794155
 30
0.0
 11
1.43426
 21
2.0127455
 31
0.0
  0
LINE
  5
22
330
1D
100
AcDbEntity
  8
0
100
AcDbLine
 10
0.0
 20
14.0127555
 30
0.0
 11
0.717131
 21
14.6794555
 31
0.0
  0
LINE
  5
23
330
1D
100
AcDbEntity
  8
0
100
AcDbLine
 10
0.0
 20
14.0127555
 30
0.0
 11
0.258167
 21
14.0127555
 31
0.0
  0
LINE
  5
24
330
1D
100
AcDbEntity
  8
0
100
AcDbLine
 10
0.0
 20
14.0127555
 30
0.0
 11
0.0
 21
2.6794155
 31
0.0
  0
LINE
  5
26
330
1D
100
AcDbEntity
  8
0
100
AcDbLine
 10
0.258167
 20
2.6794155
 30
0.0
 11
1.00398
 21
2.6794155
 31
0.0
  0
LINE
  5
27
330
1D
100
AcDbEntity
  8
0
100
AcDbLine
 10
1.00398
 20
2.6794155
 30
0.0
 11
2.15139
 21
2.6794155
 31
0.0
  0
LINE
  5
28
330
1D
100
AcDbEntity
  8
0
100
AcDbLine
 10
1.43426
 20
2.0127455
 30
0.0
 11
9.16092
 21
2.0127455
 31
0.0
  0
LINE
  5
29
330
1D
100
AcDbEntity
  8
0
100
AcDbLine
 10
13.2669
 20
0.0127445
 30
0.0
 11
13.9123
 21
0.0127445
 31
0.0
  0
LINE
  5
2A
330
1D
100
AcDbEntity
  8
0
100
AcDbLine
 10
13.2669
 20
0.0127445
 30
0.0
 11
13.9123
 21
0.0127445
 31
0.0
  0
LINE
  5
2B
330
1D
100
AcDbEntity
  8
0
100
AcDbLine
 10
13.2669
 20
0.0127445
 30
0.0
 11
13.2669
 21
2.0127455
 31
0.0
  0
LINE
  5
2C
330
1D
100
AcDbEntity
  8
0
100
AcDbLine
 10
13.2669
 20
0.0127445
 30
0.0
 11
13.9123
 21
0.0127445
 31
0.0
  0
LINE
  5
2D
330
1D
100
AcDbEntity
  8
0
100
AcDbLine
 10
13.2669
 20
0.0127445
 30
0.0
 11
13.9123
 21
0.0127445
 31
0.0
  0
LINE
  5
2E
330
1D
100
AcDbEntity
  8
0
100
AcDbLine
 10
13.2669
 20
0.0127445
 30
0.0
 11
13.2669
 21
2.0127455
 31
0.0
  0
LINE
  5
2F
330
1D
100
AcDbEntity
  8
0
100
AcDbLine
 10
13.2669
 20
0.0127445
 30
0.0
 11
13.9123
 21
0.0127445
 31
0.0
  0
LINE
  5
30
330
1D
100
AcDbEntity
  8
0
100
AcDbLine
 10
13.2669
 20
0.0127445
 30
0.0
 11
13.9123
 21
0.0127445
 31
0.0
  0
LINE
  5
31
330
1D
100
AcDbEntity
  8
0
100
AcDbLine
 10
13.2669
 20
0.0127445
 30
0.0
 11
13.2669
 21
2.0127455
 31
0.0
  0
LINE
  5
32
330
1D
100
AcDbEntity
  8
0
100
AcDbLine
 10
13.2669
 20
0.0127445
 30
0.0
 11
13.9123
 21
0.0127445
 31
0.0
  0
LINE
  5
33
330
1D
100
AcDbEntity
  8
0
100
AcDbLine
 10
13.2669
 20
0.0127445
 30
0.0
 11
13.9123
 21
0.0127445
 31
0.0
  0
LINE
  5
34
330
1D
100
AcDbEntity
  8
0
100
AcDbLine
 10
13.2669
 20
0.0127445
 30
0.0
 11
13.2669
 21
2.0127455
 31
0.0
  0
LINE
  5
35
330
1D
100
AcDbEntity
  8
0
100
AcDbLine
 10
13.2669
 20
0.0127445
 30
0.0
 11
13.9123
 21
0.0127445
 31
0.0
  0
LINE
  5
36
330
1D
100
AcDbEntity
  8
0
100
AcDbLine
 10
13.2669
 20
0.0127445
 30
0.0
 11
13.9123
 21
0.0127445
 31
0.0
  0
LINE
  5
37
330
1D
100
AcDbEntity
  8
0
100
AcDbLine
 10
13.2669
 20
0.0127445
 30
0.0
 11
13.2669
 21
2.0127455
 31
0.0
  0
LINE
  5
38
330
1D
100
AcDbEntity
  8
0
100
AcDbLine
 10
13.2669
 20
0.0127445
 30
0.0
 11
13.9123
 21
0.0127445
 31
0.0
  0
LINE
  5
39
330
1D
100
AcDbEntity
  8
0
100
AcDbLine
 10
13.2669
 20
0.0127445
 30
0.0
 11
13.9123
 21
0.0127445
 31
0.0
  0
LINE
  5
3A
330
1D
100
AcDbEntity
  8
0
100
AcDbLine
 10
13.2669
 20
0.0127445
 30
0.0
 11
13.2669
 21
2.0127455
 31
0.0
  0
LINE
  5
3B
330
1D
100
AcDbEntity
  8
0
100
AcDbLine
 10
13.9123
 20
0.0127445
 30
0.0
 11
15.4183
 21
0.0127445
 31
0.0
  0
LINE
  5
3C
330
1D
100
AcDbEntity
  8
0
100
AcDbLine
 10
13.9123
 20
0.0127445
 30
0.0
 11
15.4183
 21
0.0127445
 31
0.0
  0
LINE
  5
3D
330
1D
100
AcDbEntity
  8
0
100
AcDbLine
 10
13.9123
 20
0.0127445
 30
0.0
 11
15.4183
 21
0.0127445
 31
0.0
  0
LINE
  5
3E
330
1D
100
AcDbEntity
  8
0
100
AcDbLine
 10
13.9123
 20
0.0127445
 30
0.0
 11
15.4183
 21
0.0127445
 31
0.0
  0
LINE
  5
3F
330
1D
100
AcDbEntity
  8
0
100
AcDbLine
 10
13.9123
 20
0.0127445
 30
0.0
 11
15.4183
 21
0.0127445
 31
0.0
  0
LINE
  5
40
330
1D
100
AcDbEntity
  8
0
100
AcDbLine
 10
13.9123
 20
0.0127445
 30
0.0
 11
15.4183
 21
0.0127445
 31
0.0
  0
LINE
  5
41
330
1D
100
AcDbEntity
  8
0
100
AcDbLine
 10
13.9123
 20
0.0127445
 30
0.0
 11
15.4183
 21
0.0127445
 31
0.0
  0
LINE
  5
42
330
1D
100
AcDbEntity
  8
0
100
AcDbLine
 10
13.9123
 20
0.0127445
 30
0.0
 11
15.4183
 21
0.0127445
 31
0.0
  0
LINE
  5
43
330
1D
100
AcDbEntity
  8
0
100
AcDbLine
 10
13.9123
 20
0.0127445
 30
0.0
 11
15.4183
 21
0.0127445
 31
0.0
  0
LINE
  5
44
330
1D
100
AcDbEntity
  8
0
100
AcDbLine
 10
13.9123
 20
0.0127445
 30
0.0
 11
15.4183
 21
0.0127445
 31
0.0
  0
LINE
  5
45
330
1D
100
AcDbEntity
  8
0
100
AcDbLine
 10
13.9123
 20
0.0127445
 30
0.0
 11
15.4183
 21
0.0127445
 31
0.0
  0
LINE
  5
46
330
1D
100
AcDbEntity
  8
0
100
AcDbLine
 10
15.4183
 20
0.0127445
 30
0.0
 11
16.9243
 21
0.0127445
 31
0.0
  0
LINE
  5
47
330
1D
100
AcDbEntity
  8
0
100
AcDbLine
 10
15.4183
 20
0.0127445
 30
0.0
 11
16.9243
 21
0.0127445
 31
0.0
  0
LINE
  5
48
330
1D
100
AcDbEntity
  8
0
100
AcDbLine
 10
15.4183
 20
0.0127445
 30
0.0
 11
16.9243
 21
0.0127445
 31
0.0
  0
LINE
  5
49
330
1D
100
AcDbEntity
  8
0
100
AcDbLine
 10
15.4183
 20
0.0127445
 30
0.0
 11
16.9243
 21
0.0127445
 31
0.0
  0
LINE
  5
4A
330
1D
100
AcDbEntity
  8
0
100
AcDbLine
 10
15.4183
 20
0.0127445
 30
0.0
 11
16.9243
 21
0.0127445
 31
0.0
  0
LINE
  5
4B
330
1D
100
AcDbEntity
  8
0
100
AcDbLine
 10
15.4183
 20
0.0127445
 30
0.0
 11
16.9243
 21
0.0127445
 31
0.0
  0
LINE
  5
4C
330
1D
100
AcDbEntity
  8
0
100
AcDbLine
 10
15.4183
 20
0.0127445
 30
0.0
 11
16.9243
 21
0.0127445
 31
0.0
  0
LINE
  5
4D
330
1D
100
AcDbEntity
  8
0
100
AcDbLine
 10
15.4183
 20
0.0127445
 30
0.0
 11
16.9243
 21
0.0127445
 31
0.0
  0
LINE
  5
4E
330
1D
100
AcDbEntity
  8
0
100
AcDbLine
 10
15.4183
 20
0.0127445
 30
0.0
 11
16.9243
 21
0.0127445
 31
0.0
  0
LINE
  5
4F
330
1D
100
AcDbEntity
  8
0
100
AcDbLine
 10
15.4183
 20
0.0127445
 30
0.0
 11
16.9243
 21
0.0127445
 31
0.0
  0
LINE
  5
50
330
1D
100
AcDbEntity
  8
0
100
AcDbLine
 10
15.4183
 20
0.0127445
 30
0.0
 11
16.9243
 21
0.0127445
 31
0.0
  0
LINE
  5
51
330
1D
100
AcDbEntity
  8
0
100
AcDbLine
 10
15.4183
 20
0.0127445
 30
0.0
 11
16.9243
 21
0.0127445
 31
0.0
  0
LINE
  5
52
330
1D
100
AcDbEntity
  8
0
100
AcDbLine
 10
13.9123
 20
0.0127445
 30
0.0
 11
15.4183
 21
0.0127445
 31
0.0
  0
LINE
  5
53
330
1D
100
AcDbEntity
  8
0
100
AcDbLine
 10
13.9123
 20
0.0127445
 30
0.0
 11
15.4183
 21
0.0127445
 31
0.0
  0
LINE
  5
54
330
1D
100
AcDbEntity
  8
0
100
AcDbLine
 10
16.9243
 20
0.0127445
 30
0.0
 11
17.5697
 21
0.0127445
 31
0.0
  0
LINE
  5
55
330
1D
100
AcDbEntity
  8
0
100
AcDbLine
 10
16.9243
 20
0.0127445
 30
0.0
 11
17.5697
 21
0.0127445
 31
0.0
  0
LINE
  5
56
330
1D
100
AcDbEntity
  8
0
100
AcDbLine
 10
16.9243
 20
0.0127445
 30
0.0
 11
17.5697
 21
0.0127445
 31
0.0
  0
LINE
  5
57
330
1D
100
AcDbEntity
  8
0
100
AcDbLine
 10
16.9243
 20
0.0127445
 30
0.0
 11
17.5697
 21
0.0127445
 31
0.0
  0
LINE
  5
58
330
1D
100
AcDbEntity
  8
0
100
AcDbLine
 10
16.9243
 20
0.0127445
 30
0.0
 11
17.5697
 21
0.0127445
 31
0.0
  0
LINE
  5
59
330
1D
100
AcDbEntity
  8
0
100
AcDbLine
 10
16.9243
 20
0.0127445
 30
0.0
 11
17.5697
 21
0.0127445
 31
0.0
  0
LINE
  5
5A
330
1D
100
AcDbEntity
  8
0
100
AcDbLine
 10
16.9243
 20
0.0127445
 30
0.0
 11
17.5697
 21
0.0127445
 31
0.0
  0
LINE
  5
5B
330
1D
100
AcDbEntity
  8
0
100
AcDbLine
 10
16.9243
 20
0.0127445
 30
0.0
 11
17.5697
 21
0.0127445
 31
0.0
  0
LINE
  5
5C
330
1D
100
AcDbEntity
  8
0
100
AcDbLine
 10
16.9243
 20
0.0127445
 30
0.0
 11
17.5697
 21
0.0127445
 31
0.0
  0
LINE
  5
5D
330
1D
100
AcDbEntity
  8
0
100
AcDbLine
 10
16.9243
 20
0.0127445
 30
0.0
 11
17.5697
 21
0.0127445
 31
0.0
  0
LINE
  5
5E
330
1D
100
AcDbEntity
  8
0
100
AcDbLine
 10
32.6295
 20
0.0127445
 30
0.0
 11
33.2749
 21
0.0127445
 31
0.0
  0
LINE
  5
5F
330
1D
100
AcDbEntity
  8
0
100
AcDbLine
 10
32.6295
 20
0.0127445
 30
0.0
 11
33.2749
 21
0.0127445
 31
0.0
  0
LINE
  5
60
330
1D
100
AcDbEntity
  8
0
100
AcDbLine
 10
32.6295
 20
0.0127445
 30
0.0
 11
32.6295
 21
2.0127455
 31
0.0
  0
LINE
  5
61
330
1D
100
AcDbEntity
  8
0
100
AcDbLine
 10
32.6295
 20
0.0127445
 30
0.0
 11
33.2749
 21
0.0127445
 31
0.0
  0
LINE
  5
62
330
1D
100
AcDbEntity
  8
0
100
AcDbLine
 10
32.6295
 20
0.0127445
 30
0.0
 11
33.2749
 21
0.0127445
 31
0.0
  0
LINE
  5
63
330
1D
100
AcDbEntity
  8
0
100
AcDbLine
 10
32.6295
 20
0.0127445
 30
0.0
 11
32.6295
 21
2.0127455
 31
0.0
  0
LINE
  5
64
330
1D
100
AcDbEntity
  8
0
100
AcDbLine
 10
32.6295
 20
0.0127445
 30
0.0
 11
33.2749
 21
0.0127445
 31
0.0
  0
LINE
  5
65
330
1D
100
AcDbEntity
  8
0
100
AcDbLine
 10
32.6295
 20
0.0127445
 30
0.0
 11
33.2749
 21
0.0127445
 31
0.0
  0
LINE
  5
66
330
1D
100
AcDbEntity
  8
0
100
AcDbLine
 10
32.6295
 20
0.0127445
 30
0.0
 11
32.6295
 21
2.0127455
 31
0.0
  0
LINE
  5
67
330
1D
100
AcDbEntity
  8
0
100
AcDbLine
 10
32.6295
 20
0.0127445
 30
0.0
 11
33.2749
 21
0.0127445
 31
0.0
  0
LINE
  5
68
330
1D
100
AcDbEntity
  8
0
100
AcDbLine
 10
32.6295
 20
0.0127445
 30
0.0
 11
33.2749
 21
0.0127445
 31
0.0
  0
LINE
  5
69
330
1D
100
AcDbEntity
  8
0
100
AcDbLine
 10
32.6295
 20
0.0127445
 30
0.0
 11
32.6295
 21
2.0127455
 31
0.0
  0
LINE
  5
6A
330
1D
100
AcDbEntity
  8
0
100
AcDbLine
 10
32.6295
 20
0.0127445
 30
0.0
 11
33.2749
 21
0.0127445
 31
0.0
  0
LINE
  5
6B
330
1D
100
AcDbEntity
  8
0
100
AcDbLine
 10
32.6295
 20
0.0127445
 30
0.0
 11
33.2749
 21
0.0127445
 31
0.0
  0
LINE
  5
6C
330
1D
100
AcDbEntity
  8
0
100
AcDbLine
 10
32.6295
 20
0.0127445
 30
0.0
 11
32.6295
 21
2.0127455
 31
0.0
  0
LINE
  5
6D
330
1D
100
AcDbEntity
  8
0
100
AcDbLine
 10
16.9243
 20
0.0127445
 30
0.0
 11
17.5697
 21
0.0127445
 31
0.0
  0
LINE
  5
6E
330
1D
100
AcDbEntity
  8
0
100
AcDbLine
 10
16.9243
 20
0.0127445
 30
0.0
 11
17.5697
 21
0.0127445
 31
0.0
  0
LINE
  5
6F
330
1D
100
AcDbEntity
  8
0
100
AcDbLine
 10
15.4183
 20
0.0127445
 30
0.0
 11
16.9243
 21
0.0127445
 31
0.0
  0
LINE
  5
70
330
1D
100
AcDbEntity
  8
0
100
AcDbLine
 10
16.9243
 20
0.0127445
 30
0.0
 11
17.5697
 21
0.0127445
 31
0.0
  0
LINE
  5
71
330
1D
100
AcDbEntity
  8
0
100
AcDbLine
 10
13.2669
 20
0.0127445
 30
0.0
 11
13.9123
 21
0.0127445
 31
0.0
  0
LINE
  5
72
330
1D
100
AcDbEntity
  8
0
100
AcDbLine
 10
13.2669
 20
0.0127445
 30
0.0
 11
13.9123
 21
0.0127445
 31
0.0
  0
LINE
  5
73
330
1D
100
AcDbEntity
  8
0
100
AcDbLine
 10
13.2669
 20
0.0127445
 30
0.0
 11
13.2669
 21
2.0127455
 31
0.0
  0
LINE
  5
74
330
1D
100
AcDbEntity
  8
0
100
AcDbLine
 10
13.2669
 20
0.0127445
 30
0.0
 11
13.9123
 21
0.0127445
 31
0.0
  0
LINE
  5
75
330
1D
100
AcDbEntity
  8
0
100
AcDbLine
 10
13.2669
 20
0.0127445
 30
0.0
 11
13.9123
 21
0.0127445
 31
0.0
  0
LINE
  5
76
330
1D
100
AcDbEntity
  8
0
100
AcDbLine
 10
13.2669
 20
0.0127445
 30
0.0
 11
13.2669
 21
2.0127455
 31
0.0
  0
LINE
  5
77
330
1D
100
AcDbEntity
  8
0
100
AcDbLine
 10
13.9123
 20
0.0127445
 30
0.0
 11
15.4183
 21
0.0127445
 31
0.0
  0
LINE
  5
78
330
1D
100
AcDbEntity
  8
0
100
AcDbLine
 10
13.9123
 20
0.0127445
 30
0.0
 11
15.4183
 21
0.0127445
 31
0.0
  0
LINE
  5
79
330
1D
100
AcDbEntity
  8
0
100
AcDbLine
 10
15.4183
 20
0.0127445
 30
0.0
 11
16.9243
 21
0.0127445
 31
0.0
  0
LINE
  5
7A
330
1D
100
AcDbEntity
  8
0
100
AcDbLine
 10
15.4183
 20
0.0127445
 30
0.0
 11
16.9243
 21
0.0127445
 31
0.0
  0
LINE
  5
7B
330
1D
100
AcDbEntity
  8
0
100
AcDbLine
 10
15.4183
 20
0.0127445
 30
0.0
 11
16.9243
 21
0.0127445
 31
0.0
  0
LINE
  5
7C
330
1D
100
AcDbEntity
  8
0
100
AcDbLine
 10
13.9123
 20
0.0127445
 30
0.0
 11
15.4183
 21
0.0127445
 31
0.0
  0
LINE
  5
7D
330
1D
100
AcDbEntity
  8
0
100
AcDbLine
 10
13.9123
 20
0.0127445
 30
0.0
 11
15.4183
 21
0.0127445
 31
0.0
  0
LINE
  5
7E
330
1D
100
AcDbEntity
  8
0
100
AcDbLine
 10
16.9243
 20
0.0127445
 30
0.0
 11
17.5697
 21
0.0127445
 31
0.0
  0
LINE
  5
7F
330
1D
100
AcDbEntity
  8
0
100
AcDbLine
 10
16.9243
 20
0.0127445
 30
0.0
 11
17.5697
 21
0.0127445
 31
0.0
  0
LINE
  5
80
330
1D
100
AcDbEntity
  8
0
100
AcDbLine
 10
16.9243
 20
0.0127445
 30
0.0
 11
17.5697
 21
0.0127445
 31
0.0
  0
LINE
  5
81
330
1D
100
AcDbEntity
  8
0
100
AcDbLine
 10
15.4183
 20
0.0127445
 30
0.0
 11
16.9243
 21
0.0127445
 31
0.0
  0
LINE
  5
82
330
1D
100
AcDbEntity
  8
0
100
AcDbLine
 10
16.9243
 20
0.0127445
 30
0.0
 11
17.5697
 21
0.0127445
 31
0.0
  0
LINE
  5
83
330
1D
100
AcDbEntity
  8
0
100
AcDbLine
 10
13.2669
 20
0.0127445
 30
0.0
 11
13.9123
 21
0.0127445
 31
0.0
  0
LINE
  5
84
330
1D
100
AcDbEntity
  8
0
100
AcDbLine
 10
13.2669
 20
0.0127445
 30
0.0
 11
13.9123
 21
0.0127445
 31
0.0
  0
LINE
  5
85
330
1D
100
AcDbEntity
  8
0
100
AcDbLine
 10
13.2669
 20
0.0127445
 30
0.0
 11
13.2669
 21
2.0127455
 31
0.0
  0
LINE
  5
86
330
1D
100
AcDbEntity
  8
0
100
AcDbLine
 10
16.9243
 20
0.0127445
 30
0.0
 11
17.5697
 21
0.0127445
 31
0.0
  0
LINE
  5
87
330
1D
100
AcDbEntity
  8
0
100
AcDbLine
 10
15.4183
 20
0.0127445
 30
0.0
 11
16.9243
 21
0.0127445
 31
0.0
  0
LINE
  5
88
330
1D
100
AcDbEntity
  8
0
100
AcDbLine
 10
13.9123
 20
0.0127445
 30
0.0
 11
15.4183
 21
0.0127445
 31
0.0
  0
LINE
  5
89
330
1D
100
AcDbEntity
  8
0
100
AcDbLine
 10
13.9123
 20
0.0127445
 30
0.0
 11
15.4183
 21
0.0127445
 31
0.0
  0
LINE
  5
8A
330
1D
100
AcDbEntity
  8
0
100
AcDbLine
 10
15.4183
 20
0.0127445
 30
0.0
 11
16.9243
 21
0.0127445
 31
0.0
  0
LINE
  5
8B
330
1D
100
AcDbEntity
  8
0
100
AcDbLine
 10
17.5697
 20
0.0127445
 30
0.0
 11
17.5697
 21
2.0127455
 31
0.0
  0
LINE
  5
8C
330
1D
100
AcDbEntity
  8
0
100
AcDbLine
 10
16.9243
 20
0.0127445
 30
0.0
 11
17.5697
 21
0.0127445
 31
0.0
  0
LINE
  5
8D
330
1D
100
AcDbEntity
  8
0
100
AcDbLine
 10
16.9243
 20
0.0127445
 30
0.0
 11
17.5697
 21
0.0127445
 31
0.0
  0
LINE
  5
8F
330
1D
100
AcDbEntity
  8
0
100
AcDbLine
 10
15.4183
 20
0.0127445
 30
0.0
 11
16.9243
 21
0.0127445
 31
0.0
  0
LINE
  5
91
330
1D
100
AcDbEntity
  8
0
100
AcDbLine
 10
13.9123
 20
0.0127445
 30
0.0
 11
15.4183
 21
0.0127445
 31
0.0
  0
LINE
  5
93
330
1D
100
AcDbEntity
  8
0
100
AcDbLine
 10
13.2669
 20
0.0127445
 30
0.0
 11
13.9123
 21
0.0127445
 31
0.0
  0
LINE
  5
94
330
1D
100
AcDbEntity
  8
0
100
AcDbLine
 10
13.2669
 20
0.0127445
 30
0.0
 11
13.9123
 21
0.0127445
 31
0.0
  0
LINE
  5
95
330
1D
100
AcDbEntity
  8
0
100
AcDbLine
 10
13.2669
 20
0.0127445
 30
0.0
 11
13.2669
 21
2.0127455
 31
0.0
  0
LINE
  5
96
330
1D
100
AcDbEntity
  8
0
100
AcDbLine
 10
32.6295
 20
0.0127445
 30
0.0
 11
33.2749
 21
0.0127445
 31
0.0
  0
LINE
  5
97
330
1D
100
AcDbEntity
  8
0
100
AcDbLine
 10
32.6295
 20
0.0127445
 30
0.0
 11
33.2749
 21
0.0127445
 31
0.0
  0
LINE
  5
98
330
1D
100
AcDbEntity
  8
0
100
AcDbLine
 10
32.6295
 20
0.0127445
 30
0.0
 11
32.6295
 21
2.0127455
 31
0.0
  0
LINE
  5
99
330
1D
100
AcDbEntity
  8
0
100
AcDbLine
 10
32.6295
 20
0.0127445
 30
0.0
 11
33.2749
 21
0.0127445
 31
0.0
  0
LINE
  5
9A
330
1D
100
AcDbEntity
  8
0
100
AcDbLine
 10
32.6295
 20
0.0127445
 30
0.0
 11
33.2749
 21
0.0127445
 31
0.0
  0
LINE
  5
9B
330
1D
100
AcDbEntity
  8
0
100
AcDbLine
 10
32.6295
 20
0.0127445
 30
0.0
 11
32.6295
 21
2.0127455
 31
0.0
  0
LINE
  5
9C
330
1D
100
AcDbEntity
  8
0
100
AcDbLine
 10
32.6295
 20
0.0127445
 30
0.0
 11
33.2749
 21
0.0127445
 31
0.0
  0
LINE
  5
9D
330
1D
100
AcDbEntity
  8
0
100
AcDbLine
 10
32.6295
 20
0.0127445
 30
0.0
 11
33.2749
 21
0.0127445
 31
0.0
  0
LINE
  5
9E
330
1D
100
AcDbEntity
  8
0
100
AcDbLine
 10
32.6295
 20
0.0127445
 30
0.0
 11
32.6295
 21
2.0127455
 31
0.0
  0
LINE
  5
9F
330
1D
100
AcDbEntity
  8
0
100
AcDbLine
 10
32.6295
 20
0.0127445
 30
0.0
 11
33.2749
 21
0.0127445
 31
0.0
  0
LINE
  5
A0
330
1D
100
AcDbEntity
  8
0
100
AcDbLine
 10
32.6295
 20
0.0127445
 30
0.0
 11
33.2749
 21
0.0127445
 31
0.0
  0
LINE
  5
A1
330
1D
100
AcDbEntity
  8
0
100
AcDbLine
 10
32.6295
 20
0.0127445
 30
0.0
 11
32.6295
 21
2.0127455
 31
0.0
  0
LINE
  5
A2
330
1D
100
AcDbEntity
  8
0
100
AcDbLine
 10
33.2749
 20
0.0127445
 30
0.0
 11
34.7809
 21
0.0127445
 31
0.0
  0
LINE
  5
A3
330
1D
100
AcDbEntity
  8
0
100
AcDbLine
 10
33.2749
 20
0.0127445
 30
0.0
 11
34.7809
 21
0.0127445
 31
0.0
  0
LINE
  5
A4
330
1D
100
AcDbEntity
  8
0
100
AcDbLine
 10
33.2749
 20
0.0127445
 30
0.0
 11
34.7809
 21
0.0127445
 31
0.0
  0
LINE
  5
A5
330
1D
100
AcDbEntity
  8
0
100
AcDbLine
 10
33.2749
 20
0.0127445
 30
0.0
 11
34.7809
 21
0.0127445
 31
0.0
  0
LINE
  5
A6
330
1D
100
AcDbEntity
  8
0
100
AcDbLine
 10
33.2749
 20
0.0127445
 30
0.0
 11
34.7809
 21
0.0127445
 31
0.0
  0
LINE
  5
A7
330
1D
100
AcDbEntity
  8
0
100
AcDbLine
 10
33.2749
 20
0.0127445
 30
0.0
 11
34.7809
 21
0.0127445
 31
0.0
  0
LINE
  5
A8
330
1D
100
AcDbEntity
  8
0
100
AcDbLine
 10
33.2749
 20
0.0127445
 30
0.0
 11
34.7809
 21
0.0127445
 31
0.0
  0
LINE
  5
A9
330
1D
100
AcDbEntity
  8
0
100
AcDbLine
 10
33.2749
 20
0.0127445
 30
0.0
 11
34.7809
 21
0.0127445
 31
0.0
  0
LINE
  5
AA
330
1D
100
AcDbEntity
  8
0
100
AcDbLine
 10
33.2749
 20
0.0127445
 30
0.0
 11
34.7809
 21
0.0127445
 31
0.0
  0
LINE
  5
AB
330
1D
100
AcDbEntity
  8
0
100
AcDbLine
 10
34.7809
 20
0.0127445
 30
0.0
 11
36.2869
 21
0.0127445
 31
0.0
  0
LINE
  5
AC
330
1D
100
AcDbEntity
  8
0
100
AcDbLine
 10
34.7809
 20
0.0127445
 30
0.0
 11
36.2869
 21
0.0127445
 31
0.0
  0
LINE
  5
AD
330
1D
100
AcDbEntity
  8
0
100
AcDbLine
 10
34.7809
 20
0.0127445
 30
0.0
 11
36.2869
 21
0.0127445
 31
0.0
  0
LINE
  5
AE
330
1D
100
AcDbEntity
  8
0
100
AcDbLine
 10
34.7809
 20
0.0127445
 30
0.0
 11
36.2869
 21
0.0127445
 31
0.0
  0
LINE
  5
AF
330
1D
100
AcDbEntity
  8
0
100
AcDbLine
 10
34.7809
 20
0.0127445
 30
0.0
 11
36.2869
 21
0.0127445
 31
0.0
  0
LINE
  5
B0
330
1D
100
AcDbEntity
  8
0
100
AcDbLine
 10
34.7809
 20
0.0127445
 30
0.0
 11
36.2869
 21
0.0127445
 31
0.0
  0
LINE
  5
B1
330
1D
100
AcDbEntity
  8
0
100
AcDbLine
 10
34.7809
 20
0.0127445
 30
0.0
 11
36.2869
 21
0.0127445
 31
0.0
  0
LINE
  5
B2
330
1D
100
AcDbEntity
  8
0
100
AcDbLine
 10
34.7809
 20
0.0127445
 30
0.0
 11
36.2869
 21
0.0127445
 31
0.0
  0
LINE
  5
B3
330
1D
100
AcDbEntity
  8
0
100
AcDbLine
 10
34.7809
 20
0.0127445
 30
0.0
 11
36.2869
 21
0.0127445
 31
0.0
  0
LINE
  5
B4
330
1D
100
AcDbEntity
  8
0
100
AcDbLine
 10
34.7809
 20
0.0127445
 30
0.0
 11
36.2869
 21
0.0127445
 31
0.0
  0
LINE
  5
B5
330
1D
100
AcDbEntity
  8
0
100
AcDbLine
 10
33.2749
 20
0.0127445
 30
0.0
 11
34.7809
 21
0.0127445
 31
0.0
  0
LINE
  5
B6
330
1D
100
AcDbEntity
  8
0
100
AcDbLine
 10
33.2749
 20
0.0127445
 30
0.0
 11
34.7809
 21
0.0127445
 31
0.0
  0
LINE
  5
B7
330
1D
100
AcDbEntity
  8
0
100
AcDbLine
 10
36.2869
 20
0.0127445
 30
0.0
 11
36.9323
 21
0.0127445
 31
0.0
  0
LINE
  5
B8
330
1D
100
AcDbEntity
  8
0
100
AcDbLine
 10
36.2869
 20
0.0127445
 30
0.0
 11
36.9323
 21
0.0127445
 31
0.0
  0
LINE
  5
B9
330
1D
100
AcDbEntity
  8
0
100
AcDbLine
 10
36.2869
 20
0.0127445
 30
0.0
 11
36.9323
 21
0.0127445
 31
0.0
  0
LINE
  5
BA
330
1D
100
AcDbEntity
  8
0
100
AcDbLine
 10
36.2869
 20
0.0127445
 30
0.0
 11
36.9323
 21
0.0127445
 31
0.0
  0
LINE
  5
BB
330
1D
100
AcDbEntity
  8
0
100
AcDbLine
 10
36.2869
 20
0.0127445
 30
0.0
 11
36.9323
 21
0.0127445
 31
0.0
  0
LINE
  5
BC
330
1D
100
AcDbEntity
  8
0
100
AcDbLine
 10
36.2869
 20
0.0127445
 30
0.0
 11
36.9323
 21
0.0127445
 31
0.0
  0
LINE
  5
BD
330
1D
100
AcDbEntity
  8
0
100
AcDbLine
 10
36.2869
 20
0.0127445
 30
0.0
 11
36.9323
 21
0.0127445
 31
0.0
  0
LINE
  5
BE
330
1D
100
AcDbEntity
  8
0
100
AcDbLine
 10
36.2869
 20
0.0127445
 30
0.0
 11
36.9323
 21
0.0127445
 31
0.0
  0
LINE
  5
BF
330
1D
100
AcDbEntity
  8
0
100
AcDbLine
 10
36.2869
 20
0.0127445
 30
0.0
 11
36.9323
 21
0.0127445
 31
0.0
  0
LINE
  5
C0
330
1D
100
AcDbEntity
  8
0
100
AcDbLine
 10
36.2869
 20
0.0127445
 30
0.0
 11
36.9323
 21
0.0127445
 31
0.0
  0
LINE
  5
C1
330
1D
100
AcDbEntity
  8
0
100
AcDbLine
 10
34.7809
 20
0.0127445
 30
0.0
 11
36.2869
 21
0.0127445
 31
0.0
  0
LINE
  5
C2
330
1D
100
AcDbEntity
  8
0
100
AcDbLine
 10
36.2869
 20
0.0127445
 30
0.0
 11
36.9323
 21
0.0127445
 31
0.0
  0
LINE
  5
C3
330
1D
100
AcDbEntity
  8
0
100
AcDbLine
 10
36.2869
 20
0.0127445
 30
0.0
 11
36.9323
 21
0.0127445
 31
0.0
  0
LINE
  5
C4
330
1D
100
AcDbEntity
  8
0
100
AcDbLine
 10
33.2749
 20
0.0127445
 30
0.0
 11
34.7809
 21
0.0127445
 31
0.0
  0
LINE
  5
C5
330
1D
100
AcDbEntity
  8
0
100
AcDbLine
 10
33.2749
 20
0.0127445
 30
0.0
 11
34.7809
 21
0.0127445
 31
0.0
  0
LINE
  5
C6
330
1D
100
AcDbEntity
  8
0
100
AcDbLine
 10
33.2749
 20
0.0127445
 30
0.0
 11
34.7809
 21
0.0127445
 31
0.0
  0
LINE
  5
C7
330
1D
100
AcDbEntity
  8
0
100
AcDbLine
 10
33.2749
 20
0.0127445
 30
0.0
 11
34.7809
 21
0.0127445
 31
0.0
  0
LINE
  5
C9
330
1D
100
AcDbEntity
  8
0
100
AcDbLine
 10
33.2749
 20
0.0127445
 30
0.0
 11
34.7809
 21
0.0127445
 31
0.0
  0
LINE
  5
CA
330
1D
100
AcDbEntity
  8
0
100
AcDbLine
 10
33.2749
 20
0.0127445
 30
0.0
 11
34.7809
 21
0.0127445
 31
0.0
  0
LINE
  5
CB
330
1D
100
AcDbEntity
  8
0
100
AcDbLine
 10
33.2749
 20
0.0127445
 30
0.0
 11
34.7809
 21
0.0127445
 31
0.0
  0
LINE
  5
CC
330
1D
100
AcDbEntity
  8
0
100
AcDbLine
 10
34.7809
 20
0.0127445
 30
0.0
 11
36.2869
 21
0.0127445
 31
0.0
  0
LINE
  5
CD
330
1D
100
AcDbEntity
  8
0
100
AcDbLine
 10
34.7809
 20
0.0127445
 30
0.0
 11
36.2869
 21
0.0127445
 31
0.0
  0
LINE
  5
CE
330
1D
100
AcDbEntity
  8
0
100
AcDbLine
 10
34.7809
 20
0.0127445
 30
0.0
 11
36.2869
 21
0.0127445
 31
0.0
  0
LINE
  5
CF
330
1D
100
AcDbEntity
  8
0
100
AcDbLine
 10
34.7809
 20
0.0127445
 30
0.0
 11
36.2869
 21
0.0127445
 31
0.0
  0
LINE
  5
D0
330
1D
100
AcDbEntity
  8
0
100
AcDbLine
 10
34.7809
 20
0.0127445
 30
0.0
 11
36.2869
 21
0.0127445
 31
0.0
  0
LINE
  5
D2
330
1D
100
AcDbEntity
  8
0
100
AcDbLine
 10
34.7809
 20
0.0127445
 30
0.0
 11
36.2869
 21
0.0127445
 31
0.0
  0
LINE
  5
D3
330
1D
100
AcDbEntity
  8
0
100
AcDbLine
 10
34.7809
 20
0.0127445
 30
0.0
 11
36.2869
 21
0.0127445
 31
0.0
  0
LINE
  5
D4
330
1D
100
AcDbEntity
  8
0
100
AcDbLine
 10
34.7809
 20
0.0127445
 30
0.0
 11
36.2869
 21
0.0127445
 31
0.0
  0
LINE
  5
D5
330
1D
100
AcDbEntity
  8
0
100
AcDbLine
 10
33.2749
 20
0.0127445
 30
0.0
 11
34.7809
 21
0.0127445
 31
0.0
  0
LINE
  5
D6
330
1D
100
AcDbEntity
  8
0
100
AcDbLine
 10
36.2869
 20
0.0127445
 30
0.0
 11
36.9323
 21
0.0127445
 31
0.0
  0
LINE
  5
D7
330
1D
100
AcDbEntity
  8
0
100
AcDbLine
 10
36.2869
 20
0.0127445
 30
0.0
 11
36.9323
 21
0.0127445
 31
0.0
  0
LINE
  5
D8
330
1D
100
AcDbEntity
  8
0
100
AcDbLine
 10
36.2869
 20
0.0127445
 30
0.0
 11
36.9323
 21
0.0127445
 31
0.0
  0
LINE
  5
D9
330
1D
100
AcDbEntity
  8
0
100
AcDbLine
 10
36.2869
 20
0.0127445
 30
0.0
 11
36.9323
 21
0.0127445
 31
0.0
  0
LINE
  5
DA
330
1D
100
AcDbEntity
  8
0
100
AcDbLine
 10
36.2869
 20
0.0127445
 30
0.0
 11
36.9323
 21
0.0127445
 31
0.0
  0
LINE
  5
DC
330
1D
100
AcDbEntity
  8
0
100
AcDbLine
 10
36.2869
 20
0.0127445
 30
0.0
 11
36.9323
 21
0.0127445
 31
0.0
  0
LINE
  5
DD
330
1D
100
AcDbEntity
  8
0
100
AcDbLine
 10
36.2869
 20
0.0127445
 30
0.0
 11
36.9323
 21
0.0127445
 31
0.0
  0
LINE
  5
DE
330
1D
100
AcDbEntity
  8
0
100
AcDbLine
 10
36.9323
 20
0.0127445
 30
0.0
 11
36.9323
 21
2.0127455
 31
0.0
  0
LINE
  5
DF
330
1D
100
AcDbEntity
  8
0
100
AcDbLine
 10
36.2869
 20
0.0127445
 30
0.0
 11
36.9323
 21
0.0127445
 31
0.0
  0
LINE
  5
E0
330
1D
100
AcDbEntity
  8
0
100
AcDbLine
 10
34.7809
 20
0.0127445
 30
0.0
 11
36.2869
 21
0.0127445
 31
0.0
  0
LINE
  5
E1
330
1D
100
AcDbEntity
  8
0
100
AcDbLine
 10
33.2749
 20
0.0127445
 30
0.0
 11
34.7809
 21
0.0127445
 31
0.0
  0
LINE
  5
E2
330
1D
100
AcDbEntity
  8
0
100
AcDbLine
 10
32.6295
 20
0.0127445
 30
0.0
 11
33.2749
 21
0.0127445
 31
0.0
  0
LINE
  5
E3
330
1D
100
AcDbEntity
  8
0
100
AcDbLine
 10
32.6295
 20
0.0127445
 30
0.0
 11
33.2749
 21
0.0127445
 31
0.0
  0
LINE
  5
E4
330
1D
100
AcDbEntity
  8
0
100
AcDbLine
 10
32.6295
 20
0.0127445
 30
0.0
 11
32.6295
 21
2.0127455
 31
0.0
  0
LINE
  5
E5
330
1D
100
AcDbEntity
  8
0
100
AcDbLine
 10
11.3402
 20
2.0127455
 30
0.0
 11
13.2669
 21
2.0127455
 31
0.0
  0
LINE
  5
E6
330
1D
100
AcDbEntity
  8
0
100
AcDbLine
 10
51.992
 20
0.0127445
 30
0.0
 11
52.6375
 21
0.0127445
 31
0.0
  0
LINE
  5
E7
330
1D
100
AcDbEntity
  8
0
100
AcDbLine
 10
51.992
 20
0.0127445
 30
0.0
 11
52.6375
 21
0.0127445
 31
0.0
  0
LINE
  5
E8
330
1D
100
AcDbEntity
  8
0
100
AcDbLine
 10
51.992
 20
0.0127445
 30
0.0
 11
51.992
 21
2.0127455
 31
0.0
  0
LINE
  5
E9
330
1D
100
AcDbEntity
  8
0
100
AcDbLine
 10
51.992
 20
0.0127445
 30
0.0
 11
52.6375
 21
0.0127445
 31
0.0
  0
LINE
  5
EA
330
1D
100
AcDbEntity
  8
0
100
AcDbLine
 10
51.992
 20
0.0127445
 30
0.0
 11
52.6375
 21
0.0127445
 31
0.0
  0
LINE
  5
EB
330
1D
100
AcDbEntity
  8
0
100
AcDbLine
 10
51.992
 20
0.0127445
 30
0.0
 11
51.992
 21
2.0127455
 31
0.0
  0
LINE
  5
EC
330
1D
100
AcDbEntity
  8
0
100
AcDbLine
 10
51.992
 20
0.0127445
 30
0.0
 11
52.6375
 21
0.0127445
 31
0.0
  0
LINE
  5
ED
330
1D
100
AcDbEntity
  8
0
100
AcDbLine
 10
51.992
 20
0.0127445
 30
0.0
 11
52.6375
 21
0.0127445
 31
0.0
  0
LINE
  5
EE
330
1D
100
AcDbEntity
  8
0
100
AcDbLine
 10
51.992
 20
0.0127445
 30
0.0
 11
51.992
 21
2.0127455
 31
0.0
  0
LINE
  5
EF
330
1D
100
AcDbEntity
  8
0
100
AcDbLine
 10
51.992
 20
0.0127445
 30
0.0
 11
52.6375
 21
0.0127445
 31
0.0
  0
LINE
  5
F0
330
1D
100
AcDbEntity
  8
0
100
AcDbLine
 10
51.992
 20
0.0127445
 30
0.0
 11
52.6375
 21
0.0127445
 31
0.0
  0
LINE
  5
F1
330
1D
100
AcDbEntity
  8
0
100
AcDbLine
 10
51.992
 20
0.0127445
 30
0.0
 11
51.992
 21
2.0127455
 31
0.0
  0
LINE
  5
F2
330
1D
100
AcDbEntity
  8
0
100
AcDbLine
 10
51.992
 20
0.0127445
 30
0.0
 11
52.6375
 21
0.0127445
 31
0.0
  0
LINE
  5
F3
330
1D
100
AcDbEntity
  8
0
100
AcDbLine
 10
51.992
 20
0.0127445
 30
0.0
 11
52.6375
 21
0.0127445
 31
0.0
  0
LINE
  5
F4
330
1D
100
AcDbEntity
  8
0
100
AcDbLine
 10
51.992
 20
0.0127445
 30
0.0
 11
51.992
 21
2.0127455
 31
0.0
  0
LINE
  5
F5
330
1D
100
AcDbEntity
  8
0
100
AcDbLine
 10
51.992
 20
0.0127445
 30
0.0
 11
52.6375
 21
0.0127445
 31
0.0
  0
LINE
  5
F6
330
1D
100
AcDbEntity
  8
0
100
AcDbLine
 10
51.992
 20
0.0127445
 30
0.0
 11
52.6375
 21
0.0127445
 31
0.0
  0
LINE
  5
F7
330
1D
100
AcDbEntity
  8
0
100
AcDbLine
 10
51.992
 20
0.0127445
 30
0.0
 11
51.992
 21
2.0127455
 31
0.0
  0
LINE
  5
F8
330
1D
100
AcDbEntity
  8
0
100
AcDbLine
 10
51.992
 20
0.0127445
 30
0.0
 11
52.6375
 21
0.0127445
 31
0.0
  0
LINE
  5
F9
330
1D
100
AcDbEntity
  8
0
100
AcDbLine
 10
51.992
 20
0.0127445
 30
0.0
 11
52.6375
 21
0.0127445
 31
0.0
  0
LINE
  5
FA
330
1D
100
AcDbEntity
  8
0
100
AcDbLine
 10
51.992
 20
0.0127445
 30
0.0
 11
51.992
 21
2.0127455
 31
0.0
  0
LINE
  5
FB
330
1D
100
AcDbEntity
  8
0
100
AcDbLine
 10
51.992
 20
0.0127445
 30
0.0
 11
52.6375
 21
0.0127445
 31
0.0
  0
LINE
  5
FC
330
1D
100
AcDbEntity
  8
0
100
AcDbLine
 10
51.992
 20
0.0127445
 30
0.0
 11
52.6375
 21
0.0127445
 31
0.0
  0
LINE
  5
FD
330
1D
100
AcDbEntity
  8
0
100
AcDbLine
 10
51.992
 20
0.0127445
 30
0.0
 11
51.992
 21
2.0127455
 31
0.0
  0
LINE
  5
FE
330
1D
100
AcDbEntity
  8
0
100
AcDbLine
 10
52.6375
 20
0.0127445
 30
0.0
 11
54.1434
 21
0.0127445
 31
0.0
  0
LINE
  5
FF
330
1D
100
AcDbEntity
  8
0
100
AcDbLine
 10
52.6375
 20
0.0127445
 30
0.0
 11
54.1434
 21
0.0127445
 31
0.0
  0
LINE
  5
100
330
1D
100
AcDbEntity
  8
0
100
AcDbLine
 10
52.6375
 20
0.0127445
 30
0.0
 11
54.1434
 21
0.0127445
 31
0.0
  0
LINE
  5
101
330
1D
100
AcDbEntity
  8
0
100
AcDbLine
 10
52.6375
 20
0.0127445
 30
0.0
 11
54.1434
 21
0.0127445
 31
0.0
  0
LINE
  5
102
330
1D
100
AcDbEntity
  8
0
100
AcDbLine
 10
52.6375
 20
0.0127445
 30
0.0
 11
54.1434
 21
0.0127445
 31
0.0
  0
LINE
  5
103
330
1D
100
AcDbEntity
  8
0
100
AcDbLine
 10
52.6375
 20
0.0127445
 30
0.0
 11
54.1434
 21
0.0127445
 31
0.0
  0
LINE
  5
104
330
1D
100
AcDbEntity
  8
0
100
AcDbLine
 10
52.6375
 20
0.0127445
 30
0.0
 11
54.1434
 21
0.0127445
 31
0.0
  0
LINE
  5
105
330
1D
100
AcDbEntity
  8
0
100
AcDbLine
 10
52.6375
 20
0.0127445
 30
0.0
 11
54.1434
 21
0.0127445
 31
0.0
  0
LINE
  5
106
330
1D
100
AcDbEntity
  8
0
100
AcDbLine
 10
52.6375
 20
0.0127445
 30
0.0
 11
54.1434
 21
0.0127445
 31
0.0
  0
LINE
  5
107
330
1D
100
AcDbEntity
  8
0
100
AcDbLine
 10
52.6375
 20
0.0127445
 30
0.0
 11
54.1434
 21
0.0127445
 31
0.0
  0
LINE
  5
108
330
1D
100
AcDbEntity
  8
0
100
AcDbLine
 10
52.6375
 20
0.0127445
 30
0.0
 11
54.1434
 21
0.0127445
 31
0.0
  0
LINE
  5
109
330
1D
100
AcDbEntity
  8
0
100
AcDbLine
 10
52.6375
 20
0.0127445
 30
0.0
 11
54.1434
 21
0.0127445
 31
0.0
  0
LINE
  5
10A
330
1D
100
AcDbEntity
  8
0
100
AcDbLine
 10
52.6375
 20
0.0127445
 30
0.0
 11
54.1434
 21
0.0127445
 31
0.0
  0
LINE
  5
10B
330
1D
100
AcDbEntity
  8
0
100
AcDbLine
 10
52.6375
 20
0.0127445
 30
0.0
 11
54.1434
 21
0.0127445
 31
0.0
  0
LINE
  5
10C
330
1D
100
AcDbEntity
  8
0
100
AcDbLine
 10
52.6375
 20
0.0127445
 30
0.0
 11
54.1434
 21
0.0127445
 31
0.0
  0
LINE
  5
10D
330
1D
100
AcDbEntity
  8
0
100
AcDbLine
 10
54.1434
 20
0.0127445
 30
0.0
 11
55.6494
 21
0.0127445
 31
0.0
  0
LINE
  5
10E
330
1D
100
AcDbEntity
  8
0
100
AcDbLine
 10
54.1434
 20
0.0127445
 30
0.0
 11
55.6494
 21
0.0127445
 31
0.0
  0
LINE
  5
10F
330
1D
100
AcDbEntity
  8
0
100
AcDbLine
 10
54.1434
 20
0.0127445
 30
0.0
 11
55.6494
 21
0.0127445
 31
0.0
  0
LINE
  5
110
330
1D
100
AcDbEntity
  8
0
100
AcDbLine
 10
54.1434
 20
0.0127445
 30
0.0
 11
55.6494
 21
0.0127445
 31
0.0
  0
LINE
  5
111
330
1D
100
AcDbEntity
  8
0
100
AcDbLine
 10
54.1434
 20
0.0127445
 30
0.0
 11
55.6494
 21
0.0127445
 31
0.0
  0
LINE
  5
112
330
1D
100
AcDbEntity
  8
0
100
AcDbLine
 10
54.1434
 20
0.0127445
 30
0.0
 11
55.6494
 21
0.0127445
 31
0.0
  0
LINE
  5
113
330
1D
100
AcDbEntity
  8
0
100
AcDbLine
 10
54.1434
 20
0.0127445
 30
0.0
 11
55.6494
 21
0.0127445
 31
0.0
  0
LINE
  5
114
330
1D
100
AcDbEntity
  8
0
100
AcDbLine
 10
54.1434
 20
0.0127445
 30
0.0
 11
55.6494
 21
0.0127445
 31
0.0
  0
LINE
  5
115
330
1D
100
AcDbEntity
  8
0
100
AcDbLine
 10
54.1434
 20
0.0127445
 30
0.0
 11
55.6494
 21
0.0127445
 31
0.0
  0
LINE
  5
116
330
1D
100
AcDbEntity
  8
0
100
AcDbLine
 10
54.1434
 20
0.0127445
 30
0.0
 11
55.6494
 21
0.0127445
 31
0.0
  0
LINE
  5
117
330
1D
100
AcDbEntity
  8
0
100
AcDbLine
 10
54.1434
 20
0.0127445
 30
0.0
 11
55.6494
 21
0.0127445
 31
0.0
  0
LINE
  5
118
330
1D
100
AcDbEntity
  8
0
100
AcDbLine
 10
54.1434
 20
0.0127445
 30
0.0
 11
55.6494
 21
0.0127445
 31
0.0
  0
LINE
  5
119
330
1D
100
AcDbEntity
  8
0
100
AcDbLine
 10
54.1434
 20
0.0127445
 30
0.0
 11
55.6494
 21
0.0127445
 31
0.0
  0
LINE
  5
11A
330
1D
100
AcDbEntity
  8
0
100
AcDbLine
 10
54.1434
 20
0.0127445
 30
0.0
 11
55.6494
 21
0.0127445
 31
0.0
  0
LINE
  5
11B
330
1D
100
AcDbEntity
  8
0
100
AcDbLine
 10
54.1434
 20
0.0127445
 30
0.0
 11
55.6494
 21
0.0127445
 31
0.0
  0
LINE
  5
11C
330
1D
100
AcDbEntity
  8
0
100
AcDbLine
 10
54.1434
 20
0.0127445
 30
0.0
 11
55.6494
 21
0.0127445
 31
0.0
  0
LINE
  5
11D
330
1D
100
AcDbEntity
  8
0
100
AcDbLine
 10
52.6375
 20
0.0127445
 30
0.0
 11
54.1434
 21
0.0127445
 31
0.0
  0
LINE
  5
11E
330
1D
100
AcDbEntity
  8
0
100
AcDbLine
 10
52.6375
 20
0.0127445
 30
0.0
 11
54.1434
 21
0.0127445
 31
0.0
  0
LINE
  5
11F
330
1D
100
AcDbEntity
  8
0
100
AcDbLine
 10
55.6494
 20
0.0127445
 30
0.0
 11
56.2948
 21
0.0127445
 31
0.0
  0
LINE
  5
120
330
1D
100
AcDbEntity
  8
0
100
AcDbLine
 10
55.6494
 20
0.0127445
 30
0.0
 11
56.2948
 21
0.0127445
 31
0.0
  0
LINE
  5
121
330
1D
100
AcDbEntity
  8
0
100
AcDbLine
 10
55.6494
 20
0.0127445
 30
0.0
 11
56.2948
 21
0.0127445
 31
0.0
  0
LINE
  5
122
330
1D
100
AcDbEntity
  8
0
100
AcDbLine
 10
55.6494
 20
0.0127445
 30
0.0
 11
56.2948
 21
0.0127445
 31
0.0
  0
LINE
  5
123
330
1D
100
AcDbEntity
  8
0
100
AcDbLine
 10
55.6494
 20
0.0127445
 30
0.0
 11
56.2948
 21
0.0127445
 31
0.0
  0
LINE
  5
124
330
1D
100
AcDbEntity
  8
0
100
AcDbLine
 10
55.6494
 20
0.0127445
 30
0.0
 11
56.2948
 21
0.0127445
 31
0.0
  0
LINE
  5
125
330
1D
100
AcDbEntity
  8
0
100
AcDbLine
 10
55.6494
 20
0.0127445
 30
0.0
 11
56.2948
 21
0.0127445
 31
0.0
  0
LINE
  5
126
330
1D
100
AcDbEntity
  8
0
100
AcDbLine
 10
55.6494
 20
0.0127445
 30
0.0
 11
56.2948
 21
0.0127445
 31
0.0
  0
LINE
  5
127
330
1D
100
AcDbEntity
  8
0
100
AcDbLine
 10
55.6494
 20
0.0127445
 30
0.0
 11
56.2948
 21
0.0127445
 31
0.0
  0
LINE
  5
128
330
1D
100
AcDbEntity
  8
0
100
AcDbLine
 10
55.6494
 20
0.0127445
 30
0.0
 11
56.2948
 21
0.0127445
 31
0.0
  0
LINE
  5
129
330
1D
100
AcDbEntity
  8
0
100
AcDbLine
 10
55.6494
 20
0.0127445
 30
0.0
 11
56.2948
 21
0.0127445
 31
0.0
  0
LINE
  5
12A
330
1D
100
AcDbEntity
  8
0
100
AcDbLine
 10
55.6494
 20
0.0127445
 30
0.0
 11
56.2948
 21
0.0127445
 31
0.0
  0
LINE
  5
12B
330
1D
100
AcDbEntity
  8
0
100
AcDbLine
 10
55.6494
 20
0.0127445
 30
0.0
 11
56.2948
 21
0.0127445
 31
0.0
  0
LINE
  5
12C
330
1D
100
AcDbEntity
  8
0
100
AcDbLine
 10
55.6494
 20
0.0127445
 30
0.0
 11
56.2948
 21
0.0127445
 31
0.0
  0
LINE
  5
12D
330
1D
100
AcDbEntity
  8
0
100
AcDbLine
 10
55.6494
 20
0.0127445
 30
0.0
 11
56.2948
 21
0.0127445
 31
0.0
  0
LINE
  5
12E
330
1D
100
AcDbEntity
  8
0
100
AcDbLine
 10
55.6494
 20
0.0127445
 30
0.0
 11
56.2948
 21
0.0127445
 31
0.0
  0
LINE
  5
12F
330
1D
100
AcDbEntity
  8
0
100
AcDbLine
 10
54.1434
 20
0.0127445
 30
0.0
 11
55.6494
 21
0.0127445
 31
0.0
  0
LINE
  5
130
330
1D
100
AcDbEntity
  8
0
100
AcDbLine
 10
55.6494
 20
0.0127445
 30
0.0
 11
56.2948
 21
0.0127445
 31
0.0
  0
LINE
  5
131
330
1D
100
AcDbEntity
  8
0
100
AcDbLine
 10
55.6494
 20
0.0127445
 30
0.0
 11
56.2948
 21
0.0127445
 31
0.0
  0
LINE
  5
132
330
1D
100
AcDbEntity
  8
0
100
AcDbLine
 10
54.1434
 20
0.0127445
 30
0.0
 11
55.6494
 21
0.0127445
 31
0.0
  0
LINE
  5
133
330
1D
100
AcDbEntity
  8
0
100
AcDbLine
 10
52.6375
 20
0.0127445
 30
0.0
 11
54.1434
 21
0.0127445
 31
0.0
  0
LINE
  5
134
330
1D
100
AcDbEntity
  8
0
100
AcDbLine
 10
51.992
 20
0.0127445
 30
0.0
 11
52.6375
 21
0.0127445
 31
0.0
  0
LINE
  5
135
330
1D
100
AcDbEntity
  8
0
100
AcDbLine
 10
51.992
 20
0.0127445
 30
0.0
 11
52.6375
 21
0.0127445
 31
0.0
  0
LINE
  5
136
330
1D
100
AcDbEntity
  8
0
100
AcDbLine
 10
51.992
 20
0.0127445
 30
0.0
 11
51.992
 21
2.0127455
 31
0.0
  0
LINE
  5
137
330
1D
100
AcDbEntity
  8
0
100
AcDbLine
 10
52.6375
 20
0.0127445
 30
0.0
 11
54.1434
 21
0.0127445
 31
0.0
  0
LINE
  5
138
330
1D
100
AcDbEntity
  8
0
100
AcDbLine
 10
54.1434
 20
0.0127445
 30
0.0
 11
55.6494
 21
0.0127445
 31
0.0
  0
LINE
  5
139
330
1D
100
AcDbEntity
  8
0
100
AcDbLine
 10
56.2948
 20
0.0127445
 30
0.0
 11
56.2948
 21
2.0127455
 31
0.0
  0
LINE
  5
13A
330
1D
100
AcDbEntity
  8
0
100
AcDbLine
 10
55.6494
 20
0.0127445
 30
0.0
 11
56.2948
 21
0.0127445
 31
0.0
  0
LINE
  5
13B
330
1D
100
AcDbEntity
  8
0
100
AcDbLine
 10
55.6494
 20
0.0127445
 30
0.0
 11
56.2948
 21
0.0127445
 31
0.0
  0
LINE
  5
13D
330
1D
100
AcDbEntity
  8
0
100
AcDbLine
 10
54.1434
 20
0.0127445
 30
0.0
 11
55.6494
 21
0.0127445
 31
0.0
  0
LINE
  5
13F
330
1D
100
AcDbEntity
  8
0
100
AcDbLine
 10
52.6375
 20
0.0127445
 30
0.0
 11
54.1434
 21
0.0127445
 31
0.0
  0
LINE
  5
141
330
1D
100
AcDbEntity
  8
0
100
AcDbLine
 10
51.992
 20
0.0127445
 30
0.0
 11
52.6375
 21
0.0127445
 31
0.0
  0
LINE
  5
142
330
1D
100
AcDbEntity
  8
0
100
AcDbLine
 10
51.992
 20
0.0127445
 30
0.0
 11
52.6375
 21
0.0127445
 31
0.0
  0
LINE
  5
143
330
1D
100
AcDbEntity
  8
0
100
AcDbLine
 10
51.992
 20
0.0127445
 30
0.0
 11
51.992
 21
2.0127455
 31
0.0
  0
LINE
  5
144
330
1D
100
AcDbEntity
  8
0
100
AcDbLine
 10
36.9323
 20
2.0127455
 30
0.0
 11
51.992
 21
2.0127455
 31
0.0
  0
LINE
  5
145
330
1D
100
AcDbEntity
  8
0
100
AcDbLine
 10
17.5697
 20
2.0127455
 30
0.0
 11
32.6295
 21
2.0127455
 31
0.0
  0
LINE
  5
146
330
1D
100
AcDbEntity
  8
0
100
AcDbLine
 10
9.16092
 20
2.0127455
 30
0.0
 11
11.3402
 21
2.0127455
 31
0.0
  0
LINE
  5
147
330
1D
100
AcDbEntity
  8
0
100
AcDbLine
 10
17.5697
 20
2.0127455
 30
0.0
 11
32.6295
 21
2.0127455
 31
0.0
  0
LINE
  5
148
330
1D
100
AcDbEntity
  8
0
100
AcDbLine
 10
71.3546
 20
0.0127445
 30
0.0
 11
72.0
 21
0.0127445
 31
0.0
  0
LINE
  5
149
330
1D
100
AcDbEntity
  8
0
100
AcDbLine
 10
71.3546
 20
0.0127445
 30
0.0
 11
72.0
 21
0.0127445
 31
0.0
  0
LINE
  5
14A
330
1D
100
AcDbEntity
  8
0
100
AcDbLine
 10
71.3546
 20
0.0127445
 30
0.0
 11
71.3546
 21
2.0127455
 31
0.0
  0
LINE
  5
14B
330
1D
100
AcDbEntity
  8
0
100
AcDbLine
 10
71.3546
 20
0.0127445
 30
0.0
 11
72.0
 21
0.0127445
 31
0.0
  0
LINE
  5
14C
330
1D
100
AcDbEntity
  8
0
100
AcDbLine
 10
71.3546
 20
0.0127445
 30
0.0
 11
72.0
 21
0.0127445
 31
0.0
  0
LINE
  5
14D
330
1D
100
AcDbEntity
  8
0
100
AcDbLine
 10
71.3546
 20
0.0127445
 30
0.0
 11
71.3546
 21
2.0127455
 31
0.0
  0
LINE
  5
14E
330
1D
100
AcDbEntity
  8
0
100
AcDbLine
 10
71.3546
 20
0.0127445
 30
0.0
 11
72.0
 21
0.0127445
 31
0.0
  0
LINE
  5
14F
330
1D
100
AcDbEntity
  8
0
100
AcDbLine
 10
71.3546
 20
0.0127445
 30
0.0
 11
72.0
 21
0.0127445
 31
0.0
  0
LINE
  5
150
330
1D
100
AcDbEntity
  8
0
100
AcDbLine
 10
71.3546
 20
0.0127445
 30
0.0
 11
71.3546
 21
2.0127455
 31
0.0
  0
LINE
  5
151
330
1D
100
AcDbEntity
  8
0
100
AcDbLine
 10
71.3546
 20
0.0127445
 30
0.0
 11
72.0
 21
0.0127445
 31
0.0
  0
LINE
  5
152
330
1D
100
AcDbEntity
  8
0
100
AcDbLine
 10
71.3546
 20
0.0127445
 30
0.0
 11
72.0
 21
0.0127445
 31
0.0
  0
LINE
  5
153
330
1D
100
AcDbEntity
  8
0
100
AcDbLine
 10
71.3546
 20
0.0127445
 30
0.0
 11
71.3546
 21
2.0127455
 31
0.0
  0
LINE
  5
154
330
1D
100
AcDbEntity
  8
0
100
AcDbLine
 10
71.3546
 20
0.0127445
 30
0.0
 11
72.0
 21
0.0127445
 31
0.0
  0
LINE
  5
155
330
1D
100
AcDbEntity
  8
0
100
AcDbLine
 10
71.3546
 20
0.0127445
 30
0.0
 11
72.0
 21
0.0127445
 31
0.0
  0
LINE
  5
156
330
1D
100
AcDbEntity
  8
0
100
AcDbLine
 10
71.3546
 20
0.0127445
 30
0.0
 11
71.3546
 21
2.0127455
 31
0.0
  0
LINE
  5
157
330
1D
100
AcDbEntity
  8
0
100
AcDbLine
 10
71.3546
 20
0.0127445
 30
0.0
 11
72.0
 21
0.0127445
 31
0.0
  0
LINE
  5
158
330
1D
100
AcDbEntity
  8
0
100
AcDbLine
 10
71.3546
 20
0.0127445
 30
0.0
 11
72.0
 21
0.0127445
 31
0.0
  0
LINE
  5
159
330
1D
100
AcDbEntity
  8
0
100
AcDbLine
 10
71.3546
 20
0.0127445
 30
0.0
 11
71.3546
 21
2.0127455
 31
0.0
  0
LINE
  5
15A
330
1D
100
AcDbEntity
  8
0
100
AcDbLine
 10
71.3546
 20
0.0127445
 30
0.0
 11
72.0
 21
0.0127445
 31
0.0
  0
LINE
  5
15B
330
1D
100
AcDbEntity
  8
0
100
AcDbLine
 10
71.3546
 20
0.0127445
 30
0.0
 11
72.0
 21
0.0127445
 31
0.0
  0
LINE
  5
15C
330
1D
100
AcDbEntity
  8
0
100
AcDbLine
 10
71.3546
 20
0.0127445
 30
0.0
 11
71.3546
 21
2.0127455
 31
0.0
  0
LINE
  5
15D
330
1D
100
AcDbEntity
  8
0
100
AcDbLine
 10
71.3546
 20
0.0127445
 30
0.0
 11
72.0
 21
0.0127445
 31
0.0
  0
LINE
  5
15E
330
1D
100
AcDbEntity
  8
0
100
AcDbLine
 10
71.3546
 20
0.0127445
 30
0.0
 11
72.0
 21
0.0127445
 31
0.0
  0
LINE
  5
15F
330
1D
100
AcDbEntity
  8
0
100
AcDbLine
 10
71.3546
 20
0.0127445
 30
0.0
 11
71.3546
 21
2.0127455
 31
0.0
  0
LINE
  5
160
330
1D
100
AcDbEntity
  8
0
100
AcDbLine
 10
72.0
 20
0.0127445
 30
0.0
 11
73.506
 21
0.0127445
 31
0.0
  0
LINE
  5
161
330
1D
100
AcDbEntity
  8
0
100
AcDbLine
 10
72.0
 20
0.0127445
 30
0.0
 11
73.506
 21
0.0127445
 31
0.0
  0
LINE
  5
162
330
1D
100
AcDbEntity
  8
0
100
AcDbLine
 10
72.0
 20
0.0127445
 30
0.0
 11
73.506
 21
0.0127445
 31
0.0
  0
LINE
  5
163
330
1D
100
AcDbEntity
  8
0
100
AcDbLine
 10
72.0
 20
0.0127445
 30
0.0
 11
73.506
 21
0.0127445
 31
0.0
  0
LINE
  5
164
330
1D
100
AcDbEntity
  8
0
100
AcDbLine
 10
72.0
 20
0.0127445
 30
0.0
 11
73.506
 21
0.0127445
 31
0.0
  0
LINE
  5
165
330
1D
100
AcDbEntity
  8
0
100
AcDbLine
 10
72.0
 20
0.0127445
 30
0.0
 11
73.506
 21
0.0127445
 31
0.0
  0
LINE
  5
166
330
1D
100
AcDbEntity
  8
0
100
AcDbLine
 10
72.0
 20
0.0127445
 30
0.0
 11
73.506
 21
0.0127445
 31
0.0
  0
LINE
  5
167
330
1D
100
AcDbEntity
  8
0
100
AcDbLine
 10
72.0
 20
0.0127445
 30
0.0
 11
73.506
 21
0.0127445
 31
0.0
  0
LINE
  5
168
330
1D
100
AcDbEntity
  8
0
100
AcDbLine
 10
72.0
 20
0.0127445
 30
0.0
 11
73.506
 21
0.0127445
 31
0.0
  0
LINE
  5
169
330
1D
100
AcDbEntity
  8
0
100
AcDbLine
 10
72.0
 20
0.0127445
 30
0.0
 11
73.506
 21
0.0127445
 31
0.0
  0
LINE
  5
16A
330
1D
100
AcDbEntity
  8
0
100
AcDbLine
 10
72.0
 20
0.0127445
 30
0.0
 11
73.506
 21
0.0127445
 31
0.0
  0
LINE
  5
16B
330
1D
100
AcDbEntity
  8
0
100
AcDbLine
 10
72.0
 20
0.0127445
 30
0.0
 11
73.506
 21
0.0127445
 31
0.0
  0
LINE
  5
16C
330
1D
100
AcDbEntity
  8
0
100
AcDbLine
 10
72.0
 20
0.0127445
 30
0.0
 11
73.506
 21
0.0127445
 31
0.0
  0
LINE
  5
16D
330
1D
100
AcDbEntity
  8
0
100
AcDbLine
 10
72.0
 20
0.0127445
 30
0.0
 11
73.506
 21
0.0127445
 31
0.0
  0
LINE
  5
16E
330
1D
100
AcDbEntity
  8
0
100
AcDbLine
 10
72.0
 20
0.0127445
 30
0.0
 11
73.506
 21
0.0127445
 31
0.0
  0
LINE
  5
16F
330
1D
100
AcDbEntity
  8
0
100
AcDbLine
 10
73.506
 20
0.0127445
 30
0.0
 11
75.012
 21
0.0127445
 31
0.0
  0
LINE
  5
170
330
1D
100
AcDbEntity
  8
0
100
AcDbLine
 10
73.506
 20
0.0127445
 30
0.0
 11
75.012
 21
0.0127445
 31
0.0
  0
LINE
  5
171
330
1D
100
AcDbEntity
  8
0
100
AcDbLine
 10
73.506
 20
0.0127445
 30
0.0
 11
75.012
 21
0.0127445
 31
0.0
  0
LINE
  5
172
330
1D
100
AcDbEntity
  8
0
100
AcDbLine
 10
73.506
 20
0.0127445
 30
0.0
 11
75.012
 21
0.0127445
 31
0.0
  0
LINE
  5
173
330
1D
100
AcDbEntity
  8
0
100
AcDbLine
 10
73.506
 20
0.0127445
 30
0.0
 11
75.012
 21
0.0127445
 31
0.0
  0
LINE
  5
174
330
1D
100
AcDbEntity
  8
0
100
AcDbLine
 10
73.506
 20
0.0127445
 30
0.0
 11
75.012
 21
0.0127445
 31
0.0
  0
LINE
  5
175
330
1D
100
AcDbEntity
  8
0
100
AcDbLine
 10
73.506
 20
0.0127445
 30
0.0
 11
75.012
 21
0.0127445
 31
0.0
  0
LINE
  5
176
330
1D
100
AcDbEntity
  8
0
100
AcDbLine
 10
73.506
 20
0.0127445
 30
0.0
 11
75.012
 21
0.0127445
 31
0.0
  0
LINE
  5
177
330
1D
100
AcDbEntity
  8
0
100
AcDbLine
 10
73.506
 20
0.0127445
 30
0.0
 11
75.012
 21
0.0127445
 31
0.0
  0
LINE
  5
178
330
1D
100
AcDbEntity
  8
0
100
AcDbLine
 10
73.506
 20
0.0127445
 30
0.0
 11
75.012
 21
0.0127445
 31
0.0
  0
LINE
  5
179
330
1D
100
AcDbEntity
  8
0
100
AcDbLine
 10
73.506
 20
0.0127445
 30
0.0
 11
75.012
 21
0.0127445
 31
0.0
  0
LINE
  5
17A
330
1D
100
AcDbEntity
  8
0
100
AcDbLine
 10
73.506
 20
0.0127445
 30
0.0
 11
75.012
 21
0.0127445
 31
0.0
  0
LINE
  5
17B
330
1D
100
AcDbEntity
  8
0
100
AcDbLine
 10
73.506
 20
0.0127445
 30
0.0
 11
75.012
 21
0.0127445
 31
0.0
  0
LINE
  5
17C
330
1D
100
AcDbEntity
  8
0
100
AcDbLine
 10
73.506
 20
0.0127445
 30
0.0
 11
75.012
 21
0.0127445
 31
0.0
  0
LINE
  5
17D
330
1D
100
AcDbEntity
  8
0
100
AcDbLine
 10
73.506
 20
0.0127445
 30
0.0
 11
75.012
 21
0.0127445
 31
0.0
  0
LINE
  5
17E
330
1D
100
AcDbEntity
  8
0
100
AcDbLine
 10
73.506
 20
0.0127445
 30
0.0
 11
75.012
 21
0.0127445
 31
0.0
  0
LINE
  5
17F
330
1D
100
AcDbEntity
  8
0
100
AcDbLine
 10
72.0
 20
0.0127445
 30
0.0
 11
73.506
 21
0.0127445
 31
0.0
  0
LINE
  5
180
330
1D
100
AcDbEntity
  8
0
100
AcDbLine
 10
72.0
 20
0.0127445
 30
0.0
 11
73.506
 21
0.0127445
 31
0.0
  0
LINE
  5
181
330
1D
100
AcDbEntity
  8
0
100
AcDbLine
 10
75.012
 20
0.0127445
 30
0.0
 11
75.6574
 21
0.0127445
 31
0.0
  0
LINE
  5
182
330
1D
100
AcDbEntity
  8
0
100
AcDbLine
 10
75.012
 20
0.0127445
 30
0.0
 11
75.6574
 21
0.0127445
 31
0.0
  0
LINE
  5
183
330
1D
100
AcDbEntity
  8
0
100
AcDbLine
 10
75.012
 20
0.0127445
 30
0.0
 11
75.6574
 21
0.0127445
 31
0.0
  0
LINE
  5
184
330
1D
100
AcDbEntity
  8
0
100
AcDbLine
 10
75.012
 20
0.0127445
 30
0.0
 11
75.6574
 21
0.0127445
 31
0.0
  0
LINE
  5
185
330
1D
100
AcDbEntity
  8
0
100
AcDbLine
 10
75.012
 20
0.0127445
 30
0.0
 11
75.6574
 21
0.0127445
 31
0.0
  0
LINE
  5
186
330
1D
100
AcDbEntity
  8
0
100
AcDbLine
 10
75.012
 20
0.0127445
 30
0.0
 11
75.6574
 21
0.0127445
 31
0.0
  0
LINE
  5
187
330
1D
100
AcDbEntity
  8
0
100
AcDbLine
 10
75.012
 20
0.0127445
 30
0.0
 11
75.6574
 21
0.0127445
 31
0.0
  0
LINE
  5
188
330
1D
100
AcDbEntity
  8
0
100
AcDbLine
 10
75.012
 20
0.0127445
 30
0.0
 11
75.6574
 21
0.0127445
 31
0.0
  0
LINE
  5
189
330
1D
100
AcDbEntity
  8
0
100
AcDbLine
 10
75.012
 20
0.0127445
 30
0.0
 11
75.6574
 21
0.0127445
 31
0.0
  0
LINE
  5
18A
330
1D
100
AcDbEntity
  8
0
100
AcDbLine
 10
75.012
 20
0.0127445
 30
0.0
 11
75.6574
 21
0.0127445
 31
0.0
  0
LINE
  5
18B
330
1D
100
AcDbEntity
  8
0
100
AcDbLine
 10
75.012
 20
0.0127445
 30
0.0
 11
75.6574
 21
0.0127445
 31
0.0
  0
LINE
  5
18C
330
1D
100
AcDbEntity
  8
0
100
AcDbLine
 10
75.012
 20
0.0127445
 30
0.0
 11
75.6574
 21
0.0127445
 31
0.0
  0
LINE
  5
18D
330
1D
100
AcDbEntity
  8
0
100
AcDbLine
 10
75.012
 20
0.0127445
 30
0.0
 11
75.6574
 21
0.0127445
 31
0.0
  0
LINE
  5
18E
330
1D
100
AcDbEntity
  8
0
100
AcDbLine
 10
75.012
 20
0.0127445
 30
0.0
 11
75.6574
 21
0.0127445
 31
0.0
  0
LINE
  5
18F
330
1D
100
AcDbEntity
  8
0
100
AcDbLine
 10
75.012
 20
0.0127445
 30
0.0
 11
75.6574
 21
0.0127445
 31
0.0
  0
LINE
  5
190
330
1D
100
AcDbEntity
  8
0
100
AcDbLine
 10
75.012
 20
0.0127445
 30
0.0
 11
75.6574
 21
0.0127445
 31
0.0
  0
LINE
  5
191
330
1D
100
AcDbEntity
  8
0
100
AcDbLine
 10
73.506
 20
0.0127445
 30
0.0
 11
75.012
 21
0.0127445
 31
0.0
  0
LINE
  5
192
330
1D
100
AcDbEntity
  8
0
100
AcDbLine
 10
75.012
 20
0.0127445
 30
0.0
 11
75.6574
 21
0.0127445
 31
0.0
  0
LINE
  5
193
330
1D
100
AcDbEntity
  8
0
100
AcDbLine
 10
75.012
 20
0.0127445
 30
0.0
 11
75.6574
 21
0.0127445
 31
0.0
  0
LINE
  5
194
330
1D
100
AcDbEntity
  8
0
100
AcDbLine
 10
73.506
 20
0.0127445
 30
0.0
 11
75.012
 21
0.0127445
 31
0.0
  0
LINE
  5
195
330
1D
100
AcDbEntity
  8
0
100
AcDbLine
 10
72.0
 20
0.0127445
 30
0.0
 11
73.506
 21
0.0127445
 31
0.0
  0
LINE
  5
196
330
1D
100
AcDbEntity
  8
0
100
AcDbLine
 10
71.3546
 20
0.0127445
 30
0.0
 11
72.0
 21
0.0127445
 31
0.0
  0
LINE
  5
197
330
1D
100
AcDbEntity
  8
0
100
AcDbLine
 10
71.3546
 20
0.0127445
 30
0.0
 11
72.0
 21
0.0127445
 31
0.0
  0
LINE
  5
198
330
1D
100
AcDbEntity
  8
0
100
AcDbLine
 10
71.3546
 20
0.0127445
 30
0.0
 11
71.3546
 21
2.0127455
 31
0.0
  0
LINE
  5
199
330
1D
100
AcDbEntity
  8
0
100
AcDbLine
 10
72.0
 20
0.0127445
 30
0.0
 11
73.506
 21
0.0127445
 31
0.0
  0
LINE
  5
19A
330
1D
100
AcDbEntity
  8
0
100
AcDbLine
 10
73.506
 20
0.0127445
 30
0.0
 11
75.012
 21
0.0127445
 31
0.0
  0
LINE
  5
19B
330
1D
100
AcDbEntity
  8
0
100
AcDbLine
 10
90.7171
 20
0.0127445
 30
0.0
 11
91.3625
 21
0.0127445
 31
0.0
  0
LINE
  5
19C
330
1D
100
AcDbEntity
  8
0
100
AcDbLine
 10
90.7171
 20
0.0127445
 30
0.0
 11
91.3625
 21
0.0127445
 31
0.0
  0
LINE
  5
19D
330
1D
100
AcDbEntity
  8
0
100
AcDbLine
 10
90.7171
 20
0.0127445
 30
0.0
 11
90.7171
 21
2.0127455
 31
0.0
  0
LINE
  5
19E
330
1D
100
AcDbEntity
  8
0
100
AcDbLine
 10
90.7171
 20
0.0127445
 30
0.0
 11
91.3625
 21
0.0127445
 31
0.0
  0
LINE
  5
19F
330
1D
100
AcDbEntity
  8
0
100
AcDbLine
 10
90.7171
 20
0.0127445
 30
0.0
 11
91.3625
 21
0.0127445
 31
0.0
  0
LINE
  5
1A0
330
1D
100
AcDbEntity
  8
0
100
AcDbLine
 10
90.7171
 20
0.0127445
 30
0.0
 11
90.7171
 21
2.0127455
 31
0.0
  0
LINE
  5
1A1
330
1D
100
AcDbEntity
  8
0
100
AcDbLine
 10
90.7171
 20
0.0127445
 30
0.0
 11
91.3625
 21
0.0127445
 31
0.0
  0
LINE
  5
1A2
330
1D
100
AcDbEntity
  8
0
100
AcDbLine
 10
90.7171
 20
0.0127445
 30
0.0
 11
91.3625
 21
0.0127445
 31
0.0
  0
LINE
  5
1A3
330
1D
100
AcDbEntity
  8
0
100
AcDbLine
 10
90.7171
 20
0.0127445
 30
0.0
 11
90.7171
 21
2.0127455
 31
0.0
  0
LINE
  5
1A4
330
1D
100
AcDbEntity
  8
0
100
AcDbLine
 10
90.7171
 20
0.0127445
 30
0.0
 11
91.3625
 21
0.0127445
 31
0.0
  0
LINE
  5
1A5
330
1D
100
AcDbEntity
  8
0
100
AcDbLine
 10
90.7171
 20
0.0127445
 30
0.0
 11
91.3625
 21
0.0127445
 31
0.0
  0
LINE
  5
1A6
330
1D
100
AcDbEntity
  8
0
100
AcDbLine
 10
90.7171
 20
0.0127445
 30
0.0
 11
90.7171
 21
2.0127455
 31
0.0
  0
LINE
  5
1A7
330
1D
100
AcDbEntity
  8
0
100
AcDbLine
 10
90.7171
 20
0.0127445
 30
0.0
 11
91.3625
 21
0.0127445
 31
0.0
  0
LINE
  5
1A8
330
1D
100
AcDbEntity
  8
0
100
AcDbLine
 10
90.7171
 20
0.0127445
 30
0.0
 11
91.3625
 21
0.0127445
 31
0.0
  0
LINE
  5
1A9
330
1D
100
AcDbEntity
  8
0
100
AcDbLine
 10
90.7171
 20
0.0127445
 30
0.0
 11
90.7171
 21
2.0127455
 31
0.0
  0
LINE
  5
1AA
330
1D
100
AcDbEntity
  8
0
100
AcDbLine
 10
90.7171
 20
0.0127445
 30
0.0
 11
91.3625
 21
0.0127445
 31
0.0
  0
LINE
  5
1AB
330
1D
100
AcDbEntity
  8
0
100
AcDbLine
 10
90.7171
 20
0.0127445
 30
0.0
 11
91.3625
 21
0.0127445
 31
0.0
  0
LINE
  5
1AC
330
1D
100
AcDbEntity
  8
0
100
AcDbLine
 10
90.7171
 20
0.0127445
 30
0.0
 11
90.7171
 21
2.0127455
 31
0.0
  0
LINE
  5
1AD
330
1D
100
AcDbEntity
  8
0
100
AcDbLine
 10
90.7171
 20
0.0127445
 30
0.0
 11
91.3625
 21
0.0127445
 31
0.0
  0
LINE
  5
1AE
330
1D
100
AcDbEntity
  8
0
100
AcDbLine
 10
90.7171
 20
0.0127445
 30
0.0
 11
91.3625
 21
0.0127445
 31
0.0
  0
LINE
  5
1AF
330
1D
100
AcDbEntity
  8
0
100
AcDbLine
 10
90.7171
 20
0.0127445
 30
0.0
 11
90.7171
 21
2.0127455
 31
0.0
  0
LINE
  5
1B0
330
1D
100
AcDbEntity
  8
0
100
AcDbLine
 10
90.7171
 20
0.0127445
 30
0.0
 11
91.3625
 21
0.0127445
 31
0.0
  0
LINE
  5
1B1
330
1D
100
AcDbEntity
  8
0
100
AcDbLine
 10
90.7171
 20
0.0127445
 30
0.0
 11
91.3625
 21
0.0127445
 31
0.0
  0
LINE
  5
1B2
330
1D
100
AcDbEntity
  8
0
100
AcDbLine
 10
90.7171
 20
0.0127445
 30
0.0
 11
90.7171
 21
2.0127455
 31
0.0
  0
LINE
  5
1B3
330
1D
100
AcDbEntity
  8
0
100
AcDbLine
 10
90.7171
 20
0.0127445
 30
0.0
 11
91.3625
 21
0.0127445
 31
0.0
  0
LINE
  5
1B4
330
1D
100
AcDbEntity
  8
0
100
AcDbLine
 10
90.7171
 20
0.0127445
 30
0.0
 11
91.3625
 21
0.0127445
 31
0.0
  0
LINE
  5
1B5
330
1D
100
AcDbEntity
  8
0
100
AcDbLine
 10
90.7171
 20
0.0127445
 30
0.0
 11
90.7171
 21
2.0127455
 31
0.0
  0
LINE
  5
1B6
330
1D
100
AcDbEntity
  8
0
100
AcDbLine
 10
91.3625
 20
0.0127445
 30
0.0
 11
92.8685
 21
0.0127445
 31
0.0
  0
LINE
  5
1B7
330
1D
100
AcDbEntity
  8
0
100
AcDbLine
 10
91.3625
 20
0.0127445
 30
0.0
 11
92.8685
 21
0.0127445
 31
0.0
  0
LINE
  5
1B8
330
1D
100
AcDbEntity
  8
0
100
AcDbLine
 10
91.3625
 20
0.0127445
 30
0.0
 11
92.8685
 21
0.0127445
 31
0.0
  0
LINE
  5
1B9
330
1D
100
AcDbEntity
  8
0
100
AcDbLine
 10
91.3625
 20
0.0127445
 30
0.0
 11
92.8685
 21
0.0127445
 31
0.0
  0
LINE
  5
1BA
330
1D
100
AcDbEntity
  8
0
100
AcDbLine
 10
91.3625
 20
0.0127445
 30
0.0
 11
92.8685
 21
0.0127445
 31
0.0
  0
LINE
  5
1BB
330
1D
100
AcDbEntity
  8
0
100
AcDbLine
 10
91.3625
 20
0.0127445
 30
0.0
 11
92.8685
 21
0.0127445
 31
0.0
  0
LINE
  5
1BC
330
1D
100
AcDbEntity
  8
0
100
AcDbLine
 10
91.3625
 20
0.0127445
 30
0.0
 11
92.8685
 21
0.0127445
 31
0.0
  0
LINE
  5
1BD
330
1D
100
AcDbEntity
  8
0
100
AcDbLine
 10
91.3625
 20
0.0127445
 30
0.0
 11
92.8685
 21
0.0127445
 31
0.0
  0
LINE
  5
1BE
330
1D
100
AcDbEntity
  8
0
100
AcDbLine
 10
91.3625
 20
0.0127445
 30
0.0
 11
92.8685
 21
0.0127445
 31
0.0
  0
LINE
  5
1BF
330
1D
100
AcDbEntity
  8
0
100
AcDbLine
 10
91.3625
 20
0.0127445
 30
0.0
 11
92.8685
 21
0.0127445
 31
0.0
  0
LINE
  5
1C0
330
1D
100
AcDbEntity
  8
0
100
AcDbLine
 10
91.3625
 20
0.0127445
 30
0.0
 11
92.8685
 21
0.0127445
 31
0.0
  0
LINE
  5
1C1
330
1D
100
AcDbEntity
  8
0
100
AcDbLine
 10
91.3625
 20
0.0127445
 30
0.0
 11
92.8685
 21
0.0127445
 31
0.0
  0
LINE
  5
1C2
330
1D
100
AcDbEntity
  8
0
100
AcDbLine
 10
91.3625
 20
0.0127445
 30
0.0
 11
92.8685
 21
0.0127445
 31
0.0
  0
LINE
  5
1C3
330
1D
100
AcDbEntity
  8
0
100
AcDbLine
 10
91.3625
 20
0.0127445
 30
0.0
 11
92.8685
 21
0.0127445
 31
0.0
  0
LINE
  5
1C4
330
1D
100
AcDbEntity
  8
0
100
AcDbLine
 10
91.3625
 20
0.0127445
 30
0.0
 11
92.8685
 21
0.0127445
 31
0.0
  0
LINE
  5
1C5
330
1D
100
AcDbEntity
  8
0
100
AcDbLine
 10
91.3625
 20
0.0127445
 30
0.0
 11
92.8685
 21
0.0127445
 31
0.0
  0
LINE
  5
1C6
330
1D
100
AcDbEntity
  8
0
100
AcDbLine
 10
91.3625
 20
0.0127445
 30
0.0
 11
92.8685
 21
0.0127445
 31
0.0
  0
LINE
  5
1C7
330
1D
100
AcDbEntity
  8
0
100
AcDbLine
 10
92.8685
 20
0.0127445
 30
0.0
 11
94.3745
 21
0.0127445
 31
0.0
  0
LINE
  5
1C8
330
1D
100
AcDbEntity
  8
0
100
AcDbLine
 10
92.8685
 20
0.0127445
 30
0.0
 11
94.3745
 21
0.0127445
 31
0.0
  0
LINE
  5
1C9
330
1D
100
AcDbEntity
  8
0
100
AcDbLine
 10
92.8685
 20
0.0127445
 30
0.0
 11
94.3745
 21
0.0127445
 31
0.0
  0
LINE
  5
1CA
330
1D
100
AcDbEntity
  8
0
100
AcDbLine
 10
92.8685
 20
0.0127445
 30
0.0
 11
94.3745
 21
0.0127445
 31
0.0
  0
LINE
  5
1CB
330
1D
100
AcDbEntity
  8
0
100
AcDbLine
 10
92.8685
 20
0.0127445
 30
0.0
 11
94.3745
 21
0.0127445
 31
0.0
  0
LINE
  5
1CC
330
1D
100
AcDbEntity
  8
0
100
AcDbLine
 10
92.8685
 20
0.0127445
 30
0.0
 11
94.3745
 21
0.0127445
 31
0.0
  0
LINE
  5
1CD
330
1D
100
AcDbEntity
  8
0
100
AcDbLine
 10
92.8685
 20
0.0127445
 30
0.0
 11
94.3745
 21
0.0127445
 31
0.0
  0
LINE
  5
1CE
330
1D
100
AcDbEntity
  8
0
100
AcDbLine
 10
92.8685
 20
0.0127445
 30
0.0
 11
94.3745
 21
0.0127445
 31
0.0
  0
LINE
  5
1CF
330
1D
100
AcDbEntity
  8
0
100
AcDbLine
 10
92.8685
 20
0.0127445
 30
0.0
 11
94.3745
 21
0.0127445
 31
0.0
  0
LINE
  5
1D0
330
1D
100
AcDbEntity
  8
0
100
AcDbLine
 10
92.8685
 20
0.0127445
 30
0.0
 11
94.3745
 21
0.0127445
 31
0.0
  0
LINE
  5
1D1
330
1D
100
AcDbEntity
  8
0
100
AcDbLine
 10
92.8685
 20
0.0127445
 30
0.0
 11
94.3745
 21
0.0127445
 31
0.0
  0
LINE
  5
1D2
330
1D
100
AcDbEntity
  8
0
100
AcDbLine
 10
92.8685
 20
0.0127445
 30
0.0
 11
94.3745
 21
0.0127445
 31
0.0
  0
LINE
  5
1D3
330
1D
100
AcDbEntity
  8
0
100
AcDbLine
 10
92.8685
 20
0.0127445
 30
0.0
 11
94.3745
 21
0.0127445
 31
0.0
  0
LINE
  5
1D4
330
1D
100
AcDbEntity
  8
0
100
AcDbLine
 10
92.8685
 20
0.0127445
 30
0.0
 11
94.3745
 21
0.0127445
 31
0.0
  0
LINE
  5
1D5
330
1D
100
AcDbEntity
  8
0
100
AcDbLine
 10
92.8685
 20
0.0127445
 30
0.0
 11
94.3745
 21
0.0127445
 31
0.0
  0
LINE
  5
1D6
330
1D
100
AcDbEntity
  8
0
100
AcDbLine
 10
92.8685
 20
0.0127445
 30
0.0
 11
94.3745
 21
0.0127445
 31
0.0
  0
LINE
  5
1D7
330
1D
100
AcDbEntity
  8
0
100
AcDbLine
 10
92.8685
 20
0.0127445
 30
0.0
 11
94.3745
 21
0.0127445
 31
0.0
  0
LINE
  5
1D8
330
1D
100
AcDbEntity
  8
0
100
AcDbLine
 10
92.8685
 20
0.0127445
 30
0.0
 11
94.3745
 21
0.0127445
 31
0.0
  0
LINE
  5
1D9
330
1D
100
AcDbEntity
  8
0
100
AcDbLine
 10
91.3625
 20
0.0127445
 30
0.0
 11
92.8685
 21
0.0127445
 31
0.0
  0
LINE
  5
1DA
330
1D
100
AcDbEntity
  8
0
100
AcDbLine
 10
91.3625
 20
0.0127445
 30
0.0
 11
92.8685
 21
0.0127445
 31
0.0
  0
LINE
  5
1DB
330
1D
100
AcDbEntity
  8
0
100
AcDbLine
 10
94.3745
 20
0.0127445
 30
0.0
 11
95.0199
 21
0.0127445
 31
0.0
  0
LINE
  5
1DC
330
1D
100
AcDbEntity
  8
0
100
AcDbLine
 10
94.3745
 20
0.0127445
 30
0.0
 11
95.0199
 21
0.0127445
 31
0.0
  0
LINE
  5
1DD
330
1D
100
AcDbEntity
  8
0
100
AcDbLine
 10
94.3745
 20
0.0127445
 30
0.0
 11
95.0199
 21
0.0127445
 31
0.0
  0
LINE
  5
1DE
330
1D
100
AcDbEntity
  8
0
100
AcDbLine
 10
94.3745
 20
0.0127445
 30
0.0
 11
95.0199
 21
0.0127445
 31
0.0
  0
LINE
  5
1DF
330
1D
100
AcDbEntity
  8
0
100
AcDbLine
 10
94.3745
 20
0.0127445
 30
0.0
 11
95.0199
 21
0.0127445
 31
0.0
  0
LINE
  5
1E0
330
1D
100
AcDbEntity
  8
0
100
AcDbLine
 10
94.3745
 20
0.0127445
 30
0.0
 11
95.0199
 21
0.0127445
 31
0.0
  0
LINE
  5
1E1
330
1D
100
AcDbEntity
  8
0
100
AcDbLine
 10
94.3745
 20
0.0127445
 30
0.0
 11
95.0199
 21
0.0127445
 31
0.0
  0
LINE
  5
1E2
330
1D
100
AcDbEntity
  8
0
100
AcDbLine
 10
94.3745
 20
0.0127445
 30
0.0
 11
95.0199
 21
0.0127445
 31
0.0
  0
LINE
  5
1E3
330
1D
100
AcDbEntity
  8
0
100
AcDbLine
 10
94.3745
 20
0.0127445
 30
0.0
 11
95.0199
 21
0.0127445
 31
0.0
  0
LINE
  5
1E4
330
1D
100
AcDbEntity
  8
0
100
AcDbLine
 10
94.3745
 20
0.0127445
 30
0.0
 11
95.0199
 21
0.0127445
 31
0.0
  0
LINE
  5
1E5
330
1D
100
AcDbEntity
  8
0
100
AcDbLine
 10
94.3745
 20
0.0127445
 30
0.0
 11
95.0199
 21
0.0127445
 31
0.0
  0
LINE
  5
1E6
330
1D
100
AcDbEntity
  8
0
100
AcDbLine
 10
94.3745
 20
0.0127445
 30
0.0
 11
95.0199
 21
0.0127445
 31
0.0
  0
LINE
  5
1E7
330
1D
100
AcDbEntity
  8
0
100
AcDbLine
 10
94.3745
 20
0.0127445
 30
0.0
 11
95.0199
 21
0.0127445
 31
0.0
  0
LINE
  5
1E8
330
1D
100
AcDbEntity
  8
0
100
AcDbLine
 10
94.3745
 20
0.0127445
 30
0.0
 11
95.0199
 21
0.0127445
 31
0.0
  0
LINE
  5
1E9
330
1D
100
AcDbEntity
  8
0
100
AcDbLine
 10
94.3745
 20
0.0127445
 30
0.0
 11
95.0199
 21
0.0127445
 31
0.0
  0
LINE
  5
1EA
330
1D
100
AcDbEntity
  8
0
100
AcDbLine
 10
94.3745
 20
0.0127445
 30
0.0
 11
95.0199
 21
0.0127445
 31
0.0
  0
LINE
  5
1EB
330
1D
100
AcDbEntity
  8
0
100
AcDbLine
 10
94.3745
 20
0.0127445
 30
0.0
 11
95.0199
 21
0.0127445
 31
0.0
  0
LINE
  5
1EC
330
1D
100
AcDbEntity
  8
0
100
AcDbLine
 10
94.3745
 20
0.0127445
 30
0.0
 11
95.0199
 21
0.0127445
 31
0.0
  0
LINE
  5
1ED
330
1D
100
AcDbEntity
  8
0
100
AcDbLine
 10
92.8685
 20
0.0127445
 30
0.0
 11
94.3745
 21
0.0127445
 31
0.0
  0
LINE
  5
1EE
330
1D
100
AcDbEntity
  8
0
100
AcDbLine
 10
95.0199
 20
0.0127445
 30
0.0
 11
95.0199
 21
2.0127455
 31
0.0
  0
LINE
  5
1EF
330
1D
100
AcDbEntity
  8
0
100
AcDbLine
 10
94.3745
 20
0.0127445
 30
0.0
 11
95.0199
 21
0.0127445
 31
0.0
  0
LINE
  5
1F0
330
1D
100
AcDbEntity
  8
0
100
AcDbLine
 10
90.7171
 20
0.0127445
 30
0.0
 11
91.3625
 21
0.0127445
 31
0.0
  0
LINE
  5
1F1
330
1D
100
AcDbEntity
  8
0
100
AcDbLine
 10
90.7171
 20
0.0127445
 30
0.0
 11
91.3625
 21
0.0127445
 31
0.0
  0
LINE
  5
1F2
330
1D
100
AcDbEntity
  8
0
100
AcDbLine
 10
90.7171
 20
0.0127445
 30
0.0
 11
90.7171
 21
2.0127455
 31
0.0
  0
LINE
  5
1F3
330
1D
100
AcDbEntity
  8
0
100
AcDbLine
 10
75.6574
 20
0.0127445
 30
0.0
 11
75.6574
 21
2.0127455
 31
0.0
  0
LINE
  5
1F4
330
1D
100
AcDbEntity
  8
0
100
AcDbLine
 10
75.012
 20
0.0127445
 30
0.0
 11
75.6574
 21
0.0127445
 31
0.0
  0
LINE
  5
1F5
330
1D
100
AcDbEntity
  8
0
100
AcDbLine
 10
94.3745
 20
0.0127445
 30
0.0
 11
95.0199
 21
0.0127445
 31
0.0
  0
LINE
  5
1F7
330
1D
100
AcDbEntity
  8
0
100
AcDbLine
 10
92.8685
 20
0.0127445
 30
0.0
 11
94.3745
 21
0.0127445
 31
0.0
  0
LINE
  5
1F9
330
1D
100
AcDbEntity
  8
0
100
AcDbLine
 10
91.3625
 20
0.0127445
 30
0.0
 11
92.8685
 21
0.0127445
 31
0.0
  0
LINE
  5
1FB
330
1D
100
AcDbEntity
  8
0
100
AcDbLine
 10
75.012
 20
0.0127445
 30
0.0
 11
75.6574
 21
0.0127445
 31
0.0
  0
LINE
  5
1FD
330
1D
100
AcDbEntity
  8
0
100
AcDbLine
 10
73.506
 20
0.0127445
 30
0.0
 11
75.012
 21
0.0127445
 31
0.0
  0
LINE
  5
1FF
330
1D
100
AcDbEntity
  8
0
100
AcDbLine
 10
72.0
 20
0.0127445
 30
0.0
 11
73.506
 21
0.0127445
 31
0.0
  0
LINE
  5
201
330
1D
100
AcDbEntity
  8
0
100
AcDbLine
 10
71.3546
 20
0.0127445
 30
0.0
 11
72.0
 21
0.0127445
 31
0.0
  0
LINE
  5
202
330
1D
100
AcDbEntity
  8
0
100
AcDbLine
 10
71.3546
 20
0.0127445
 30
0.0
 11
72.0
 21
0.0127445
 31
0.0
  0
LINE
  5
203
330
1D
100
AcDbEntity
  8
0
100
AcDbLine
 10
71.3546
 20
0.0127445
 30
0.0
 11
71.3546
 21
2.0127455
 31
0.0
  0
LINE
  5
204
330
1D
100
AcDbEntity
  8
0
100
AcDbLine
 10
56.2948
 20
2.0127455
 30
0.0
 11
71.3546
 21
2.0127455
 31
0.0
  0
LINE
  5
205
330
1D
100
AcDbEntity
  8
0
100
AcDbLine
 10
95.0199
 20
2.0127455
 30
0.0
 11
110.08
 21
2.0127455
 31
0.0
  0
LINE
  5
206
330
1D
100
AcDbEntity
  8
0
100
AcDbLine
 10
110.08
 20
0.0127445
 30
0.0
 11
110.725
 21
0.0127445
 31
0.0
  0
LINE
  5
207
330
1D
100
AcDbEntity
  8
0
100
AcDbLine
 10
110.08
 20
0.0127445
 30
0.0
 11
110.725
 21
0.0127445
 31
0.0
  0
LINE
  5
208
330
1D
100
AcDbEntity
  8
0
100
AcDbLine
 10
110.08
 20
0.0127445
 30
0.0
 11
110.08
 21
2.0127455
 31
0.0
  0
LINE
  5
209
330
1D
100
AcDbEntity
  8
0
100
AcDbLine
 10
110.08
 20
0.0127445
 30
0.0
 11
110.725
 21
0.0127445
 31
0.0
  0
LINE
  5
20A
330
1D
100
AcDbEntity
  8
0
100
AcDbLine
 10
110.08
 20
0.0127445
 30
0.0
 11
110.725
 21
0.0127445
 31
0.0
  0
LINE
  5
20B
330
1D
100
AcDbEntity
  8
0
100
AcDbLine
 10
110.08
 20
0.0127445
 30
0.0
 11
110.08
 21
2.0127455
 31
0.0
  0
LINE
  5
20C
330
1D
100
AcDbEntity
  8
0
100
AcDbLine
 10
110.08
 20
0.0127445
 30
0.0
 11
110.725
 21
0.0127445
 31
0.0
  0
LINE
  5
20D
330
1D
100
AcDbEntity
  8
0
100
AcDbLine
 10
110.08
 20
0.0127445
 30
0.0
 11
110.725
 21
0.0127445
 31
0.0
  0
LINE
  5
20E
330
1D
100
AcDbEntity
  8
0
100
AcDbLine
 10
110.08
 20
0.0127445
 30
0.0
 11
110.08
 21
2.0127455
 31
0.0
  0
LINE
  5
20F
330
1D
100
AcDbEntity
  8
0
100
AcDbLine
 10
110.08
 20
0.0127445
 30
0.0
 11
110.725
 21
0.0127445
 31
0.0
  0
LINE
  5
210
330
1D
100
AcDbEntity
  8
0
100
AcDbLine
 10
110.08
 20
0.0127445
 30
0.0
 11
110.725
 21
0.0127445
 31
0.0
  0
LINE
  5
211
330
1D
100
AcDbEntity
  8
0
100
AcDbLine
 10
110.08
 20
0.0127445
 30
0.0
 11
110.08
 21
2.0127455
 31
0.0
  0
LINE
  5
212
330
1D
100
AcDbEntity
  8
0
100
AcDbLine
 10
110.08
 20
0.0127445
 30
0.0
 11
110.725
 21
0.0127445
 31
0.0
  0
LINE
  5
213
330
1D
100
AcDbEntity
  8
0
100
AcDbLine
 10
110.08
 20
0.0127445
 30
0.0
 11
110.725
 21
0.0127445
 31
0.0
  0
LINE
  5
214
330
1D
100
AcDbEntity
  8
0
100
AcDbLine
 10
110.08
 20
0.0127445
 30
0.0
 11
110.08
 21
2.0127455
 31
0.0
  0
LINE
  5
215
330
1D
100
AcDbEntity
  8
0
100
AcDbLine
 10
110.08
 20
0.0127445
 30
0.0
 11
110.725
 21
0.0127445
 31
0.0
  0
LINE
  5
216
330
1D
100
AcDbEntity
  8
0
100
AcDbLine
 10
110.08
 20
0.0127445
 30
0.0
 11
110.725
 21
0.0127445
 31
0.0
  0
LINE
  5
217
330
1D
100
AcDbEntity
  8
0
100
AcDbLine
 10
110.08
 20
0.0127445
 30
0.0
 11
110.08
 21
2.0127455
 31
0.0
  0
LINE
  5
218
330
1D
100
AcDbEntity
  8
0
100
AcDbLine
 10
110.08
 20
0.0127445
 30
0.0
 11
110.725
 21
0.0127445
 31
0.0
  0
LINE
  5
219
330
1D
100
AcDbEntity
  8
0
100
AcDbLine
 10
110.08
 20
0.0127445
 30
0.0
 11
110.725
 21
0.0127445
 31
0.0
  0
LINE
  5
21A
330
1D
100
AcDbEntity
  8
0
100
AcDbLine
 10
110.08
 20
0.0127445
 30
0.0
 11
110.08
 21
2.0127455
 31
0.0
  0
LINE
  5
21B
330
1D
100
AcDbEntity
  8
0
100
AcDbLine
 10
110.08
 20
0.0127445
 30
0.0
 11
110.725
 21
0.0127445
 31
0.0
  0
LINE
  5
21C
330
1D
100
AcDbEntity
  8
0
100
AcDbLine
 10
110.08
 20
0.0127445
 30
0.0
 11
110.725
 21
0.0127445
 31
0.0
  0
LINE
  5
21D
330
1D
100
AcDbEntity
  8
0
100
AcDbLine
 10
110.08
 20
0.0127445
 30
0.0
 11
110.08
 21
2.0127455
 31
0.0
  0
LINE
  5
21E
330
1D
100
AcDbEntity
  8
0
100
AcDbLine
 10
110.725
 20
0.0127445
 30
0.0
 11
112.231
 21
0.0127445
 31
0.0
  0
LINE
  5
21F
330
1D
100
AcDbEntity
  8
0
100
AcDbLine
 10
110.725
 20
0.0127445
 30
0.0
 11
112.231
 21
0.0127445
 31
0.0
  0
LINE
  5
220
330
1D
100
AcDbEntity
  8
0
100
AcDbLine
 10
110.725
 20
0.0127445
 30
0.0
 11
112.231
 21
0.0127445
 31
0.0
  0
LINE
  5
221
330
1D
100
AcDbEntity
  8
0
100
AcDbLine
 10
110.725
 20
0.0127445
 30
0.0
 11
112.231
 21
0.0127445
 31
0.0
  0
LINE
  5
222
330
1D
100
AcDbEntity
  8
0
100
AcDbLine
 10
110.725
 20
0.0127445
 30
0.0
 11
112.231
 21
0.0127445
 31
0.0
  0
LINE
  5
223
330
1D
100
AcDbEntity
  8
0
100
AcDbLine
 10
110.725
 20
0.0127445
 30
0.0
 11
112.231
 21
0.0127445
 31
0.0
  0
LINE
  5
224
330
1D
100
AcDbEntity
  8
0
100
AcDbLine
 10
110.725
 20
0.0127445
 30
0.0
 11
112.231
 21
0.0127445
 31
0.0
  0
LINE
  5
225
330
1D
100
AcDbEntity
  8
0
100
AcDbLine
 10
110.725
 20
0.0127445
 30
0.0
 11
112.231
 21
0.0127445
 31
0.0
  0
LINE
  5
226
330
1D
100
AcDbEntity
  8
0
100
AcDbLine
 10
110.725
 20
0.0127445
 30
0.0
 11
112.231
 21
0.0127445
 31
0.0
  0
LINE
  5
227
330
1D
100
AcDbEntity
  8
0
100
AcDbLine
 10
110.725
 20
0.0127445
 30
0.0
 11
112.231
 21
0.0127445
 31
0.0
  0
LINE
  5
228
330
1D
100
AcDbEntity
  8
0
100
AcDbLine
 10
110.725
 20
0.0127445
 30
0.0
 11
112.231
 21
0.0127445
 31
0.0
  0
LINE
  5
229
330
1D
100
AcDbEntity
  8
0
100
AcDbLine
 10
110.725
 20
0.0127445
 30
0.0
 11
112.231
 21
0.0127445
 31
0.0
  0
LINE
  5
22A
330
1D
100
AcDbEntity
  8
0
100
AcDbLine
 10
110.725
 20
0.0127445
 30
0.0
 11
112.231
 21
0.0127445
 31
0.0
  0
LINE
  5
22B
330
1D
100
AcDbEntity
  8
0
100
AcDbLine
 10
110.725
 20
0.0127445
 30
0.0
 11
112.231
 21
0.0127445
 31
0.0
  0
LINE
  5
22C
330
1D
100
AcDbEntity
  8
0
100
AcDbLine
 10
110.725
 20
0.0127445
 30
0.0
 11
112.231
 21
0.0127445
 31
0.0
  0
LINE
  5
22D
330
1D
100
AcDbEntity
  8
0
100
AcDbLine
 10
112.231
 20
0.0127445
 30
0.0
 11
113.737
 21
0.0127445
 31
0.0
  0
LINE
  5
22E
330
1D
100
AcDbEntity
  8
0
100
AcDbLine
 10
112.231
 20
0.0127445
 30
0.0
 11
113.737
 21
0.0127445
 31
0.0
  0
LINE
  5
22F
330
1D
100
AcDbEntity
  8
0
100
AcDbLine
 10
112.231
 20
0.0127445
 30
0.0
 11
113.737
 21
0.0127445
 31
0.0
  0
LINE
  5
230
330
1D
100
AcDbEntity
  8
0
100
AcDbLine
 10
112.231
 20
0.0127445
 30
0.0
 11
113.737
 21
0.0127445
 31
0.0
  0
LINE
  5
231
330
1D
100
AcDbEntity
  8
0
100
AcDbLine
 10
112.231
 20
0.0127445
 30
0.0
 11
113.737
 21
0.0127445
 31
0.0
  0
LINE
  5
232
330
1D
100
AcDbEntity
  8
0
100
AcDbLine
 10
112.231
 20
0.0127445
 30
0.0
 11
113.737
 21
0.0127445
 31
0.0
  0
LINE
  5
233
330
1D
100
AcDbEntity
  8
0
100
AcDbLine
 10
112.231
 20
0.0127445
 30
0.0
 11
113.737
 21
0.0127445
 31
0.0
  0
LINE
  5
234
330
1D
100
AcDbEntity
  8
0
100
AcDbLine
 10
112.231
 20
0.0127445
 30
0.0
 11
113.737
 21
0.0127445
 31
0.0
  0
LINE
  5
235
330
1D
100
AcDbEntity
  8
0
100
AcDbLine
 10
112.231
 20
0.0127445
 30
0.0
 11
113.737
 21
0.0127445
 31
0.0
  0
LINE
  5
236
330
1D
100
AcDbEntity
  8
0
100
AcDbLine
 10
112.231
 20
0.0127445
 30
0.0
 11
113.737
 21
0.0127445
 31
0.0
  0
LINE
  5
237
330
1D
100
AcDbEntity
  8
0
100
AcDbLine
 10
112.231
 20
0.0127445
 30
0.0
 11
113.737
 21
0.0127445
 31
0.0
  0
LINE
  5
238
330
1D
100
AcDbEntity
  8
0
100
AcDbLine
 10
112.231
 20
0.0127445
 30
0.0
 11
113.737
 21
0.0127445
 31
0.0
  0
LINE
  5
239
330
1D
100
AcDbEntity
  8
0
100
AcDbLine
 10
112.231
 20
0.0127445
 30
0.0
 11
113.737
 21
0.0127445
 31
0.0
  0
LINE
  5
23A
330
1D
100
AcDbEntity
  8
0
100
AcDbLine
 10
112.231
 20
0.0127445
 30
0.0
 11
113.737
 21
0.0127445
 31
0.0
  0
LINE
  5
23B
330
1D
100
AcDbEntity
  8
0
100
AcDbLine
 10
112.231
 20
0.0127445
 30
0.0
 11
113.737
 21
0.0127445
 31
0.0
  0
LINE
  5
23C
330
1D
100
AcDbEntity
  8
0
100
AcDbLine
 10
112.231
 20
0.0127445
 30
0.0
 11
113.737
 21
0.0127445
 31
0.0
  0
LINE
  5
23D
330
1D
100
AcDbEntity
  8
0
100
AcDbLine
 10
110.725
 20
0.0127445
 30
0.0
 11
112.231
 21
0.0127445
 31
0.0
  0
LINE
  5
23E
330
1D
100
AcDbEntity
  8
0
100
AcDbLine
 10
110.725
 20
0.0127445
 30
0.0
 11
112.231
 21
0.0127445
 31
0.0
  0
LINE
  5
23F
330
1D
100
AcDbEntity
  8
0
100
AcDbLine
 10
113.737
 20
0.0127445
 30
0.0
 11
114.382
 21
0.0127445
 31
0.0
  0
LINE
  5
240
330
1D
100
AcDbEntity
  8
0
100
AcDbLine
 10
113.737
 20
0.0127445
 30
0.0
 11
114.382
 21
0.0127445
 31
0.0
  0
LINE
  5
241
330
1D
100
AcDbEntity
  8
0
100
AcDbLine
 10
113.737
 20
0.0127445
 30
0.0
 11
114.382
 21
0.0127445
 31
0.0
  0
LINE
  5
242
330
1D
100
AcDbEntity
  8
0
100
AcDbLine
 10
113.737
 20
0.0127445
 30
0.0
 11
114.382
 21
0.0127445
 31
0.0
  0
LINE
  5
243
330
1D
100
AcDbEntity
  8
0
100
AcDbLine
 10
113.737
 20
0.0127445
 30
0.0
 11
114.382
 21
0.0127445
 31
0.0
  0
LINE
  5
244
330
1D
100
AcDbEntity
  8
0
100
AcDbLine
 10
113.737
 20
0.0127445
 30
0.0
 11
114.382
 21
0.0127445
 31
0.0
  0
LINE
  5
245
330
1D
100
AcDbEntity
  8
0
100
AcDbLine
 10
113.737
 20
0.0127445
 30
0.0
 11
114.382
 21
0.0127445
 31
0.0
  0
LINE
  5
246
330
1D
100
AcDbEntity
  8
0
100
AcDbLine
 10
113.737
 20
0.0127445
 30
0.0
 11
114.382
 21
0.0127445
 31
0.0
  0
LINE
  5
247
330
1D
100
AcDbEntity
  8
0
100
AcDbLine
 10
113.737
 20
0.0127445
 30
0.0
 11
114.382
 21
0.0127445
 31
0.0
  0
LINE
  5
248
330
1D
100
AcDbEntity
  8
0
100
AcDbLine
 10
113.737
 20
0.0127445
 30
0.0
 11
114.382
 21
0.0127445
 31
0.0
  0
LINE
  5
249
330
1D
100
AcDbEntity
  8
0
100
AcDbLine
 10
113.737
 20
0.0127445
 30
0.0
 11
114.382
 21
0.0127445
 31
0.0
  0
LINE
  5
24A
330
1D
100
AcDbEntity
  8
0
100
AcDbLine
 10
113.737
 20
0.0127445
 30
0.0
 11
114.382
 21
0.0127445
 31
0.0
  0
LINE
  5
24B
330
1D
100
AcDbEntity
  8
0
100
AcDbLine
 10
113.737
 20
0.0127445
 30
0.0
 11
114.382
 21
0.0127445
 31
0.0
  0
LINE
  5
24C
330
1D
100
AcDbEntity
  8
0
100
AcDbLine
 10
113.737
 20
0.0127445
 30
0.0
 11
114.382
 21
0.0127445
 31
0.0
  0
LINE
  5
24D
330
1D
100
AcDbEntity
  8
0
100
AcDbLine
 10
113.737
 20
0.0127445
 30
0.0
 11
114.382
 21
0.0127445
 31
0.0
  0
LINE
  5
24E
330
1D
100
AcDbEntity
  8
0
100
AcDbLine
 10
113.737
 20
0.0127445
 30
0.0
 11
114.382
 21
0.0127445
 31
0.0
  0
LINE
  5
24F
330
1D
100
AcDbEntity
  8
0
100
AcDbLine
 10
112.231
 20
0.0127445
 30
0.0
 11
113.737
 21
0.0127445
 31
0.0
  0
LINE
  5
250
330
1D
100
AcDbEntity
  8
0
100
AcDbLine
 10
113.737
 20
0.0127445
 30
0.0
 11
114.382
 21
0.0127445
 31
0.0
  0
LINE
  5
251
330
1D
100
AcDbEntity
  8
0
100
AcDbLine
 10
113.737
 20
0.0127445
 30
0.0
 11
114.382
 21
0.0127445
 31
0.0
  0
LINE
  5
252
330
1D
100
AcDbEntity
  8
0
100
AcDbLine
 10
112.231
 20
0.0127445
 30
0.0
 11
113.737
 21
0.0127445
 31
0.0
  0
LINE
  5
253
330
1D
100
AcDbEntity
  8
0
100
AcDbLine
 10
110.725
 20
0.0127445
 30
0.0
 11
112.231
 21
0.0127445
 31
0.0
  0
LINE
  5
254
330
1D
100
AcDbEntity
  8
0
100
AcDbLine
 10
110.08
 20
0.0127445
 30
0.0
 11
110.725
 21
0.0127445
 31
0.0
  0
LINE
  5
255
330
1D
100
AcDbEntity
  8
0
100
AcDbLine
 10
110.08
 20
0.0127445
 30
0.0
 11
110.725
 21
0.0127445
 31
0.0
  0
LINE
  5
256
330
1D
100
AcDbEntity
  8
0
100
AcDbLine
 10
110.08
 20
0.0127445
 30
0.0
 11
110.08
 21
2.0127455
 31
0.0
  0
LINE
  5
257
330
1D
100
AcDbEntity
  8
0
100
AcDbLine
 10
110.725
 20
0.0127445
 30
0.0
 11
112.231
 21
0.0127445
 31
0.0
  0
LINE
  5
258
330
1D
100
AcDbEntity
  8
0
100
AcDbLine
 10
112.231
 20
0.0127445
 30
0.0
 11
113.737
 21
0.0127445
 31
0.0
  0
LINE
  5
259
330
1D
100
AcDbEntity
  8
0
100
AcDbLine
 10
129.442
 20
0.0127445
 30
0.0
 11
130.088
 21
0.0127445
 31
0.0
  0
LINE
  5
25A
330
1D
100
AcDbEntity
  8
0
100
AcDbLine
 10
129.442
 20
0.0127445
 30
0.0
 11
130.088
 21
0.0127445
 31
0.0
  0
LINE
  5
25B
330
1D
100
AcDbEntity
  8
0
100
AcDbLine
 10
129.442
 20
0.0127445
 30
0.0
 11
129.442
 21
2.0127455
 31
0.0
  0
LINE
  5
25C
330
1D
100
AcDbEntity
  8
0
100
AcDbLine
 10
129.442
 20
0.0127445
 30
0.0
 11
130.088
 21
0.0127445
 31
0.0
  0
LINE
  5
25D
330
1D
100
AcDbEntity
  8
0
100
AcDbLine
 10
129.442
 20
0.0127445
 30
0.0
 11
130.088
 21
0.0127445
 31
0.0
  0
LINE
  5
25E
330
1D
100
AcDbEntity
  8
0
100
AcDbLine
 10
129.442
 20
0.0127445
 30
0.0
 11
129.442
 21
2.0127455
 31
0.0
  0
LINE
  5
25F
330
1D
100
AcDbEntity
  8
0
100
AcDbLine
 10
129.442
 20
0.0127445
 30
0.0
 11
130.088
 21
0.0127445
 31
0.0
  0
LINE
  5
260
330
1D
100
AcDbEntity
  8
0
100
AcDbLine
 10
129.442
 20
0.0127445
 30
0.0
 11
130.088
 21
0.0127445
 31
0.0
  0
LINE
  5
261
330
1D
100
AcDbEntity
  8
0
100
AcDbLine
 10
129.442
 20
0.0127445
 30
0.0
 11
129.442
 21
2.0127455
 31
0.0
  0
LINE
  5
262
330
1D
100
AcDbEntity
  8
0
100
AcDbLine
 10
129.442
 20
0.0127445
 30
0.0
 11
130.088
 21
0.0127445
 31
0.0
  0
LINE
  5
263
330
1D
100
AcDbEntity
  8
0
100
AcDbLine
 10
129.442
 20
0.0127445
 30
0.0
 11
130.088
 21
0.0127445
 31
0.0
  0
LINE
  5
264
330
1D
100
AcDbEntity
  8
0
100
AcDbLine
 10
129.442
 20
0.0127445
 30
0.0
 11
129.442
 21
2.0127455
 31
0.0
  0
LINE
  5
265
330
1D
100
AcDbEntity
  8
0
100
AcDbLine
 10
129.442
 20
0.0127445
 30
0.0
 11
130.088
 21
0.0127445
 31
0.0
  0
LINE
  5
266
330
1D
100
AcDbEntity
  8
0
100
AcDbLine
 10
129.442
 20
0.0127445
 30
0.0
 11
130.088
 21
0.0127445
 31
0.0
  0
LINE
  5
267
330
1D
100
AcDbEntity
  8
0
100
AcDbLine
 10
129.442
 20
0.0127445
 30
0.0
 11
129.442
 21
2.0127455
 31
0.0
  0
LINE
  5
268
330
1D
100
AcDbEntity
  8
0
100
AcDbLine
 10
129.442
 20
0.0127445
 30
0.0
 11
130.088
 21
0.0127445
 31
0.0
  0
LINE
  5
269
330
1D
100
AcDbEntity
  8
0
100
AcDbLine
 10
129.442
 20
0.0127445
 30
0.0
 11
130.088
 21
0.0127445
 31
0.0
  0
LINE
  5
26A
330
1D
100
AcDbEntity
  8
0
100
AcDbLine
 10
129.442
 20
0.0127445
 30
0.0
 11
129.442
 21
2.0127455
 31
0.0
  0
LINE
  5
26B
330
1D
100
AcDbEntity
  8
0
100
AcDbLine
 10
129.442
 20
0.0127445
 30
0.0
 11
130.088
 21
0.0127445
 31
0.0
  0
LINE
  5
26C
330
1D
100
AcDbEntity
  8
0
100
AcDbLine
 10
129.442
 20
0.0127445
 30
0.0
 11
130.088
 21
0.0127445
 31
0.0
  0
LINE
  5
26D
330
1D
100
AcDbEntity
  8
0
100
AcDbLine
 10
129.442
 20
0.0127445
 30
0.0
 11
129.442
 21
2.0127455
 31
0.0
  0
LINE
  5
26E
330
1D
100
AcDbEntity
  8
0
100
AcDbLine
 10
129.442
 20
0.0127445
 30
0.0
 11
130.088
 21
0.0127445
 31
0.0
  0
LINE
  5
26F
330
1D
100
AcDbEntity
  8
0
100
AcDbLine
 10
129.442
 20
0.0127445
 30
0.0
 11
130.088
 21
0.0127445
 31
0.0
  0
LINE
  5
270
330
1D
100
AcDbEntity
  8
0
100
AcDbLine
 10
129.442
 20
0.0127445
 30
0.0
 11
129.442
 21
2.0127455
 31
0.0
  0
LINE
  5
271
330
1D
100
AcDbEntity
  8
0
100
AcDbLine
 10
129.442
 20
0.0127445
 30
0.0
 11
130.088
 21
0.0127445
 31
0.0
  0
LINE
  5
272
330
1D
100
AcDbEntity
  8
0
100
AcDbLine
 10
129.442
 20
0.0127445
 30
0.0
 11
130.088
 21
0.0127445
 31
0.0
  0
LINE
  5
273
330
1D
100
AcDbEntity
  8
0
100
AcDbLine
 10
129.442
 20
0.0127445
 30
0.0
 11
129.442
 21
2.0127455
 31
0.0
  0
LINE
  5
274
330
1D
100
AcDbEntity
  8
0
100
AcDbLine
 10
130.088
 20
0.0127445
 30
0.0
 11
131.594
 21
0.0127445
 31
0.0
  0
LINE
  5
275
330
1D
100
AcDbEntity
  8
0
100
AcDbLine
 10
130.088
 20
0.0127445
 30
0.0
 11
131.594
 21
0.0127445
 31
0.0
  0
LINE
  5
276
330
1D
100
AcDbEntity
  8
0
100
AcDbLine
 10
130.088
 20
0.0127445
 30
0.0
 11
131.594
 21
0.0127445
 31
0.0
  0
LINE
  5
277
330
1D
100
AcDbEntity
  8
0
100
AcDbLine
 10
130.088
 20
0.0127445
 30
0.0
 11
131.594
 21
0.0127445
 31
0.0
  0
LINE
  5
278
330
1D
100
AcDbEntity
  8
0
100
AcDbLine
 10
130.088
 20
0.0127445
 30
0.0
 11
131.594
 21
0.0127445
 31
0.0
  0
LINE
  5
279
330
1D
100
AcDbEntity
  8
0
100
AcDbLine
 10
130.088
 20
0.0127445
 30
0.0
 11
131.594
 21
0.0127445
 31
0.0
  0
LINE
  5
27A
330
1D
100
AcDbEntity
  8
0
100
AcDbLine
 10
130.088
 20
0.0127445
 30
0.0
 11
131.594
 21
0.0127445
 31
0.0
  0
LINE
  5
27B
330
1D
100
AcDbEntity
  8
0
100
AcDbLine
 10
130.088
 20
0.0127445
 30
0.0
 11
131.594
 21
0.0127445
 31
0.0
  0
LINE
  5
27C
330
1D
100
AcDbEntity
  8
0
100
AcDbLine
 10
130.088
 20
0.0127445
 30
0.0
 11
131.594
 21
0.0127445
 31
0.0
  0
LINE
  5
27D
330
1D
100
AcDbEntity
  8
0
100
AcDbLine
 10
130.088
 20
0.0127445
 30
0.0
 11
131.594
 21
0.0127445
 31
0.0
  0
LINE
  5
27E
330
1D
100
AcDbEntity
  8
0
100
AcDbLine
 10
130.088
 20
0.0127445
 30
0.0
 11
131.594
 21
0.0127445
 31
0.0
  0
LINE
  5
27F
330
1D
100
AcDbEntity
  8
0
100
AcDbLine
 10
130.088
 20
0.0127445
 30
0.0
 11
131.594
 21
0.0127445
 31
0.0
  0
LINE
  5
280
330
1D
100
AcDbEntity
  8
0
100
AcDbLine
 10
130.088
 20
0.0127445
 30
0.0
 11
131.594
 21
0.0127445
 31
0.0
  0
LINE
  5
281
330
1D
100
AcDbEntity
  8
0
100
AcDbLine
 10
130.088
 20
0.0127445
 30
0.0
 11
131.594
 21
0.0127445
 31
0.0
  0
LINE
  5
282
330
1D
100
AcDbEntity
  8
0
100
AcDbLine
 10
130.088
 20
0.0127445
 30
0.0
 11
131.594
 21
0.0127445
 31
0.0
  0
LINE
  5
283
330
1D
100
AcDbEntity
  8
0
100
AcDbLine
 10
130.088
 20
0.0127445
 30
0.0
 11
131.594
 21
0.0127445
 31
0.0
  0
LINE
  5
284
330
1D
100
AcDbEntity
  8
0
100
AcDbLine
 10
130.088
 20
0.0127445
 30
0.0
 11
131.594
 21
0.0127445
 31
0.0
  0
LINE
  5
285
330
1D
100
AcDbEntity
  8
0
100
AcDbLine
 10
131.594
 20
0.0127445
 30
0.0
 11
133.1
 21
0.0127445
 31
0.0
  0
LINE
  5
286
330
1D
100
AcDbEntity
  8
0
100
AcDbLine
 10
131.594
 20
0.0127445
 30
0.0
 11
133.1
 21
0.0127445
 31
0.0
  0
LINE
  5
287
330
1D
100
AcDbEntity
  8
0
100
AcDbLine
 10
131.594
 20
0.0127445
 30
0.0
 11
133.1
 21
0.0127445
 31
0.0
  0
LINE
  5
288
330
1D
100
AcDbEntity
  8
0
100
AcDbLine
 10
131.594
 20
0.0127445
 30
0.0
 11
133.1
 21
0.0127445
 31
0.0
  0
LINE
  5
289
330
1D
100
AcDbEntity
  8
0
100
AcDbLine
 10
131.594
 20
0.0127445
 30
0.0
 11
133.1
 21
0.0127445
 31
0.0
  0
LINE
  5
28A
330
1D
100
AcDbEntity
  8
0
100
AcDbLine
 10
131.594
 20
0.0127445
 30
0.0
 11
133.1
 21
0.0127445
 31
0.0
  0
LINE
  5
28B
330
1D
100
AcDbEntity
  8
0
100
AcDbLine
 10
131.594
 20
0.0127445
 30
0.0
 11
133.1
 21
0.0127445
 31
0.0
  0
LINE
  5
28C
330
1D
100
AcDbEntity
  8
0
100
AcDbLine
 10
131.594
 20
0.0127445
 30
0.0
 11
133.1
 21
0.0127445
 31
0.0
  0
LINE
  5
28D
330
1D
100
AcDbEntity
  8
0
100
AcDbLine
 10
131.594
 20
0.0127445
 30
0.0
 11
133.1
 21
0.0127445
 31
0.0
  0
LINE
  5
28E
330
1D
100
AcDbEntity
  8
0
100
AcDbLine
 10
131.594
 20
0.0127445
 30
0.0
 11
133.1
 21
0.0127445
 31
0.0
  0
LINE
  5
28F
330
1D
100
AcDbEntity
  8
0
100
AcDbLine
 10
131.594
 20
0.0127445
 30
0.0
 11
133.1
 21
0.0127445
 31
0.0
  0
LINE
  5
290
330
1D
100
AcDbEntity
  8
0
100
AcDbLine
 10
131.594
 20
0.0127445
 30
0.0
 11
133.1
 21
0.0127445
 31
0.0
  0
LINE
  5
291
330
1D
100
AcDbEntity
  8
0
100
AcDbLine
 10
131.594
 20
0.0127445
 30
0.0
 11
133.1
 21
0.0127445
 31
0.0
  0
LINE
  5
292
330
1D
100
AcDbEntity
  8
0
100
AcDbLine
 10
131.594
 20
0.0127445
 30
0.0
 11
133.1
 21
0.0127445
 31
0.0
  0
LINE
  5
293
330
1D
100
AcDbEntity
  8
0
100
AcDbLine
 10
131.594
 20
0.0127445
 30
0.0
 11
133.1
 21
0.0127445
 31
0.0
  0
LINE
  5
294
330
1D
100
AcDbEntity
  8
0
100
AcDbLine
 10
131.594
 20
0.0127445
 30
0.0
 11
133.1
 21
0.0127445
 31
0.0
  0
LINE
  5
295
330
1D
100
AcDbEntity
  8
0
100
AcDbLine
 10
131.594
 20
0.0127445
 30
0.0
 11
133.1
 21
0.0127445
 31
0.0
  0
LINE
  5
296
330
1D
100
AcDbEntity
  8
0
100
AcDbLine
 10
131.594
 20
0.0127445
 30
0.0
 11
133.1
 21
0.0127445
 31
0.0
  0
LINE
  5
297
330
1D
100
AcDbEntity
  8
0
100
AcDbLine
 10
130.088
 20
0.0127445
 30
0.0
 11
131.594
 21
0.0127445
 31
0.0
  0
LINE
  5
298
330
1D
100
AcDbEntity
  8
0
100
AcDbLine
 10
130.088
 20
0.0127445
 30
0.0
 11
131.594
 21
0.0127445
 31
0.0
  0
LINE
  5
299
330
1D
100
AcDbEntity
  8
0
100
AcDbLine
 10
133.1
 20
0.0127445
 30
0.0
 11
133.745
 21
0.0127445
 31
0.0
  0
LINE
  5
29A
330
1D
100
AcDbEntity
  8
0
100
AcDbLine
 10
133.1
 20
0.0127445
 30
0.0
 11
133.745
 21
0.0127445
 31
0.0
  0
LINE
  5
29B
330
1D
100
AcDbEntity
  8
0
100
AcDbLine
 10
133.1
 20
0.0127445
 30
0.0
 11
133.745
 21
0.0127445
 31
0.0
  0
LINE
  5
29C
330
1D
100
AcDbEntity
  8
0
100
AcDbLine
 10
133.1
 20
0.0127445
 30
0.0
 11
133.745
 21
0.0127445
 31
0.0
  0
LINE
  5
29D
330
1D
100
AcDbEntity
  8
0
100
AcDbLine
 10
133.1
 20
0.0127445
 30
0.0
 11
133.745
 21
0.0127445
 31
0.0
  0
LINE
  5
29E
330
1D
100
AcDbEntity
  8
0
100
AcDbLine
 10
133.1
 20
0.0127445
 30
0.0
 11
133.745
 21
0.0127445
 31
0.0
  0
LINE
  5
29F
330
1D
100
AcDbEntity
  8
0
100
AcDbLine
 10
133.1
 20
0.0127445
 30
0.0
 11
133.745
 21
0.0127445
 31
0.0
  0
LINE
  5
2A0
330
1D
100
AcDbEntity
  8
0
100
AcDbLine
 10
133.1
 20
0.0127445
 30
0.0
 11
133.745
 21
0.0127445
 31
0.0
  0
LINE
  5
2A1
330
1D
100
AcDbEntity
  8
0
100
AcDbLine
 10
133.1
 20
0.0127445
 30
0.0
 11
133.745
 21
0.0127445
 31
0.0
  0
LINE
  5
2A2
330
1D
100
AcDbEntity
  8
0
100
AcDbLine
 10
133.1
 20
0.0127445
 30
0.0
 11
133.745
 21
0.0127445
 31
0.0
  0
LINE
  5
2A3
330
1D
100
AcDbEntity
  8
0
100
AcDbLine
 10
133.1
 20
0.0127445
 30
0.0
 11
133.745
 21
0.0127445
 31
0.0
  0
LINE
  5
2A4
330
1D
100
AcDbEntity
  8
0
100
AcDbLine
 10
133.1
 20
0.0127445
 30
0.0
 11
133.745
 21
0.0127445
 31
0.0
  0
LINE
  5
2A5
330
1D
100
AcDbEntity
  8
0
100
AcDbLine
 10
133.1
 20
0.0127445
 30
0.0
 11
133.745
 21
0.0127445
 31
0.0
  0
LINE
  5
2A6
330
1D
100
AcDbEntity
  8
0
100
AcDbLine
 10
133.1
 20
0.0127445
 30
0.0
 11
133.745
 21
0.0127445
 31
0.0
  0
LINE
  5
2A7
330
1D
100
AcDbEntity
  8
0
100
AcDbLine
 10
133.1
 20
0.0127445
 30
0.0
 11
133.745
 21
0.0127445
 31
0.0
  0
LINE
  5
2A8
330
1D
100
AcDbEntity
  8
0
100
AcDbLine
 10
133.1
 20
0.0127445
 30
0.0
 11
133.745
 21
0.0127445
 31
0.0
  0
LINE
  5
2A9
330
1D
100
AcDbEntity
  8
0
100
AcDbLine
 10
133.1
 20
0.0127445
 30
0.0
 11
133.745
 21
0.0127445
 31
0.0
  0
LINE
  5
2AA
330
1D
100
AcDbEntity
  8
0
100
AcDbLine
 10
133.1
 20
0.0127445
 30
0.0
 11
133.745
 21
0.0127445
 31
0.0
  0
LINE
  5
2AB
330
1D
100
AcDbEntity
  8
0
100
AcDbLine
 10
131.594
 20
0.0127445
 30
0.0
 11
133.1
 21
0.0127445
 31
0.0
  0
LINE
  5
2AC
330
1D
100
AcDbEntity
  8
0
100
AcDbLine
 10
133.745
 20
0.0127445
 30
0.0
 11
133.745
 21
2.0127455
 31
0.0
  0
LINE
  5
2AD
330
1D
100
AcDbEntity
  8
0
100
AcDbLine
 10
133.1
 20
0.0127445
 30
0.0
 11
133.745
 21
0.0127445
 31
0.0
  0
LINE
  5
2AE
330
1D
100
AcDbEntity
  8
0
100
AcDbLine
 10
129.442
 20
0.0127445
 30
0.0
 11
130.088
 21
0.0127445
 31
0.0
  0
LINE
  5
2AF
330
1D
100
AcDbEntity
  8
0
100
AcDbLine
 10
129.442
 20
0.0127445
 30
0.0
 11
130.088
 21
0.0127445
 31
0.0
  0
LINE
  5
2B0
330
1D
100
AcDbEntity
  8
0
100
AcDbLine
 10
129.442
 20
0.0127445
 30
0.0
 11
129.442
 21
2.0127455
 31
0.0
  0
LINE
  5
2B1
330
1D
100
AcDbEntity
  8
0
100
AcDbLine
 10
114.382
 20
0.0127445
 30
0.0
 11
114.382
 21
2.0127455
 31
0.0
  0
LINE
  5
2B2
330
1D
100
AcDbEntity
  8
0
100
AcDbLine
 10
113.737
 20
0.0127445
 30
0.0
 11
114.382
 21
0.0127445
 31
0.0
  0
LINE
  5
2B3
330
1D
100
AcDbEntity
  8
0
100
AcDbLine
 10
133.1
 20
0.0127445
 30
0.0
 11
133.745
 21
0.0127445
 31
0.0
  0
LINE
  5
2B5
330
1D
100
AcDbEntity
  8
0
100
AcDbLine
 10
131.594
 20
0.0127445
 30
0.0
 11
133.1
 21
0.0127445
 31
0.0
  0
LINE
  5
2B7
330
1D
100
AcDbEntity
  8
0
100
AcDbLine
 10
130.088
 20
0.0127445
 30
0.0
 11
131.594
 21
0.0127445
 31
0.0
  0
LINE
  5
2B9
330
1D
100
AcDbEntity
  8
0
100
AcDbLine
 10
113.737
 20
0.0127445
 30
0.0
 11
114.382
 21
0.0127445
 31
0.0
  0
LINE
  5
2BB
330
1D
100
AcDbEntity
  8
0
100
AcDbLine
 10
112.231
 20
0.0127445
 30
0.0
 11
113.737
 21
0.0127445
 31
0.0
  0
LINE
  5
2BD
330
1D
100
AcDbEntity
  8
0
100
AcDbLine
 10
110.725
 20
0.0127445
 30
0.0
 11
112.231
 21
0.0127445
 31
0.0
  0
LINE
  5
2BF
330
1D
100
AcDbEntity
  8
0
100
AcDbLine
 10
110.08
 20
0.0127445
 30
0.0
 11
110.725
 21
0.0127445
 31
0.0
  0
LINE
  5
2C0
330
1D
100
AcDbEntity
  8
0
100
AcDbLine
 10
110.08
 20
0.0127445
 30
0.0
 11
110.725
 21
0.0127445
 31
0.0
  0
LINE
  5
2C1
330
1D
100
AcDbEntity
  8
0
100
AcDbLine
 10
110.08
 20
0.0127445
 30
0.0
 11
110.08
 21
2.0127455
 31
0.0
  0
LINE
  5
2C2
330
1D
100
AcDbEntity
  8
0
100
AcDbLine
 10
95.0199
 20
2.0127455
 30
0.0
 11
110.08
 21
2.0127455
 31
0.0
  0
LINE
  5
2C3
330
1D
100
AcDbEntity
  8
0
100
AcDbLine
 10
75.6574
 20
2.0127455
 30
0.0
 11
90.7171
 21
2.0127455
 31
0.0
  0
LINE
  5
2C4
330
1D
100
AcDbEntity
  8
0
100
AcDbLine
 10
56.2948
 20
2.0127455
 30
0.0
 11
71.3546
 21
2.0127455
 31
0.0
  0
LINE
  5
2C5
330
1D
100
AcDbEntity
  8
0
100
AcDbLine
 10
36.9323
 20
2.0127455
 30
0.0
 11
51.992
 21
2.0127455
 31
0.0
  0
LINE
  5
2C6
330
1D
100
AcDbEntity
  8
0
100
AcDbLine
 10
148.805
 20
0.0127445
 30
0.0
 11
149.45
 21
0.0127445
 31
0.0
  0
LINE
  5
2C7
330
1D
100
AcDbEntity
  8
0
100
AcDbLine
 10
148.805
 20
0.0127445
 30
0.0
 11
149.45
 21
0.0127445
 31
0.0
  0
LINE
  5
2C8
330
1D
100
AcDbEntity
  8
0
100
AcDbLine
 10
148.805
 20
0.0127445
 30
0.0
 11
148.805
 21
2.0127455
 31
0.0
  0
LINE
  5
2C9
330
1D
100
AcDbEntity
  8
0
100
AcDbLine
 10
148.805
 20
0.0127445
 30
0.0
 11
149.45
 21
0.0127445
 31
0.0
  0
LINE
  5
2CA
330
1D
100
AcDbEntity
  8
0
100
AcDbLine
 10
148.805
 20
0.0127445
 30
0.0
 11
149.45
 21
0.0127445
 31
0.0
  0
LINE
  5
2CB
330
1D
100
AcDbEntity
  8
0
100
AcDbLine
 10
148.805
 20
0.0127445
 30
0.0
 11
148.805
 21
2.0127455
 31
0.0
  0
LINE
  5
2CC
330
1D
100
AcDbEntity
  8
0
100
AcDbLine
 10
148.805
 20
0.0127445
 30
0.0
 11
149.45
 21
0.0127445
 31
0.0
  0
LINE
  5
2CD
330
1D
100
AcDbEntity
  8
0
100
AcDbLine
 10
148.805
 20
0.0127445
 30
0.0
 11
149.45
 21
0.0127445
 31
0.0
  0
LINE
  5
2CE
330
1D
100
AcDbEntity
  8
0
100
AcDbLine
 10
148.805
 20
0.0127445
 30
0.0
 11
148.805
 21
2.0127455
 31
0.0
  0
LINE
  5
2CF
330
1D
100
AcDbEntity
  8
0
100
AcDbLine
 10
148.805
 20
0.0127445
 30
0.0
 11
149.45
 21
0.0127445
 31
0.0
  0
LINE
  5
2D0
330
1D
100
AcDbEntity
  8
0
100
AcDbLine
 10
148.805
 20
0.0127445
 30
0.0
 11
149.45
 21
0.0127445
 31
0.0
  0
LINE
  5
2D1
330
1D
100
AcDbEntity
  8
0
100
AcDbLine
 10
148.805
 20
0.0127445
 30
0.0
 11
148.805
 21
2.0127455
 31
0.0
  0
LINE
  5
2D2
330
1D
100
AcDbEntity
  8
0
100
AcDbLine
 10
148.805
 20
0.0127445
 30
0.0
 11
149.45
 21
0.0127445
 31
0.0
  0
LINE
  5
2D3
330
1D
100
AcDbEntity
  8
0
100
AcDbLine
 10
148.805
 20
0.0127445
 30
0.0
 11
149.45
 21
0.0127445
 31
0.0
  0
LINE
  5
2D4
330
1D
100
AcDbEntity
  8
0
100
AcDbLine
 10
148.805
 20
0.0127445
 30
0.0
 11
148.805
 21
2.0127455
 31
0.0
  0
LINE
  5
2D5
330
1D
100
AcDbEntity
  8
0
100
AcDbLine
 10
148.805
 20
0.0127445
 30
0.0
 11
149.45
 21
0.0127445
 31
0.0
  0
LINE
  5
2D6
330
1D
100
AcDbEntity
  8
0
100
AcDbLine
 10
148.805
 20
0.0127445
 30
0.0
 11
149.45
 21
0.0127445
 31
0.0
  0
LINE
  5
2D7
330
1D
100
AcDbEntity
  8
0
100
AcDbLine
 10
148.805
 20
0.0127445
 30
0.0
 11
148.805
 21
2.0127455
 31
0.0
  0
LINE
  5
2D8
330
1D
100
AcDbEntity
  8
0
100
AcDbLine
 10
148.805
 20
0.0127445
 30
0.0
 11
149.45
 21
0.0127445
 31
0.0
  0
LINE
  5
2D9
330
1D
100
AcDbEntity
  8
0
100
AcDbLine
 10
148.805
 20
0.0127445
 30
0.0
 11
149.45
 21
0.0127445
 31
0.0
  0
LINE
  5
2DA
330
1D
100
AcDbEntity
  8
0
100
AcDbLine
 10
148.805
 20
0.0127445
 30
0.0
 11
148.805
 21
2.0127455
 31
0.0
  0
LINE
  5
2DB
330
1D
100
AcDbEntity
  8
0
100
AcDbLine
 10
148.805
 20
0.0127445
 30
0.0
 11
149.45
 21
0.0127445
 31
0.0
  0
LINE
  5
2DC
330
1D
100
AcDbEntity
  8
0
100
AcDbLine
 10
148.805
 20
0.0127445
 30
0.0
 11
149.45
 21
0.0127445
 31
0.0
  0
LINE
  5
2DD
330
1D
100
AcDbEntity
  8
0
100
AcDbLine
 10
148.805
 20
0.0127445
 30
0.0
 11
148.805
 21
2.0127455
 31
0.0
  0
LINE
  5
2DE
330
1D
100
AcDbEntity
  8
0
100
AcDbLine
 10
149.45
 20
0.0127445
 30
0.0
 11
150.956
 21
0.0127445
 31
0.0
  0
LINE
  5
2DF
330
1D
100
AcDbEntity
  8
0
100
AcDbLine
 10
149.45
 20
0.0127445
 30
0.0
 11
150.956
 21
0.0127445
 31
0.0
  0
LINE
  5
2E0
330
1D
100
AcDbEntity
  8
0
100
AcDbLine
 10
149.45
 20
0.0127445
 30
0.0
 11
150.956
 21
0.0127445
 31
0.0
  0
LINE
  5
2E1
330
1D
100
AcDbEntity
  8
0
100
AcDbLine
 10
149.45
 20
0.0127445
 30
0.0
 11
150.956
 21
0.0127445
 31
0.0
  0
LINE
  5
2E2
330
1D
100
AcDbEntity
  8
0
100
AcDbLine
 10
149.45
 20
0.0127445
 30
0.0
 11
150.956
 21
0.0127445
 31
0.0
  0
LINE
  5
2E3
330
1D
100
AcDbEntity
  8
0
100
AcDbLine
 10
149.45
 20
0.0127445
 30
0.0
 11
150.956
 21
0.0127445
 31
0.0
  0
LINE
  5
2E4
330
1D
100
AcDbEntity
  8
0
100
AcDbLine
 10
149.45
 20
0.0127445
 30
0.0
 11
150.956
 21
0.0127445
 31
0.0
  0
LINE
  5
2E5
330
1D
100
AcDbEntity
  8
0
100
AcDbLine
 10
149.45
 20
0.0127445
 30
0.0
 11
150.956
 21
0.0127445
 31
0.0
  0
LINE
  5
2E6
330
1D
100
AcDbEntity
  8
0
100
AcDbLine
 10
149.45
 20
0.0127445
 30
0.0
 11
150.956
 21
0.0127445
 31
0.0
  0
LINE
  5
2E7
330
1D
100
AcDbEntity
  8
0
100
AcDbLine
 10
149.45
 20
0.0127445
 30
0.0
 11
150.956
 21
0.0127445
 31
0.0
  0
LINE
  5
2E8
330
1D
100
AcDbEntity
  8
0
100
AcDbLine
 10
149.45
 20
0.0127445
 30
0.0
 11
150.956
 21
0.0127445
 31
0.0
  0
LINE
  5
2E9
330
1D
100
AcDbEntity
  8
0
100
AcDbLine
 10
149.45
 20
0.0127445
 30
0.0
 11
150.956
 21
0.0127445
 31
0.0
  0
LINE
  5
2EA
330
1D
100
AcDbEntity
  8
0
100
AcDbLine
 10
149.45
 20
0.0127445
 30
0.0
 11
150.956
 21
0.0127445
 31
0.0
  0
LINE
  5
2EB
330
1D
100
AcDbEntity
  8
0
100
AcDbLine
 10
149.45
 20
0.0127445
 30
0.0
 11
150.956
 21
0.0127445
 31
0.0
  0
LINE
  5
2EC
330
1D
100
AcDbEntity
  8
0
100
AcDbLine
 10
149.45
 20
0.0127445
 30
0.0
 11
150.956
 21
0.0127445
 31
0.0
  0
LINE
  5
2ED
330
1D
100
AcDbEntity
  8
0
100
AcDbLine
 10
150.956
 20
0.0127445
 30
0.0
 11
152.462
 21
0.0127445
 31
0.0
  0
LINE
  5
2EE
330
1D
100
AcDbEntity
  8
0
100
AcDbLine
 10
150.956
 20
0.0127445
 30
0.0
 11
152.462
 21
0.0127445
 31
0.0
  0
LINE
  5
2EF
330
1D
100
AcDbEntity
  8
0
100
AcDbLine
 10
150.956
 20
0.0127445
 30
0.0
 11
152.462
 21
0.0127445
 31
0.0
  0
LINE
  5
2F0
330
1D
100
AcDbEntity
  8
0
100
AcDbLine
 10
150.956
 20
0.0127445
 30
0.0
 11
152.462
 21
0.0127445
 31
0.0
  0
LINE
  5
2F1
330
1D
100
AcDbEntity
  8
0
100
AcDbLine
 10
150.956
 20
0.0127445
 30
0.0
 11
152.462
 21
0.0127445
 31
0.0
  0
LINE
  5
2F2
330
1D
100
AcDbEntity
  8
0
100
AcDbLine
 10
150.956
 20
0.0127445
 30
0.0
 11
152.462
 21
0.0127445
 31
0.0
  0
LINE
  5
2F3
330
1D
100
AcDbEntity
  8
0
100
AcDbLine
 10
150.956
 20
0.0127445
 30
0.0
 11
152.462
 21
0.0127445
 31
0.0
  0
LINE
  5
2F4
330
1D
100
AcDbEntity
  8
0
100
AcDbLine
 10
150.956
 20
0.0127445
 30
0.0
 11
152.462
 21
0.0127445
 31
0.0
  0
LINE
  5
2F5
330
1D
100
AcDbEntity
  8
0
100
AcDbLine
 10
150.956
 20
0.0127445
 30
0.0
 11
152.462
 21
0.0127445
 31
0.0
  0
LINE
  5
2F6
330
1D
100
AcDbEntity
  8
0
100
AcDbLine
 10
150.956
 20
0.0127445
 30
0.0
 11
152.462
 21
0.0127445
 31
0.0
  0
LINE
  5
2F7
330
1D
100
AcDbEntity
  8
0
100
AcDbLine
 10
150.956
 20
0.0127445
 30
0.0
 11
152.462
 21
0.0127445
 31
0.0
  0
LINE
  5
2F8
330
1D
100
AcDbEntity
  8
0
100
AcDbLine
 10
150.956
 20
0.0127445
 30
0.0
 11
152.462
 21
0.0127445
 31
0.0
  0
LINE
  5
2F9
330
1D
100
AcDbEntity
  8
0
100
AcDbLine
 10
150.956
 20
0.0127445
 30
0.0
 11
152.462
 21
0.0127445
 31
0.0
  0
LINE
  5
2FA
330
1D
100
AcDbEntity
  8
0
100
AcDbLine
 10
150.956
 20
0.0127445
 30
0.0
 11
152.462
 21
0.0127445
 31
0.0
  0
LINE
  5
2FB
330
1D
100
AcDbEntity
  8
0
100
AcDbLine
 10
150.956
 20
0.0127445
 30
0.0
 11
152.462
 21
0.0127445
 31
0.0
  0
LINE
  5
2FC
330
1D
100
AcDbEntity
  8
0
100
AcDbLine
 10
150.956
 20
0.0127445
 30
0.0
 11
152.462
 21
0.0127445
 31
0.0
  0
LINE
  5
2FD
330
1D
100
AcDbEntity
  8
0
100
AcDbLine
 10
149.45
 20
0.0127445
 30
0.0
 11
150.956
 21
0.0127445
 31
0.0
  0
LINE
  5
2FE
330
1D
100
AcDbEntity
  8
0
100
AcDbLine
 10
149.45
 20
0.0127445
 30
0.0
 11
150.956
 21
0.0127445
 31
0.0
  0
LINE
  5
2FF
330
1D
100
AcDbEntity
  8
0
100
AcDbLine
 10
152.462
 20
0.0127445
 30
0.0
 11
153.108
 21
0.0127445
 31
0.0
  0
LINE
  5
300
330
1D
100
AcDbEntity
  8
0
100
AcDbLine
 10
152.462
 20
0.0127445
 30
0.0
 11
153.108
 21
0.0127445
 31
0.0
  0
LINE
  5
301
330
1D
100
AcDbEntity
  8
0
100
AcDbLine
 10
152.462
 20
0.0127445
 30
0.0
 11
153.108
 21
0.0127445
 31
0.0
  0
LINE
  5
302
330
1D
100
AcDbEntity
  8
0
100
AcDbLine
 10
152.462
 20
0.0127445
 30
0.0
 11
153.108
 21
0.0127445
 31
0.0
  0
LINE
  5
303
330
1D
100
AcDbEntity
  8
0
100
AcDbLine
 10
152.462
 20
0.0127445
 30
0.0
 11
153.108
 21
0.0127445
 31
0.0
  0
LINE
  5
304
330
1D
100
AcDbEntity
  8
0
100
AcDbLine
 10
152.462
 20
0.0127445
 30
0.0
 11
153.108
 21
0.0127445
 31
0.0
  0
LINE
  5
305
330
1D
100
AcDbEntity
  8
0
100
AcDbLine
 10
152.462
 20
0.0127445
 30
0.0
 11
153.108
 21
0.0127445
 31
0.0
  0
LINE
  5
306
330
1D
100
AcDbEntity
  8
0
100
AcDbLine
 10
152.462
 20
0.0127445
 30
0.0
 11
153.108
 21
0.0127445
 31
0.0
  0
LINE
  5
307
330
1D
100
AcDbEntity
  8
0
100
AcDbLine
 10
152.462
 20
0.0127445
 30
0.0
 11
153.108
 21
0.0127445
 31
0.0
  0
LINE
  5
308
330
1D
100
AcDbEntity
  8
0
100
AcDbLine
 10
152.462
 20
0.0127445
 30
0.0
 11
153.108
 21
0.0127445
 31
0.0
  0
LINE
  5
309
330
1D
100
AcDbEntity
  8
0
100
AcDbLine
 10
152.462
 20
0.0127445
 30
0.0
 11
153.108
 21
0.0127445
 31
0.0
  0
LINE
  5
30A
330
1D
100
AcDbEntity
  8
0
100
AcDbLine
 10
152.462
 20
0.0127445
 30
0.0
 11
153.108
 21
0.0127445
 31
0.0
  0
LINE
  5
30B
330
1D
100
AcDbEntity
  8
0
100
AcDbLine
 10
152.462
 20
0.0127445
 30
0.0
 11
153.108
 21
0.0127445
 31
0.0
  0
LINE
  5
30C
330
1D
100
AcDbEntity
  8
0
100
AcDbLine
 10
152.462
 20
0.0127445
 30
0.0
 11
153.108
 21
0.0127445
 31
0.0
  0
LINE
  5
30D
330
1D
100
AcDbEntity
  8
0
100
AcDbLine
 10
152.462
 20
0.0127445
 30
0.0
 11
153.108
 21
0.0127445
 31
0.0
  0
LINE
  5
30E
330
1D
100
AcDbEntity
  8
0
100
AcDbLine
 10
152.462
 20
0.0127445
 30
0.0
 11
153.108
 21
0.0127445
 31
0.0
  0
LINE
  5
30F
330
1D
100
AcDbEntity
  8
0
100
AcDbLine
 10
150.956
 20
0.0127445
 30
0.0
 11
152.462
 21
0.0127445
 31
0.0
  0
LINE
  5
310
330
1D
100
AcDbEntity
  8
0
100
AcDbLine
 10
152.462
 20
0.0127445
 30
0.0
 11
153.108
 21
0.0127445
 31
0.0
  0
LINE
  5
311
330
1D
100
AcDbEntity
  8
0
100
AcDbLine
 10
153.108
 20
0.0127445
 30
0.0
 11
153.108
 21
2.0127455
 31
0.0
  0
LINE
  5
312
330
1D
100
AcDbEntity
  8
0
100
AcDbLine
 10
152.462
 20
0.0127445
 30
0.0
 11
153.108
 21
0.0127445
 31
0.0
  0
LINE
  5
314
330
1D
100
AcDbEntity
  8
0
100
AcDbLine
 10
150.956
 20
0.0127445
 30
0.0
 11
152.462
 21
0.0127445
 31
0.0
  0
LINE
  5
316
330
1D
100
AcDbEntity
  8
0
100
AcDbLine
 10
149.45
 20
0.0127445
 30
0.0
 11
150.956
 21
0.0127445
 31
0.0
  0
LINE
  5
318
330
1D
100
AcDbEntity
  8
0
100
AcDbLine
 10
148.805
 20
0.0127445
 30
0.0
 11
149.45
 21
0.0127445
 31
0.0
  0
LINE
  5
319
330
1D
100
AcDbEntity
  8
0
100
AcDbLine
 10
148.805
 20
0.0127445
 30
0.0
 11
149.45
 21
0.0127445
 31
0.0
  0
LINE
  5
31A
330
1D
100
AcDbEntity
  8
0
100
AcDbLine
 10
148.805
 20
0.0127445
 30
0.0
 11
148.805
 21
2.0127455
 31
0.0
  0
LINE
  5
31B
330
1D
100
AcDbEntity
  8
0
100
AcDbLine
 10
153.108
 20
2.0127455
 30
0.0
 11
165.657
 21
2.0127455
 31
0.0
  0
LINE
  5
31C
330
1D
100
AcDbEntity
  8
0
100
AcDbLine
 10
133.745
 20
2.0127455
 30
0.0
 11
148.805
 21
2.0127455
 31
0.0
  0
LINE
  5
31D
330
1D
100
AcDbEntity
  8
0
100
AcDbLine
 10
114.382
 20
2.0127455
 30
0.0
 11
129.442
 21
2.0127455
 31
0.0
  0
LINE
  5
31E
330
1D
100
AcDbEntity
  8
0
100
AcDbLine
 10
153.108
 20
2.0127455
 30
0.0
 11
165.657
 21
2.0127455
 31
0.0
  0
LINE
  5
31F
330
1D
100
AcDbEntity
  8
0
100
AcDbLine
 10
13.2669
 20
2.0127455
 30
0.0
 11
13.2669
 21
0.0127445
 31
0.0
  0
LINE
  5
320
330
1D
100
AcDbEntity
  8
0
100
AcDbLine
 10
13.2669
 20
2.0127455
 30
0.0
 11
13.2669
 21
0.0127445
 31
0.0
  0
LINE
  5
321
330
1D
100
AcDbEntity
  8
0
100
AcDbLine
 10
13.2669
 20
2.0127455
 30
0.0
 11
13.2669
 21
0.0127445
 31
0.0
  0
LINE
  5
322
330
1D
100
AcDbEntity
  8
0
100
AcDbLine
 10
13.2669
 20
2.0127455
 30
0.0
 11
13.2669
 21
0.0127445
 31
0.0
  0
LINE
  5
323
330
1D
100
AcDbEntity
  8
0
100
AcDbLine
 10
32.6295
 20
2.0127455
 30
0.0
 11
32.6295
 21
0.0127445
 31
0.0
  0
LINE
  5
324
330
1D
100
AcDbEntity
  8
0
100
AcDbLine
 10
51.992
 20
2.0127455
 30
0.0
 11
51.992
 21
0.0127445
 31
0.0
  0
LINE
  5
325
330
1D
100
AcDbEntity
  8
0
100
AcDbLine
 10
32.6295
 20
2.0127455
 30
0.0
 11
32.6295
 21
0.0127445
 31
0.0
  0
LINE
  5
326
330
1D
100
AcDbEntity
  8
0
100
AcDbLine
 10
32.6295
 20
2.0127455
 30
0.0
 11
32.6295
 21
0.0127445
 31
0.0
  0
LINE
  5
327
330
1D
100
AcDbEntity
  8
0
100
AcDbLine
 10
51.992
 20
2.0127455
 30
0.0
 11
51.992
 21
0.0127445
 31
0.0
  0
LINE
  5
328
330
1D
100
AcDbEntity
  8
0
100
AcDbLine
 10
51.992
 20
2.0127455
 30
0.0
 11
51.992
 21
0.0127445
 31
0.0
  0
LINE
  5
329
330
1D
100
AcDbEntity
  8
0
100
AcDbLine
 10
32.6295
 20
2.0127455
 30
0.0
 11
32.6295
 21
0.0127445
 31
0.0
  0
LINE
  5
32A
330
1D
100
AcDbEntity
  8
0
100
AcDbLine
 10
32.6295
 20
2.0127455
 30
0.0
 11
32.6295
 21
0.0127445
 31
0.0
  0
LINE
  5
32B
330
1D
100
AcDbEntity
  8
0
100
AcDbLine
 10
51.992
 20
2.0127455
 30
0.0
 11
51.992
 21
0.0127445
 31
0.0
  0
LINE
  5
32C
330
1D
100
AcDbEntity
  8
0
100
AcDbLine
 10
51.992
 20
2.0127455
 30
0.0
 11
51.992
 21
0.0127445
 31
0.0
  0
LINE
  5
32D
330
1D
100
AcDbEntity
  8
0
100
AcDbLine
 10
13.2669
 20
2.0127455
 30
0.0
 11
13.2669
 21
0.0127445
 31
0.0
  0
LINE
  5
32E
330
1D
100
AcDbEntity
  8
0
100
AcDbLine
 10
13.2669
 20
2.0127455
 30
0.0
 11
13.2669
 21
0.0127445
 31
0.0
  0
LINE
  5
32F
330
1D
100
AcDbEntity
  8
0
100
AcDbLine
 10
71.3546
 20
2.0127455
 30
0.0
 11
71.3546
 21
0.0127445
 31
0.0
  0
LINE
  5
330
330
1D
100
AcDbEntity
  8
0
100
AcDbLine
 10
90.7171
 20
2.0127455
 30
0.0
 11
90.7171
 21
0.0127445
 31
0.0
  0
LINE
  5
331
330
1D
100
AcDbEntity
  8
0
100
AcDbLine
 10
71.3546
 20
2.0127455
 30
0.0
 11
71.3546
 21
0.0127445
 31
0.0
  0
LINE
  5
332
330
1D
100
AcDbEntity
  8
0
100
AcDbLine
 10
71.3546
 20
2.0127455
 30
0.0
 11
71.3546
 21
0.0127445
 31
0.0
  0
LINE
  5
333
330
1D
100
AcDbEntity
  8
0
100
AcDbLine
 10
90.7171
 20
2.0127455
 30
0.0
 11
90.7171
 21
0.0127445
 31
0.0
  0
LINE
  5
334
330
1D
100
AcDbEntity
  8
0
100
AcDbLine
 10
90.7171
 20
2.0127455
 30
0.0
 11
90.7171
 21
0.0127445
 31
0.0
  0
LINE
  5
335
330
1D
100
AcDbEntity
  8
0
100
AcDbLine
 10
71.3546
 20
2.0127455
 30
0.0
 11
71.3546
 21
0.0127445
 31
0.0
  0
LINE
  5
336
330
1D
100
AcDbEntity
  8
0
100
AcDbLine
 10
71.3546
 20
2.0127455
 30
0.0
 11
71.3546
 21
0.0127445
 31
0.0
  0
LINE
  5
337
330
1D
100
AcDbEntity
  8
0
100
AcDbLine
 10
90.7171
 20
2.0127455
 30
0.0
 11
90.7171
 21
0.0127445
 31
0.0
  0
LINE
  5
338
330
1D
100
AcDbEntity
  8
0
100
AcDbLine
 10
90.7171
 20
2.0127455
 30
0.0
 11
90.7171
 21
0.0127445
 31
0.0
  0
LINE
  5
339
330
1D
100
AcDbEntity
  8
0
100
AcDbLine
 10
110.08
 20
2.0127455
 30
0.0
 11
110.08
 21
0.0127445
 31
0.0
  0
LINE
  5
33A
330
1D
100
AcDbEntity
  8
0
100
AcDbLine
 10
110.08
 20
2.0127455
 30
0.0
 11
110.08
 21
0.0127445
 31
0.0
  0
LINE
  5
33B
330
1D
100
AcDbEntity
  8
0
100
AcDbLine
 10
110.08
 20
2.0127455
 30
0.0
 11
110.08
 21
0.0127445
 31
0.0
  0
LINE
  5
33C
330
1D
100
AcDbEntity
  8
0
100
AcDbLine
 10
110.08
 20
2.0127455
 30
0.0
 11
110.08
 21
0.0127445
 31
0.0
  0
LINE
  5
33D
330
1D
100
AcDbEntity
  8
0
100
AcDbLine
 10
110.08
 20
2.0127455
 30
0.0
 11
110.08
 21
0.0127445
 31
0.0
  0
LINE
  5
33E
330
1D
100
AcDbEntity
  8
0
100
AcDbLine
 10
90.7171
 20
2.0127455
 30
0.0
 11
90.7171
 21
0.0127445
 31
0.0
  0
LINE
  5
33F
330
1D
100
AcDbEntity
  8
0
100
AcDbLine
 10
71.3546
 20
2.0127455
 30
0.0
 11
71.3546
 21
0.0127445
 31
0.0
  0
LINE
  5
340
330
1D
100
AcDbEntity
  8
0
100
AcDbLine
 10
51.992
 20
2.0127455
 30
0.0
 11
51.992
 21
0.0127445
 31
0.0
  0
LINE
  5
341
330
1D
100
AcDbEntity
  8
0
100
AcDbLine
 10
32.6295
 20
2.0127455
 30
0.0
 11
32.6295
 21
0.0127445
 31
0.0
  0
LINE
  5
342
330
1D
100
AcDbEntity
  8
0
100
AcDbLine
 10
129.442
 20
2.0127455
 30
0.0
 11
129.442
 21
0.0127445
 31
0.0
  0
LINE
  5
343
330
1D
100
AcDbEntity
  8
0
100
AcDbLine
 10
129.442
 20
2.0127455
 30
0.0
 11
129.442
 21
0.0127445
 31
0.0
  0
LINE
  5
344
330
1D
100
AcDbEntity
  8
0
100
AcDbLine
 10
129.442
 20
2.0127455
 30
0.0
 11
129.442
 21
0.0127445
 31
0.0
  0
LINE
  5
345
330
1D
100
AcDbEntity
  8
0
100
AcDbLine
 10
129.442
 20
2.0127455
 30
0.0
 11
129.442
 21
0.0127445
 31
0.0
  0
LINE
  5
346
330
1D
100
AcDbEntity
  8
0
100
AcDbLine
 10
148.805
 20
2.0127455
 30
0.0
 11
148.805
 21
0.0127445
 31
0.0
  0
LINE
  5
347
330
1D
100
AcDbEntity
  8
0
100
AcDbLine
 10
148.805
 20
2.0127455
 30
0.0
 11
148.805
 21
0.0127445
 31
0.0
  0
LINE
  5
348
330
1D
100
AcDbEntity
  8
0
100
AcDbLine
 10
148.805
 20
2.0127455
 30
0.0
 11
148.805
 21
0.0127445
 31
0.0
  0
LINE
  5
349
330
1D
100
AcDbEntity
  8
0
100
AcDbLine
 10
148.805
 20
2.0127455
 30
0.0
 11
148.805
 21
0.0127445
 31
0.0
  0
LINE
  5
34A
330
1D
100
AcDbEntity
  8
0
100
AcDbLine
 10
129.442
 20
2.0127455
 30
0.0
 11
129.442
 21
0.0127445
 31
0.0
  0
LINE
  5
34B
330
1D
100
AcDbEntity
  8
0
100
AcDbLine
 10
129.442
 20
2.0127455
 30
0.0
 11
129.442
 21
0.0127445
 31
0.0
  0
LINE
  5
34C
330
1D
100
AcDbEntity
  8
0
100
AcDbLine
 10
110.08
 20
2.0127455
 30
0.0
 11
110.08
 21
0.0127445
 31
0.0
  0
LINE
  5
34D
330
1D
100
AcDbEntity
  8
0
100
AcDbLine
 10
13.2669
 20
2.0127455
 30
0.0
 11
13.2669
 21
0.0127445
 31
0.0
  0
LINE
  5
34E
330
1D
100
AcDbEntity
  8
0
100
AcDbLine
 10
90.7171
 20
2.0127455
 30
0.0
 11
90.7171
 21
0.0127445
 31
0.0
  0
LINE
  5
34F
330
1D
100
AcDbEntity
  8
0
100
AcDbLine
 10
71.3546
 20
2.0127455
 30
0.0
 11
71.3546
 21
0.0127445
 31
0.0
  0
LINE
  5
350
330
1D
100
AcDbEntity
  8
0
100
AcDbLine
 10
51.992
 20
2.0127455
 30
0.0
 11
51.992
 21
0.0127445
 31
0.0
  0
LINE
  5
351
330
1D
100
AcDbEntity
  8
0
100
AcDbLine
 10
32.6295
 20
2.0127455
 30
0.0
 11
32.6295
 21
0.0127445
 31
0.0
  0
LINE
  5
352
330
1D
100
AcDbEntity
  8
0
100
AcDbLine
 10
13.2669
 20
2.0127455
 30
0.0
 11
13.2669
 21
0.0127445
 31
0.0
  0
LINE
  5
353
330
1D
100
AcDbEntity
  8
0
100
AcDbLine
 10
90.7171
 20
2.0127455
 30
0.0
 11
90.7171
 21
0.0127445
 31
0.0
  0
LINE
  5
354
330
1D
100
AcDbEntity
  8
0
100
AcDbLine
 10
71.3546
 20
2.0127455
 30
0.0
 11
71.3546
 21
0.0127445
 31
0.0
  0
LINE
  5
355
330
1D
100
AcDbEntity
  8
0
100
AcDbLine
 10
51.992
 20
2.0127455
 30
0.0
 11
51.992
 21
0.0127445
 31
0.0
  0
LINE
  5
356
330
1D
100
AcDbEntity
  8
0
100
AcDbLine
 10
32.6295
 20
2.0127455
 30
0.0
 11
32.6295
 21
0.0127445
 31
0.0
  0
LINE
  5
357
330
1D
100
AcDbEntity
  8
0
100
AcDbLine
 10
110.08
 20
2.0127455
 30
0.0
 11
110.08
 21
0.0127445
 31
0.0
  0
LINE
  5
358
330
1D
100
AcDbEntity
  8
0
100
AcDbLine
 10
129.442
 20
2.0127455
 30
0.0
 11
129.442
 21
0.0127445
 31
0.0
  0
LINE
  5
359
330
1D
100
AcDbEntity
  8
0
100
AcDbLine
 10
129.442
 20
2.0127455
 30
0.0
 11
129.442
 21
0.0127445
 31
0.0
  0
LINE
  5
35A
330
1D
100
AcDbEntity
  8
0
100
AcDbLine
 10
110.08
 20
2.0127455
 30
0.0
 11
110.08
 21
0.0127445
 31
0.0
  0
LINE
  5
35B
330
1D
100
AcDbEntity
  8
0
100
AcDbLine
 10
148.805
 20
2.0127455
 30
0.0
 11
148.805
 21
0.0127445
 31
0.0
  0
LINE
  5
35C
330
1D
100
AcDbEntity
  8
0
100
AcDbLine
 10
148.805
 20
2.0127455
 30
0.0
 11
148.805
 21
0.0127445
 31
0.0
  0
LINE
  5
35D
330
1D
100
AcDbEntity
  8
0
100
AcDbLine
 10
13.2669
 20
2.0127455
 30
0.0
 11
13.2669
 21
0.0127445
 31
0.0
  0
LINE
  5
35E
330
1D
100
AcDbEntity
  8
0
100
AcDbLine
 10
90.7171
 20
2.0127455
 30
0.0
 11
90.7171
 21
0.0127445
 31
0.0
  0
LINE
  5
35F
330
1D
100
AcDbEntity
  8
0
100
AcDbLine
 10
71.3546
 20
2.0127455
 30
0.0
 11
71.3546
 21
0.0127445
 31
0.0
  0
LINE
  5
360
330
1D
100
AcDbEntity
  8
0
100
AcDbLine
 10
51.992
 20
2.0127455
 30
0.0
 11
51.992
 21
0.0127445
 31
0.0
  0
LINE
  5
361
330
1D
100
AcDbEntity
  8
0
100
AcDbLine
 10
13.2669
 20
2.0127455
 30
0.0
 11
13.9123
 21
2.0127455
 31
0.0
  0
LINE
  5
362
330
1D
100
AcDbEntity
  8
0
100
AcDbLine
 10
13.2669
 20
2.0127455
 30
0.0
 11
13.2669
 21
0.0127445
 31
0.0
  0
LINE
  5
363
330
1D
100
AcDbEntity
  8
0
100
AcDbLine
 10
17.5697
 20
2.0127455
 30
0.0
 11
17.5697
 21
0.0127445
 31
0.0
  0
LINE
  5
365
330
1D
100
AcDbEntity
  8
0
100
AcDbLine
 10
16.9243
 20
2.0127455
 30
0.0
 11
17.5697
 21
2.0127455
 31
0.0
  0
LINE
  5
367
330
1D
100
AcDbEntity
  8
0
100
AcDbLine
 10
13.9123
 20
2.0127455
 30
0.0
 11
15.4183
 21
2.0127455
 31
0.0
  0
LINE
  5
368
330
1D
100
AcDbEntity
  8
0
100
AcDbLine
 10
32.6295
 20
2.0127455
 30
0.0
 11
33.2749
 21
2.0127455
 31
0.0
  0
LINE
  5
369
330
1D
100
AcDbEntity
  8
0
100
AcDbLine
 10
32.6295
 20
2.0127455
 30
0.0
 11
32.6295
 21
0.0127445
 31
0.0
  0
LINE
  5
36A
330
1D
100
AcDbEntity
  8
0
100
AcDbLine
 10
95.0199
 20
2.0127455
 30
0.0
 11
95.0199
 21
0.0127445
 31
0.0
  0
LINE
  5
36C
330
1D
100
AcDbEntity
  8
0
100
AcDbLine
 10
94.3745
 20
2.0127455
 30
0.0
 11
95.0199
 21
2.0127455
 31
0.0
  0
LINE
  5
36D
330
1D
100
AcDbEntity
  8
0
100
AcDbLine
 10
90.7171
 20
2.0127455
 30
0.0
 11
91.3625
 21
2.0127455
 31
0.0
  0
LINE
  5
36E
330
1D
100
AcDbEntity
  8
0
100
AcDbLine
 10
90.7171
 20
2.0127455
 30
0.0
 11
90.7171
 21
0.0127445
 31
0.0
  0
LINE
  5
370
330
1D
100
AcDbEntity
  8
0
100
AcDbLine
 10
91.3625
 20
2.0127455
 30
0.0
 11
92.8685
 21
2.0127455
 31
0.0
  0
LINE
  5
371
330
1D
100
AcDbEntity
  8
0
100
AcDbLine
 10
75.6574
 20
2.0127455
 30
0.0
 11
75.6574
 21
0.0127445
 31
0.0
  0
LINE
  5
373
330
1D
100
AcDbEntity
  8
0
100
AcDbLine
 10
75.012
 20
2.0127455
 30
0.0
 11
75.6574
 21
2.0127455
 31
0.0
  0
LINE
  5
374
330
1D
100
AcDbEntity
  8
0
100
AcDbLine
 10
71.3546
 20
2.0127455
 30
0.0
 11
72.0
 21
2.0127455
 31
0.0
  0
LINE
  5
375
330
1D
100
AcDbEntity
  8
0
100
AcDbLine
 10
71.3546
 20
2.0127455
 30
0.0
 11
71.3546
 21
0.0127445
 31
0.0
  0
LINE
  5
377
330
1D
100
AcDbEntity
  8
0
100
AcDbLine
 10
72.0
 20
2.0127455
 30
0.0
 11
73.506
 21
2.0127455
 31
0.0
  0
LINE
  5
378
330
1D
100
AcDbEntity
  8
0
100
AcDbLine
 10
56.2948
 20
2.0127455
 30
0.0
 11
56.2948
 21
0.0127445
 31
0.0
  0
LINE
  5
37A
330
1D
100
AcDbEntity
  8
0
100
AcDbLine
 10
55.6494
 20
2.0127455
 30
0.0
 11
56.2948
 21
2.0127455
 31
0.0
  0
LINE
  5
37B
330
1D
100
AcDbEntity
  8
0
100
AcDbLine
 10
51.992
 20
2.0127455
 30
0.0
 11
52.6375
 21
2.0127455
 31
0.0
  0
LINE
  5
37C
330
1D
100
AcDbEntity
  8
0
100
AcDbLine
 10
51.992
 20
2.0127455
 30
0.0
 11
51.992
 21
0.0127445
 31
0.0
  0
LINE
  5
37E
330
1D
100
AcDbEntity
  8
0
100
AcDbLine
 10
52.6375
 20
2.0127455
 30
0.0
 11
54.1434
 21
2.0127455
 31
0.0
  0
LINE
  5
37F
330
1D
100
AcDbEntity
  8
0
100
AcDbLine
 10
36.9323
 20
2.0127455
 30
0.0
 11
36.9323
 21
0.0127445
 31
0.0
  0
LINE
  5
381
330
1D
100
AcDbEntity
  8
0
100
AcDbLine
 10
36.2869
 20
2.0127455
 30
0.0
 11
36.9323
 21
2.0127455
 31
0.0
  0
LINE
  5
383
330
1D
100
AcDbEntity
  8
0
100
AcDbLine
 10
33.2749
 20
2.0127455
 30
0.0
 11
34.7809
 21
2.0127455
 31
0.0
  0
LINE
  5
384
330
1D
100
AcDbEntity
  8
0
100
AcDbLine
 10
32.6295
 20
2.0127455
 30
0.0
 11
32.6295
 21
0.0127445
 31
0.0
  0
LINE
  5
385
330
1D
100
AcDbEntity
  8
0
100
AcDbLine
 10
110.08
 20
2.0127455
 30
0.0
 11
110.08
 21
0.0127445
 31
0.0
  0
LINE
  5
386
330
1D
100
AcDbEntity
  8
0
100
AcDbLine
 10
110.08
 20
2.0127455
 30
0.0
 11
110.725
 21
2.0127455
 31
0.0
  0
LINE
  5
387
330
1D
100
AcDbEntity
  8
0
100
AcDbLine
 10
110.08
 20
2.0127455
 30
0.0
 11
110.08
 21
0.0127445
 31
0.0
  0
LINE
  5
388
330
1D
100
AcDbEntity
  8
0
100
AcDbLine
 10
129.442
 20
2.0127455
 30
0.0
 11
129.442
 21
0.0127445
 31
0.0
  0
LINE
  5
389
330
1D
100
AcDbEntity
  8
0
100
AcDbLine
 10
133.745
 20
2.0127455
 30
0.0
 11
133.745
 21
0.0127445
 31
0.0
  0
LINE
  5
38B
330
1D
100
AcDbEntity
  8
0
100
AcDbLine
 10
133.1
 20
2.0127455
 30
0.0
 11
133.745
 21
2.0127455
 31
0.0
  0
LINE
  5
38C
330
1D
100
AcDbEntity
  8
0
100
AcDbLine
 10
129.442
 20
2.0127455
 30
0.0
 11
130.088
 21
2.0127455
 31
0.0
  0
LINE
  5
38D
330
1D
100
AcDbEntity
  8
0
100
AcDbLine
 10
129.442
 20
2.0127455
 30
0.0
 11
129.442
 21
0.0127445
 31
0.0
  0
LINE
  5
38F
330
1D
100
AcDbEntity
  8
0
100
AcDbLine
 10
130.088
 20
2.0127455
 30
0.0
 11
131.594
 21
2.0127455
 31
0.0
  0
LINE
  5
390
330
1D
100
AcDbEntity
  8
0
100
AcDbLine
 10
114.382
 20
2.0127455
 30
0.0
 11
114.382
 21
0.0127445
 31
0.0
  0
LINE
  5
392
330
1D
100
AcDbEntity
  8
0
100
AcDbLine
 10
113.737
 20
2.0127455
 30
0.0
 11
114.382
 21
2.0127455
 31
0.0
  0
LINE
  5
394
330
1D
100
AcDbEntity
  8
0
100
AcDbLine
 10
110.725
 20
2.0127455
 30
0.0
 11
112.231
 21
2.0127455
 31
0.0
  0
LINE
  5
395
330
1D
100
AcDbEntity
  8
0
100
AcDbLine
 10
148.805
 20
2.0127455
 30
0.0
 11
148.805
 21
0.0127445
 31
0.0
  0
LINE
  5
396
330
1D
100
AcDbEntity
  8
0
100
AcDbLine
 10
148.805
 20
2.0127455
 30
0.0
 11
148.805
 21
0.0127445
 31
0.0
  0
LINE
  5
398
330
1D
100
AcDbEntity
  8
0
100
AcDbLine
 10
15.4183
 20
2.0127455
 30
0.0
 11
16.9243
 21
2.0127455
 31
0.0
  0
LINE
  5
39A
330
1D
100
AcDbEntity
  8
0
100
AcDbLine
 10
92.8685
 20
2.0127455
 30
0.0
 11
94.3745
 21
2.0127455
 31
0.0
  0
LINE
  5
39C
330
1D
100
AcDbEntity
  8
0
100
AcDbLine
 10
73.506
 20
2.0127455
 30
0.0
 11
75.012
 21
2.0127455
 31
0.0
  0
LINE
  5
39E
330
1D
100
AcDbEntity
  8
0
100
AcDbLine
 10
54.1434
 20
2.0127455
 30
0.0
 11
55.6494
 21
2.0127455
 31
0.0
  0
LINE
  5
3A0
330
1D
100
AcDbEntity
  8
0
100
AcDbLine
 10
34.7809
 20
2.0127455
 30
0.0
 11
36.2869
 21
2.0127455
 31
0.0
  0
LINE
  5
3A2
330
1D
100
AcDbEntity
  8
0
100
AcDbLine
 10
131.594
 20
2.0127455
 30
0.0
 11
133.1
 21
2.0127455
 31
0.0
  0
LINE
  5
3A4
330
1D
100
AcDbEntity
  8
0
100
AcDbLine
 10
112.231
 20
2.0127455
 30
0.0
 11
113.737
 21
2.0127455
 31
0.0
  0
LINE
  5
3A5
330
1D
100
AcDbEntity
  8
0
100
AcDbLine
 10
148.805
 20
2.0127455
 30
0.0
 11
149.45
 21
2.0127455
 31
0.0
  0
LINE
  5
3A6
330
1D
100
AcDbEntity
  8
0
100
AcDbLine
 10
148.805
 20
2.0127455
 30
0.0
 11
148.805
 21
0.0127445
 31
0.0
  0
LINE
  5
3A7
330
1D
100
AcDbEntity
  8
0
100
AcDbLine
 10
153.108
 20
2.0127455
 30
0.0
 11
153.108
 21
0.0127445
 31
0.0
  0
LINE
  5
3A9
330
1D
100
AcDbEntity
  8
0
100
AcDbLine
 10
152.462
 20
2.0127455
 30
0.0
 11
153.108
 21
2.0127455
 31
0.0
  0
LINE
  5
3AB
330
1D
100
AcDbEntity
  8
0
100
AcDbLine
 10
150.956
 20
2.0127455
 30
0.0
 11
152.462
 21
2.0127455
 31
0.0
  0
LINE
  5
3AD
330
1D
100
AcDbEntity
  8
0
100
AcDbLine
 10
149.45
 20
2.0127455
 30
0.0
 11
150.956
 21
2.0127455
 31
0.0
  0
LINE
  5
3AE
330
1D
100
AcDbEntity
  8
0
100
AcDbLine
 10
11.3402
 20
2.0127455
 30
0.0
 11
13.2669
 21
2.0127455
 31
0.0
  0
LINE
  5
3B0
330
1D
100
AcDbEntity
  8
0
100
AcDbLine
 10
1.43426
 20
2.0127455
 30
0.0
 11
9.16092
 21
2.0127455
 31
0.0
  0
LINE
  5
3B2
330
1D
100
AcDbEntity
  8
0
100
AcDbLine
 10
0.258167
 20
14.0127555
 30
0.0
 11
1.00398
 21
14.0127555
 31
0.0
  0
LINE
  5
3B3
330
1D
100
AcDbEntity
  8
0
100
AcDbLine
 10
2.15139
 20
14.0127555
 30
0.0
 11
3.72908
 21
14.0127555
 31
0.0
  0
LINE
  5
3B4
330
1D
100
AcDbEntity
  8
0
100
AcDbLine
 10
1.00398
 20
14.0127555
 30
0.0
 11
2.15139
 21
14.0127555
 31
0.0
  0
LINE
  5
3B5
330
1D
100
AcDbEntity
  8
0
100
AcDbLine
 10
0.717131
 20
14.6794555
 30
0.0
 11
5.73705
 21
16.0127555
 31
0.0
  0
LINE
  5
3B6
330
1D
100
AcDbEntity
  8
0
100
AcDbLine
 10
0.717131
 20
14.6794555
 30
0.0
 11
5.73705
 21
16.0127555
 31
0.0
  0
LINE
  5
3B7
330
1D
100
AcDbEntity
  8
0
100
AcDbLine
 10
0.258167
 20
14.0127555
 30
0.0
 11
1.00398
 21
14.0127555
 31
0.0
  0
LINE
  5
3B8
330
1D
100
AcDbEntity
  8
0
100
AcDbLine
 10
3.72908
 20
2.6794155
 30
0.0
 11
5.73705
 21
2.6794155
 31
0.0
  0
LINE
  5
3B9
330
1D
100
AcDbEntity
  8
0
100
AcDbLine
 10
5.73705
 20
2.6794155
 30
0.0
 11
7.83108
 21
2.6794155
 31
0.0
  0
LINE
  5
3BA
330
1D
100
AcDbEntity
  8
0
100
AcDbLine
 10
10.0398
 20
2.6794155
 30
0.0
 11
180.0
 21
2.6794155
 31
0.0
  0
LINE
  5
3BB
330
1D
100
AcDbEntity
  8
0
100
AcDbLine
 10
7.83108
 20
2.6794155
 30
0.0
 11
10.0398
 21
2.6794155
 31
0.0
  0
LINE
  5
3BC
330
1D
100
AcDbEntity
  8
0
100
AcDbLine
 10
3.72908
 20
14.0127555
 30
0.0
 11
5.73705
 21
14.0127555
 31
0.0
  0
LINE
  5
3BD
330
1D
100
AcDbEntity
  8
0
100
AcDbLine
 10
5.73705
 20
14.0127555
 30
0.0
 11
7.83108
 21
14.0127555
 31
0.0
  0
LINE
  5
3BE
330
1D
100
AcDbEntity
  8
0
100
AcDbLine
 10
5.73705
 20
16.0127555
 30
0.0
 11
14.3426
 21
17.3460555
 31
0.0
  0
LINE
  5
3BF
330
1D
100
AcDbEntity
  8
0
100
AcDbLine
 10
7.83108
 20
14.0127555
 30
0.0
 11
10.0398
 21
14.0127555
 31
0.0
  0
LINE
  5
3C0
330
1D
100
AcDbEntity
  8
0
100
AcDbLine
 10
86.8016
 20
22.0127555
 30
0.0
 11
87.2032
 21
22.0127555
 31
0.0
  0
LINE
  5
3C1
330
1D
100
AcDbEntity
  8
0
100
AcDbLine
 10
87.2032
 20
22.0127555
 30
0.0
 11
87.622
 21
22.0127555
 31
0.0
  0
LINE
  5
3C2
330
1D
100
AcDbEntity
  8
0
100
AcDbLine
 10
87.622
 20
22.0127555
 30
0.0
 11
88.0637
 21
22.0127555
 31
0.0
  0
LINE
  5
3C3
330
1D
100
AcDbEntity
  8
0
100
AcDbLine
 10
88.0637
 20
22.0127555
 30
0.0
 11
180.0
 21
22.0127555
 31
0.0
  0
LINE
  5
3C4
330
1D
100
AcDbEntity
  8
0
100
AcDbLine
 10
86.4861
 20
22.0127555
 30
0.0
 11
86.8016
 21
22.0127555
 31
0.0
  0
LINE
  5
3C5
330
1D
100
AcDbEntity
  8
0
100
AcDbLine
 10
86.2566
 20
22.0127555
 30
0.0
 11
86.4861
 21
22.0127555
 31
0.0
  0
LINE
  5
3C6
330
1D
100
AcDbEntity
  8
0
100
AcDbLine
 10
86.1074
 20
22.0127555
 30
0.0
 11
86.2566
 21
22.0127555
 31
0.0
  0
LINE
  5
3C7
330
1D
100
AcDbEntity
  8
0
100
AcDbLine
 10
64.5418
 20
21.3460555
 30
0.0
 11
86.0558
 21
22.0127555
 31
0.0
  0
LINE
  5
3C8
330
1D
100
AcDbEntity
  8
0
100
AcDbLine
 10
51.6335
 20
20.6794555
 30
0.0
 11
64.5418
 21
21.3460555
 31
0.0
  0
LINE
  5
3C9
330
1D
100
AcDbEntity
  8
0
100
AcDbLine
 10
41.5936
 20
20.0127555
 30
0.0
 11
51.6335
 21
20.6794555
 31
0.0
  0
LINE
  5
3CA
330
1D
100
AcDbEntity
  8
0
100
AcDbLine
 10
25.8167
 20
18.6794555
 30
0.0
 11
41.5936
 21
20.0127555
 31
0.0
  0
LINE
  5
3CB
330
1D
100
AcDbEntity
  8
0
100
AcDbLine
 10
14.3426
 20
17.3460555
 30
0.0
 11
25.8167
 21
18.6794555
 31
0.0
  0
LINE
  5
3CC
330
1D
100
AcDbEntity
  8
0
100
AcDbLine
 10
10.0398
 20
14.0127555
 30
0.0
 11
180.0
 21
14.0127555
 31
0.0
  0
LINE
  5
3CD
330
1D
100
AcDbEntity
  8
0
100
AcDbLine
 10
10.0398
 20
14.0127555
 30
0.0
 11
180.0
 21
14.0127555
 31
0.0
  0
LINE
  5
3CE
330
1D
100
AcDbEntity
  8
0
100
AcDbLine
 10
10.0398
 20
2.6794155
 30
0.0
 11
180.0
 21
2.6794155
 31
0.0
  0
LINE
  5
3CF
330
1D
100
AcDbEntity
  8
0
100
AcDbLine
 10
2.15139
 20
2.6794155
 30
0.0
 11
3.72908
 21
2.6794155
 31
0.0
  0
LINE
  5
3D0
330
1D
100
AcDbEntity
  8
0
100
AcDbLine
 10
0.258167
 20
2.6794155
 30
0.0
 11
1.00398
 21
2.6794155
 31
0.0
  0
LINE
  5
3D1
330
1D
100
AcDbEntity
  8
0
100
AcDbLine
 10
0.0
 20
2.6794155
 30
0.0
 11
0.258167
 21
2.6794155
 31
0.0
  0
LINE
  5
3D2
330
1D
100
AcDbEntity
  8
0
100
AcDbLine
 10
0.0
 20
2.6794155
 30
0.0
 11
0.0
 21
14.0127555
 31
0.0
  0
LINE
  5
3D3
330
1D
100
AcDbEntity
  8
0
100
AcDbLine
 10
165.0
 20
22.0127555
 30
0.0
 11
165.0
 21
31.5853555
 31
0.0
  0
LINE
  5
3D4
330
1D
100
AcDbEntity
  8
0
100
AcDbLine
 10
165.657
 20
2.0127455
 30
0.0
 11
165.657
 21
0.0127445
 31
0.0
  0
LINE
  5
3D5
330
1D
100
AcDbEntity
  8
0
100
AcDbLine
 10
165.657
 20
2.0127455
 30
0.0
 11
166.174
 21
2.0127455
 31
0.0
  0
LINE
  5
3D6
330
1D
100
AcDbEntity
  8
0
100
AcDbLine
 10
166.174
 20
0.0127445
 30
0.0
 11
167.551
 21
0.0127445
 31
0.0
  0
LINE
  5
3D7
330
1D
100
AcDbEntity
  8
0
100
AcDbLine
 10
166.174
 20
2.0127455
 30
0.0
 11
167.551
 21
2.0127455
 31
0.0
  0
LINE
  5
3D8
330
1D
100
AcDbEntity
  8
0
100
AcDbLine
 10
166.174
 20
0.0127445
 30
0.0
 11
167.551
 21
0.0127445
 31
0.0
  0
LINE
  5
3D9
330
1D
100
AcDbEntity
  8
0
100
AcDbLine
 10
165.657
 20
0.0127445
 30
0.0
 11
166.174
 21
0.0127445
 31
0.0
  0
LINE
  5
3DA
330
1D
100
AcDbEntity
  8
0
100
AcDbLine
 10
165.657
 20
0.0127445
 30
0.0
 11
166.174
 21
0.0127445
 31
0.0
  0
LINE
  5
3DB
330
1D
100
AcDbEntity
  8
0
100
AcDbLine
 10
165.657
 20
0.0127445
 30
0.0
 11
165.657
 21
2.0127455
 31
0.0
  0
LINE
  5
3DC
330
1D
100
AcDbEntity
  8
0
100
AcDbLine
 10
165.54
 20
31.5853555
 30
0.0
 11
166.98
 21
31.5853555
 31
0.0
  0
LINE
  5
3DD
330
1D
100
AcDbEntity
  8
0
100
AcDbLine
 10
168.813
 20
0.0127445
 30
0.0
 11
170.319
 21
0.0127445
 31
0.0
  0
LINE
  5
3DE
330
1D
100
AcDbEntity
  8
0
100
AcDbLine
 10
168.813
 20
0.0127445
 30
0.0
 11
170.319
 21
0.0127445
 31
0.0
  0
LINE
  5
3DF
330
1D
100
AcDbEntity
  8
0
100
AcDbLine
 10
168.167
 20
0.0127445
 30
0.0
 11
168.813
 21
0.0127445
 31
0.0
  0
LINE
  5
3E0
330
1D
100
AcDbEntity
  8
0
100
AcDbLine
 10
168.167
 20
0.0127445
 30
0.0
 11
168.813
 21
0.0127445
 31
0.0
  0
LINE
  5
3E1
330
1D
100
AcDbEntity
  8
0
100
AcDbLine
 10
168.813
 20
0.0127445
 30
0.0
 11
170.319
 21
0.0127445
 31
0.0
  0
LINE
  5
3E2
330
1D
100
AcDbEntity
  8
0
100
AcDbLine
 10
168.813
 20
0.0127445
 30
0.0
 11
170.319
 21
0.0127445
 31
0.0
  0
LINE
  5
3E3
330
1D
100
AcDbEntity
  8
0
100
AcDbLine
 10
168.167
 20
0.0127445
 30
0.0
 11
168.813
 21
0.0127445
 31
0.0
  0
LINE
  5
3E4
330
1D
100
AcDbEntity
  8
0
100
AcDbLine
 10
168.167
 20
0.0127445
 30
0.0
 11
168.813
 21
0.0127445
 31
0.0
  0
LINE
  5
3E5
330
1D
100
AcDbEntity
  8
0
100
AcDbLine
 10
168.813
 20
0.0127445
 30
0.0
 11
170.319
 21
0.0127445
 31
0.0
  0
LINE
  5
3E6
330
1D
100
AcDbEntity
  8
0
100
AcDbLine
 10
168.813
 20
0.0127445
 30
0.0
 11
170.319
 21
0.0127445
 31
0.0
  0
LINE
  5
3E7
330
1D
100
AcDbEntity
  8
0
100
AcDbLine
 10
168.167
 20
0.0127445
 30
0.0
 11
168.813
 21
0.0127445
 31
0.0
  0
LINE
  5
3E8
330
1D
100
AcDbEntity
  8
0
100
AcDbLine
 10
168.167
 20
0.0127445
 30
0.0
 11
168.813
 21
0.0127445
 31
0.0
  0
LINE
  5
3E9
330
1D
100
AcDbEntity
  8
0
100
AcDbLine
 10
167.551
 20
0.0127445
 30
0.0
 11
169.845
 21
0.0127445
 31
0.0
  0
LINE
  5
3EA
330
1D
100
AcDbEntity
  8
0
100
AcDbLine
 10
168.813
 20
0.0127445
 30
0.0
 11
170.319
 21
0.0127445
 31
0.0
  0
LINE
  5
3EB
330
1D
100
AcDbEntity
  8
0
100
AcDbLine
 10
168.167
 20
0.0127445
 30
0.0
 11
168.813
 21
0.0127445
 31
0.0
  0
LINE
  5
3EC
330
1D
100
AcDbEntity
  8
0
100
AcDbLine
 10
168.167
 20
0.0127445
 30
0.0
 11
168.813
 21
0.0127445
 31
0.0
  0
LINE
  5
3EE
330
1D
100
AcDbEntity
  8
0
100
AcDbLine
 10
168.167
 20
0.0127445
 30
0.0
 11
168.813
 21
0.0127445
 31
0.0
  0
LINE
  5
3EF
330
1D
100
AcDbEntity
  8
0
100
AcDbLine
 10
168.167
 20
0.0127445
 30
0.0
 11
168.813
 21
0.0127445
 31
0.0
  0
LINE
  5
3F1
330
1D
100
AcDbEntity
  8
0
100
AcDbLine
 10
168.167
 20
2.0127455
 30
0.0
 11
168.813
 21
2.0127455
 31
0.0
  0
LINE
  5
3F5
330
1D
100
AcDbEntity
  8
0
100
AcDbLine
 10
168.167
 20
0.0127445
 30
0.0
 11
168.813
 21
0.0127445
 31
0.0
  0
LINE
  5
3F6
330
1D
100
AcDbEntity
  8
0
100
AcDbLine
 10
168.167
 20
0.0127445
 30
0.0
 11
168.813
 21
0.0127445
 31
0.0
  0
LINE
  5
3F8
330
1D
100
AcDbEntity
  8
0
100
AcDbLine
 10
168.813
 20
0.0127445
 30
0.0
 11
170.319
 21
0.0127445
 31
0.0
  0
LINE
  5
3F9
330
1D
100
AcDbEntity
  8
0
100
AcDbLine
 10
168.813
 20
0.0127445
 30
0.0
 11
170.319
 21
0.0127445
 31
0.0
  0
LINE
  5
3FA
330
1D
100
AcDbEntity
  8
0
100
AcDbLine
 10
168.813
 20
0.0127445
 30
0.0
 11
170.319
 21
0.0127445
 31
0.0
  0
LINE
  5
3FB
330
1D
100
AcDbEntity
  8
0
100
AcDbLine
 10
168.813
 20
0.0127445
 30
0.0
 11
170.319
 21
0.0127445
 31
0.0
  0
LINE
  5
3FD
330
1D
100
AcDbEntity
  8
0
100
AcDbLine
 10
168.813
 20
2.0127455
 30
0.0
 11
170.319
 21
2.0127455
 31
0.0
  0
LINE
  5
3FE
330
1D
100
AcDbEntity
  8
0
100
AcDbLine
 10
168.813
 20
0.0127445
 30
0.0
 11
170.319
 21
0.0127445
 31
0.0
  0
LINE
  5
400
330
1D
100
AcDbEntity
  8
0
100
AcDbLine
 10
168.813
 20
0.0127445
 30
0.0
 11
170.319
 21
0.0127445
 31
0.0
  0
LINE
  5
402
330
1D
100
AcDbEntity
  8
0
100
AcDbLine
 10
168.813
 20
0.0127445
 30
0.0
 11
170.319
 21
0.0127445
 31
0.0
  0
LINE
  5
403
330
1D
100
AcDbEntity
  8
0
100
AcDbLine
 10
168.167
 20
0.0127445
 30
0.0
 11
168.813
 21
0.0127445
 31
0.0
  0
LINE
  5
404
330
1D
100
AcDbEntity
  8
0
100
AcDbLine
 10
168.167
 20
0.0127445
 30
0.0
 11
168.813
 21
0.0127445
 31
0.0
  0
LINE
  5
406
330
1D
100
AcDbEntity
  8
0
100
AcDbLine
 10
167.551
 20
2.0127455
 30
0.0
 11
168.167
 21
2.0127455
 31
0.0
  0
LINE
  5
407
330
1D
100
AcDbEntity
  8
0
100
AcDbLine
 10
167.551
 20
0.0127445
 30
0.0
 11
169.845
 21
0.0127445
 31
0.0
  0
LINE
  5
408
330
1D
100
AcDbEntity
  8
0
100
AcDbLine
 10
166.98
 20
31.5853555
 30
0.0
 11
169.38
 21
31.5853555
 31
0.0
  0
LINE
  5
409
330
1D
100
AcDbEntity
  8
0
100
AcDbLine
 10
165.5
 20
32.0127555
 30
0.0
 11
165.5
 21
53.5854555
 31
0.0
  0
LINE
  5
40A
330
1D
100
AcDbEntity
  8
0
100
AcDbLine
 10
165.36
 20
32.0127555
 30
0.0
 11
165.9
 21
32.0127555
 31
0.0
  0
LINE
  5
40B
330
1D
100
AcDbEntity
  8
0
100
AcDbLine
 10
165.848
 20
54.0127555
 30
0.0
 11
166.37
 21
54.0127555
 31
0.0
  0
LINE
  5
40C
330
1D
100
AcDbEntity
  8
0
100
AcDbLine
 10
166.37
 20
54.0127555
 30
0.0
 11
167.762
 21
54.0127555
 31
0.0
  0
LINE
  5
40D
330
1D
100
AcDbEntity
  8
0
100
AcDbLine
 10
166.022
 20
53.5854555
 30
0.0
 11
167.414
 21
53.5854555
 31
0.0
  0
LINE
  5
40E
330
1D
100
AcDbEntity
  8
0
100
AcDbLine
 10
165.5
 20
53.5854555
 30
0.0
 11
165.848
 21
54.0127555
 31
0.0
  0
LINE
  5
40F
330
1D
100
AcDbEntity
  8
0
100
AcDbLine
 10
165.5
 20
53.5854555
 30
0.0
 11
165.5
 21
32.0127555
 31
0.0
  0
LINE
  5
410
330
1D
100
AcDbEntity
  8
0
100
AcDbLine
 10
165.5
 20
53.5854555
 30
0.0
 11
166.022
 21
53.5854555
 31
0.0
  0
LINE
  5
411
330
1D
100
AcDbEntity
  8
0
100
AcDbLine
 10
165.9
 20
32.0127555
 30
0.0
 11
167.34
 21
32.0127555
 31
0.0
  0
LINE
  5
412
330
1D
100
AcDbEntity
  8
0
100
AcDbLine
 10
167.762
 20
54.0127555
 30
0.0
 11
170.024
 21
54.0127555
 31
0.0
  0
LINE
  5
413
330
1D
100
AcDbEntity
  8
0
100
AcDbLine
 10
167.414
 20
53.5854555
 30
0.0
 11
169.734
 21
53.5854555
 31
0.0
  0
LINE
  5
414
330
1D
100
AcDbEntity
  8
0
100
AcDbLine
 10
167.34
 20
32.0127555
 30
0.0
 11
169.68
 21
32.0127555
 31
0.0
  0
LINE
  5
415
330
1D
100
AcDbEntity
  8
0
100
AcDbLine
 10
169.38
 20
31.5853555
 30
0.0
 11
172.56
 21
31.5853555
 31
0.0
  0
LINE
  5
416
330
1D
100
AcDbEntity
  8
0
100
AcDbLine
 10
165.0
 20
31.5853555
 30
0.0
 11
165.36
 21
32.0127555
 31
0.0
  0
LINE
  5
417
330
1D
100
AcDbEntity
  8
0
100
AcDbLine
 10
165.0
 20
31.5853555
 30
0.0
 11
165.0
 21
22.0127555
 31
0.0
  0
LINE
  5
418
330
1D
100
AcDbEntity
  8
0
100
AcDbLine
 10
165.0
 20
31.5853555
 30
0.0
 11
165.54
 21
31.5853555
 31
0.0
  0
LINE
  5
419
330
1D
100
AcDbEntity
  8
0
100
AcDbLine
 10
168.559308714919
 20
54.0127555
 30
0.0
 11
169.004
 21
54.9087555
 31
0.0
  0
LINE
  5
41A
330
1D
100
AcDbEntity
  8
0
100
AcDbLine
 10
169.845
 20
0.0127445
 30
0.0
 11
172.886
 21
0.0127445
 31
0.0
  0
LINE
  5
41B
330
1D
100
AcDbEntity
  8
0
100
AcDbLine
 10
170.319
 20
0.0127445
 30
0.0
 11
171.825
 21
0.0127445
 31
0.0
  0
LINE
  5
41C
330
1D
100
AcDbEntity
  8
0
100
AcDbLine
 10
171.825
 20
0.0127445
 30
0.0
 11
172.47
 21
0.0127445
 31
0.0
  0
LINE
  5
41D
330
1D
100
AcDbEntity
  8
0
100
AcDbLine
 10
171.825
 20
0.0127445
 30
0.0
 11
172.47
 21
0.0127445
 31
0.0
  0
LINE
  5
41E
330
1D
100
AcDbEntity
  8
0
100
AcDbLine
 10
170.319
 20
0.0127445
 30
0.0
 11
171.825
 21
0.0127445
 31
0.0
  0
LINE
  5
41F
330
1D
100
AcDbEntity
  8
0
100
AcDbLine
 10
170.319
 20
0.0127445
 30
0.0
 11
171.825
 21
0.0127445
 31
0.0
  0
LINE
  5
420
330
1D
100
AcDbEntity
  8
0
100
AcDbLine
 10
170.319
 20
0.0127445
 30
0.0
 11
171.825
 21
0.0127445
 31
0.0
  0
LINE
  5
421
330
1D
100
AcDbEntity
  8
0
100
AcDbLine
 10
171.825
 20
0.0127445
 30
0.0
 11
172.47
 21
0.0127445
 31
0.0
  0
LINE
  5
422
330
1D
100
AcDbEntity
  8
0
100
AcDbLine
 10
171.825
 20
0.0127445
 30
0.0
 11
172.47
 21
0.0127445
 31
0.0
  0
LINE
  5
423
330
1D
100
AcDbEntity
  8
0
100
AcDbLine
 10
170.319
 20
0.0127445
 30
0.0
 11
171.825
 21
0.0127445
 31
0.0
  0
LINE
  5
424
330
1D
100
AcDbEntity
  8
0
100
AcDbLine
 10
171.825
 20
0.0127445
 30
0.0
 11
172.47
 21
0.0127445
 31
0.0
  0
LINE
  5
425
330
1D
100
AcDbEntity
  8
0
100
AcDbLine
 10
171.825
 20
0.0127445
 30
0.0
 11
172.47
 21
0.0127445
 31
0.0
  0
LINE
  5
426
330
1D
100
AcDbEntity
  8
0
100
AcDbLine
 10
170.319
 20
0.0127445
 30
0.0
 11
171.825
 21
0.0127445
 31
0.0
  0
LINE
  5
427
330
1D
100
AcDbEntity
  8
0
100
AcDbLine
 10
172.886
 20
0.0127445
 30
0.0
 11
176.328
 21
0.0127445
 31
0.0
  0
LINE
  5
428
330
1D
100
AcDbEntity
  8
0
100
AcDbLine
 10
170.319
 20
0.0127445
 30
0.0
 11
171.825
 21
0.0127445
 31
0.0
  0
LINE
  5
429
330
1D
100
AcDbEntity
  8
0
100
AcDbLine
 10
171.825
 20
0.0127445
 30
0.0
 11
172.47
 21
0.0127445
 31
0.0
  0
LINE
  5
42A
330
1D
100
AcDbEntity
  8
0
100
AcDbLine
 10
171.825
 20
0.0127445
 30
0.0
 11
172.47
 21
0.0127445
 31
0.0
  0
LINE
  5
42B
330
1D
100
AcDbEntity
  8
0
100
AcDbLine
 10
170.319
 20
0.0127445
 30
0.0
 11
171.825
 21
0.0127445
 31
0.0
  0
LINE
  5
42C
330
1D
100
AcDbEntity
  8
0
100
AcDbLine
 10
170.319
 20
0.0127445
 30
0.0
 11
171.825
 21
0.0127445
 31
0.0
  0
LINE
  5
42D
330
1D
100
AcDbEntity
  8
0
100
AcDbLine
 10
170.319
 20
0.0127445
 30
0.0
 11
171.825
 21
0.0127445
 31
0.0
  0
LINE
  5
42E
330
1D
100
AcDbEntity
  8
0
100
AcDbLine
 10
170.319
 20
0.0127445
 30
0.0
 11
171.825
 21
0.0127445
 31
0.0
  0
LINE
  5
430
330
1D
100
AcDbEntity
  8
0
100
AcDbLine
 10
170.319
 20
2.0127455
 30
0.0
 11
171.825
 21
2.0127455
 31
0.0
  0
LINE
  5
431
330
1D
100
AcDbEntity
  8
0
100
AcDbLine
 10
170.319
 20
0.0127445
 30
0.0
 11
171.825
 21
0.0127445
 31
0.0
  0
LINE
  5
433
330
1D
100
AcDbEntity
  8
0
100
AcDbLine
 10
170.319
 20
0.0127445
 30
0.0
 11
171.825
 21
0.0127445
 31
0.0
  0
LINE
  5
434
330
1D
100
AcDbEntity
  8
0
100
AcDbLine
 10
171.825
 20
0.0127445
 30
0.0
 11
172.47
 21
0.0127445
 31
0.0
  0
LINE
  5
435
330
1D
100
AcDbEntity
  8
0
100
AcDbLine
 10
171.825
 20
0.0127445
 30
0.0
 11
172.47
 21
0.0127445
 31
0.0
  0
LINE
  5
436
330
1D
100
AcDbEntity
  8
0
100
AcDbLine
 10
171.825
 20
0.0127445
 30
0.0
 11
172.47
 21
0.0127445
 31
0.0
  0
LINE
  5
437
330
1D
100
AcDbEntity
  8
0
100
AcDbLine
 10
171.825
 20
0.0127445
 30
0.0
 11
172.47
 21
0.0127445
 31
0.0
  0
LINE
  5
439
330
1D
100
AcDbEntity
  8
0
100
AcDbLine
 10
171.825
 20
2.0127455
 30
0.0
 11
172.47
 21
2.0127455
 31
0.0
  0
LINE
  5
43A
330
1D
100
AcDbEntity
  8
0
100
AcDbLine
 10
171.825
 20
0.0127445
 30
0.0
 11
172.47
 21
0.0127445
 31
0.0
  0
LINE
  5
43C
330
1D
100
AcDbEntity
  8
0
100
AcDbLine
 10
172.47
 20
0.0127445
 30
0.0
 11
172.47
 21
2.0127455
 31
0.0
  0
LINE
  5
43D
330
1D
100
AcDbEntity
  8
0
100
AcDbLine
 10
172.47
 20
2.0127455
 30
0.0
 11
172.47
 21
0.0127445
 31
0.0
  0
LINE
  5
43E
330
1D
100
AcDbEntity
  8
0
100
AcDbLine
 10
171.825
 20
0.0127445
 30
0.0
 11
172.47
 21
0.0127445
 31
0.0
  0
LINE
  5
43F
330
1D
100
AcDbEntity
  8
0
100
AcDbLine
 10
170.319
 20
0.0127445
 30
0.0
 11
171.825
 21
0.0127445
 31
0.0
  0
LINE
  5
440
330
1D
100
AcDbEntity
  8
0
100
AcDbLine
 10
172.886
 20
2.0127455
 30
0.0
 11
176.328
 21
2.0127455
 31
0.0
  0
LINE
  5
441
330
1D
100
AcDbEntity
  8
0
100
AcDbLine
 10
172.47
 20
2.0127455
 30
0.0
 11
172.886
 21
2.0127455
 31
0.0
  0
LINE
  5
442
330
1D
100
AcDbEntity
  8
0
100
AcDbLine
 10
172.886
 20
0.0127445
 30
0.0
 11
176.328
 21
0.0127445
 31
0.0
  0
LINE
  5
443
330
1D
100
AcDbEntity
  8
0
100
AcDbLine
 10
169.845
 20
0.0127445
 30
0.0
 11
172.886
 21
0.0127445
 31
0.0
  0
LINE
  5
444
330
1D
100
AcDbEntity
  8
0
100
AcDbLine
 10
170.024
 20
54.0127555
 30
0.0
 11
172.982
 21
54.0127555
 31
0.0
  0
LINE
  5
445
330
1D
100
AcDbEntity
  8
0
100
AcDbLine
 10
169.734
 20
53.5854555
 30
0.0
 11
172.808
 21
53.5854555
 31
0.0
  0
LINE
  5
446
330
1D
100
AcDbEntity
  8
0
100
AcDbLine
 10
169.68
 20
32.0127555
 30
0.0
 11
172.74
 21
32.0127555
 31
0.0
  0
LINE
  5
447
330
1D
100
AcDbEntity
  8
0
100
AcDbLine
 10
172.982
 20
54.0127555
 30
0.0
 11
176.346
 21
54.0127555
 31
0.0
  0
LINE
  5
448
330
1D
100
AcDbEntity
  8
0
100
AcDbLine
 10
172.808
 20
53.5854555
 30
0.0
 11
176.288
 21
53.5854555
 31
0.0
  0
LINE
  5
449
330
1D
100
AcDbEntity
  8
0
100
AcDbLine
 10
172.74
 20
32.0127555
 30
0.0
 11
176.22
 21
32.0127555
 31
0.0
  0
LINE
  5
44A
330
1D
100
AcDbEntity
  8
0
100
AcDbLine
 10
172.56
 20
31.5853555
 30
0.0
 11
176.16
 21
31.5853555
 31
0.0
  0
LINE
  5
44B
330
1D
100
AcDbEntity
  8
0
100
AcDbLine
 10
176.16
 20
31.5853555
 30
0.0
 11
180.0
 21
31.5853555
 31
0.0
  0
LINE
  5
44C
330
1D
100
AcDbEntity
  8
0
100
AcDbLine
 10
176.328
 20
0.0127445
 30
0.0
 11
180.0
 21
0.0127445
 31
0.0
  0
LINE
  5
44D
330
1D
100
AcDbEntity
  8
0
100
AcDbLine
 10
176.328
 20
2.0127455
 30
0.0
 11
180.0
 21
2.0127455
 31
0.0
  0
LINE
  5
44E
330
1D
100
AcDbEntity
  8
0
100
AcDbLine
 10
176.328
 20
0.0127445
 30
0.0
 11
180.0
 21
0.0127445
 31
0.0
  0
LINE
  5
44F
330
1D
100
AcDbEntity
  8
0
100
AcDbLine
 10
176.346
 20
54.0127555
 30
0.0
 11
180.0
 21
54.0127555
 31
0.0
  0
LINE
  5
450
330
1D
100
AcDbEntity
  8
0
100
AcDbLine
 10
176.288
 20
53.5854555
 30
0.0
 11
180.0
 21
53.5854555
 31
0.0
  0
LINE
  5
451
330
1D
100
AcDbEntity
  8
0
100
AcDbLine
 10
176.22
 20
32.0127555
 30
0.0
 11
180.0
 21
32.0127555
 31
0.0
  0
LINE
  5
45F
330
1D
100
AcDbEntity
  8
0
100
AcDbLine
 10
169.004
 20
54.9087555
 30
0.0
 11
171.036
 21
57.1130555
 31
0.0
  0
LINE
  5
46A
330
1D
100
AcDbEntity
  8
0
100
AcDbLine
 10
169.208
 20
57.8406555
 30
0.0
 11
169.606
 21
57.8406555
 31
0.0
  0
LINE
  5
46B
330
1D
100
AcDbEntity
  8
0
100
AcDbLine
 10
169.606
 20
57.8406555
 30
0.0
 11
170.667
 21
57.8406555
 31
0.0
  0
LINE
  5
46C
330
1D
100
AcDbEntity
  8
0
100
AcDbLine
 10
170.667
 20
57.8406555
 30
0.0
 11
172.185
 21
57.8406555
 31
0.0
  0
LINE
  5
46D
330
1D
100
AcDbEntity
  8
0
100
AcDbLine
 10
170.667
 20
57.8406555
 30
0.0
 11
172.392
 21
57.8406555
 31
0.0
  0
LINE
  5
46E
330
1D
100
AcDbEntity
  8
0
100
AcDbLine
 10
172.392
 20
57.8406555
 30
0.0
 11
174.648
 21
57.8406555
 31
0.0
  0
LINE
  5
46F
330
1D
100
AcDbEntity
  8
0
100
AcDbLine
 10
172.185
 20
57.8406555
 30
0.0
 11
172.396
 21
57.8406555
 31
0.0
  0
LINE
  5
470
330
1D
100
AcDbEntity
  8
0
100
AcDbLine
 10
171.036
 20
57.1130555
 30
0.0
 11
172.185
 21
57.8406555
 31
0.0
  0
LINE
  5
471
330
1D
100
AcDbEntity
  8
0
100
AcDbLine
 10
172.396
 20
57.8406555
 30
0.0
 11
173.872
 21
57.8406555
 31
0.0
  0
LINE
  5
473
330
1D
100
AcDbEntity
  8
0
100
AcDbLine
 10
174.648
 20
57.8406555
 30
0.0
 11
177.213
 21
57.8406555
 31
0.0
  0
LINE
  5
474
330
1D
100
AcDbEntity
  8
0
100
AcDbLine
 10
174.35
 20
57.8406555
 30
0.0
 11
177.389
 21
57.8406555
 31
0.0
  0
LINE
  5
475
330
1D
100
AcDbEntity
  8
0
100
AcDbLine
 10
173.872
 20
57.8406555
 30
0.0
 11
174.35
 21
57.8406555
 31
0.0
  0
LINE
  5
478
330
1D
100
AcDbEntity
  8
0
100
AcDbLine
 10
177.213
 20
57.8406555
 30
0.0
 11
180.0
 21
57.8406555
 31
0.0
  0
LINE
  5
479
330
1D
100
AcDbEntity
  8
0
100
AcDbLine
 10
177.389
 20
57.8406555
 30
0.0
 11
177.698
 21
57.8406555
 31
0.0
  0
LINE
  5
47A
330
1D
100
AcDbEntity
  8
0
100
AcDbLine
 10
177.698
 20
57.8406555
 30
0.0
 11
180.0
 21
57.8406555
 31
0.0
  0
LINE
  5
480
330
1D
100
AcDbEntity
  8
0
100
AcDbLine
 10
140.053
 20
113.5762555
 30
0.0
 11
140.226
 21
108.5182555
 31
0.0
  0
LINE
  5
481
330
1D
100
AcDbEntity
  8
0
100
AcDbLine
 10
140.053
 20
120.3982555
 30
0.0
 11
140.226
 21
125.4562555
 31
0.0
  0
LINE
  5
482
330
1D
100
AcDbEntity
  8
0
100
AcDbLine
 10
140.0
 20
116.9872555
 30
0.0
 11
140.053
 21
120.3982555
 31
0.0
  0
LINE
  5
483
330
1D
100
AcDbEntity
  8
0
100
AcDbLine
 10
140.0
 20
116.9872555
 30
0.0
 11
140.053
 21
113.5762555
 31
0.0
  0
LINE
  5
484
330
1D
100
AcDbEntity
  8
0
100
AcDbLine
 10
140.226
 20
108.5182555
 30
0.0
 11
140.587
 21
101.9672555
 31
0.0
  0
LINE
  5
485
330
1D
100
AcDbEntity
  8
0
100
AcDbLine
 10
142.204
 20
87.2688555
 30
0.0
 11
142.558
 21
85.8254555
 31
0.0
  0
LINE
  5
486
330
1D
100
AcDbEntity
  8
0
100
AcDbLine
 10
143.06
 20
84.5809555
 30
0.0
 11
143.57
 21
83.6907555
 31
0.0
  0
LINE
  5
487
330
1D
100
AcDbEntity
  8
0
100
AcDbLine
 10
142.558
 20
85.8254555
 30
0.0
 11
143.06
 21
84.5809555
 31
0.0
  0
LINE
  5
488
330
1D
100
AcDbEntity
  8
0
100
AcDbLine
 10
144.201
 20
82.7400555
 30
0.0
 11
144.929
 21
81.9162555
 31
0.0
  0
LINE
  5
489
330
1D
100
AcDbEntity
  8
0
100
AcDbLine
 10
143.57
 20
83.6907555
 30
0.0
 11
144.201
 21
82.7400555
 31
0.0
  0
LINE
  5
48A
330
1D
100
AcDbEntity
  8
0
100
AcDbLine
 10
159.238
 20
78.0087555
 30
0.0
 11
164.98
 21
77.5745555
 31
0.0
  0
LINE
  5
48B
330
1D
100
AcDbEntity
  8
0
100
AcDbLine
 10
164.98
 20
77.5745555
 30
0.0
 11
169.0
 21
77.353029015494
 31
0.0
  0
LINE
  5
48D
330
1D
100
AcDbEntity
  8
0
100
AcDbLine
 10
150.282
 20
79.1908555
 30
0.0
 11
152.035
 21
78.8672555
 31
0.0
  0
LINE
  5
48E
330
1D
100
AcDbEntity
  8
0
100
AcDbLine
 10
152.035
 20
78.8672555
 30
0.0
 11
155.276
 21
78.4811555
 31
0.0
  0
LINE
  5
48F
330
1D
100
AcDbEntity
  8
0
100
AcDbLine
 10
155.276
 20
78.4811555
 30
0.0
 11
159.238
 21
78.0087555
 31
0.0
  0
LINE
  5
491
330
1D
100
AcDbEntity
  8
0
100
AcDbLine
 10
148.838
 20
79.5454555
 30
0.0
 11
150.282
 21
79.1908555
 31
0.0
  0
LINE
  5
494
330
1D
100
AcDbEntity
  8
0
100
AcDbLine
 10
146.703
 20
80.5571555
 30
0.0
 11
147.594
 21
80.0469555
 31
0.0
  0
LINE
  5
495
330
1D
100
AcDbEntity
  8
0
100
AcDbLine
 10
147.594
 20
80.0469555
 30
0.0
 11
148.838
 21
79.5454555
 31
0.0
  0
LINE
  5
496
330
1D
100
AcDbEntity
  8
0
100
AcDbLine
 10
145.753
 20
81.1884555
 30
0.0
 11
146.703
 21
80.5571555
 31
0.0
  0
LINE
  5
49A
330
1D
100
AcDbEntity
  8
0
100
AcDbLine
 10
144.929
 20
81.9162555
 30
0.0
 11
145.753
 21
81.1884555
 31
0.0
  0
LINE
  5
4B0
330
1D
100
AcDbEntity
  8
0
100
AcDbLine
 10
141.88
 20
89.0217555
 30
0.0
 11
142.204
 21
87.2688555
 31
0.0
  0
LINE
  5
4B1
330
1D
100
AcDbEntity
  8
0
100
AcDbLine
 10
141.021
 20
96.2248555
 30
0.0
 11
141.494
 21
92.2629555
 31
0.0
  0
LINE
  5
4B2
330
1D
100
AcDbEntity
  8
0
100
AcDbLine
 10
140.587
 20
101.9672555
 30
0.0
 11
141.021
 21
96.2248555
 31
0.0
  0
LINE
  5
4B8
330
1D
100
AcDbEntity
  8
0
100
AcDbLine
 10
141.494
 20
92.2629555
 30
0.0
 11
141.88
 21
89.0217555
 31
0.0
  0
LINE
  5
4BA
330
1D
100
AcDbEntity
  8
0
100
AcDbLine
 10
140.226
 20
125.4562555
 30
0.0
 11
140.587
 21
132.0072555
 31
0.0
  0
LINE
  5
4BD
330
1D
100
AcDbEntity
  8
0
100
AcDbLine
 10
141.021
 20
137.7492555
 30
0.0
 11
141.494
 21
141.7112555
 31
0.0
  0
LINE
  5
4BE
330
1D
100
AcDbEntity
  8
0
100
AcDbLine
 10
140.587
 20
132.0072555
 30
0.0
 11
141.021
 21
137.7492555
 31
0.0
  0
LINE
  5
4BF
330
1D
100
AcDbEntity
  8
0
100
AcDbLine
 10
141.88
 20
144.9522555
 30
0.0
 11
142.204
 21
146.7052555
 31
0.0
  0
LINE
  5
4C0
330
1D
100
AcDbEntity
  8
0
100
AcDbLine
 10
141.494
 20
141.7112555
 30
0.0
 11
141.88
 21
144.9522555
 31
0.0
  0
LINE
  5
4C2
330
1D
100
AcDbEntity
  8
0
100
AcDbLine
 10
142.204
 20
146.7052555
 30
0.0
 11
142.558
 21
148.1492555
 31
0.0
  0
LINE
  5
4C3
330
1D
100
AcDbEntity
  8
0
100
AcDbLine
 10
142.558
 20
148.1492555
 30
0.0
 11
143.06
 21
149.3932555
 31
0.0
  0
LINE
  5
4C6
330
1D
100
AcDbEntity
  8
0
100
AcDbLine
 10
143.06
 20
149.3932555
 30
0.0
 11
143.57
 21
150.2832555
 31
0.0
  0
LINE
  5
4C7
330
1D
100
AcDbEntity
  8
0
100
AcDbLine
 10
143.57
 20
150.2832555
 30
0.0
 11
144.201
 21
151.2342555
 31
0.0
  0
LINE
  5
4CB
330
1D
100
AcDbEntity
  8
0
100
AcDbLine
 10
144.201
 20
151.2342555
 30
0.0
 11
144.929
 21
152.0582555
 31
0.0
  0
LINE
  5
4D7
330
1D
100
AcDbEntity
  8
0
100
AcDbLine
 10
144.929
 20
152.0582555
 30
0.0
 11
145.753
 21
152.7862555
 31
0.0
  0
LINE
  5
4DA
330
1D
100
AcDbEntity
  8
0
100
AcDbLine
 10
145.753
 20
152.7862555
 30
0.0
 11
146.703
 21
153.4172555
 31
0.0
  0
LINE
  5
4DD
330
1D
100
AcDbEntity
  8
0
100
AcDbLine
 10
146.703
 20
153.4172555
 30
0.0
 11
147.594
 21
153.9272555
 31
0.0
  0
LINE
  5
4E1
330
1D
100
AcDbEntity
  8
0
100
AcDbLine
 10
147.594
 20
153.9272555
 30
0.0
 11
148.838
 21
154.4292555
 31
0.0
  0
LINE
  5
4E2
330
1D
100
AcDbEntity
  8
0
100
AcDbLine
 10
148.838
 20
154.4292555
 30
0.0
 11
150.282
 21
154.7832555
 31
0.0
  0
LINE
  5
4E5
330
1D
100
AcDbEntity
  8
0
100
AcDbLine
 10
150.282
 20
154.7832555
 30
0.0
 11
152.035
 21
155.1072555
 31
0.0
  0
LINE
  5
4E8
330
1D
100
AcDbEntity
  8
0
100
AcDbLine
 10
152.035
 20
155.1072555
 30
0.0
 11
155.276
 21
155.4932555
 31
0.0
  0
LINE
  5
4EC
330
1D
100
AcDbEntity
  8
0
100
AcDbLine
 10
155.276
 20
155.4932555
 30
0.0
 11
159.238
 21
155.9662555
 31
0.0
  0
LINE
  5
4EE
330
1D
100
AcDbEntity
  8
0
100
AcDbLine
 10
159.238
 20
155.9662555
 30
0.0
 11
164.98
 21
156.4002555
 31
0.0
  0
LINE
  5
4EF
330
1D
100
AcDbEntity
  8
0
100
AcDbLine
 10
164.98
 20
156.4002555
 30
0.0
 11
171.531
 21
156.7612555
 31
0.0
  0
LINE
  5
4F8
330
1D
100
AcDbEntity
  8
0
100
AcDbLine
 10
168.942
 20
68.8932555
 30
0.0
 11
168.942
 21
58.3264555
 31
0.0
  0
LINE
  5
4F9
330
1D
100
AcDbEntity
  8
0
100
AcDbLine
 10
168.942
 20
68.8932555
 30
0.0
 11
169.0
 21
74.9203555
 31
0.0
  0
LINE
  5
4FA
330
1D
100
AcDbEntity
  8
0
100
AcDbLine
 10
169.0
 20
74.9203555
 30
0.0
 11
169.0
 21
81.0754555
 31
0.0
  0
LINE
  5
4FB
330
1D
100
AcDbEntity
  8
0
100
AcDbLine
 10
169.0
 20
87.0178555
 30
0.0
 11
169.0
 21
92.6452555
 31
0.0
  0
LINE
  5
4FC
330
1D
100
AcDbEntity
  8
0
100
AcDbLine
 10
169.0
 20
87.0178555
 30
0.0
 11
169.0
 21
81.0754555
 31
0.0
  0
LINE
  5
4FD
330
1D
100
AcDbEntity
  8
0
100
AcDbLine
 10
169.0
 20
97.8618555
 30
0.0
 11
169.0
 21
92.6452555
 31
0.0
  0
LINE
  5
4FE
330
1D
100
AcDbEntity
  8
0
100
AcDbLine
 10
169.0
 20
97.8618555
 30
0.0
 11
169.0
 21
102.8092555
 31
0.0
  0
LINE
  5
4FF
330
1D
100
AcDbEntity
  8
0
100
AcDbLine
 10
169.0
 20
92.6452555
 30
0.0
 11
169.0
 21
87.0178555
 31
0.0
  0
LINE
  5
500
330
1D
100
AcDbEntity
  8
0
100
AcDbLine
 10
169.0
 20
92.6452555
 30
0.0
 11
169.0
 21
97.8618555
 31
0.0
  0
LINE
  5
501
330
1D
100
AcDbEntity
  8
0
100
AcDbLine
 10
169.0
 20
81.0754555
 30
0.0
 11
169.0
 21
87.0178555
 31
0.0
  0
LINE
  5
502
330
1D
100
AcDbEntity
  8
0
100
AcDbLine
 10
169.0
 20
81.0754555
 30
0.0
 11
169.0
 21
74.9203555
 31
0.0
  0
LINE
  5
503
330
1D
100
AcDbEntity
  8
0
100
AcDbLine
 10
169.0
 20
116.5112555
 30
0.0
 11
169.0
 21
115.2842555
 31
0.0
  0
LINE
  5
504
330
1D
100
AcDbEntity
  8
0
100
AcDbLine
 10
169.0
 20
116.5112555
 30
0.0
 11
169.0
 21
116.9232555
 31
0.0
  0
LINE
  5
505
330
1D
100
AcDbEntity
  8
0
100
AcDbLine
 10
169.0
 20
115.2842555
 30
0.0
 11
169.0
 21
113.2612555
 31
0.0
  0
LINE
  5
506
330
1D
100
AcDbEntity
  8
0
100
AcDbLine
 10
169.0
 20
115.2842555
 30
0.0
 11
169.0
 21
116.5112555
 31
0.0
  0
LINE
  5
507
330
1D
100
AcDbEntity
  8
0
100
AcDbLine
 10
169.0
 20
113.2612555
 30
0.0
 11
169.0
 21
110.4792555
 31
0.0
  0
LINE
  5
508
330
1D
100
AcDbEntity
  8
0
100
AcDbLine
 10
169.0
 20
113.2612555
 30
0.0
 11
169.0
 21
115.2842555
 31
0.0
  0
LINE
  5
509
330
1D
100
AcDbEntity
  8
0
100
AcDbLine
 10
169.0
 20
110.4792555
 30
0.0
 11
169.0
 21
113.2612555
 31
0.0
  0
LINE
  5
50A
330
1D
100
AcDbEntity
  8
0
100
AcDbLine
 10
169.0
 20
110.4792555
 30
0.0
 11
169.0
 21
106.9832555
 31
0.0
  0
LINE
  5
50B
330
1D
100
AcDbEntity
  8
0
100
AcDbLine
 10
169.0
 20
106.9832555
 30
0.0
 11
169.0
 21
102.8092555
 31
0.0
  0
LINE
  5
50C
330
1D
100
AcDbEntity
  8
0
100
AcDbLine
 10
169.0
 20
106.9832555
 30
0.0
 11
169.0
 21
110.4792555
 31
0.0
  0
LINE
  5
50D
330
1D
100
AcDbEntity
  8
0
100
AcDbLine
 10
169.0
 20
102.8092555
 30
0.0
 11
169.0
 21
106.9832555
 31
0.0
  0
LINE
  5
50E
330
1D
100
AcDbEntity
  8
0
100
AcDbLine
 10
169.0
 20
102.8092555
 30
0.0
 11
169.0
 21
97.8618555
 31
0.0
  0
LINE
  5
50F
330
1D
100
AcDbEntity
  8
0
100
AcDbLine
 10
170.452
 20
122.3902555
 30
0.0
 11
172.212
 21
124.7272555
 31
0.0
  0
LINE
  5
510
330
1D
100
AcDbEntity
  8
0
100
AcDbLine
 10
169.396
 20
119.7442555
 30
0.0
 11
170.452
 21
122.3902555
 31
0.0
  0
LINE
  5
511
330
1D
100
AcDbEntity
  8
0
100
AcDbLine
 10
169.0
 20
116.9232555
 30
0.0
 11
169.029030604982
 21
116.716375784698
 31
0.0
  0
LINE
  5
512
330
1D
100
AcDbEntity
  8
0
100
AcDbLine
 10
169.0
 20
116.9232555
 30
0.0
 11
169.396
 21
119.7442555
 31
0.0
  0
LINE
  5
513
330
1D
100
AcDbEntity
  8
0
100
AcDbLine
 10
169.0
 20
116.9232555
 30
0.0
 11
169.0
 21
116.5112555
 31
0.0
  0
LINE
  5
514
330
1D
100
AcDbEntity
  8
0
100
AcDbLine
 10
171.531
 20
156.7612555
 30
0.0
 11
176.589
 21
156.9342555
 31
0.0
  0
LINE
  5
516
330
1D
100
AcDbEntity
  8
0
100
AcDbLine
 10
177.184
 20
127.5492555
 30
0.0
 11
180.0
 21
127.9462555
 31
0.0
  0
LINE
  5
517
330
1D
100
AcDbEntity
  8
0
100
AcDbLine
 10
174.544
 20
126.4902555
 30
0.0
 11
177.184
 21
127.5492555
 31
0.0
  0
LINE
  5
518
330
1D
100
AcDbEntity
  8
0
100
AcDbLine
 10
172.212
 20
124.7272555
 30
0.0
 11
174.544
 21
126.4902555
 31
0.0
  0
LINE
  5
51F
330
1D
100
AcDbEntity
  8
0
100
AcDbLine
 10
176.589
 20
156.9342555
 30
0.0
 11
180.0
 21
156.9872555
 31
0.0
  0
LINE
  5
521
330
1D
100
AcDbEntity
  8
0
100
AcDbLine
 10
168.942
 20
58.3264555
 30
0.0
 11
168.942
 21
68.8932555
 31
0.0
  0
LINE
  5
522
330
1D
100
AcDbEntity
  8
0
100
AcDbLine
 10
168.942
 20
58.3264555
 30
0.0
 11
169.208
 21
57.8406555
 31
0.0
  0
LINE
  5
A1C
330
1D
100
AcDbEntity
  8
0
100
AcDbLine
 10
349.9602
 20
2.6794155
 30
0.0
 11
180.0
 21
2.6794155
 31
0.0
  0
LINE
  5
A1D
330
1D
100
AcDbEntity
  8
0
100
AcDbLine
 10
271.9363
 20
22.0127555
 30
0.0
 11
180.0
 21
22.0127555
 31
0.0
  0
LINE
  5
A1E
330
1D
100
AcDbEntity
  8
0
100
AcDbLine
 10
349.9602
 20
14.0127555
 30
0.0
 11
180.0
 21
14.0127555
 31
0.0
  0
LINE
  5
A1F
330
1D
100
AcDbEntity
  8
0
100
AcDbLine
 10
349.9602
 20
14.0127555
 30
0.0
 11
180.0
 21
14.0127555
 31
0.0
  0
LINE
  5
A20
330
1D
100
AcDbEntity
  8
0
100
AcDbLine
 10
349.9602
 20
2.6794155
 30
0.0
 11
180.0
 21
2.6794155
 31
0.0
  0
LINE
  5
A21
330
1D
100
AcDbEntity
  8
0
100
AcDbLine
 10
183.84
 20
31.5853555
 30
0.0
 11
180.0
 21
31.5853555
 31
0.0
  0
LINE
  5
A22
330
1D
100
AcDbEntity
  8
0
100
AcDbLine
 10
183.672
 20
0.0127445
 30
0.0
 11
180.0
 21
0.0127445
 31
0.0
  0
LINE
  5
A23
330
1D
100
AcDbEntity
  8
0
100
AcDbLine
 10
183.672
 20
2.0127455
 30
0.0
 11
180.0
 21
2.0127455
 31
0.0
  0
LINE
  5
A24
330
1D
100
AcDbEntity
  8
0
100
AcDbLine
 10
183.672
 20
0.0127445
 30
0.0
 11
180.0
 21
0.0127445
 31
0.0
  0
LINE
  5
A25
330
1D
100
AcDbEntity
  8
0
100
AcDbLine
 10
183.654
 20
54.0127555
 30
0.0
 11
180.0
 21
54.0127555
 31
0.0
  0
LINE
  5
A26
330
1D
100
AcDbEntity
  8
0
100
AcDbLine
 10
183.712
 20
53.5854555
 30
0.0
 11
180.0
 21
53.5854555
 31
0.0
  0
LINE
  5
A27
330
1D
100
AcDbEntity
  8
0
100
AcDbLine
 10
183.78
 20
32.0127555
 30
0.0
 11
180.0
 21
32.0127555
 31
0.0
  0
LINE
  5
A28
330
1D
100
AcDbEntity
  8
0
100
AcDbLine
 10
182.787
 20
57.8406555
 30
0.0
 11
180.0
 21
57.8406555
 31
0.0
  0
LINE
  5
A29
330
1D
100
AcDbEntity
  8
0
100
AcDbLine
 10
182.302
 20
57.8406555
 30
0.0
 11
180.0
 21
57.8406555
 31
0.0
  0
LINE
  5
A2A
330
1D
100
AcDbEntity
  8
0
100
AcDbLine
 10
182.816
 20
127.5492555
 30
0.0
 11
180.0
 21
127.9462555
 31
0.0
  0
LINE
  5
A2B
330
1D
100
AcDbEntity
  8
0
100
AcDbLine
 10
183.411
 20
156.9342555
 30
0.0
 11
180.0
 21
156.9872555
 31
0.0
  0
LINE
  5
A2C
330
1D
100
AcDbEntity
  8
0
100
AcDbLine
 10
284.3426
 20
2.0127455
 30
0.0
 11
269.2829
 21
2.0127455
 31
0.0
  0
LINE
  5
A2D
330
1D
100
AcDbEntity
  8
0
100
AcDbLine
 10
323.0677
 20
2.0127455
 30
0.0
 11
308.008
 21
2.0127455
 31
0.0
  0
LINE
  5
A2E
330
1D
100
AcDbEntity
  8
0
100
AcDbLine
 10
323.0677
 20
2.0127455
 30
0.0
 11
308.008
 21
2.0127455
 31
0.0
  0
LINE
  5
A2F
330
1D
100
AcDbEntity
  8
0
100
AcDbLine
 10
318.4064
 20
20.0127555
 30
0.0
 11
308.3665
 21
20.6794555
 31
0.0
  0
LINE
  5
A30
330
1D
100
AcDbEntity
  8
0
100
AcDbLine
 10
342.4303
 20
2.0127455
 30
0.0
 11
327.3705
 21
2.0127455
 31
0.0
  0
LINE
  5
A31
330
1D
100
AcDbEntity
  8
0
100
AcDbLine
 10
342.4303
 20
2.0127455
 30
0.0
 11
327.3705
 21
2.0127455
 31
0.0
  0
LINE
  5
A32
330
1D
100
AcDbEntity
  8
0
100
AcDbLine
 10
345.6574
 20
17.3460555
 30
0.0
 11
334.1833
 21
18.6794555
 31
0.0
  0
LINE
  5
A33
330
1D
100
AcDbEntity
  8
0
100
AcDbLine
 10
350.83908
 20
2.0127455
 30
0.0
 11
348.6598
 21
2.0127455
 31
0.0
  0
LINE
  5
A34
330
1D
100
AcDbEntity
  8
0
100
AcDbLine
 10
354.26295
 20
16.0127555
 30
0.0
 11
345.6574
 21
17.3460555
 31
0.0
  0
LINE
  5
A35
330
1D
100
AcDbEntity
  8
0
100
AcDbLine
 10
360.0
 20
14.0127555
 30
0.0
 11
360.0
 21
2.6794155
 31
0.0
  0
LINE
  5
A36
330
1D
100
AcDbEntity
  8
0
100
AcDbLine
 10
360.0
 20
2.6794155
 30
0.0
 11
360.0
 21
14.0127555
 31
0.0
  0
LINE
  5
A37
330
1D
100
AcDbEntity
  8
0
100
AcDbLine
 10
360.0
 20
2.6794155
 30
0.0
 11
358.56574
 21
2.0127455
 31
0.0
  0
LINE
  5
A38
330
1D
100
AcDbEntity
  8
0
100
AcDbLine
 10
359.741833
 20
2.6794155
 30
0.0
 11
358.99602
 21
2.6794155
 31
0.0
  0
LINE
  5
A39
330
1D
100
AcDbEntity
  8
0
100
AcDbLine
 10
358.99602
 20
2.6794155
 30
0.0
 11
357.84861
 21
2.6794155
 31
0.0
  0
LINE
  5
A3A
330
1D
100
AcDbEntity
  8
0
100
AcDbLine
 10
356.27092
 20
2.6794155
 30
0.0
 11
354.26295
 21
2.6794155
 31
0.0
  0
LINE
  5
A3B
330
1D
100
AcDbEntity
  8
0
100
AcDbLine
 10
354.26295
 20
2.6794155
 30
0.0
 11
352.16892
 21
2.6794155
 31
0.0
  0
LINE
  5
A3C
330
1D
100
AcDbEntity
  8
0
100
AcDbLine
 10
352.16892
 20
2.6794155
 30
0.0
 11
349.9602
 21
2.6794155
 31
0.0
  0
LINE
  5
A3D
330
1D
100
AcDbEntity
  8
0
100
AcDbLine
 10
357.84861
 20
2.6794155
 30
0.0
 11
356.27092
 21
2.6794155
 31
0.0
  0
LINE
  5
A3E
330
1D
100
AcDbEntity
  8
0
100
AcDbLine
 10
359.741833
 20
2.6794155
 30
0.0
 11
358.99602
 21
2.6794155
 31
0.0
  0
LINE
  5
A3F
330
1D
100
AcDbEntity
  8
0
100
AcDbLine
 10
360.0
 20
2.6794155
 30
0.0
 11
359.741833
 21
2.6794155
 31
0.0
  0
LINE
  5
A40
330
1D
100
AcDbEntity
  8
0
100
AcDbLine
 10
358.56574
 20
2.0127455
 30
0.0
 11
350.83908
 21
2.0127455
 31
0.0
  0
LINE
  5
A41
330
1D
100
AcDbEntity
  8
0
100
AcDbLine
 10
358.56574
 20
2.0127455
 30
0.0
 11
350.83908
 21
2.0127455
 31
0.0
  0
LINE
  5
A42
330
1D
100
AcDbEntity
  8
0
100
AcDbLine
 10
360.0
 20
14.0127555
 30
0.0
 11
359.282869
 21
14.6794555
 31
0.0
  0
LINE
  5
A43
330
1D
100
AcDbEntity
  8
0
100
AcDbLine
 10
360.0
 20
14.0127555
 30
0.0
 11
359.741833
 21
14.0127555
 31
0.0
  0
LINE
  5
A44
330
1D
100
AcDbEntity
  8
0
100
AcDbLine
 10
359.741833
 20
14.0127555
 30
0.0
 11
358.99602
 21
14.0127555
 31
0.0
  0
LINE
  5
A45
330
1D
100
AcDbEntity
  8
0
100
AcDbLine
 10
357.84861
 20
14.0127555
 30
0.0
 11
356.27092
 21
14.0127555
 31
0.0
  0
LINE
  5
A46
330
1D
100
AcDbEntity
  8
0
100
AcDbLine
 10
358.99602
 20
14.0127555
 30
0.0
 11
357.84861
 21
14.0127555
 31
0.0
  0
LINE
  5
A47
330
1D
100
AcDbEntity
  8
0
100
AcDbLine
 10
359.282869
 20
14.6794555
 30
0.0
 11
354.26295
 21
16.0127555
 31
0.0
  0
LINE
  5
A48
330
1D
100
AcDbEntity
  8
0
100
AcDbLine
 10
359.282869
 20
14.6794555
 30
0.0
 11
354.26295
 21
16.0127555
 31
0.0
  0
LINE
  5
A49
330
1D
100
AcDbEntity
  8
0
100
AcDbLine
 10
359.741833
 20
14.0127555
 30
0.0
 11
358.99602
 21
14.0127555
 31
0.0
  0
LINE
  5
A4A
330
1D
100
AcDbEntity
  8
0
100
AcDbLine
 10
356.27092
 20
14.0127555
 30
0.0
 11
354.26295
 21
14.0127555
 31
0.0
  0
LINE
  5
A4B
330
1D
100
AcDbEntity
  8
0
100
AcDbLine
 10
354.26295
 20
14.0127555
 30
0.0
 11
352.16892
 21
14.0127555
 31
0.0
  0
LINE
  5
A4C
330
1D
100
AcDbEntity
  8
0
100
AcDbLine
 10
352.16892
 20
14.0127555
 30
0.0
 11
349.9602
 21
14.0127555
 31
0.0
  0
LINE
  5
A4D
330
1D
100
AcDbEntity
  8
0
100
AcDbLine
 10
344.5817
 20
0.0127445
 30
0.0
 11
343.0757
 21
0.0127445
 31
0.0
  0
LINE
  5
A4E
330
1D
100
AcDbEntity
  8
0
100
AcDbLine
 10
344.5817
 20
0.0127445
 30
0.0
 11
343.0757
 21
0.0127445
 31
0.0
  0
LINE
  5
A4F
330
1D
100
AcDbEntity
  8
0
100
AcDbLine
 10
344.5817
 20
0.0127445
 30
0.0
 11
343.0757
 21
0.0127445
 31
0.0
  0
LINE
  5
A50
330
1D
100
AcDbEntity
  8
0
100
AcDbLine
 10
344.5817
 20
0.0127445
 30
0.0
 11
343.0757
 21
0.0127445
 31
0.0
  0
LINE
  5
A51
330
1D
100
AcDbEntity
  8
0
100
AcDbLine
 10
344.5817
 20
0.0127445
 30
0.0
 11
343.0757
 21
0.0127445
 31
0.0
  0
LINE
  5
A52
330
1D
100
AcDbEntity
  8
0
100
AcDbLine
 10
344.5817
 20
0.0127445
 30
0.0
 11
343.0757
 21
0.0127445
 31
0.0
  0
LINE
  5
A53
330
1D
100
AcDbEntity
  8
0
100
AcDbLine
 10
344.5817
 20
0.0127445
 30
0.0
 11
343.0757
 21
0.0127445
 31
0.0
  0
LINE
  5
A54
330
1D
100
AcDbEntity
  8
0
100
AcDbLine
 10
344.5817
 20
0.0127445
 30
0.0
 11
343.0757
 21
0.0127445
 31
0.0
  0
LINE
  5
A55
330
1D
100
AcDbEntity
  8
0
100
AcDbLine
 10
344.5817
 20
0.0127445
 30
0.0
 11
343.0757
 21
0.0127445
 31
0.0
  0
LINE
  5
A56
330
1D
100
AcDbEntity
  8
0
100
AcDbLine
 10
344.5817
 20
0.0127445
 30
0.0
 11
343.0757
 21
0.0127445
 31
0.0
  0
LINE
  5
A57
330
1D
100
AcDbEntity
  8
0
100
AcDbLine
 10
344.5817
 20
0.0127445
 30
0.0
 11
343.0757
 21
0.0127445
 31
0.0
  0
LINE
  5
A58
330
1D
100
AcDbEntity
  8
0
100
AcDbLine
 10
344.5817
 20
0.0127445
 30
0.0
 11
343.0757
 21
0.0127445
 31
0.0
  0
LINE
  5
A59
330
1D
100
AcDbEntity
  8
0
100
AcDbLine
 10
344.5817
 20
0.0127445
 30
0.0
 11
343.0757
 21
0.0127445
 31
0.0
  0
LINE
  5
A5A
330
1D
100
AcDbEntity
  8
0
100
AcDbLine
 10
344.5817
 20
0.0127445
 30
0.0
 11
343.0757
 21
0.0127445
 31
0.0
  0
LINE
  5
A5B
330
1D
100
AcDbEntity
  8
0
100
AcDbLine
 10
344.5817
 20
0.0127445
 30
0.0
 11
343.0757
 21
0.0127445
 31
0.0
  0
LINE
  5
A5C
330
1D
100
AcDbEntity
  8
0
100
AcDbLine
 10
344.5817
 20
0.0127445
 30
0.0
 11
343.0757
 21
0.0127445
 31
0.0
  0
LINE
  5
A5D
330
1D
100
AcDbEntity
  8
0
100
AcDbLine
 10
344.5817
 20
0.0127445
 30
0.0
 11
343.0757
 21
0.0127445
 31
0.0
  0
LINE
  5
A5E
330
1D
100
AcDbEntity
  8
0
100
AcDbLine
 10
344.5817
 20
0.0127445
 30
0.0
 11
343.0757
 21
0.0127445
 31
0.0
  0
LINE
  5
A5F
330
1D
100
AcDbEntity
  8
0
100
AcDbLine
 10
344.5817
 20
0.0127445
 30
0.0
 11
343.0757
 21
0.0127445
 31
0.0
  0
LINE
  5
A60
330
1D
100
AcDbEntity
  8
0
100
AcDbLine
 10
344.5817
 20
0.0127445
 30
0.0
 11
343.0757
 21
0.0127445
 31
0.0
  0
LINE
  5
A61
330
1D
100
AcDbEntity
  8
0
100
AcDbLine
 10
344.5817
 20
2.0127455
 30
0.0
 11
343.0757
 21
2.0127455
 31
0.0
  0
LINE
  5
A62
330
1D
100
AcDbEntity
  8
0
100
AcDbLine
 10
346.0877
 20
0.0127445
 30
0.0
 11
344.5817
 21
0.0127445
 31
0.0
  0
LINE
  5
A63
330
1D
100
AcDbEntity
  8
0
100
AcDbLine
 10
346.0877
 20
0.0127445
 30
0.0
 11
344.5817
 21
0.0127445
 31
0.0
  0
LINE
  5
A64
330
1D
100
AcDbEntity
  8
0
100
AcDbLine
 10
346.0877
 20
0.0127445
 30
0.0
 11
344.5817
 21
0.0127445
 31
0.0
  0
LINE
  5
A65
330
1D
100
AcDbEntity
  8
0
100
AcDbLine
 10
346.0877
 20
0.0127445
 30
0.0
 11
344.5817
 21
0.0127445
 31
0.0
  0
LINE
  5
A66
330
1D
100
AcDbEntity
  8
0
100
AcDbLine
 10
346.0877
 20
0.0127445
 30
0.0
 11
344.5817
 21
0.0127445
 31
0.0
  0
LINE
  5
A67
330
1D
100
AcDbEntity
  8
0
100
AcDbLine
 10
346.0877
 20
0.0127445
 30
0.0
 11
344.5817
 21
0.0127445
 31
0.0
  0
LINE
  5
A68
330
1D
100
AcDbEntity
  8
0
100
AcDbLine
 10
346.0877
 20
0.0127445
 30
0.0
 11
344.5817
 21
0.0127445
 31
0.0
  0
LINE
  5
A69
330
1D
100
AcDbEntity
  8
0
100
AcDbLine
 10
346.0877
 20
0.0127445
 30
0.0
 11
344.5817
 21
0.0127445
 31
0.0
  0
LINE
  5
A6A
330
1D
100
AcDbEntity
  8
0
100
AcDbLine
 10
346.0877
 20
0.0127445
 30
0.0
 11
344.5817
 21
0.0127445
 31
0.0
  0
LINE
  5
A6B
330
1D
100
AcDbEntity
  8
0
100
AcDbLine
 10
346.0877
 20
0.0127445
 30
0.0
 11
344.5817
 21
0.0127445
 31
0.0
  0
LINE
  5
A6C
330
1D
100
AcDbEntity
  8
0
100
AcDbLine
 10
346.0877
 20
0.0127445
 30
0.0
 11
344.5817
 21
0.0127445
 31
0.0
  0
LINE
  5
A6D
330
1D
100
AcDbEntity
  8
0
100
AcDbLine
 10
346.0877
 20
0.0127445
 30
0.0
 11
344.5817
 21
0.0127445
 31
0.0
  0
LINE
  5
A6E
330
1D
100
AcDbEntity
  8
0
100
AcDbLine
 10
346.0877
 20
0.0127445
 30
0.0
 11
344.5817
 21
0.0127445
 31
0.0
  0
LINE
  5
A6F
330
1D
100
AcDbEntity
  8
0
100
AcDbLine
 10
346.0877
 20
0.0127445
 30
0.0
 11
344.5817
 21
0.0127445
 31
0.0
  0
LINE
  5
A70
330
1D
100
AcDbEntity
  8
0
100
AcDbLine
 10
346.0877
 20
0.0127445
 30
0.0
 11
344.5817
 21
0.0127445
 31
0.0
  0
LINE
  5
A71
330
1D
100
AcDbEntity
  8
0
100
AcDbLine
 10
346.0877
 20
0.0127445
 30
0.0
 11
344.5817
 21
0.0127445
 31
0.0
  0
LINE
  5
A72
330
1D
100
AcDbEntity
  8
0
100
AcDbLine
 10
346.0877
 20
0.0127445
 30
0.0
 11
344.5817
 21
0.0127445
 31
0.0
  0
LINE
  5
A73
330
1D
100
AcDbEntity
  8
0
100
AcDbLine
 10
346.0877
 20
0.0127445
 30
0.0
 11
344.5817
 21
0.0127445
 31
0.0
  0
LINE
  5
A74
330
1D
100
AcDbEntity
  8
0
100
AcDbLine
 10
346.0877
 20
0.0127445
 30
0.0
 11
344.5817
 21
0.0127445
 31
0.0
  0
LINE
  5
A75
330
1D
100
AcDbEntity
  8
0
100
AcDbLine
 10
346.0877
 20
0.0127445
 30
0.0
 11
344.5817
 21
0.0127445
 31
0.0
  0
LINE
  5
A76
330
1D
100
AcDbEntity
  8
0
100
AcDbLine
 10
346.0877
 20
2.0127455
 30
0.0
 11
344.5817
 21
2.0127455
 31
0.0
  0
LINE
  5
A77
330
1D
100
AcDbEntity
  8
0
100
AcDbLine
 10
348.6598
 20
2.0127455
 30
0.0
 11
346.7331
 21
2.0127455
 31
0.0
  0
LINE
  5
A78
330
1D
100
AcDbEntity
  8
0
100
AcDbLine
 10
348.6598
 20
2.0127455
 30
0.0
 11
346.7331
 21
2.0127455
 31
0.0
  0
LINE
  5
A79
330
1D
100
AcDbEntity
  8
0
100
AcDbLine
 10
346.7331
 20
0.0127445
 30
0.0
 11
346.7331
 21
2.0127455
 31
0.0
  0
LINE
  5
A7A
330
1D
100
AcDbEntity
  8
0
100
AcDbLine
 10
346.7331
 20
0.0127445
 30
0.0
 11
346.7331
 21
2.0127455
 31
0.0
  0
LINE
  5
A7B
330
1D
100
AcDbEntity
  8
0
100
AcDbLine
 10
346.7331
 20
0.0127445
 30
0.0
 11
346.7331
 21
2.0127455
 31
0.0
  0
LINE
  5
A7C
330
1D
100
AcDbEntity
  8
0
100
AcDbLine
 10
346.7331
 20
0.0127445
 30
0.0
 11
346.7331
 21
2.0127455
 31
0.0
  0
LINE
  5
A7D
330
1D
100
AcDbEntity
  8
0
100
AcDbLine
 10
346.7331
 20
0.0127445
 30
0.0
 11
346.7331
 21
2.0127455
 31
0.0
  0
LINE
  5
A7E
330
1D
100
AcDbEntity
  8
0
100
AcDbLine
 10
346.7331
 20
0.0127445
 30
0.0
 11
346.7331
 21
2.0127455
 31
0.0
  0
LINE
  5
A7F
330
1D
100
AcDbEntity
  8
0
100
AcDbLine
 10
346.7331
 20
0.0127445
 30
0.0
 11
346.7331
 21
2.0127455
 31
0.0
  0
LINE
  5
A80
330
1D
100
AcDbEntity
  8
0
100
AcDbLine
 10
346.7331
 20
0.0127445
 30
0.0
 11
346.7331
 21
2.0127455
 31
0.0
  0
LINE
  5
A81
330
1D
100
AcDbEntity
  8
0
100
AcDbLine
 10
346.7331
 20
0.0127445
 30
0.0
 11
346.7331
 21
2.0127455
 31
0.0
  0
LINE
  5
A82
330
1D
100
AcDbEntity
  8
0
100
AcDbLine
 10
346.7331
 20
0.0127445
 30
0.0
 11
346.7331
 21
2.0127455
 31
0.0
  0
LINE
  5
A83
330
1D
100
AcDbEntity
  8
0
100
AcDbLine
 10
346.7331
 20
2.0127455
 30
0.0
 11
346.7331
 21
0.0127445
 31
0.0
  0
LINE
  5
A84
330
1D
100
AcDbEntity
  8
0
100
AcDbLine
 10
346.7331
 20
2.0127455
 30
0.0
 11
346.7331
 21
0.0127445
 31
0.0
  0
LINE
  5
A85
330
1D
100
AcDbEntity
  8
0
100
AcDbLine
 10
346.7331
 20
2.0127455
 30
0.0
 11
346.7331
 21
0.0127445
 31
0.0
  0
LINE
  5
A86
330
1D
100
AcDbEntity
  8
0
100
AcDbLine
 10
346.7331
 20
2.0127455
 30
0.0
 11
346.7331
 21
0.0127445
 31
0.0
  0
LINE
  5
A87
330
1D
100
AcDbEntity
  8
0
100
AcDbLine
 10
346.7331
 20
2.0127455
 30
0.0
 11
346.7331
 21
0.0127445
 31
0.0
  0
LINE
  5
A88
330
1D
100
AcDbEntity
  8
0
100
AcDbLine
 10
346.7331
 20
2.0127455
 30
0.0
 11
346.7331
 21
0.0127445
 31
0.0
  0
LINE
  5
A89
330
1D
100
AcDbEntity
  8
0
100
AcDbLine
 10
346.7331
 20
2.0127455
 30
0.0
 11
346.7331
 21
0.0127445
 31
0.0
  0
LINE
  5
A8A
330
1D
100
AcDbEntity
  8
0
100
AcDbLine
 10
346.7331
 20
2.0127455
 30
0.0
 11
346.7331
 21
0.0127445
 31
0.0
  0
LINE
  5
A8B
330
1D
100
AcDbEntity
  8
0
100
AcDbLine
 10
346.7331
 20
2.0127455
 30
0.0
 11
346.7331
 21
0.0127445
 31
0.0
  0
LINE
  5
A8C
330
1D
100
AcDbEntity
  8
0
100
AcDbLine
 10
346.7331
 20
2.0127455
 30
0.0
 11
346.7331
 21
0.0127445
 31
0.0
  0
LINE
  5
A8D
330
1D
100
AcDbEntity
  8
0
100
AcDbLine
 10
346.7331
 20
0.0127445
 30
0.0
 11
346.0877
 21
0.0127445
 31
0.0
  0
LINE
  5
A8E
330
1D
100
AcDbEntity
  8
0
100
AcDbLine
 10
346.7331
 20
0.0127445
 30
0.0
 11
346.0877
 21
0.0127445
 31
0.0
  0
LINE
  5
A8F
330
1D
100
AcDbEntity
  8
0
100
AcDbLine
 10
346.7331
 20
0.0127445
 30
0.0
 11
346.0877
 21
0.0127445
 31
0.0
  0
LINE
  5
A90
330
1D
100
AcDbEntity
  8
0
100
AcDbLine
 10
346.7331
 20
0.0127445
 30
0.0
 11
346.0877
 21
0.0127445
 31
0.0
  0
LINE
  5
A91
330
1D
100
AcDbEntity
  8
0
100
AcDbLine
 10
346.7331
 20
0.0127445
 30
0.0
 11
346.0877
 21
0.0127445
 31
0.0
  0
LINE
  5
A92
330
1D
100
AcDbEntity
  8
0
100
AcDbLine
 10
346.7331
 20
0.0127445
 30
0.0
 11
346.0877
 21
0.0127445
 31
0.0
  0
LINE
  5
A93
330
1D
100
AcDbEntity
  8
0
100
AcDbLine
 10
346.7331
 20
0.0127445
 30
0.0
 11
346.0877
 21
0.0127445
 31
0.0
  0
LINE
  5
A94
330
1D
100
AcDbEntity
  8
0
100
AcDbLine
 10
346.7331
 20
0.0127445
 30
0.0
 11
346.0877
 21
0.0127445
 31
0.0
  0
LINE
  5
A95
330
1D
100
AcDbEntity
  8
0
100
AcDbLine
 10
346.7331
 20
0.0127445
 30
0.0
 11
346.0877
 21
0.0127445
 31
0.0
  0
LINE
  5
A96
330
1D
100
AcDbEntity
  8
0
100
AcDbLine
 10
346.7331
 20
0.0127445
 30
0.0
 11
346.0877
 21
0.0127445
 31
0.0
  0
LINE
  5
A97
330
1D
100
AcDbEntity
  8
0
100
AcDbLine
 10
346.7331
 20
0.0127445
 30
0.0
 11
346.0877
 21
0.0127445
 31
0.0
  0
LINE
  5
A98
330
1D
100
AcDbEntity
  8
0
100
AcDbLine
 10
346.7331
 20
0.0127445
 30
0.0
 11
346.0877
 21
0.0127445
 31
0.0
  0
LINE
  5
A99
330
1D
100
AcDbEntity
  8
0
100
AcDbLine
 10
346.7331
 20
0.0127445
 30
0.0
 11
346.0877
 21
0.0127445
 31
0.0
  0
LINE
  5
A9A
330
1D
100
AcDbEntity
  8
0
100
AcDbLine
 10
346.7331
 20
0.0127445
 30
0.0
 11
346.0877
 21
0.0127445
 31
0.0
  0
LINE
  5
A9B
330
1D
100
AcDbEntity
  8
0
100
AcDbLine
 10
346.7331
 20
0.0127445
 30
0.0
 11
346.0877
 21
0.0127445
 31
0.0
  0
LINE
  5
A9C
330
1D
100
AcDbEntity
  8
0
100
AcDbLine
 10
346.7331
 20
0.0127445
 30
0.0
 11
346.0877
 21
0.0127445
 31
0.0
  0
LINE
  5
A9D
330
1D
100
AcDbEntity
  8
0
100
AcDbLine
 10
346.7331
 20
0.0127445
 30
0.0
 11
346.0877
 21
0.0127445
 31
0.0
  0
LINE
  5
A9E
330
1D
100
AcDbEntity
  8
0
100
AcDbLine
 10
346.7331
 20
0.0127445
 30
0.0
 11
346.0877
 21
0.0127445
 31
0.0
  0
LINE
  5
A9F
330
1D
100
AcDbEntity
  8
0
100
AcDbLine
 10
346.7331
 20
0.0127445
 30
0.0
 11
346.0877
 21
0.0127445
 31
0.0
  0
LINE
  5
AA0
330
1D
100
AcDbEntity
  8
0
100
AcDbLine
 10
346.7331
 20
0.0127445
 30
0.0
 11
346.0877
 21
0.0127445
 31
0.0
  0
LINE
  5
AA1
330
1D
100
AcDbEntity
  8
0
100
AcDbLine
 10
346.7331
 20
2.0127455
 30
0.0
 11
346.0877
 21
2.0127455
 31
0.0
  0
LINE
  5
AA2
330
1D
100
AcDbEntity
  8
0
100
AcDbLine
 10
342.4303
 20
0.0127445
 30
0.0
 11
342.4303
 21
2.0127455
 31
0.0
  0
LINE
  5
AA3
330
1D
100
AcDbEntity
  8
0
100
AcDbLine
 10
342.4303
 20
2.0127455
 30
0.0
 11
342.4303
 21
0.0127445
 31
0.0
  0
LINE
  5
AA4
330
1D
100
AcDbEntity
  8
0
100
AcDbLine
 10
343.0757
 20
0.0127445
 30
0.0
 11
342.4303
 21
0.0127445
 31
0.0
  0
LINE
  5
AA5
330
1D
100
AcDbEntity
  8
0
100
AcDbLine
 10
343.0757
 20
0.0127445
 30
0.0
 11
342.4303
 21
0.0127445
 31
0.0
  0
LINE
  5
AA6
330
1D
100
AcDbEntity
  8
0
100
AcDbLine
 10
343.0757
 20
0.0127445
 30
0.0
 11
342.4303
 21
0.0127445
 31
0.0
  0
LINE
  5
AA7
330
1D
100
AcDbEntity
  8
0
100
AcDbLine
 10
343.0757
 20
0.0127445
 30
0.0
 11
342.4303
 21
0.0127445
 31
0.0
  0
LINE
  5
AA8
330
1D
100
AcDbEntity
  8
0
100
AcDbLine
 10
343.0757
 20
0.0127445
 30
0.0
 11
342.4303
 21
0.0127445
 31
0.0
  0
LINE
  5
AA9
330
1D
100
AcDbEntity
  8
0
100
AcDbLine
 10
343.0757
 20
0.0127445
 30
0.0
 11
342.4303
 21
0.0127445
 31
0.0
  0
LINE
  5
AAA
330
1D
100
AcDbEntity
  8
0
100
AcDbLine
 10
343.0757
 20
0.0127445
 30
0.0
 11
342.4303
 21
0.0127445
 31
0.0
  0
LINE
  5
AAB
330
1D
100
AcDbEntity
  8
0
100
AcDbLine
 10
343.0757
 20
0.0127445
 30
0.0
 11
342.4303
 21
0.0127445
 31
0.0
  0
LINE
  5
AAC
330
1D
100
AcDbEntity
  8
0
100
AcDbLine
 10
343.0757
 20
0.0127445
 30
0.0
 11
342.4303
 21
0.0127445
 31
0.0
  0
LINE
  5
AAD
330
1D
100
AcDbEntity
  8
0
100
AcDbLine
 10
343.0757
 20
0.0127445
 30
0.0
 11
342.4303
 21
0.0127445
 31
0.0
  0
LINE
  5
AAE
330
1D
100
AcDbEntity
  8
0
100
AcDbLine
 10
343.0757
 20
0.0127445
 30
0.0
 11
342.4303
 21
0.0127445
 31
0.0
  0
LINE
  5
AAF
330
1D
100
AcDbEntity
  8
0
100
AcDbLine
 10
343.0757
 20
0.0127445
 30
0.0
 11
342.4303
 21
0.0127445
 31
0.0
  0
LINE
  5
AB0
330
1D
100
AcDbEntity
  8
0
100
AcDbLine
 10
343.0757
 20
0.0127445
 30
0.0
 11
342.4303
 21
0.0127445
 31
0.0
  0
LINE
  5
AB1
330
1D
100
AcDbEntity
  8
0
100
AcDbLine
 10
343.0757
 20
0.0127445
 30
0.0
 11
342.4303
 21
0.0127445
 31
0.0
  0
LINE
  5
AB2
330
1D
100
AcDbEntity
  8
0
100
AcDbLine
 10
343.0757
 20
0.0127445
 30
0.0
 11
342.4303
 21
0.0127445
 31
0.0
  0
LINE
  5
AB3
330
1D
100
AcDbEntity
  8
0
100
AcDbLine
 10
343.0757
 20
0.0127445
 30
0.0
 11
342.4303
 21
0.0127445
 31
0.0
  0
LINE
  5
AB4
330
1D
100
AcDbEntity
  8
0
100
AcDbLine
 10
343.0757
 20
0.0127445
 30
0.0
 11
342.4303
 21
0.0127445
 31
0.0
  0
LINE
  5
AB5
330
1D
100
AcDbEntity
  8
0
100
AcDbLine
 10
343.0757
 20
0.0127445
 30
0.0
 11
342.4303
 21
0.0127445
 31
0.0
  0
LINE
  5
AB6
330
1D
100
AcDbEntity
  8
0
100
AcDbLine
 10
343.0757
 20
0.0127445
 30
0.0
 11
342.4303
 21
0.0127445
 31
0.0
  0
LINE
  5
AB7
330
1D
100
AcDbEntity
  8
0
100
AcDbLine
 10
343.0757
 20
0.0127445
 30
0.0
 11
342.4303
 21
0.0127445
 31
0.0
  0
LINE
  5
AB8
330
1D
100
AcDbEntity
  8
0
100
AcDbLine
 10
343.0757
 20
2.0127455
 30
0.0
 11
342.4303
 21
2.0127455
 31
0.0
  0
LINE
  5
AB9
330
1D
100
AcDbEntity
  8
0
100
AcDbLine
 10
326.7251
 20
0.0127445
 30
0.0
 11
325.2191
 21
0.0127445
 31
0.0
  0
LINE
  5
ABA
330
1D
100
AcDbEntity
  8
0
100
AcDbLine
 10
326.7251
 20
0.0127445
 30
0.0
 11
325.2191
 21
0.0127445
 31
0.0
  0
LINE
  5
ABB
330
1D
100
AcDbEntity
  8
0
100
AcDbLine
 10
326.7251
 20
0.0127445
 30
0.0
 11
325.2191
 21
0.0127445
 31
0.0
  0
LINE
  5
ABC
330
1D
100
AcDbEntity
  8
0
100
AcDbLine
 10
326.7251
 20
0.0127445
 30
0.0
 11
325.2191
 21
0.0127445
 31
0.0
  0
LINE
  5
ABD
330
1D
100
AcDbEntity
  8
0
100
AcDbLine
 10
326.7251
 20
0.0127445
 30
0.0
 11
325.2191
 21
0.0127445
 31
0.0
  0
LINE
  5
ABE
330
1D
100
AcDbEntity
  8
0
100
AcDbLine
 10
326.7251
 20
0.0127445
 30
0.0
 11
325.2191
 21
0.0127445
 31
0.0
  0
LINE
  5
ABF
330
1D
100
AcDbEntity
  8
0
100
AcDbLine
 10
326.7251
 20
0.0127445
 30
0.0
 11
325.2191
 21
0.0127445
 31
0.0
  0
LINE
  5
AC0
330
1D
100
AcDbEntity
  8
0
100
AcDbLine
 10
326.7251
 20
0.0127445
 30
0.0
 11
325.2191
 21
0.0127445
 31
0.0
  0
LINE
  5
AC1
330
1D
100
AcDbEntity
  8
0
100
AcDbLine
 10
326.7251
 20
0.0127445
 30
0.0
 11
325.2191
 21
0.0127445
 31
0.0
  0
LINE
  5
AC2
330
1D
100
AcDbEntity
  8
0
100
AcDbLine
 10
326.7251
 20
0.0127445
 30
0.0
 11
325.2191
 21
0.0127445
 31
0.0
  0
LINE
  5
AC3
330
1D
100
AcDbEntity
  8
0
100
AcDbLine
 10
326.7251
 20
0.0127445
 30
0.0
 11
325.2191
 21
0.0127445
 31
0.0
  0
LINE
  5
AC4
330
1D
100
AcDbEntity
  8
0
100
AcDbLine
 10
326.7251
 20
0.0127445
 30
0.0
 11
325.2191
 21
0.0127445
 31
0.0
  0
LINE
  5
AC5
330
1D
100
AcDbEntity
  8
0
100
AcDbLine
 10
326.7251
 20
0.0127445
 30
0.0
 11
325.2191
 21
0.0127445
 31
0.0
  0
LINE
  5
AC6
330
1D
100
AcDbEntity
  8
0
100
AcDbLine
 10
326.7251
 20
0.0127445
 30
0.0
 11
325.2191
 21
0.0127445
 31
0.0
  0
LINE
  5
AC7
330
1D
100
AcDbEntity
  8
0
100
AcDbLine
 10
326.7251
 20
0.0127445
 30
0.0
 11
325.2191
 21
0.0127445
 31
0.0
  0
LINE
  5
AC8
330
1D
100
AcDbEntity
  8
0
100
AcDbLine
 10
326.7251
 20
0.0127445
 30
0.0
 11
325.2191
 21
0.0127445
 31
0.0
  0
LINE
  5
AC9
330
1D
100
AcDbEntity
  8
0
100
AcDbLine
 10
326.7251
 20
0.0127445
 30
0.0
 11
325.2191
 21
0.0127445
 31
0.0
  0
LINE
  5
ACA
330
1D
100
AcDbEntity
  8
0
100
AcDbLine
 10
326.7251
 20
0.0127445
 30
0.0
 11
325.2191
 21
0.0127445
 31
0.0
  0
LINE
  5
ACB
330
1D
100
AcDbEntity
  8
0
100
AcDbLine
 10
326.7251
 20
0.0127445
 30
0.0
 11
325.2191
 21
0.0127445
 31
0.0
  0
LINE
  5
ACC
330
1D
100
AcDbEntity
  8
0
100
AcDbLine
 10
326.7251
 20
0.0127445
 30
0.0
 11
325.2191
 21
0.0127445
 31
0.0
  0
LINE
  5
ACD
330
1D
100
AcDbEntity
  8
0
100
AcDbLine
 10
326.7251
 20
2.0127455
 30
0.0
 11
325.2191
 21
2.0127455
 31
0.0
  0
LINE
  5
ACE
330
1D
100
AcDbEntity
  8
0
100
AcDbLine
 10
334.1833
 20
18.6794555
 30
0.0
 11
318.4064
 21
20.0127555
 31
0.0
  0
LINE
  5
ACF
330
1D
100
AcDbEntity
  8
0
100
AcDbLine
 10
327.3705
 20
0.0127445
 30
0.0
 11
327.3705
 21
2.0127455
 31
0.0
  0
LINE
  5
AD0
330
1D
100
AcDbEntity
  8
0
100
AcDbLine
 10
327.3705
 20
0.0127445
 30
0.0
 11
327.3705
 21
2.0127455
 31
0.0
  0
LINE
  5
AD1
330
1D
100
AcDbEntity
  8
0
100
AcDbLine
 10
327.3705
 20
0.0127445
 30
0.0
 11
327.3705
 21
2.0127455
 31
0.0
  0
LINE
  5
AD2
330
1D
100
AcDbEntity
  8
0
100
AcDbLine
 10
327.3705
 20
0.0127445
 30
0.0
 11
327.3705
 21
2.0127455
 31
0.0
  0
LINE
  5
AD3
330
1D
100
AcDbEntity
  8
0
100
AcDbLine
 10
327.3705
 20
0.0127445
 30
0.0
 11
327.3705
 21
2.0127455
 31
0.0
  0
LINE
  5
AD4
330
1D
100
AcDbEntity
  8
0
100
AcDbLine
 10
327.3705
 20
0.0127445
 30
0.0
 11
327.3705
 21
2.0127455
 31
0.0
  0
LINE
  5
AD5
330
1D
100
AcDbEntity
  8
0
100
AcDbLine
 10
327.3705
 20
0.0127445
 30
0.0
 11
327.3705
 21
2.0127455
 31
0.0
  0
LINE
  5
AD6
330
1D
100
AcDbEntity
  8
0
100
AcDbLine
 10
327.3705
 20
0.0127445
 30
0.0
 11
327.3705
 21
2.0127455
 31
0.0
  0
LINE
  5
AD7
330
1D
100
AcDbEntity
  8
0
100
AcDbLine
 10
327.3705
 20
0.0127445
 30
0.0
 11
327.3705
 21
2.0127455
 31
0.0
  0
LINE
  5
AD8
330
1D
100
AcDbEntity
  8
0
100
AcDbLine
 10
327.3705
 20
0.0127445
 30
0.0
 11
327.3705
 21
2.0127455
 31
0.0
  0
LINE
  5
AD9
330
1D
100
AcDbEntity
  8
0
100
AcDbLine
 10
327.3705
 20
2.0127455
 30
0.0
 11
327.3705
 21
0.0127445
 31
0.0
  0
LINE
  5
ADA
330
1D
100
AcDbEntity
  8
0
100
AcDbLine
 10
327.3705
 20
2.0127455
 30
0.0
 11
327.3705
 21
0.0127445
 31
0.0
  0
LINE
  5
ADB
330
1D
100
AcDbEntity
  8
0
100
AcDbLine
 10
327.3705
 20
2.0127455
 30
0.0
 11
327.3705
 21
0.0127445
 31
0.0
  0
LINE
  5
ADC
330
1D
100
AcDbEntity
  8
0
100
AcDbLine
 10
327.3705
 20
2.0127455
 30
0.0
 11
327.3705
 21
0.0127445
 31
0.0
  0
LINE
  5
ADD
330
1D
100
AcDbEntity
  8
0
100
AcDbLine
 10
327.3705
 20
2.0127455
 30
0.0
 11
327.3705
 21
0.0127445
 31
0.0
  0
LINE
  5
ADE
330
1D
100
AcDbEntity
  8
0
100
AcDbLine
 10
327.3705
 20
2.0127455
 30
0.0
 11
327.3705
 21
0.0127445
 31
0.0
  0
LINE
  5
ADF
330
1D
100
AcDbEntity
  8
0
100
AcDbLine
 10
327.3705
 20
2.0127455
 30
0.0
 11
327.3705
 21
0.0127445
 31
0.0
  0
LINE
  5
AE0
330
1D
100
AcDbEntity
  8
0
100
AcDbLine
 10
327.3705
 20
2.0127455
 30
0.0
 11
327.3705
 21
0.0127445
 31
0.0
  0
LINE
  5
AE1
330
1D
100
AcDbEntity
  8
0
100
AcDbLine
 10
327.3705
 20
2.0127455
 30
0.0
 11
327.3705
 21
0.0127445
 31
0.0
  0
LINE
  5
AE2
330
1D
100
AcDbEntity
  8
0
100
AcDbLine
 10
327.3705
 20
2.0127455
 30
0.0
 11
327.3705
 21
0.0127445
 31
0.0
  0
LINE
  5
AE3
330
1D
100
AcDbEntity
  8
0
100
AcDbLine
 10
327.3705
 20
0.0127445
 30
0.0
 11
326.7251
 21
0.0127445
 31
0.0
  0
LINE
  5
AE4
330
1D
100
AcDbEntity
  8
0
100
AcDbLine
 10
327.3705
 20
0.0127445
 30
0.0
 11
326.7251
 21
0.0127445
 31
0.0
  0
LINE
  5
AE5
330
1D
100
AcDbEntity
  8
0
100
AcDbLine
 10
327.3705
 20
0.0127445
 30
0.0
 11
326.7251
 21
0.0127445
 31
0.0
  0
LINE
  5
AE6
330
1D
100
AcDbEntity
  8
0
100
AcDbLine
 10
327.3705
 20
0.0127445
 30
0.0
 11
326.7251
 21
0.0127445
 31
0.0
  0
LINE
  5
AE7
330
1D
100
AcDbEntity
  8
0
100
AcDbLine
 10
327.3705
 20
0.0127445
 30
0.0
 11
326.7251
 21
0.0127445
 31
0.0
  0
LINE
  5
AE8
330
1D
100
AcDbEntity
  8
0
100
AcDbLine
 10
327.3705
 20
0.0127445
 30
0.0
 11
326.7251
 21
0.0127445
 31
0.0
  0
LINE
  5
AE9
330
1D
100
AcDbEntity
  8
0
100
AcDbLine
 10
327.3705
 20
0.0127445
 30
0.0
 11
326.7251
 21
0.0127445
 31
0.0
  0
LINE
  5
AEA
330
1D
100
AcDbEntity
  8
0
100
AcDbLine
 10
327.3705
 20
0.0127445
 30
0.0
 11
326.7251
 21
0.0127445
 31
0.0
  0
LINE
  5
AEB
330
1D
100
AcDbEntity
  8
0
100
AcDbLine
 10
327.3705
 20
0.0127445
 30
0.0
 11
326.7251
 21
0.0127445
 31
0.0
  0
LINE
  5
AEC
330
1D
100
AcDbEntity
  8
0
100
AcDbLine
 10
327.3705
 20
0.0127445
 30
0.0
 11
326.7251
 21
0.0127445
 31
0.0
  0
LINE
  5
AED
330
1D
100
AcDbEntity
  8
0
100
AcDbLine
 10
327.3705
 20
0.0127445
 30
0.0
 11
326.7251
 21
0.0127445
 31
0.0
  0
LINE
  5
AEE
330
1D
100
AcDbEntity
  8
0
100
AcDbLine
 10
327.3705
 20
0.0127445
 30
0.0
 11
326.7251
 21
0.0127445
 31
0.0
  0
LINE
  5
AEF
330
1D
100
AcDbEntity
  8
0
100
AcDbLine
 10
327.3705
 20
0.0127445
 30
0.0
 11
326.7251
 21
0.0127445
 31
0.0
  0
LINE
  5
AF0
330
1D
100
AcDbEntity
  8
0
100
AcDbLine
 10
327.3705
 20
0.0127445
 30
0.0
 11
326.7251
 21
0.0127445
 31
0.0
  0
LINE
  5
AF1
330
1D
100
AcDbEntity
  8
0
100
AcDbLine
 10
327.3705
 20
0.0127445
 30
0.0
 11
326.7251
 21
0.0127445
 31
0.0
  0
LINE
  5
AF2
330
1D
100
AcDbEntity
  8
0
100
AcDbLine
 10
327.3705
 20
0.0127445
 30
0.0
 11
326.7251
 21
0.0127445
 31
0.0
  0
LINE
  5
AF3
330
1D
100
AcDbEntity
  8
0
100
AcDbLine
 10
327.3705
 20
0.0127445
 30
0.0
 11
326.7251
 21
0.0127445
 31
0.0
  0
LINE
  5
AF4
330
1D
100
AcDbEntity
  8
0
100
AcDbLine
 10
327.3705
 20
0.0127445
 30
0.0
 11
326.7251
 21
0.0127445
 31
0.0
  0
LINE
  5
AF5
330
1D
100
AcDbEntity
  8
0
100
AcDbLine
 10
327.3705
 20
0.0127445
 30
0.0
 11
326.7251
 21
0.0127445
 31
0.0
  0
LINE
  5
AF6
330
1D
100
AcDbEntity
  8
0
100
AcDbLine
 10
327.3705
 20
0.0127445
 30
0.0
 11
326.7251
 21
0.0127445
 31
0.0
  0
LINE
  5
AF7
330
1D
100
AcDbEntity
  8
0
100
AcDbLine
 10
327.3705
 20
2.0127455
 30
0.0
 11
326.7251
 21
2.0127455
 31
0.0
  0
LINE
  5
AF8
330
1D
100
AcDbEntity
  8
0
100
AcDbLine
 10
323.7131
 20
0.0127445
 30
0.0
 11
323.0677
 21
0.0127445
 31
0.0
  0
LINE
  5
AF9
330
1D
100
AcDbEntity
  8
0
100
AcDbLine
 10
323.7131
 20
0.0127445
 30
0.0
 11
323.0677
 21
0.0127445
 31
0.0
  0
LINE
  5
AFA
330
1D
100
AcDbEntity
  8
0
100
AcDbLine
 10
323.7131
 20
0.0127445
 30
0.0
 11
323.0677
 21
0.0127445
 31
0.0
  0
LINE
  5
AFB
330
1D
100
AcDbEntity
  8
0
100
AcDbLine
 10
323.7131
 20
0.0127445
 30
0.0
 11
323.0677
 21
0.0127445
 31
0.0
  0
LINE
  5
AFC
330
1D
100
AcDbEntity
  8
0
100
AcDbLine
 10
323.7131
 20
0.0127445
 30
0.0
 11
323.0677
 21
0.0127445
 31
0.0
  0
LINE
  5
AFD
330
1D
100
AcDbEntity
  8
0
100
AcDbLine
 10
323.7131
 20
0.0127445
 30
0.0
 11
323.0677
 21
0.0127445
 31
0.0
  0
LINE
  5
AFE
330
1D
100
AcDbEntity
  8
0
100
AcDbLine
 10
323.7131
 20
0.0127445
 30
0.0
 11
323.0677
 21
0.0127445
 31
0.0
  0
LINE
  5
AFF
330
1D
100
AcDbEntity
  8
0
100
AcDbLine
 10
323.7131
 20
0.0127445
 30
0.0
 11
323.0677
 21
0.0127445
 31
0.0
  0
LINE
  5
B00
330
1D
100
AcDbEntity
  8
0
100
AcDbLine
 10
323.7131
 20
0.0127445
 30
0.0
 11
323.0677
 21
0.0127445
 31
0.0
  0
LINE
  5
B01
330
1D
100
AcDbEntity
  8
0
100
AcDbLine
 10
323.7131
 20
0.0127445
 30
0.0
 11
323.0677
 21
0.0127445
 31
0.0
  0
LINE
  5
B02
330
1D
100
AcDbEntity
  8
0
100
AcDbLine
 10
323.7131
 20
0.0127445
 30
0.0
 11
323.0677
 21
0.0127445
 31
0.0
  0
LINE
  5
B03
330
1D
100
AcDbEntity
  8
0
100
AcDbLine
 10
323.7131
 20
0.0127445
 30
0.0
 11
323.0677
 21
0.0127445
 31
0.0
  0
LINE
  5
B04
330
1D
100
AcDbEntity
  8
0
100
AcDbLine
 10
323.7131
 20
0.0127445
 30
0.0
 11
323.0677
 21
0.0127445
 31
0.0
  0
LINE
  5
B05
330
1D
100
AcDbEntity
  8
0
100
AcDbLine
 10
323.7131
 20
0.0127445
 30
0.0
 11
323.0677
 21
0.0127445
 31
0.0
  0
LINE
  5
B06
330
1D
100
AcDbEntity
  8
0
100
AcDbLine
 10
323.7131
 20
0.0127445
 30
0.0
 11
323.0677
 21
0.0127445
 31
0.0
  0
LINE
  5
B07
330
1D
100
AcDbEntity
  8
0
100
AcDbLine
 10
323.7131
 20
0.0127445
 30
0.0
 11
323.0677
 21
0.0127445
 31
0.0
  0
LINE
  5
B08
330
1D
100
AcDbEntity
  8
0
100
AcDbLine
 10
323.7131
 20
0.0127445
 30
0.0
 11
323.0677
 21
0.0127445
 31
0.0
  0
LINE
  5
B09
330
1D
100
AcDbEntity
  8
0
100
AcDbLine
 10
323.7131
 20
0.0127445
 30
0.0
 11
323.0677
 21
0.0127445
 31
0.0
  0
LINE
  5
B0A
330
1D
100
AcDbEntity
  8
0
100
AcDbLine
 10
323.7131
 20
0.0127445
 30
0.0
 11
323.0677
 21
0.0127445
 31
0.0
  0
LINE
  5
B0B
330
1D
100
AcDbEntity
  8
0
100
AcDbLine
 10
323.7131
 20
0.0127445
 30
0.0
 11
323.0677
 21
0.0127445
 31
0.0
  0
LINE
  5
B0C
330
1D
100
AcDbEntity
  8
0
100
AcDbLine
 10
323.7131
 20
2.0127455
 30
0.0
 11
323.0677
 21
2.0127455
 31
0.0
  0
LINE
  5
B0D
330
1D
100
AcDbEntity
  8
0
100
AcDbLine
 10
325.2191
 20
0.0127445
 30
0.0
 11
323.7131
 21
0.0127445
 31
0.0
  0
LINE
  5
B0E
330
1D
100
AcDbEntity
  8
0
100
AcDbLine
 10
325.2191
 20
0.0127445
 30
0.0
 11
323.7131
 21
0.0127445
 31
0.0
  0
LINE
  5
B0F
330
1D
100
AcDbEntity
  8
0
100
AcDbLine
 10
325.2191
 20
0.0127445
 30
0.0
 11
323.7131
 21
0.0127445
 31
0.0
  0
LINE
  5
B10
330
1D
100
AcDbEntity
  8
0
100
AcDbLine
 10
325.2191
 20
0.0127445
 30
0.0
 11
323.7131
 21
0.0127445
 31
0.0
  0
LINE
  5
B11
330
1D
100
AcDbEntity
  8
0
100
AcDbLine
 10
325.2191
 20
0.0127445
 30
0.0
 11
323.7131
 21
0.0127445
 31
0.0
  0
LINE
  5
B12
330
1D
100
AcDbEntity
  8
0
100
AcDbLine
 10
325.2191
 20
0.0127445
 30
0.0
 11
323.7131
 21
0.0127445
 31
0.0
  0
LINE
  5
B13
330
1D
100
AcDbEntity
  8
0
100
AcDbLine
 10
325.2191
 20
0.0127445
 30
0.0
 11
323.7131
 21
0.0127445
 31
0.0
  0
LINE
  5
B14
330
1D
100
AcDbEntity
  8
0
100
AcDbLine
 10
325.2191
 20
0.0127445
 30
0.0
 11
323.7131
 21
0.0127445
 31
0.0
  0
LINE
  5
B15
330
1D
100
AcDbEntity
  8
0
100
AcDbLine
 10
325.2191
 20
0.0127445
 30
0.0
 11
323.7131
 21
0.0127445
 31
0.0
  0
LINE
  5
B16
330
1D
100
AcDbEntity
  8
0
100
AcDbLine
 10
325.2191
 20
0.0127445
 30
0.0
 11
323.7131
 21
0.0127445
 31
0.0
  0
LINE
  5
B17
330
1D
100
AcDbEntity
  8
0
100
AcDbLine
 10
325.2191
 20
0.0127445
 30
0.0
 11
323.7131
 21
0.0127445
 31
0.0
  0
LINE
  5
B18
330
1D
100
AcDbEntity
  8
0
100
AcDbLine
 10
325.2191
 20
0.0127445
 30
0.0
 11
323.7131
 21
0.0127445
 31
0.0
  0
LINE
  5
B19
330
1D
100
AcDbEntity
  8
0
100
AcDbLine
 10
325.2191
 20
0.0127445
 30
0.0
 11
323.7131
 21
0.0127445
 31
0.0
  0
LINE
  5
B1A
330
1D
100
AcDbEntity
  8
0
100
AcDbLine
 10
325.2191
 20
0.0127445
 30
0.0
 11
323.7131
 21
0.0127445
 31
0.0
  0
LINE
  5
B1B
330
1D
100
AcDbEntity
  8
0
100
AcDbLine
 10
325.2191
 20
0.0127445
 30
0.0
 11
323.7131
 21
0.0127445
 31
0.0
  0
LINE
  5
B1C
330
1D
100
AcDbEntity
  8
0
100
AcDbLine
 10
325.2191
 20
0.0127445
 30
0.0
 11
323.7131
 21
0.0127445
 31
0.0
  0
LINE
  5
B1D
330
1D
100
AcDbEntity
  8
0
100
AcDbLine
 10
325.2191
 20
0.0127445
 30
0.0
 11
323.7131
 21
0.0127445
 31
0.0
  0
LINE
  5
B1E
330
1D
100
AcDbEntity
  8
0
100
AcDbLine
 10
325.2191
 20
0.0127445
 30
0.0
 11
323.7131
 21
0.0127445
 31
0.0
  0
LINE
  5
B1F
330
1D
100
AcDbEntity
  8
0
100
AcDbLine
 10
325.2191
 20
0.0127445
 30
0.0
 11
323.7131
 21
0.0127445
 31
0.0
  0
LINE
  5
B20
330
1D
100
AcDbEntity
  8
0
100
AcDbLine
 10
325.2191
 20
0.0127445
 30
0.0
 11
323.7131
 21
0.0127445
 31
0.0
  0
LINE
  5
B21
330
1D
100
AcDbEntity
  8
0
100
AcDbLine
 10
325.2191
 20
2.0127455
 30
0.0
 11
323.7131
 21
2.0127455
 31
0.0
  0
LINE
  5
B22
330
1D
100
AcDbEntity
  8
0
100
AcDbLine
 10
323.0677
 20
0.0127445
 30
0.0
 11
323.0677
 21
2.0127455
 31
0.0
  0
LINE
  5
B23
330
1D
100
AcDbEntity
  8
0
100
AcDbLine
 10
323.0677
 20
2.0127455
 30
0.0
 11
323.0677
 21
0.0127445
 31
0.0
  0
LINE
  5
B24
330
1D
100
AcDbEntity
  8
0
100
AcDbLine
 10
303.7052
 20
2.0127455
 30
0.0
 11
288.6454
 21
2.0127455
 31
0.0
  0
LINE
  5
B25
330
1D
100
AcDbEntity
  8
0
100
AcDbLine
 10
303.7052
 20
2.0127455
 30
0.0
 11
288.6454
 21
2.0127455
 31
0.0
  0
LINE
  5
B26
330
1D
100
AcDbEntity
  8
0
100
AcDbLine
 10
295.4582
 20
21.3460555
 30
0.0
 11
273.9442
 21
22.0127555
 31
0.0
  0
LINE
  5
B27
330
1D
100
AcDbEntity
  8
0
100
AcDbLine
 10
304.3506
 20
0.0127445
 30
0.0
 11
303.7052
 21
0.0127445
 31
0.0
  0
LINE
  5
B28
330
1D
100
AcDbEntity
  8
0
100
AcDbLine
 10
304.3506
 20
0.0127445
 30
0.0
 11
303.7052
 21
0.0127445
 31
0.0
  0
LINE
  5
B29
330
1D
100
AcDbEntity
  8
0
100
AcDbLine
 10
304.3506
 20
0.0127445
 30
0.0
 11
303.7052
 21
0.0127445
 31
0.0
  0
LINE
  5
B2A
330
1D
100
AcDbEntity
  8
0
100
AcDbLine
 10
304.3506
 20
0.0127445
 30
0.0
 11
303.7052
 21
0.0127445
 31
0.0
  0
LINE
  5
B2B
330
1D
100
AcDbEntity
  8
0
100
AcDbLine
 10
304.3506
 20
0.0127445
 30
0.0
 11
303.7052
 21
0.0127445
 31
0.0
  0
LINE
  5
B2C
330
1D
100
AcDbEntity
  8
0
100
AcDbLine
 10
304.3506
 20
0.0127445
 30
0.0
 11
303.7052
 21
0.0127445
 31
0.0
  0
LINE
  5
B2D
330
1D
100
AcDbEntity
  8
0
100
AcDbLine
 10
304.3506
 20
0.0127445
 30
0.0
 11
303.7052
 21
0.0127445
 31
0.0
  0
LINE
  5
B2E
330
1D
100
AcDbEntity
  8
0
100
AcDbLine
 10
304.3506
 20
0.0127445
 30
0.0
 11
303.7052
 21
0.0127445
 31
0.0
  0
LINE
  5
B2F
330
1D
100
AcDbEntity
  8
0
100
AcDbLine
 10
304.3506
 20
0.0127445
 30
0.0
 11
303.7052
 21
0.0127445
 31
0.0
  0
LINE
  5
B30
330
1D
100
AcDbEntity
  8
0
100
AcDbLine
 10
304.3506
 20
0.0127445
 30
0.0
 11
303.7052
 21
0.0127445
 31
0.0
  0
LINE
  5
B31
330
1D
100
AcDbEntity
  8
0
100
AcDbLine
 10
304.3506
 20
0.0127445
 30
0.0
 11
303.7052
 21
0.0127445
 31
0.0
  0
LINE
  5
B32
330
1D
100
AcDbEntity
  8
0
100
AcDbLine
 10
304.3506
 20
0.0127445
 30
0.0
 11
303.7052
 21
0.0127445
 31
0.0
  0
LINE
  5
B33
330
1D
100
AcDbEntity
  8
0
100
AcDbLine
 10
304.3506
 20
0.0127445
 30
0.0
 11
303.7052
 21
0.0127445
 31
0.0
  0
LINE
  5
B34
330
1D
100
AcDbEntity
  8
0
100
AcDbLine
 10
304.3506
 20
0.0127445
 30
0.0
 11
303.7052
 21
0.0127445
 31
0.0
  0
LINE
  5
B35
330
1D
100
AcDbEntity
  8
0
100
AcDbLine
 10
304.3506
 20
0.0127445
 30
0.0
 11
303.7052
 21
0.0127445
 31
0.0
  0
LINE
  5
B36
330
1D
100
AcDbEntity
  8
0
100
AcDbLine
 10
304.3506
 20
0.0127445
 30
0.0
 11
303.7052
 21
0.0127445
 31
0.0
  0
LINE
  5
B37
330
1D
100
AcDbEntity
  8
0
100
AcDbLine
 10
304.3506
 20
0.0127445
 30
0.0
 11
303.7052
 21
0.0127445
 31
0.0
  0
LINE
  5
B38
330
1D
100
AcDbEntity
  8
0
100
AcDbLine
 10
304.3506
 20
0.0127445
 30
0.0
 11
303.7052
 21
0.0127445
 31
0.0
  0
LINE
  5
B39
330
1D
100
AcDbEntity
  8
0
100
AcDbLine
 10
304.3506
 20
0.0127445
 30
0.0
 11
303.7052
 21
0.0127445
 31
0.0
  0
LINE
  5
B3A
330
1D
100
AcDbEntity
  8
0
100
AcDbLine
 10
304.3506
 20
0.0127445
 30
0.0
 11
303.7052
 21
0.0127445
 31
0.0
  0
LINE
  5
B3B
330
1D
100
AcDbEntity
  8
0
100
AcDbLine
 10
304.3506
 20
2.0127455
 30
0.0
 11
303.7052
 21
2.0127455
 31
0.0
  0
LINE
  5
B3C
330
1D
100
AcDbEntity
  8
0
100
AcDbLine
 10
308.3665
 20
20.6794555
 30
0.0
 11
295.4582
 21
21.3460555
 31
0.0
  0
LINE
  5
B3D
330
1D
100
AcDbEntity
  8
0
100
AcDbLine
 10
307.3625
 20
0.0127445
 30
0.0
 11
305.8566
 21
0.0127445
 31
0.0
  0
LINE
  5
B3E
330
1D
100
AcDbEntity
  8
0
100
AcDbLine
 10
307.3625
 20
0.0127445
 30
0.0
 11
305.8566
 21
0.0127445
 31
0.0
  0
LINE
  5
B3F
330
1D
100
AcDbEntity
  8
0
100
AcDbLine
 10
307.3625
 20
0.0127445
 30
0.0
 11
305.8566
 21
0.0127445
 31
0.0
  0
LINE
  5
B40
330
1D
100
AcDbEntity
  8
0
100
AcDbLine
 10
307.3625
 20
0.0127445
 30
0.0
 11
305.8566
 21
0.0127445
 31
0.0
  0
LINE
  5
B41
330
1D
100
AcDbEntity
  8
0
100
AcDbLine
 10
307.3625
 20
0.0127445
 30
0.0
 11
305.8566
 21
0.0127445
 31
0.0
  0
LINE
  5
B42
330
1D
100
AcDbEntity
  8
0
100
AcDbLine
 10
307.3625
 20
0.0127445
 30
0.0
 11
305.8566
 21
0.0127445
 31
0.0
  0
LINE
  5
B43
330
1D
100
AcDbEntity
  8
0
100
AcDbLine
 10
307.3625
 20
0.0127445
 30
0.0
 11
305.8566
 21
0.0127445
 31
0.0
  0
LINE
  5
B44
330
1D
100
AcDbEntity
  8
0
100
AcDbLine
 10
307.3625
 20
0.0127445
 30
0.0
 11
305.8566
 21
0.0127445
 31
0.0
  0
LINE
  5
B45
330
1D
100
AcDbEntity
  8
0
100
AcDbLine
 10
307.3625
 20
0.0127445
 30
0.0
 11
305.8566
 21
0.0127445
 31
0.0
  0
LINE
  5
B46
330
1D
100
AcDbEntity
  8
0
100
AcDbLine
 10
307.3625
 20
0.0127445
 30
0.0
 11
305.8566
 21
0.0127445
 31
0.0
  0
LINE
  5
B47
330
1D
100
AcDbEntity
  8
0
100
AcDbLine
 10
307.3625
 20
0.0127445
 30
0.0
 11
305.8566
 21
0.0127445
 31
0.0
  0
LINE
  5
B48
330
1D
100
AcDbEntity
  8
0
100
AcDbLine
 10
307.3625
 20
0.0127445
 30
0.0
 11
305.8566
 21
0.0127445
 31
0.0
  0
LINE
  5
B49
330
1D
100
AcDbEntity
  8
0
100
AcDbLine
 10
307.3625
 20
0.0127445
 30
0.0
 11
305.8566
 21
0.0127445
 31
0.0
  0
LINE
  5
B4A
330
1D
100
AcDbEntity
  8
0
100
AcDbLine
 10
307.3625
 20
0.0127445
 30
0.0
 11
305.8566
 21
0.0127445
 31
0.0
  0
LINE
  5
B4B
330
1D
100
AcDbEntity
  8
0
100
AcDbLine
 10
307.3625
 20
0.0127445
 30
0.0
 11
305.8566
 21
0.0127445
 31
0.0
  0
LINE
  5
B4C
330
1D
100
AcDbEntity
  8
0
100
AcDbLine
 10
307.3625
 20
0.0127445
 30
0.0
 11
305.8566
 21
0.0127445
 31
0.0
  0
LINE
  5
B4D
330
1D
100
AcDbEntity
  8
0
100
AcDbLine
 10
307.3625
 20
0.0127445
 30
0.0
 11
305.8566
 21
0.0127445
 31
0.0
  0
LINE
  5
B4E
330
1D
100
AcDbEntity
  8
0
100
AcDbLine
 10
307.3625
 20
0.0127445
 30
0.0
 11
305.8566
 21
0.0127445
 31
0.0
  0
LINE
  5
B4F
330
1D
100
AcDbEntity
  8
0
100
AcDbLine
 10
307.3625
 20
0.0127445
 30
0.0
 11
305.8566
 21
0.0127445
 31
0.0
  0
LINE
  5
B50
330
1D
100
AcDbEntity
  8
0
100
AcDbLine
 10
307.3625
 20
0.0127445
 30
0.0
 11
305.8566
 21
0.0127445
 31
0.0
  0
LINE
  5
B51
330
1D
100
AcDbEntity
  8
0
100
AcDbLine
 10
307.3625
 20
2.0127455
 30
0.0
 11
305.8566
 21
2.0127455
 31
0.0
  0
LINE
  5
B52
330
1D
100
AcDbEntity
  8
0
100
AcDbLine
 10
308.008
 20
0.0127445
 30
0.0
 11
307.3625
 21
0.0127445
 31
0.0
  0
LINE
  5
B53
330
1D
100
AcDbEntity
  8
0
100
AcDbLine
 10
308.008
 20
0.0127445
 30
0.0
 11
307.3625
 21
0.0127445
 31
0.0
  0
LINE
  5
B54
330
1D
100
AcDbEntity
  8
0
100
AcDbLine
 10
308.008
 20
0.0127445
 30
0.0
 11
307.3625
 21
0.0127445
 31
0.0
  0
LINE
  5
B55
330
1D
100
AcDbEntity
  8
0
100
AcDbLine
 10
308.008
 20
0.0127445
 30
0.0
 11
307.3625
 21
0.0127445
 31
0.0
  0
LINE
  5
B56
330
1D
100
AcDbEntity
  8
0
100
AcDbLine
 10
308.008
 20
0.0127445
 30
0.0
 11
307.3625
 21
0.0127445
 31
0.0
  0
LINE
  5
B57
330
1D
100
AcDbEntity
  8
0
100
AcDbLine
 10
308.008
 20
0.0127445
 30
0.0
 11
307.3625
 21
0.0127445
 31
0.0
  0
LINE
  5
B58
330
1D
100
AcDbEntity
  8
0
100
AcDbLine
 10
308.008
 20
0.0127445
 30
0.0
 11
307.3625
 21
0.0127445
 31
0.0
  0
LINE
  5
B59
330
1D
100
AcDbEntity
  8
0
100
AcDbLine
 10
308.008
 20
0.0127445
 30
0.0
 11
307.3625
 21
0.0127445
 31
0.0
  0
LINE
  5
B5A
330
1D
100
AcDbEntity
  8
0
100
AcDbLine
 10
308.008
 20
0.0127445
 30
0.0
 11
307.3625
 21
0.0127445
 31
0.0
  0
LINE
  5
B5B
330
1D
100
AcDbEntity
  8
0
100
AcDbLine
 10
308.008
 20
0.0127445
 30
0.0
 11
307.3625
 21
0.0127445
 31
0.0
  0
LINE
  5
B5C
330
1D
100
AcDbEntity
  8
0
100
AcDbLine
 10
308.008
 20
0.0127445
 30
0.0
 11
307.3625
 21
0.0127445
 31
0.0
  0
LINE
  5
B5D
330
1D
100
AcDbEntity
  8
0
100
AcDbLine
 10
308.008
 20
0.0127445
 30
0.0
 11
307.3625
 21
0.0127445
 31
0.0
  0
LINE
  5
B5E
330
1D
100
AcDbEntity
  8
0
100
AcDbLine
 10
308.008
 20
0.0127445
 30
0.0
 11
307.3625
 21
0.0127445
 31
0.0
  0
LINE
  5
B5F
330
1D
100
AcDbEntity
  8
0
100
AcDbLine
 10
308.008
 20
0.0127445
 30
0.0
 11
307.3625
 21
0.0127445
 31
0.0
  0
LINE
  5
B60
330
1D
100
AcDbEntity
  8
0
100
AcDbLine
 10
308.008
 20
0.0127445
 30
0.0
 11
307.3625
 21
0.0127445
 31
0.0
  0
LINE
  5
B61
330
1D
100
AcDbEntity
  8
0
100
AcDbLine
 10
308.008
 20
0.0127445
 30
0.0
 11
307.3625
 21
0.0127445
 31
0.0
  0
LINE
  5
B62
330
1D
100
AcDbEntity
  8
0
100
AcDbLine
 10
308.008
 20
0.0127445
 30
0.0
 11
307.3625
 21
0.0127445
 31
0.0
  0
LINE
  5
B63
330
1D
100
AcDbEntity
  8
0
100
AcDbLine
 10
308.008
 20
0.0127445
 30
0.0
 11
307.3625
 21
0.0127445
 31
0.0
  0
LINE
  5
B64
330
1D
100
AcDbEntity
  8
0
100
AcDbLine
 10
308.008
 20
0.0127445
 30
0.0
 11
307.3625
 21
0.0127445
 31
0.0
  0
LINE
  5
B65
330
1D
100
AcDbEntity
  8
0
100
AcDbLine
 10
308.008
 20
0.0127445
 30
0.0
 11
307.3625
 21
0.0127445
 31
0.0
  0
LINE
  5
B66
330
1D
100
AcDbEntity
  8
0
100
AcDbLine
 10
308.008
 20
2.0127455
 30
0.0
 11
307.3625
 21
2.0127455
 31
0.0
  0
LINE
  5
B67
330
1D
100
AcDbEntity
  8
0
100
AcDbLine
 10
308.008
 20
0.0127445
 30
0.0
 11
308.008
 21
2.0127455
 31
0.0
  0
LINE
  5
B68
330
1D
100
AcDbEntity
  8
0
100
AcDbLine
 10
308.008
 20
0.0127445
 30
0.0
 11
308.008
 21
2.0127455
 31
0.0
  0
LINE
  5
B69
330
1D
100
AcDbEntity
  8
0
100
AcDbLine
 10
308.008
 20
0.0127445
 30
0.0
 11
308.008
 21
2.0127455
 31
0.0
  0
LINE
  5
B6A
330
1D
100
AcDbEntity
  8
0
100
AcDbLine
 10
308.008
 20
0.0127445
 30
0.0
 11
308.008
 21
2.0127455
 31
0.0
  0
LINE
  5
B6B
330
1D
100
AcDbEntity
  8
0
100
AcDbLine
 10
308.008
 20
0.0127445
 30
0.0
 11
308.008
 21
2.0127455
 31
0.0
  0
LINE
  5
B6C
330
1D
100
AcDbEntity
  8
0
100
AcDbLine
 10
308.008
 20
0.0127445
 30
0.0
 11
308.008
 21
2.0127455
 31
0.0
  0
LINE
  5
B6D
330
1D
100
AcDbEntity
  8
0
100
AcDbLine
 10
308.008
 20
0.0127445
 30
0.0
 11
308.008
 21
2.0127455
 31
0.0
  0
LINE
  5
B6E
330
1D
100
AcDbEntity
  8
0
100
AcDbLine
 10
308.008
 20
0.0127445
 30
0.0
 11
308.008
 21
2.0127455
 31
0.0
  0
LINE
  5
B6F
330
1D
100
AcDbEntity
  8
0
100
AcDbLine
 10
308.008
 20
0.0127445
 30
0.0
 11
308.008
 21
2.0127455
 31
0.0
  0
LINE
  5
B70
330
1D
100
AcDbEntity
  8
0
100
AcDbLine
 10
308.008
 20
0.0127445
 30
0.0
 11
308.008
 21
2.0127455
 31
0.0
  0
LINE
  5
B71
330
1D
100
AcDbEntity
  8
0
100
AcDbLine
 10
308.008
 20
2.0127455
 30
0.0
 11
308.008
 21
0.0127445
 31
0.0
  0
LINE
  5
B72
330
1D
100
AcDbEntity
  8
0
100
AcDbLine
 10
308.008
 20
2.0127455
 30
0.0
 11
308.008
 21
0.0127445
 31
0.0
  0
LINE
  5
B73
330
1D
100
AcDbEntity
  8
0
100
AcDbLine
 10
308.008
 20
2.0127455
 30
0.0
 11
308.008
 21
0.0127445
 31
0.0
  0
LINE
  5
B74
330
1D
100
AcDbEntity
  8
0
100
AcDbLine
 10
308.008
 20
2.0127455
 30
0.0
 11
308.008
 21
0.0127445
 31
0.0
  0
LINE
  5
B75
330
1D
100
AcDbEntity
  8
0
100
AcDbLine
 10
308.008
 20
2.0127455
 30
0.0
 11
308.008
 21
0.0127445
 31
0.0
  0
LINE
  5
B76
330
1D
100
AcDbEntity
  8
0
100
AcDbLine
 10
308.008
 20
2.0127455
 30
0.0
 11
308.008
 21
0.0127445
 31
0.0
  0
LINE
  5
B77
330
1D
100
AcDbEntity
  8
0
100
AcDbLine
 10
308.008
 20
2.0127455
 30
0.0
 11
308.008
 21
0.0127445
 31
0.0
  0
LINE
  5
B78
330
1D
100
AcDbEntity
  8
0
100
AcDbLine
 10
308.008
 20
2.0127455
 30
0.0
 11
308.008
 21
0.0127445
 31
0.0
  0
LINE
  5
B79
330
1D
100
AcDbEntity
  8
0
100
AcDbLine
 10
308.008
 20
2.0127455
 30
0.0
 11
308.008
 21
0.0127445
 31
0.0
  0
LINE
  5
B7A
330
1D
100
AcDbEntity
  8
0
100
AcDbLine
 10
308.008
 20
2.0127455
 30
0.0
 11
308.008
 21
0.0127445
 31
0.0
  0
LINE
  5
B7B
330
1D
100
AcDbEntity
  8
0
100
AcDbLine
 10
305.8566
 20
0.0127445
 30
0.0
 11
304.3506
 21
0.0127445
 31
0.0
  0
LINE
  5
B7C
330
1D
100
AcDbEntity
  8
0
100
AcDbLine
 10
305.8566
 20
0.0127445
 30
0.0
 11
304.3506
 21
0.0127445
 31
0.0
  0
LINE
  5
B7D
330
1D
100
AcDbEntity
  8
0
100
AcDbLine
 10
305.8566
 20
0.0127445
 30
0.0
 11
304.3506
 21
0.0127445
 31
0.0
  0
LINE
  5
B7E
330
1D
100
AcDbEntity
  8
0
100
AcDbLine
 10
305.8566
 20
0.0127445
 30
0.0
 11
304.3506
 21
0.0127445
 31
0.0
  0
LINE
  5
B7F
330
1D
100
AcDbEntity
  8
0
100
AcDbLine
 10
305.8566
 20
0.0127445
 30
0.0
 11
304.3506
 21
0.0127445
 31
0.0
  0
LINE
  5
B80
330
1D
100
AcDbEntity
  8
0
100
AcDbLine
 10
305.8566
 20
0.0127445
 30
0.0
 11
304.3506
 21
0.0127445
 31
0.0
  0
LINE
  5
B81
330
1D
100
AcDbEntity
  8
0
100
AcDbLine
 10
305.8566
 20
0.0127445
 30
0.0
 11
304.3506
 21
0.0127445
 31
0.0
  0
LINE
  5
B82
330
1D
100
AcDbEntity
  8
0
100
AcDbLine
 10
305.8566
 20
0.0127445
 30
0.0
 11
304.3506
 21
0.0127445
 31
0.0
  0
LINE
  5
B83
330
1D
100
AcDbEntity
  8
0
100
AcDbLine
 10
305.8566
 20
0.0127445
 30
0.0
 11
304.3506
 21
0.0127445
 31
0.0
  0
LINE
  5
B84
330
1D
100
AcDbEntity
  8
0
100
AcDbLine
 10
305.8566
 20
0.0127445
 30
0.0
 11
304.3506
 21
0.0127445
 31
0.0
  0
LINE
  5
B85
330
1D
100
AcDbEntity
  8
0
100
AcDbLine
 10
305.8566
 20
0.0127445
 30
0.0
 11
304.3506
 21
0.0127445
 31
0.0
  0
LINE
  5
B86
330
1D
100
AcDbEntity
  8
0
100
AcDbLine
 10
305.8566
 20
0.0127445
 30
0.0
 11
304.3506
 21
0.0127445
 31
0.0
  0
LINE
  5
B87
330
1D
100
AcDbEntity
  8
0
100
AcDbLine
 10
305.8566
 20
0.0127445
 30
0.0
 11
304.3506
 21
0.0127445
 31
0.0
  0
LINE
  5
B88
330
1D
100
AcDbEntity
  8
0
100
AcDbLine
 10
305.8566
 20
0.0127445
 30
0.0
 11
304.3506
 21
0.0127445
 31
0.0
  0
LINE
  5
B89
330
1D
100
AcDbEntity
  8
0
100
AcDbLine
 10
305.8566
 20
0.0127445
 30
0.0
 11
304.3506
 21
0.0127445
 31
0.0
  0
LINE
  5
B8A
330
1D
100
AcDbEntity
  8
0
100
AcDbLine
 10
305.8566
 20
0.0127445
 30
0.0
 11
304.3506
 21
0.0127445
 31
0.0
  0
LINE
  5
B8B
330
1D
100
AcDbEntity
  8
0
100
AcDbLine
 10
305.8566
 20
0.0127445
 30
0.0
 11
304.3506
 21
0.0127445
 31
0.0
  0
LINE
  5
B8C
330
1D
100
AcDbEntity
  8
0
100
AcDbLine
 10
305.8566
 20
0.0127445
 30
0.0
 11
304.3506
 21
0.0127445
 31
0.0
  0
LINE
  5
B8D
330
1D
100
AcDbEntity
  8
0
100
AcDbLine
 10
305.8566
 20
0.0127445
 30
0.0
 11
304.3506
 21
0.0127445
 31
0.0
  0
LINE
  5
B8E
330
1D
100
AcDbEntity
  8
0
100
AcDbLine
 10
305.8566
 20
0.0127445
 30
0.0
 11
304.3506
 21
0.0127445
 31
0.0
  0
LINE
  5
B8F
330
1D
100
AcDbEntity
  8
0
100
AcDbLine
 10
305.8566
 20
2.0127455
 30
0.0
 11
304.3506
 21
2.0127455
 31
0.0
  0
LINE
  5
B90
330
1D
100
AcDbEntity
  8
0
100
AcDbLine
 10
303.7052
 20
0.0127445
 30
0.0
 11
303.7052
 21
2.0127455
 31
0.0
  0
LINE
  5
B91
330
1D
100
AcDbEntity
  8
0
100
AcDbLine
 10
303.7052
 20
2.0127455
 30
0.0
 11
303.7052
 21
0.0127445
 31
0.0
  0
LINE
  5
B92
330
1D
100
AcDbEntity
  8
0
100
AcDbLine
 10
288.0
 20
0.0127445
 30
0.0
 11
286.494
 21
0.0127445
 31
0.0
  0
LINE
  5
B93
330
1D
100
AcDbEntity
  8
0
100
AcDbLine
 10
288.0
 20
0.0127445
 30
0.0
 11
286.494
 21
0.0127445
 31
0.0
  0
LINE
  5
B94
330
1D
100
AcDbEntity
  8
0
100
AcDbLine
 10
288.0
 20
0.0127445
 30
0.0
 11
286.494
 21
0.0127445
 31
0.0
  0
LINE
  5
B95
330
1D
100
AcDbEntity
  8
0
100
AcDbLine
 10
288.0
 20
0.0127445
 30
0.0
 11
286.494
 21
0.0127445
 31
0.0
  0
LINE
  5
B96
330
1D
100
AcDbEntity
  8
0
100
AcDbLine
 10
288.0
 20
0.0127445
 30
0.0
 11
286.494
 21
0.0127445
 31
0.0
  0
LINE
  5
B97
330
1D
100
AcDbEntity
  8
0
100
AcDbLine
 10
288.0
 20
0.0127445
 30
0.0
 11
286.494
 21
0.0127445
 31
0.0
  0
LINE
  5
B98
330
1D
100
AcDbEntity
  8
0
100
AcDbLine
 10
288.0
 20
0.0127445
 30
0.0
 11
286.494
 21
0.0127445
 31
0.0
  0
LINE
  5
B99
330
1D
100
AcDbEntity
  8
0
100
AcDbLine
 10
288.0
 20
0.0127445
 30
0.0
 11
286.494
 21
0.0127445
 31
0.0
  0
LINE
  5
B9A
330
1D
100
AcDbEntity
  8
0
100
AcDbLine
 10
288.0
 20
0.0127445
 30
0.0
 11
286.494
 21
0.0127445
 31
0.0
  0
LINE
  5
B9B
330
1D
100
AcDbEntity
  8
0
100
AcDbLine
 10
288.0
 20
0.0127445
 30
0.0
 11
286.494
 21
0.0127445
 31
0.0
  0
LINE
  5
B9C
330
1D
100
AcDbEntity
  8
0
100
AcDbLine
 10
288.0
 20
0.0127445
 30
0.0
 11
286.494
 21
0.0127445
 31
0.0
  0
LINE
  5
B9D
330
1D
100
AcDbEntity
  8
0
100
AcDbLine
 10
288.0
 20
0.0127445
 30
0.0
 11
286.494
 21
0.0127445
 31
0.0
  0
LINE
  5
B9E
330
1D
100
AcDbEntity
  8
0
100
AcDbLine
 10
288.0
 20
0.0127445
 30
0.0
 11
286.494
 21
0.0127445
 31
0.0
  0
LINE
  5
B9F
330
1D
100
AcDbEntity
  8
0
100
AcDbLine
 10
288.0
 20
0.0127445
 30
0.0
 11
286.494
 21
0.0127445
 31
0.0
  0
LINE
  5
BA0
330
1D
100
AcDbEntity
  8
0
100
AcDbLine
 10
288.0
 20
0.0127445
 30
0.0
 11
286.494
 21
0.0127445
 31
0.0
  0
LINE
  5
BA1
330
1D
100
AcDbEntity
  8
0
100
AcDbLine
 10
288.0
 20
0.0127445
 30
0.0
 11
286.494
 21
0.0127445
 31
0.0
  0
LINE
  5
BA2
330
1D
100
AcDbEntity
  8
0
100
AcDbLine
 10
288.0
 20
0.0127445
 30
0.0
 11
286.494
 21
0.0127445
 31
0.0
  0
LINE
  5
BA3
330
1D
100
AcDbEntity
  8
0
100
AcDbLine
 10
288.0
 20
0.0127445
 30
0.0
 11
286.494
 21
0.0127445
 31
0.0
  0
LINE
  5
BA4
330
1D
100
AcDbEntity
  8
0
100
AcDbLine
 10
288.0
 20
0.0127445
 30
0.0
 11
286.494
 21
0.0127445
 31
0.0
  0
LINE
  5
BA5
330
1D
100
AcDbEntity
  8
0
100
AcDbLine
 10
288.0
 20
0.0127445
 30
0.0
 11
286.494
 21
0.0127445
 31
0.0
  0
LINE
  5
BA6
330
1D
100
AcDbEntity
  8
0
100
AcDbLine
 10
288.0
 20
2.0127455
 30
0.0
 11
286.494
 21
2.0127455
 31
0.0
  0
LINE
  5
BA7
330
1D
100
AcDbEntity
  8
0
100
AcDbLine
 10
288.6454
 20
0.0127445
 30
0.0
 11
288.0
 21
0.0127445
 31
0.0
  0
LINE
  5
BA8
330
1D
100
AcDbEntity
  8
0
100
AcDbLine
 10
288.6454
 20
0.0127445
 30
0.0
 11
288.0
 21
0.0127445
 31
0.0
  0
LINE
  5
BA9
330
1D
100
AcDbEntity
  8
0
100
AcDbLine
 10
288.6454
 20
0.0127445
 30
0.0
 11
288.0
 21
0.0127445
 31
0.0
  0
LINE
  5
BAA
330
1D
100
AcDbEntity
  8
0
100
AcDbLine
 10
288.6454
 20
0.0127445
 30
0.0
 11
288.0
 21
0.0127445
 31
0.0
  0
LINE
  5
BAB
330
1D
100
AcDbEntity
  8
0
100
AcDbLine
 10
288.6454
 20
0.0127445
 30
0.0
 11
288.0
 21
0.0127445
 31
0.0
  0
LINE
  5
BAC
330
1D
100
AcDbEntity
  8
0
100
AcDbLine
 10
288.6454
 20
0.0127445
 30
0.0
 11
288.0
 21
0.0127445
 31
0.0
  0
LINE
  5
BAD
330
1D
100
AcDbEntity
  8
0
100
AcDbLine
 10
288.6454
 20
0.0127445
 30
0.0
 11
288.0
 21
0.0127445
 31
0.0
  0
LINE
  5
BAE
330
1D
100
AcDbEntity
  8
0
100
AcDbLine
 10
288.6454
 20
0.0127445
 30
0.0
 11
288.0
 21
0.0127445
 31
0.0
  0
LINE
  5
BAF
330
1D
100
AcDbEntity
  8
0
100
AcDbLine
 10
288.6454
 20
0.0127445
 30
0.0
 11
288.0
 21
0.0127445
 31
0.0
  0
LINE
  5
BB0
330
1D
100
AcDbEntity
  8
0
100
AcDbLine
 10
288.6454
 20
0.0127445
 30
0.0
 11
288.0
 21
0.0127445
 31
0.0
  0
LINE
  5
BB1
330
1D
100
AcDbEntity
  8
0
100
AcDbLine
 10
288.6454
 20
0.0127445
 30
0.0
 11
288.0
 21
0.0127445
 31
0.0
  0
LINE
  5
BB2
330
1D
100
AcDbEntity
  8
0
100
AcDbLine
 10
288.6454
 20
0.0127445
 30
0.0
 11
288.0
 21
0.0127445
 31
0.0
  0
LINE
  5
BB3
330
1D
100
AcDbEntity
  8
0
100
AcDbLine
 10
288.6454
 20
0.0127445
 30
0.0
 11
288.0
 21
0.0127445
 31
0.0
  0
LINE
  5
BB4
330
1D
100
AcDbEntity
  8
0
100
AcDbLine
 10
288.6454
 20
0.0127445
 30
0.0
 11
288.0
 21
0.0127445
 31
0.0
  0
LINE
  5
BB5
330
1D
100
AcDbEntity
  8
0
100
AcDbLine
 10
288.6454
 20
0.0127445
 30
0.0
 11
288.0
 21
0.0127445
 31
0.0
  0
LINE
  5
BB6
330
1D
100
AcDbEntity
  8
0
100
AcDbLine
 10
288.6454
 20
0.0127445
 30
0.0
 11
288.0
 21
0.0127445
 31
0.0
  0
LINE
  5
BB7
330
1D
100
AcDbEntity
  8
0
100
AcDbLine
 10
288.6454
 20
0.0127445
 30
0.0
 11
288.0
 21
0.0127445
 31
0.0
  0
LINE
  5
BB8
330
1D
100
AcDbEntity
  8
0
100
AcDbLine
 10
288.6454
 20
0.0127445
 30
0.0
 11
288.0
 21
0.0127445
 31
0.0
  0
LINE
  5
BB9
330
1D
100
AcDbEntity
  8
0
100
AcDbLine
 10
288.6454
 20
0.0127445
 30
0.0
 11
288.0
 21
0.0127445
 31
0.0
  0
LINE
  5
BBA
330
1D
100
AcDbEntity
  8
0
100
AcDbLine
 10
288.6454
 20
0.0127445
 30
0.0
 11
288.0
 21
0.0127445
 31
0.0
  0
LINE
  5
BBB
330
1D
100
AcDbEntity
  8
0
100
AcDbLine
 10
288.6454
 20
2.0127455
 30
0.0
 11
288.0
 21
2.0127455
 31
0.0
  0
LINE
  5
BBC
330
1D
100
AcDbEntity
  8
0
100
AcDbLine
 10
288.6454
 20
0.0127445
 30
0.0
 11
288.6454
 21
2.0127455
 31
0.0
  0
LINE
  5
BBD
330
1D
100
AcDbEntity
  8
0
100
AcDbLine
 10
288.6454
 20
0.0127445
 30
0.0
 11
288.6454
 21
2.0127455
 31
0.0
  0
LINE
  5
BBE
330
1D
100
AcDbEntity
  8
0
100
AcDbLine
 10
288.6454
 20
0.0127445
 30
0.0
 11
288.6454
 21
2.0127455
 31
0.0
  0
LINE
  5
BBF
330
1D
100
AcDbEntity
  8
0
100
AcDbLine
 10
288.6454
 20
0.0127445
 30
0.0
 11
288.6454
 21
2.0127455
 31
0.0
  0
LINE
  5
BC0
330
1D
100
AcDbEntity
  8
0
100
AcDbLine
 10
288.6454
 20
0.0127445
 30
0.0
 11
288.6454
 21
2.0127455
 31
0.0
  0
LINE
  5
BC1
330
1D
100
AcDbEntity
  8
0
100
AcDbLine
 10
288.6454
 20
0.0127445
 30
0.0
 11
288.6454
 21
2.0127455
 31
0.0
  0
LINE
  5
BC2
330
1D
100
AcDbEntity
  8
0
100
AcDbLine
 10
288.6454
 20
0.0127445
 30
0.0
 11
288.6454
 21
2.0127455
 31
0.0
  0
LINE
  5
BC3
330
1D
100
AcDbEntity
  8
0
100
AcDbLine
 10
288.6454
 20
0.0127445
 30
0.0
 11
288.6454
 21
2.0127455
 31
0.0
  0
LINE
  5
BC4
330
1D
100
AcDbEntity
  8
0
100
AcDbLine
 10
288.6454
 20
0.0127445
 30
0.0
 11
288.6454
 21
2.0127455
 31
0.0
  0
LINE
  5
BC5
330
1D
100
AcDbEntity
  8
0
100
AcDbLine
 10
288.6454
 20
0.0127445
 30
0.0
 11
288.6454
 21
2.0127455
 31
0.0
  0
LINE
  5
BC6
330
1D
100
AcDbEntity
  8
0
100
AcDbLine
 10
288.6454
 20
2.0127455
 30
0.0
 11
288.6454
 21
0.0127445
 31
0.0
  0
LINE
  5
BC7
330
1D
100
AcDbEntity
  8
0
100
AcDbLine
 10
288.6454
 20
2.0127455
 30
0.0
 11
288.6454
 21
0.0127445
 31
0.0
  0
LINE
  5
BC8
330
1D
100
AcDbEntity
  8
0
100
AcDbLine
 10
288.6454
 20
2.0127455
 30
0.0
 11
288.6454
 21
0.0127445
 31
0.0
  0
LINE
  5
BC9
330
1D
100
AcDbEntity
  8
0
100
AcDbLine
 10
288.6454
 20
2.0127455
 30
0.0
 11
288.6454
 21
0.0127445
 31
0.0
  0
LINE
  5
BCA
330
1D
100
AcDbEntity
  8
0
100
AcDbLine
 10
288.6454
 20
2.0127455
 30
0.0
 11
288.6454
 21
0.0127445
 31
0.0
  0
LINE
  5
BCB
330
1D
100
AcDbEntity
  8
0
100
AcDbLine
 10
288.6454
 20
2.0127455
 30
0.0
 11
288.6454
 21
0.0127445
 31
0.0
  0
LINE
  5
BCC
330
1D
100
AcDbEntity
  8
0
100
AcDbLine
 10
288.6454
 20
2.0127455
 30
0.0
 11
288.6454
 21
0.0127445
 31
0.0
  0
LINE
  5
BCD
330
1D
100
AcDbEntity
  8
0
100
AcDbLine
 10
288.6454
 20
2.0127455
 30
0.0
 11
288.6454
 21
0.0127445
 31
0.0
  0
LINE
  5
BCE
330
1D
100
AcDbEntity
  8
0
100
AcDbLine
 10
288.6454
 20
2.0127455
 30
0.0
 11
288.6454
 21
0.0127445
 31
0.0
  0
LINE
  5
BCF
330
1D
100
AcDbEntity
  8
0
100
AcDbLine
 10
288.6454
 20
2.0127455
 30
0.0
 11
288.6454
 21
0.0127445
 31
0.0
  0
LINE
  5
BD0
330
1D
100
AcDbEntity
  8
0
100
AcDbLine
 10
286.494
 20
0.0127445
 30
0.0
 11
284.988
 21
0.0127445
 31
0.0
  0
LINE
  5
BD1
330
1D
100
AcDbEntity
  8
0
100
AcDbLine
 10
286.494
 20
0.0127445
 30
0.0
 11
284.988
 21
0.0127445
 31
0.0
  0
LINE
  5
BD2
330
1D
100
AcDbEntity
  8
0
100
AcDbLine
 10
286.494
 20
0.0127445
 30
0.0
 11
284.988
 21
0.0127445
 31
0.0
  0
LINE
  5
BD3
330
1D
100
AcDbEntity
  8
0
100
AcDbLine
 10
286.494
 20
0.0127445
 30
0.0
 11
284.988
 21
0.0127445
 31
0.0
  0
LINE
  5
BD4
330
1D
100
AcDbEntity
  8
0
100
AcDbLine
 10
286.494
 20
0.0127445
 30
0.0
 11
284.988
 21
0.0127445
 31
0.0
  0
LINE
  5
BD5
330
1D
100
AcDbEntity
  8
0
100
AcDbLine
 10
286.494
 20
0.0127445
 30
0.0
 11
284.988
 21
0.0127445
 31
0.0
  0
LINE
  5
BD6
330
1D
100
AcDbEntity
  8
0
100
AcDbLine
 10
286.494
 20
0.0127445
 30
0.0
 11
284.988
 21
0.0127445
 31
0.0
  0
LINE
  5
BD7
330
1D
100
AcDbEntity
  8
0
100
AcDbLine
 10
286.494
 20
0.0127445
 30
0.0
 11
284.988
 21
0.0127445
 31
0.0
  0
LINE
  5
BD8
330
1D
100
AcDbEntity
  8
0
100
AcDbLine
 10
286.494
 20
0.0127445
 30
0.0
 11
284.988
 21
0.0127445
 31
0.0
  0
LINE
  5
BD9
330
1D
100
AcDbEntity
  8
0
100
AcDbLine
 10
286.494
 20
0.0127445
 30
0.0
 11
284.988
 21
0.0127445
 31
0.0
  0
LINE
  5
BDA
330
1D
100
AcDbEntity
  8
0
100
AcDbLine
 10
286.494
 20
0.0127445
 30
0.0
 11
284.988
 21
0.0127445
 31
0.0
  0
LINE
  5
BDB
330
1D
100
AcDbEntity
  8
0
100
AcDbLine
 10
286.494
 20
0.0127445
 30
0.0
 11
284.988
 21
0.0127445
 31
0.0
  0
LINE
  5
BDC
330
1D
100
AcDbEntity
  8
0
100
AcDbLine
 10
286.494
 20
0.0127445
 30
0.0
 11
284.988
 21
0.0127445
 31
0.0
  0
LINE
  5
BDD
330
1D
100
AcDbEntity
  8
0
100
AcDbLine
 10
286.494
 20
0.0127445
 30
0.0
 11
284.988
 21
0.0127445
 31
0.0
  0
LINE
  5
BDE
330
1D
100
AcDbEntity
  8
0
100
AcDbLine
 10
286.494
 20
0.0127445
 30
0.0
 11
284.988
 21
0.0127445
 31
0.0
  0
LINE
  5
BDF
330
1D
100
AcDbEntity
  8
0
100
AcDbLine
 10
286.494
 20
0.0127445
 30
0.0
 11
284.988
 21
0.0127445
 31
0.0
  0
LINE
  5
BE0
330
1D
100
AcDbEntity
  8
0
100
AcDbLine
 10
286.494
 20
0.0127445
 30
0.0
 11
284.988
 21
0.0127445
 31
0.0
  0
LINE
  5
BE1
330
1D
100
AcDbEntity
  8
0
100
AcDbLine
 10
286.494
 20
0.0127445
 30
0.0
 11
284.988
 21
0.0127445
 31
0.0
  0
LINE
  5
BE2
330
1D
100
AcDbEntity
  8
0
100
AcDbLine
 10
286.494
 20
0.0127445
 30
0.0
 11
284.988
 21
0.0127445
 31
0.0
  0
LINE
  5
BE3
330
1D
100
AcDbEntity
  8
0
100
AcDbLine
 10
286.494
 20
0.0127445
 30
0.0
 11
284.988
 21
0.0127445
 31
0.0
  0
LINE
  5
BE4
330
1D
100
AcDbEntity
  8
0
100
AcDbLine
 10
286.494
 20
2.0127455
 30
0.0
 11
284.988
 21
2.0127455
 31
0.0
  0
LINE
  5
BE5
330
1D
100
AcDbEntity
  8
0
100
AcDbLine
 10
284.3426
 20
0.0127445
 30
0.0
 11
284.3426
 21
2.0127455
 31
0.0
  0
LINE
  5
BE6
330
1D
100
AcDbEntity
  8
0
100
AcDbLine
 10
284.3426
 20
2.0127455
 30
0.0
 11
284.3426
 21
0.0127445
 31
0.0
  0
LINE
  5
BE7
330
1D
100
AcDbEntity
  8
0
100
AcDbLine
 10
284.988
 20
0.0127445
 30
0.0
 11
284.3426
 21
0.0127445
 31
0.0
  0
LINE
  5
BE8
330
1D
100
AcDbEntity
  8
0
100
AcDbLine
 10
284.988
 20
0.0127445
 30
0.0
 11
284.3426
 21
0.0127445
 31
0.0
  0
LINE
  5
BE9
330
1D
100
AcDbEntity
  8
0
100
AcDbLine
 10
284.988
 20
0.0127445
 30
0.0
 11
284.3426
 21
0.0127445
 31
0.0
  0
LINE
  5
BEA
330
1D
100
AcDbEntity
  8
0
100
AcDbLine
 10
284.988
 20
0.0127445
 30
0.0
 11
284.3426
 21
0.0127445
 31
0.0
  0
LINE
  5
BEB
330
1D
100
AcDbEntity
  8
0
100
AcDbLine
 10
284.988
 20
0.0127445
 30
0.0
 11
284.3426
 21
0.0127445
 31
0.0
  0
LINE
  5
BEC
330
1D
100
AcDbEntity
  8
0
100
AcDbLine
 10
284.988
 20
0.0127445
 30
0.0
 11
284.3426
 21
0.0127445
 31
0.0
  0
LINE
  5
BED
330
1D
100
AcDbEntity
  8
0
100
AcDbLine
 10
284.988
 20
0.0127445
 30
0.0
 11
284.3426
 21
0.0127445
 31
0.0
  0
LINE
  5
BEE
330
1D
100
AcDbEntity
  8
0
100
AcDbLine
 10
284.988
 20
0.0127445
 30
0.0
 11
284.3426
 21
0.0127445
 31
0.0
  0
LINE
  5
BEF
330
1D
100
AcDbEntity
  8
0
100
AcDbLine
 10
284.988
 20
0.0127445
 30
0.0
 11
284.3426
 21
0.0127445
 31
0.0
  0
LINE
  5
BF0
330
1D
100
AcDbEntity
  8
0
100
AcDbLine
 10
284.988
 20
0.0127445
 30
0.0
 11
284.3426
 21
0.0127445
 31
0.0
  0
LINE
  5
BF1
330
1D
100
AcDbEntity
  8
0
100
AcDbLine
 10
284.988
 20
0.0127445
 30
0.0
 11
284.3426
 21
0.0127445
 31
0.0
  0
LINE
  5
BF2
330
1D
100
AcDbEntity
  8
0
100
AcDbLine
 10
284.988
 20
0.0127445
 30
0.0
 11
284.3426
 21
0.0127445
 31
0.0
  0
LINE
  5
BF3
330
1D
100
AcDbEntity
  8
0
100
AcDbLine
 10
284.988
 20
0.0127445
 30
0.0
 11
284.3426
 21
0.0127445
 31
0.0
  0
LINE
  5
BF4
330
1D
100
AcDbEntity
  8
0
100
AcDbLine
 10
284.988
 20
0.0127445
 30
0.0
 11
284.3426
 21
0.0127445
 31
0.0
  0
LINE
  5
BF5
330
1D
100
AcDbEntity
  8
0
100
AcDbLine
 10
284.988
 20
0.0127445
 30
0.0
 11
284.3426
 21
0.0127445
 31
0.0
  0
LINE
  5
BF6
330
1D
100
AcDbEntity
  8
0
100
AcDbLine
 10
284.988
 20
0.0127445
 30
0.0
 11
284.3426
 21
0.0127445
 31
0.0
  0
LINE
  5
BF7
330
1D
100
AcDbEntity
  8
0
100
AcDbLine
 10
284.988
 20
0.0127445
 30
0.0
 11
284.3426
 21
0.0127445
 31
0.0
  0
LINE
  5
BF8
330
1D
100
AcDbEntity
  8
0
100
AcDbLine
 10
284.988
 20
0.0127445
 30
0.0
 11
284.3426
 21
0.0127445
 31
0.0
  0
LINE
  5
BF9
330
1D
100
AcDbEntity
  8
0
100
AcDbLine
 10
284.988
 20
0.0127445
 30
0.0
 11
284.3426
 21
0.0127445
 31
0.0
  0
LINE
  5
BFA
330
1D
100
AcDbEntity
  8
0
100
AcDbLine
 10
284.988
 20
0.0127445
 30
0.0
 11
284.3426
 21
0.0127445
 31
0.0
  0
LINE
  5
BFB
330
1D
100
AcDbEntity
  8
0
100
AcDbLine
 10
284.988
 20
2.0127455
 30
0.0
 11
284.3426
 21
2.0127455
 31
0.0
  0
LINE
  5
BFC
330
1D
100
AcDbEntity
  8
0
100
AcDbLine
 10
273.1984
 20
22.0127555
 30
0.0
 11
272.7968
 21
22.0127555
 31
0.0
  0
LINE
  5
BFD
330
1D
100
AcDbEntity
  8
0
100
AcDbLine
 10
272.7968
 20
22.0127555
 30
0.0
 11
272.378
 21
22.0127555
 31
0.0
  0
LINE
  5
BFE
330
1D
100
AcDbEntity
  8
0
100
AcDbLine
 10
272.378
 20
22.0127555
 30
0.0
 11
271.9363
 21
22.0127555
 31
0.0
  0
LINE
  5
BFF
330
1D
100
AcDbEntity
  8
0
100
AcDbLine
 10
273.5139
 20
22.0127555
 30
0.0
 11
273.1984
 21
22.0127555
 31
0.0
  0
LINE
  5
C00
330
1D
100
AcDbEntity
  8
0
100
AcDbLine
 10
273.7434
 20
22.0127555
 30
0.0
 11
273.5139
 21
22.0127555
 31
0.0
  0
LINE
  5
C01
330
1D
100
AcDbEntity
  8
0
100
AcDbLine
 10
273.8926
 20
22.0127555
 30
0.0
 11
273.7434
 21
22.0127555
 31
0.0
  0
LINE
  5
C02
330
1D
100
AcDbEntity
  8
0
100
AcDbLine
 10
218.506
 20
92.2629555
 30
0.0
 11
218.12
 21
89.0217555
 31
0.0
  0
LINE
  5
C03
330
1D
100
AcDbEntity
  8
0
100
AcDbLine
 10
191.0
 20
87.0178555
 30
0.0
 11
191.0
 21
92.6452555
 31
0.0
  0
LINE
  5
C04
330
1D
100
AcDbEntity
  8
0
100
AcDbLine
 10
191.0
 20
92.6452555
 30
0.0
 11
191.0
 21
87.0178555
 31
0.0
  0
LINE
  5
C05
330
1D
100
AcDbEntity
  8
0
100
AcDbLine
 10
226.255
 20
2.0127455
 30
0.0
 11
211.195
 21
2.0127455
 31
0.0
  0
LINE
  5
C06
330
1D
100
AcDbEntity
  8
0
100
AcDbLine
 10
247.769
 20
0.0127445
 30
0.0
 11
246.263
 21
0.0127445
 31
0.0
  0
LINE
  5
C07
330
1D
100
AcDbEntity
  8
0
100
AcDbLine
 10
247.769
 20
0.0127445
 30
0.0
 11
246.263
 21
0.0127445
 31
0.0
  0
LINE
  5
C08
330
1D
100
AcDbEntity
  8
0
100
AcDbLine
 10
247.769
 20
0.0127445
 30
0.0
 11
246.263
 21
0.0127445
 31
0.0
  0
LINE
  5
C09
330
1D
100
AcDbEntity
  8
0
100
AcDbLine
 10
247.769
 20
0.0127445
 30
0.0
 11
246.263
 21
0.0127445
 31
0.0
  0
LINE
  5
C0A
330
1D
100
AcDbEntity
  8
0
100
AcDbLine
 10
247.769
 20
0.0127445
 30
0.0
 11
246.263
 21
0.0127445
 31
0.0
  0
LINE
  5
C0B
330
1D
100
AcDbEntity
  8
0
100
AcDbLine
 10
247.769
 20
0.0127445
 30
0.0
 11
246.263
 21
0.0127445
 31
0.0
  0
LINE
  5
C0C
330
1D
100
AcDbEntity
  8
0
100
AcDbLine
 10
247.769
 20
0.0127445
 30
0.0
 11
246.263
 21
0.0127445
 31
0.0
  0
LINE
  5
C0D
330
1D
100
AcDbEntity
  8
0
100
AcDbLine
 10
247.769
 20
0.0127445
 30
0.0
 11
246.263
 21
0.0127445
 31
0.0
  0
LINE
  5
C0E
330
1D
100
AcDbEntity
  8
0
100
AcDbLine
 10
247.769
 20
0.0127445
 30
0.0
 11
246.263
 21
0.0127445
 31
0.0
  0
LINE
  5
C0F
330
1D
100
AcDbEntity
  8
0
100
AcDbLine
 10
247.769
 20
0.0127445
 30
0.0
 11
246.263
 21
0.0127445
 31
0.0
  0
LINE
  5
C10
330
1D
100
AcDbEntity
  8
0
100
AcDbLine
 10
247.769
 20
0.0127445
 30
0.0
 11
246.263
 21
0.0127445
 31
0.0
  0
LINE
  5
C11
330
1D
100
AcDbEntity
  8
0
100
AcDbLine
 10
247.769
 20
0.0127445
 30
0.0
 11
246.263
 21
0.0127445
 31
0.0
  0
LINE
  5
C12
330
1D
100
AcDbEntity
  8
0
100
AcDbLine
 10
247.769
 20
0.0127445
 30
0.0
 11
246.263
 21
0.0127445
 31
0.0
  0
LINE
  5
C13
330
1D
100
AcDbEntity
  8
0
100
AcDbLine
 10
247.769
 20
0.0127445
 30
0.0
 11
246.263
 21
0.0127445
 31
0.0
  0
LINE
  5
C14
330
1D
100
AcDbEntity
  8
0
100
AcDbLine
 10
247.769
 20
0.0127445
 30
0.0
 11
246.263
 21
0.0127445
 31
0.0
  0
LINE
  5
C15
330
1D
100
AcDbEntity
  8
0
100
AcDbLine
 10
247.769
 20
0.0127445
 30
0.0
 11
246.263
 21
0.0127445
 31
0.0
  0
LINE
  5
C16
330
1D
100
AcDbEntity
  8
0
100
AcDbLine
 10
247.769
 20
0.0127445
 30
0.0
 11
246.263
 21
0.0127445
 31
0.0
  0
LINE
  5
C17
330
1D
100
AcDbEntity
  8
0
100
AcDbLine
 10
247.769
 20
0.0127445
 30
0.0
 11
246.263
 21
0.0127445
 31
0.0
  0
LINE
  5
C18
330
1D
100
AcDbEntity
  8
0
100
AcDbLine
 10
247.769
 20
0.0127445
 30
0.0
 11
246.263
 21
0.0127445
 31
0.0
  0
LINE
  5
C19
330
1D
100
AcDbEntity
  8
0
100
AcDbLine
 10
247.769
 20
0.0127445
 30
0.0
 11
246.263
 21
0.0127445
 31
0.0
  0
LINE
  5
C1A
330
1D
100
AcDbEntity
  8
0
100
AcDbLine
 10
247.769
 20
2.0127455
 30
0.0
 11
246.263
 21
2.0127455
 31
0.0
  0
LINE
  5
C1B
330
1D
100
AcDbEntity
  8
0
100
AcDbLine
 10
264.9801
 20
2.0127455
 30
0.0
 11
249.92
 21
2.0127455
 31
0.0
  0
LINE
  5
C1C
330
1D
100
AcDbEntity
  8
0
100
AcDbLine
 10
264.9801
 20
2.0127455
 30
0.0
 11
249.92
 21
2.0127455
 31
0.0
  0
LINE
  5
C1D
330
1D
100
AcDbEntity
  8
0
100
AcDbLine
 10
268.6375
 20
0.0127445
 30
0.0
 11
267.1315
 21
0.0127445
 31
0.0
  0
LINE
  5
C1E
330
1D
100
AcDbEntity
  8
0
100
AcDbLine
 10
268.6375
 20
0.0127445
 30
0.0
 11
267.1315
 21
0.0127445
 31
0.0
  0
LINE
  5
C1F
330
1D
100
AcDbEntity
  8
0
100
AcDbLine
 10
268.6375
 20
0.0127445
 30
0.0
 11
267.1315
 21
0.0127445
 31
0.0
  0
LINE
  5
C20
330
1D
100
AcDbEntity
  8
0
100
AcDbLine
 10
268.6375
 20
0.0127445
 30
0.0
 11
267.1315
 21
0.0127445
 31
0.0
  0
LINE
  5
C21
330
1D
100
AcDbEntity
  8
0
100
AcDbLine
 10
268.6375
 20
0.0127445
 30
0.0
 11
267.1315
 21
0.0127445
 31
0.0
  0
LINE
  5
C22
330
1D
100
AcDbEntity
  8
0
100
AcDbLine
 10
268.6375
 20
0.0127445
 30
0.0
 11
267.1315
 21
0.0127445
 31
0.0
  0
LINE
  5
C23
330
1D
100
AcDbEntity
  8
0
100
AcDbLine
 10
268.6375
 20
0.0127445
 30
0.0
 11
267.1315
 21
0.0127445
 31
0.0
  0
LINE
  5
C24
330
1D
100
AcDbEntity
  8
0
100
AcDbLine
 10
268.6375
 20
0.0127445
 30
0.0
 11
267.1315
 21
0.0127445
 31
0.0
  0
LINE
  5
C25
330
1D
100
AcDbEntity
  8
0
100
AcDbLine
 10
268.6375
 20
0.0127445
 30
0.0
 11
267.1315
 21
0.0127445
 31
0.0
  0
LINE
  5
C26
330
1D
100
AcDbEntity
  8
0
100
AcDbLine
 10
268.6375
 20
0.0127445
 30
0.0
 11
267.1315
 21
0.0127445
 31
0.0
  0
LINE
  5
C27
330
1D
100
AcDbEntity
  8
0
100
AcDbLine
 10
268.6375
 20
0.0127445
 30
0.0
 11
267.1315
 21
0.0127445
 31
0.0
  0
LINE
  5
C28
330
1D
100
AcDbEntity
  8
0
100
AcDbLine
 10
268.6375
 20
0.0127445
 30
0.0
 11
267.1315
 21
0.0127445
 31
0.0
  0
LINE
  5
C29
330
1D
100
AcDbEntity
  8
0
100
AcDbLine
 10
268.6375
 20
0.0127445
 30
0.0
 11
267.1315
 21
0.0127445
 31
0.0
  0
LINE
  5
C2A
330
1D
100
AcDbEntity
  8
0
100
AcDbLine
 10
268.6375
 20
0.0127445
 30
0.0
 11
267.1315
 21
0.0127445
 31
0.0
  0
LINE
  5
C2B
330
1D
100
AcDbEntity
  8
0
100
AcDbLine
 10
268.6375
 20
0.0127445
 30
0.0
 11
267.1315
 21
0.0127445
 31
0.0
  0
LINE
  5
C2C
330
1D
100
AcDbEntity
  8
0
100
AcDbLine
 10
268.6375
 20
0.0127445
 30
0.0
 11
267.1315
 21
0.0127445
 31
0.0
  0
LINE
  5
C2D
330
1D
100
AcDbEntity
  8
0
100
AcDbLine
 10
268.6375
 20
0.0127445
 30
0.0
 11
267.1315
 21
0.0127445
 31
0.0
  0
LINE
  5
C2E
330
1D
100
AcDbEntity
  8
0
100
AcDbLine
 10
268.6375
 20
0.0127445
 30
0.0
 11
267.1315
 21
0.0127445
 31
0.0
  0
LINE
  5
C2F
330
1D
100
AcDbEntity
  8
0
100
AcDbLine
 10
268.6375
 20
0.0127445
 30
0.0
 11
267.1315
 21
0.0127445
 31
0.0
  0
LINE
  5
C30
330
1D
100
AcDbEntity
  8
0
100
AcDbLine
 10
268.6375
 20
0.0127445
 30
0.0
 11
267.1315
 21
0.0127445
 31
0.0
  0
LINE
  5
C31
330
1D
100
AcDbEntity
  8
0
100
AcDbLine
 10
268.6375
 20
2.0127455
 30
0.0
 11
267.1315
 21
2.0127455
 31
0.0
  0
LINE
  5
C32
330
1D
100
AcDbEntity
  8
0
100
AcDbLine
 10
269.2829
 20
0.0127445
 30
0.0
 11
269.2829
 21
2.0127455
 31
0.0
  0
LINE
  5
C33
330
1D
100
AcDbEntity
  8
0
100
AcDbLine
 10
269.2829
 20
0.0127445
 30
0.0
 11
269.2829
 21
2.0127455
 31
0.0
  0
LINE
  5
C34
330
1D
100
AcDbEntity
  8
0
100
AcDbLine
 10
269.2829
 20
0.0127445
 30
0.0
 11
269.2829
 21
2.0127455
 31
0.0
  0
LINE
  5
C35
330
1D
100
AcDbEntity
  8
0
100
AcDbLine
 10
269.2829
 20
0.0127445
 30
0.0
 11
269.2829
 21
2.0127455
 31
0.0
  0
LINE
  5
C36
330
1D
100
AcDbEntity
  8
0
100
AcDbLine
 10
269.2829
 20
0.0127445
 30
0.0
 11
269.2829
 21
2.0127455
 31
0.0
  0
LINE
  5
C37
330
1D
100
AcDbEntity
  8
0
100
AcDbLine
 10
269.2829
 20
0.0127445
 30
0.0
 11
269.2829
 21
2.0127455
 31
0.0
  0
LINE
  5
C38
330
1D
100
AcDbEntity
  8
0
100
AcDbLine
 10
269.2829
 20
0.0127445
 30
0.0
 11
269.2829
 21
2.0127455
 31
0.0
  0
LINE
  5
C39
330
1D
100
AcDbEntity
  8
0
100
AcDbLine
 10
269.2829
 20
0.0127445
 30
0.0
 11
269.2829
 21
2.0127455
 31
0.0
  0
LINE
  5
C3A
330
1D
100
AcDbEntity
  8
0
100
AcDbLine
 10
269.2829
 20
0.0127445
 30
0.0
 11
269.2829
 21
2.0127455
 31
0.0
  0
LINE
  5
C3B
330
1D
100
AcDbEntity
  8
0
100
AcDbLine
 10
269.2829
 20
0.0127445
 30
0.0
 11
269.2829
 21
2.0127455
 31
0.0
  0
LINE
  5
C3C
330
1D
100
AcDbEntity
  8
0
100
AcDbLine
 10
269.2829
 20
2.0127455
 30
0.0
 11
269.2829
 21
0.0127445
 31
0.0
  0
LINE
  5
C3D
330
1D
100
AcDbEntity
  8
0
100
AcDbLine
 10
269.2829
 20
2.0127455
 30
0.0
 11
269.2829
 21
0.0127445
 31
0.0
  0
LINE
  5
C3E
330
1D
100
AcDbEntity
  8
0
100
AcDbLine
 10
269.2829
 20
2.0127455
 30
0.0
 11
269.2829
 21
0.0127445
 31
0.0
  0
LINE
  5
C3F
330
1D
100
AcDbEntity
  8
0
100
AcDbLine
 10
269.2829
 20
2.0127455
 30
0.0
 11
269.2829
 21
0.0127445
 31
0.0
  0
LINE
  5
C40
330
1D
100
AcDbEntity
  8
0
100
AcDbLine
 10
269.2829
 20
2.0127455
 30
0.0
 11
269.2829
 21
0.0127445
 31
0.0
  0
LINE
  5
C41
330
1D
100
AcDbEntity
  8
0
100
AcDbLine
 10
269.2829
 20
2.0127455
 30
0.0
 11
269.2829
 21
0.0127445
 31
0.0
  0
LINE
  5
C42
330
1D
100
AcDbEntity
  8
0
100
AcDbLine
 10
269.2829
 20
2.0127455
 30
0.0
 11
269.2829
 21
0.0127445
 31
0.0
  0
LINE
  5
C43
330
1D
100
AcDbEntity
  8
0
100
AcDbLine
 10
269.2829
 20
2.0127455
 30
0.0
 11
269.2829
 21
0.0127445
 31
0.0
  0
LINE
  5
C44
330
1D
100
AcDbEntity
  8
0
100
AcDbLine
 10
269.2829
 20
2.0127455
 30
0.0
 11
269.2829
 21
0.0127445
 31
0.0
  0
LINE
  5
C45
330
1D
100
AcDbEntity
  8
0
100
AcDbLine
 10
269.2829
 20
2.0127455
 30
0.0
 11
269.2829
 21
0.0127445
 31
0.0
  0
LINE
  5
C46
330
1D
100
AcDbEntity
  8
0
100
AcDbLine
 10
269.2829
 20
0.0127445
 30
0.0
 11
268.6375
 21
0.0127445
 31
0.0
  0
LINE
  5
C47
330
1D
100
AcDbEntity
  8
0
100
AcDbLine
 10
269.2829
 20
0.0127445
 30
0.0
 11
268.6375
 21
0.0127445
 31
0.0
  0
LINE
  5
C48
330
1D
100
AcDbEntity
  8
0
100
AcDbLine
 10
269.2829
 20
0.0127445
 30
0.0
 11
268.6375
 21
0.0127445
 31
0.0
  0
LINE
  5
C49
330
1D
100
AcDbEntity
  8
0
100
AcDbLine
 10
269.2829
 20
0.0127445
 30
0.0
 11
268.6375
 21
0.0127445
 31
0.0
  0
LINE
  5
C4A
330
1D
100
AcDbEntity
  8
0
100
AcDbLine
 10
269.2829
 20
0.0127445
 30
0.0
 11
268.6375
 21
0.0127445
 31
0.0
  0
LINE
  5
C4B
330
1D
100
AcDbEntity
  8
0
100
AcDbLine
 10
269.2829
 20
0.0127445
 30
0.0
 11
268.6375
 21
0.0127445
 31
0.0
  0
LINE
  5
C4C
330
1D
100
AcDbEntity
  8
0
100
AcDbLine
 10
269.2829
 20
0.0127445
 30
0.0
 11
268.6375
 21
0.0127445
 31
0.0
  0
LINE
  5
C4D
330
1D
100
AcDbEntity
  8
0
100
AcDbLine
 10
269.2829
 20
0.0127445
 30
0.0
 11
268.6375
 21
0.0127445
 31
0.0
  0
LINE
  5
C4E
330
1D
100
AcDbEntity
  8
0
100
AcDbLine
 10
269.2829
 20
0.0127445
 30
0.0
 11
268.6375
 21
0.0127445
 31
0.0
  0
LINE
  5
C4F
330
1D
100
AcDbEntity
  8
0
100
AcDbLine
 10
269.2829
 20
0.0127445
 30
0.0
 11
268.6375
 21
0.0127445
 31
0.0
  0
LINE
  5
C50
330
1D
100
AcDbEntity
  8
0
100
AcDbLine
 10
269.2829
 20
0.0127445
 30
0.0
 11
268.6375
 21
0.0127445
 31
0.0
  0
LINE
  5
C51
330
1D
100
AcDbEntity
  8
0
100
AcDbLine
 10
269.2829
 20
0.0127445
 30
0.0
 11
268.6375
 21
0.0127445
 31
0.0
  0
LINE
  5
C52
330
1D
100
AcDbEntity
  8
0
100
AcDbLine
 10
269.2829
 20
0.0127445
 30
0.0
 11
268.6375
 21
0.0127445
 31
0.0
  0
LINE
  5
C53
330
1D
100
AcDbEntity
  8
0
100
AcDbLine
 10
269.2829
 20
0.0127445
 30
0.0
 11
268.6375
 21
0.0127445
 31
0.0
  0
LINE
  5
C54
330
1D
100
AcDbEntity
  8
0
100
AcDbLine
 10
269.2829
 20
0.0127445
 30
0.0
 11
268.6375
 21
0.0127445
 31
0.0
  0
LINE
  5
C55
330
1D
100
AcDbEntity
  8
0
100
AcDbLine
 10
269.2829
 20
0.0127445
 30
0.0
 11
268.6375
 21
0.0127445
 31
0.0
  0
LINE
  5
C56
330
1D
100
AcDbEntity
  8
0
100
AcDbLine
 10
269.2829
 20
0.0127445
 30
0.0
 11
268.6375
 21
0.0127445
 31
0.0
  0
LINE
  5
C57
330
1D
100
AcDbEntity
  8
0
100
AcDbLine
 10
269.2829
 20
0.0127445
 30
0.0
 11
268.6375
 21
0.0127445
 31
0.0
  0
LINE
  5
C58
330
1D
100
AcDbEntity
  8
0
100
AcDbLine
 10
269.2829
 20
0.0127445
 30
0.0
 11
268.6375
 21
0.0127445
 31
0.0
  0
LINE
  5
C59
330
1D
100
AcDbEntity
  8
0
100
AcDbLine
 10
269.2829
 20
0.0127445
 30
0.0
 11
268.6375
 21
0.0127445
 31
0.0
  0
LINE
  5
C5A
330
1D
100
AcDbEntity
  8
0
100
AcDbLine
 10
269.2829
 20
2.0127455
 30
0.0
 11
268.6375
 21
2.0127455
 31
0.0
  0
LINE
  5
C5B
330
1D
100
AcDbEntity
  8
0
100
AcDbLine
 10
267.1315
 20
0.0127445
 30
0.0
 11
265.6255
 21
0.0127445
 31
0.0
  0
LINE
  5
C5C
330
1D
100
AcDbEntity
  8
0
100
AcDbLine
 10
267.1315
 20
0.0127445
 30
0.0
 11
265.6255
 21
0.0127445
 31
0.0
  0
LINE
  5
C5D
330
1D
100
AcDbEntity
  8
0
100
AcDbLine
 10
267.1315
 20
0.0127445
 30
0.0
 11
265.6255
 21
0.0127445
 31
0.0
  0
LINE
  5
C5E
330
1D
100
AcDbEntity
  8
0
100
AcDbLine
 10
267.1315
 20
0.0127445
 30
0.0
 11
265.6255
 21
0.0127445
 31
0.0
  0
LINE
  5
C5F
330
1D
100
AcDbEntity
  8
0
100
AcDbLine
 10
267.1315
 20
0.0127445
 30
0.0
 11
265.6255
 21
0.0127445
 31
0.0
  0
LINE
  5
C60
330
1D
100
AcDbEntity
  8
0
100
AcDbLine
 10
267.1315
 20
0.0127445
 30
0.0
 11
265.6255
 21
0.0127445
 31
0.0
  0
LINE
  5
C61
330
1D
100
AcDbEntity
  8
0
100
AcDbLine
 10
267.1315
 20
0.0127445
 30
0.0
 11
265.6255
 21
0.0127445
 31
0.0
  0
LINE
  5
C62
330
1D
100
AcDbEntity
  8
0
100
AcDbLine
 10
267.1315
 20
0.0127445
 30
0.0
 11
265.6255
 21
0.0127445
 31
0.0
  0
LINE
  5
C63
330
1D
100
AcDbEntity
  8
0
100
AcDbLine
 10
267.1315
 20
0.0127445
 30
0.0
 11
265.6255
 21
0.0127445
 31
0.0
  0
LINE
  5
C64
330
1D
100
AcDbEntity
  8
0
100
AcDbLine
 10
267.1315
 20
0.0127445
 30
0.0
 11
265.6255
 21
0.0127445
 31
0.0
  0
LINE
  5
C65
330
1D
100
AcDbEntity
  8
0
100
AcDbLine
 10
267.1315
 20
0.0127445
 30
0.0
 11
265.6255
 21
0.0127445
 31
0.0
  0
LINE
  5
C66
330
1D
100
AcDbEntity
  8
0
100
AcDbLine
 10
267.1315
 20
0.0127445
 30
0.0
 11
265.6255
 21
0.0127445
 31
0.0
  0
LINE
  5
C67
330
1D
100
AcDbEntity
  8
0
100
AcDbLine
 10
267.1315
 20
0.0127445
 30
0.0
 11
265.6255
 21
0.0127445
 31
0.0
  0
LINE
  5
C68
330
1D
100
AcDbEntity
  8
0
100
AcDbLine
 10
267.1315
 20
0.0127445
 30
0.0
 11
265.6255
 21
0.0127445
 31
0.0
  0
LINE
  5
C69
330
1D
100
AcDbEntity
  8
0
100
AcDbLine
 10
267.1315
 20
0.0127445
 30
0.0
 11
265.6255
 21
0.0127445
 31
0.0
  0
LINE
  5
C6A
330
1D
100
AcDbEntity
  8
0
100
AcDbLine
 10
267.1315
 20
0.0127445
 30
0.0
 11
265.6255
 21
0.0127445
 31
0.0
  0
LINE
  5
C6B
330
1D
100
AcDbEntity
  8
0
100
AcDbLine
 10
267.1315
 20
0.0127445
 30
0.0
 11
265.6255
 21
0.0127445
 31
0.0
  0
LINE
  5
C6C
330
1D
100
AcDbEntity
  8
0
100
AcDbLine
 10
267.1315
 20
0.0127445
 30
0.0
 11
265.6255
 21
0.0127445
 31
0.0
  0
LINE
  5
C6D
330
1D
100
AcDbEntity
  8
0
100
AcDbLine
 10
267.1315
 20
0.0127445
 30
0.0
 11
265.6255
 21
0.0127445
 31
0.0
  0
LINE
  5
C6E
330
1D
100
AcDbEntity
  8
0
100
AcDbLine
 10
267.1315
 20
0.0127445
 30
0.0
 11
265.6255
 21
0.0127445
 31
0.0
  0
LINE
  5
C6F
330
1D
100
AcDbEntity
  8
0
100
AcDbLine
 10
267.1315
 20
2.0127455
 30
0.0
 11
265.6255
 21
2.0127455
 31
0.0
  0
LINE
  5
C70
330
1D
100
AcDbEntity
  8
0
100
AcDbLine
 10
264.9801
 20
0.0127445
 30
0.0
 11
264.9801
 21
2.0127455
 31
0.0
  0
LINE
  5
C71
330
1D
100
AcDbEntity
  8
0
100
AcDbLine
 10
264.9801
 20
2.0127455
 30
0.0
 11
264.9801
 21
0.0127445
 31
0.0
  0
LINE
  5
C72
330
1D
100
AcDbEntity
  8
0
100
AcDbLine
 10
265.6255
 20
0.0127445
 30
0.0
 11
264.9801
 21
0.0127445
 31
0.0
  0
LINE
  5
C73
330
1D
100
AcDbEntity
  8
0
100
AcDbLine
 10
265.6255
 20
0.0127445
 30
0.0
 11
264.9801
 21
0.0127445
 31
0.0
  0
LINE
  5
C74
330
1D
100
AcDbEntity
  8
0
100
AcDbLine
 10
265.6255
 20
0.0127445
 30
0.0
 11
264.9801
 21
0.0127445
 31
0.0
  0
LINE
  5
C75
330
1D
100
AcDbEntity
  8
0
100
AcDbLine
 10
265.6255
 20
0.0127445
 30
0.0
 11
264.9801
 21
0.0127445
 31
0.0
  0
LINE
  5
C76
330
1D
100
AcDbEntity
  8
0
100
AcDbLine
 10
265.6255
 20
0.0127445
 30
0.0
 11
264.9801
 21
0.0127445
 31
0.0
  0
LINE
  5
C77
330
1D
100
AcDbEntity
  8
0
100
AcDbLine
 10
265.6255
 20
0.0127445
 30
0.0
 11
264.9801
 21
0.0127445
 31
0.0
  0
LINE
  5
C78
330
1D
100
AcDbEntity
  8
0
100
AcDbLine
 10
265.6255
 20
0.0127445
 30
0.0
 11
264.9801
 21
0.0127445
 31
0.0
  0
LINE
  5
C79
330
1D
100
AcDbEntity
  8
0
100
AcDbLine
 10
265.6255
 20
0.0127445
 30
0.0
 11
264.9801
 21
0.0127445
 31
0.0
  0
LINE
  5
C7A
330
1D
100
AcDbEntity
  8
0
100
AcDbLine
 10
265.6255
 20
0.0127445
 30
0.0
 11
264.9801
 21
0.0127445
 31
0.0
  0
LINE
  5
C7B
330
1D
100
AcDbEntity
  8
0
100
AcDbLine
 10
265.6255
 20
0.0127445
 30
0.0
 11
264.9801
 21
0.0127445
 31
0.0
  0
LINE
  5
C7C
330
1D
100
AcDbEntity
  8
0
100
AcDbLine
 10
265.6255
 20
0.0127445
 30
0.0
 11
264.9801
 21
0.0127445
 31
0.0
  0
LINE
  5
C7D
330
1D
100
AcDbEntity
  8
0
100
AcDbLine
 10
265.6255
 20
0.0127445
 30
0.0
 11
264.9801
 21
0.0127445
 31
0.0
  0
LINE
  5
C7E
330
1D
100
AcDbEntity
  8
0
100
AcDbLine
 10
265.6255
 20
0.0127445
 30
0.0
 11
264.9801
 21
0.0127445
 31
0.0
  0
LINE
  5
C7F
330
1D
100
AcDbEntity
  8
0
100
AcDbLine
 10
265.6255
 20
0.0127445
 30
0.0
 11
264.9801
 21
0.0127445
 31
0.0
  0
LINE
  5
C80
330
1D
100
AcDbEntity
  8
0
100
AcDbLine
 10
265.6255
 20
0.0127445
 30
0.0
 11
264.9801
 21
0.0127445
 31
0.0
  0
LINE
  5
C81
330
1D
100
AcDbEntity
  8
0
100
AcDbLine
 10
265.6255
 20
0.0127445
 30
0.0
 11
264.9801
 21
0.0127445
 31
0.0
  0
LINE
  5
C82
330
1D
100
AcDbEntity
  8
0
100
AcDbLine
 10
265.6255
 20
0.0127445
 30
0.0
 11
264.9801
 21
0.0127445
 31
0.0
  0
LINE
  5
C83
330
1D
100
AcDbEntity
  8
0
100
AcDbLine
 10
265.6255
 20
0.0127445
 30
0.0
 11
264.9801
 21
0.0127445
 31
0.0
  0
LINE
  5
C84
330
1D
100
AcDbEntity
  8
0
100
AcDbLine
 10
265.6255
 20
0.0127445
 30
0.0
 11
264.9801
 21
0.0127445
 31
0.0
  0
LINE
  5
C85
330
1D
100
AcDbEntity
  8
0
100
AcDbLine
 10
265.6255
 20
0.0127445
 30
0.0
 11
264.9801
 21
0.0127445
 31
0.0
  0
LINE
  5
C86
330
1D
100
AcDbEntity
  8
0
100
AcDbLine
 10
265.6255
 20
2.0127455
 30
0.0
 11
264.9801
 21
2.0127455
 31
0.0
  0
LINE
  5
C87
330
1D
100
AcDbEntity
  8
0
100
AcDbLine
 10
249.275
 20
0.0127445
 30
0.0
 11
247.769
 21
0.0127445
 31
0.0
  0
LINE
  5
C88
330
1D
100
AcDbEntity
  8
0
100
AcDbLine
 10
249.275
 20
0.0127445
 30
0.0
 11
247.769
 21
0.0127445
 31
0.0
  0
LINE
  5
C89
330
1D
100
AcDbEntity
  8
0
100
AcDbLine
 10
249.275
 20
0.0127445
 30
0.0
 11
247.769
 21
0.0127445
 31
0.0
  0
LINE
  5
C8A
330
1D
100
AcDbEntity
  8
0
100
AcDbLine
 10
249.275
 20
0.0127445
 30
0.0
 11
247.769
 21
0.0127445
 31
0.0
  0
LINE
  5
C8B
330
1D
100
AcDbEntity
  8
0
100
AcDbLine
 10
249.275
 20
0.0127445
 30
0.0
 11
247.769
 21
0.0127445
 31
0.0
  0
LINE
  5
C8C
330
1D
100
AcDbEntity
  8
0
100
AcDbLine
 10
249.275
 20
0.0127445
 30
0.0
 11
247.769
 21
0.0127445
 31
0.0
  0
LINE
  5
C8D
330
1D
100
AcDbEntity
  8
0
100
AcDbLine
 10
249.275
 20
0.0127445
 30
0.0
 11
247.769
 21
0.0127445
 31
0.0
  0
LINE
  5
C8E
330
1D
100
AcDbEntity
  8
0
100
AcDbLine
 10
249.275
 20
0.0127445
 30
0.0
 11
247.769
 21
0.0127445
 31
0.0
  0
LINE
  5
C8F
330
1D
100
AcDbEntity
  8
0
100
AcDbLine
 10
249.275
 20
0.0127445
 30
0.0
 11
247.769
 21
0.0127445
 31
0.0
  0
LINE
  5
C90
330
1D
100
AcDbEntity
  8
0
100
AcDbLine
 10
249.275
 20
0.0127445
 30
0.0
 11
247.769
 21
0.0127445
 31
0.0
  0
LINE
  5
C91
330
1D
100
AcDbEntity
  8
0
100
AcDbLine
 10
249.275
 20
0.0127445
 30
0.0
 11
247.769
 21
0.0127445
 31
0.0
  0
LINE
  5
C92
330
1D
100
AcDbEntity
  8
0
100
AcDbLine
 10
249.275
 20
0.0127445
 30
0.0
 11
247.769
 21
0.0127445
 31
0.0
  0
LINE
  5
C93
330
1D
100
AcDbEntity
  8
0
100
AcDbLine
 10
249.275
 20
0.0127445
 30
0.0
 11
247.769
 21
0.0127445
 31
0.0
  0
LINE
  5
C94
330
1D
100
AcDbEntity
  8
0
100
AcDbLine
 10
249.275
 20
0.0127445
 30
0.0
 11
247.769
 21
0.0127445
 31
0.0
  0
LINE
  5
C95
330
1D
100
AcDbEntity
  8
0
100
AcDbLine
 10
249.275
 20
0.0127445
 30
0.0
 11
247.769
 21
0.0127445
 31
0.0
  0
LINE
  5
C96
330
1D
100
AcDbEntity
  8
0
100
AcDbLine
 10
249.275
 20
0.0127445
 30
0.0
 11
247.769
 21
0.0127445
 31
0.0
  0
LINE
  5
C97
330
1D
100
AcDbEntity
  8
0
100
AcDbLine
 10
249.275
 20
0.0127445
 30
0.0
 11
247.769
 21
0.0127445
 31
0.0
  0
LINE
  5
C98
330
1D
100
AcDbEntity
  8
0
100
AcDbLine
 10
249.275
 20
0.0127445
 30
0.0
 11
247.769
 21
0.0127445
 31
0.0
  0
LINE
  5
C99
330
1D
100
AcDbEntity
  8
0
100
AcDbLine
 10
249.275
 20
0.0127445
 30
0.0
 11
247.769
 21
0.0127445
 31
0.0
  0
LINE
  5
C9A
330
1D
100
AcDbEntity
  8
0
100
AcDbLine
 10
249.275
 20
0.0127445
 30
0.0
 11
247.769
 21
0.0127445
 31
0.0
  0
LINE
  5
C9B
330
1D
100
AcDbEntity
  8
0
100
AcDbLine
 10
249.275
 20
2.0127455
 30
0.0
 11
247.769
 21
2.0127455
 31
0.0
  0
LINE
  5
C9C
330
1D
100
AcDbEntity
  8
0
100
AcDbLine
 10
249.92
 20
0.0127445
 30
0.0
 11
249.92
 21
2.0127455
 31
0.0
  0
LINE
  5
C9D
330
1D
100
AcDbEntity
  8
0
100
AcDbLine
 10
249.92
 20
0.0127445
 30
0.0
 11
249.92
 21
2.0127455
 31
0.0
  0
LINE
  5
C9E
330
1D
100
AcDbEntity
  8
0
100
AcDbLine
 10
249.92
 20
0.0127445
 30
0.0
 11
249.92
 21
2.0127455
 31
0.0
  0
LINE
  5
C9F
330
1D
100
AcDbEntity
  8
0
100
AcDbLine
 10
249.92
 20
0.0127445
 30
0.0
 11
249.92
 21
2.0127455
 31
0.0
  0
LINE
  5
CA0
330
1D
100
AcDbEntity
  8
0
100
AcDbLine
 10
249.92
 20
0.0127445
 30
0.0
 11
249.92
 21
2.0127455
 31
0.0
  0
LINE
  5
CA1
330
1D
100
AcDbEntity
  8
0
100
AcDbLine
 10
249.92
 20
0.0127445
 30
0.0
 11
249.92
 21
2.0127455
 31
0.0
  0
LINE
  5
CA2
330
1D
100
AcDbEntity
  8
0
100
AcDbLine
 10
249.92
 20
0.0127445
 30
0.0
 11
249.92
 21
2.0127455
 31
0.0
  0
LINE
  5
CA3
330
1D
100
AcDbEntity
  8
0
100
AcDbLine
 10
249.92
 20
0.0127445
 30
0.0
 11
249.92
 21
2.0127455
 31
0.0
  0
LINE
  5
CA4
330
1D
100
AcDbEntity
  8
0
100
AcDbLine
 10
249.92
 20
0.0127445
 30
0.0
 11
249.92
 21
2.0127455
 31
0.0
  0
LINE
  5
CA5
330
1D
100
AcDbEntity
  8
0
100
AcDbLine
 10
249.92
 20
0.0127445
 30
0.0
 11
249.92
 21
2.0127455
 31
0.0
  0
LINE
  5
CA6
330
1D
100
AcDbEntity
  8
0
100
AcDbLine
 10
249.92
 20
2.0127455
 30
0.0
 11
249.92
 21
0.0127445
 31
0.0
  0
LINE
  5
CA7
330
1D
100
AcDbEntity
  8
0
100
AcDbLine
 10
249.92
 20
2.0127455
 30
0.0
 11
249.92
 21
0.0127445
 31
0.0
  0
LINE
  5
CA8
330
1D
100
AcDbEntity
  8
0
100
AcDbLine
 10
249.92
 20
2.0127455
 30
0.0
 11
249.92
 21
0.0127445
 31
0.0
  0
LINE
  5
CA9
330
1D
100
AcDbEntity
  8
0
100
AcDbLine
 10
249.92
 20
2.0127455
 30
0.0
 11
249.92
 21
0.0127445
 31
0.0
  0
LINE
  5
CAA
330
1D
100
AcDbEntity
  8
0
100
AcDbLine
 10
249.92
 20
2.0127455
 30
0.0
 11
249.92
 21
0.0127445
 31
0.0
  0
LINE
  5
CAB
330
1D
100
AcDbEntity
  8
0
100
AcDbLine
 10
249.92
 20
2.0127455
 30
0.0
 11
249.92
 21
0.0127445
 31
0.0
  0
LINE
  5
CAC
330
1D
100
AcDbEntity
  8
0
100
AcDbLine
 10
249.92
 20
2.0127455
 30
0.0
 11
249.92
 21
0.0127445
 31
0.0
  0
LINE
  5
CAD
330
1D
100
AcDbEntity
  8
0
100
AcDbLine
 10
249.92
 20
2.0127455
 30
0.0
 11
249.92
 21
0.0127445
 31
0.0
  0
LINE
  5
CAE
330
1D
100
AcDbEntity
  8
0
100
AcDbLine
 10
249.92
 20
2.0127455
 30
0.0
 11
249.92
 21
0.0127445
 31
0.0
  0
LINE
  5
CAF
330
1D
100
AcDbEntity
  8
0
100
AcDbLine
 10
249.92
 20
2.0127455
 30
0.0
 11
249.92
 21
0.0127445
 31
0.0
  0
LINE
  5
CB0
330
1D
100
AcDbEntity
  8
0
100
AcDbLine
 10
249.92
 20
0.0127445
 30
0.0
 11
249.275
 21
0.0127445
 31
0.0
  0
LINE
  5
CB1
330
1D
100
AcDbEntity
  8
0
100
AcDbLine
 10
249.92
 20
0.0127445
 30
0.0
 11
249.275
 21
0.0127445
 31
0.0
  0
LINE
  5
CB2
330
1D
100
AcDbEntity
  8
0
100
AcDbLine
 10
249.92
 20
0.0127445
 30
0.0
 11
249.275
 21
0.0127445
 31
0.0
  0
LINE
  5
CB3
330
1D
100
AcDbEntity
  8
0
100
AcDbLine
 10
249.92
 20
0.0127445
 30
0.0
 11
249.275
 21
0.0127445
 31
0.0
  0
LINE
  5
CB4
330
1D
100
AcDbEntity
  8
0
100
AcDbLine
 10
249.92
 20
0.0127445
 30
0.0
 11
249.275
 21
0.0127445
 31
0.0
  0
LINE
  5
CB5
330
1D
100
AcDbEntity
  8
0
100
AcDbLine
 10
249.92
 20
0.0127445
 30
0.0
 11
249.275
 21
0.0127445
 31
0.0
  0
LINE
  5
CB6
330
1D
100
AcDbEntity
  8
0
100
AcDbLine
 10
249.92
 20
0.0127445
 30
0.0
 11
249.275
 21
0.0127445
 31
0.0
  0
LINE
  5
CB7
330
1D
100
AcDbEntity
  8
0
100
AcDbLine
 10
249.92
 20
0.0127445
 30
0.0
 11
249.275
 21
0.0127445
 31
0.0
  0
LINE
  5
CB8
330
1D
100
AcDbEntity
  8
0
100
AcDbLine
 10
249.92
 20
0.0127445
 30
0.0
 11
249.275
 21
0.0127445
 31
0.0
  0
LINE
  5
CB9
330
1D
100
AcDbEntity
  8
0
100
AcDbLine
 10
249.92
 20
0.0127445
 30
0.0
 11
249.275
 21
0.0127445
 31
0.0
  0
LINE
  5
CBA
330
1D
100
AcDbEntity
  8
0
100
AcDbLine
 10
249.92
 20
0.0127445
 30
0.0
 11
249.275
 21
0.0127445
 31
0.0
  0
LINE
  5
CBB
330
1D
100
AcDbEntity
  8
0
100
AcDbLine
 10
249.92
 20
0.0127445
 30
0.0
 11
249.275
 21
0.0127445
 31
0.0
  0
LINE
  5
CBC
330
1D
100
AcDbEntity
  8
0
100
AcDbLine
 10
249.92
 20
0.0127445
 30
0.0
 11
249.275
 21
0.0127445
 31
0.0
  0
LINE
  5
CBD
330
1D
100
AcDbEntity
  8
0
100
AcDbLine
 10
249.92
 20
0.0127445
 30
0.0
 11
249.275
 21
0.0127445
 31
0.0
  0
LINE
  5
CBE
330
1D
100
AcDbEntity
  8
0
100
AcDbLine
 10
249.92
 20
0.0127445
 30
0.0
 11
249.275
 21
0.0127445
 31
0.0
  0
LINE
  5
CBF
330
1D
100
AcDbEntity
  8
0
100
AcDbLine
 10
249.92
 20
0.0127445
 30
0.0
 11
249.275
 21
0.0127445
 31
0.0
  0
LINE
  5
CC0
330
1D
100
AcDbEntity
  8
0
100
AcDbLine
 10
249.92
 20
0.0127445
 30
0.0
 11
249.275
 21
0.0127445
 31
0.0
  0
LINE
  5
CC1
330
1D
100
AcDbEntity
  8
0
100
AcDbLine
 10
249.92
 20
0.0127445
 30
0.0
 11
249.275
 21
0.0127445
 31
0.0
  0
LINE
  5
CC2
330
1D
100
AcDbEntity
  8
0
100
AcDbLine
 10
249.92
 20
0.0127445
 30
0.0
 11
249.275
 21
0.0127445
 31
0.0
  0
LINE
  5
CC3
330
1D
100
AcDbEntity
  8
0
100
AcDbLine
 10
249.92
 20
0.0127445
 30
0.0
 11
249.275
 21
0.0127445
 31
0.0
  0
LINE
  5
CC4
330
1D
100
AcDbEntity
  8
0
100
AcDbLine
 10
249.92
 20
2.0127455
 30
0.0
 11
249.275
 21
2.0127455
 31
0.0
  0
LINE
  5
CC5
330
1D
100
AcDbEntity
  8
0
100
AcDbLine
 10
245.618
 20
2.0127455
 30
0.0
 11
230.558
 21
2.0127455
 31
0.0
  0
LINE
  5
CC6
330
1D
100
AcDbEntity
  8
0
100
AcDbLine
 10
246.263
 20
0.0127445
 30
0.0
 11
245.618
 21
0.0127445
 31
0.0
  0
LINE
  5
CC7
330
1D
100
AcDbEntity
  8
0
100
AcDbLine
 10
246.263
 20
0.0127445
 30
0.0
 11
245.618
 21
0.0127445
 31
0.0
  0
LINE
  5
CC8
330
1D
100
AcDbEntity
  8
0
100
AcDbLine
 10
246.263
 20
0.0127445
 30
0.0
 11
245.618
 21
0.0127445
 31
0.0
  0
LINE
  5
CC9
330
1D
100
AcDbEntity
  8
0
100
AcDbLine
 10
246.263
 20
0.0127445
 30
0.0
 11
245.618
 21
0.0127445
 31
0.0
  0
LINE
  5
CCA
330
1D
100
AcDbEntity
  8
0
100
AcDbLine
 10
246.263
 20
0.0127445
 30
0.0
 11
245.618
 21
0.0127445
 31
0.0
  0
LINE
  5
CCB
330
1D
100
AcDbEntity
  8
0
100
AcDbLine
 10
246.263
 20
0.0127445
 30
0.0
 11
245.618
 21
0.0127445
 31
0.0
  0
LINE
  5
CCC
330
1D
100
AcDbEntity
  8
0
100
AcDbLine
 10
246.263
 20
0.0127445
 30
0.0
 11
245.618
 21
0.0127445
 31
0.0
  0
LINE
  5
CCD
330
1D
100
AcDbEntity
  8
0
100
AcDbLine
 10
246.263
 20
0.0127445
 30
0.0
 11
245.618
 21
0.0127445
 31
0.0
  0
LINE
  5
CCE
330
1D
100
AcDbEntity
  8
0
100
AcDbLine
 10
246.263
 20
0.0127445
 30
0.0
 11
245.618
 21
0.0127445
 31
0.0
  0
LINE
  5
CCF
330
1D
100
AcDbEntity
  8
0
100
AcDbLine
 10
246.263
 20
0.0127445
 30
0.0
 11
245.618
 21
0.0127445
 31
0.0
  0
LINE
  5
CD0
330
1D
100
AcDbEntity
  8
0
100
AcDbLine
 10
246.263
 20
0.0127445
 30
0.0
 11
245.618
 21
0.0127445
 31
0.0
  0
LINE
  5
CD1
330
1D
100
AcDbEntity
  8
0
100
AcDbLine
 10
246.263
 20
0.0127445
 30
0.0
 11
245.618
 21
0.0127445
 31
0.0
  0
LINE
  5
CD2
330
1D
100
AcDbEntity
  8
0
100
AcDbLine
 10
246.263
 20
0.0127445
 30
0.0
 11
245.618
 21
0.0127445
 31
0.0
  0
LINE
  5
CD3
330
1D
100
AcDbEntity
  8
0
100
AcDbLine
 10
246.263
 20
0.0127445
 30
0.0
 11
245.618
 21
0.0127445
 31
0.0
  0
LINE
  5
CD4
330
1D
100
AcDbEntity
  8
0
100
AcDbLine
 10
246.263
 20
0.0127445
 30
0.0
 11
245.618
 21
0.0127445
 31
0.0
  0
LINE
  5
CD5
330
1D
100
AcDbEntity
  8
0
100
AcDbLine
 10
246.263
 20
0.0127445
 30
0.0
 11
245.618
 21
0.0127445
 31
0.0
  0
LINE
  5
CD6
330
1D
100
AcDbEntity
  8
0
100
AcDbLine
 10
246.263
 20
0.0127445
 30
0.0
 11
245.618
 21
0.0127445
 31
0.0
  0
LINE
  5
CD7
330
1D
100
AcDbEntity
  8
0
100
AcDbLine
 10
246.263
 20
0.0127445
 30
0.0
 11
245.618
 21
0.0127445
 31
0.0
  0
LINE
  5
CD8
330
1D
100
AcDbEntity
  8
0
100
AcDbLine
 10
246.263
 20
0.0127445
 30
0.0
 11
245.618
 21
0.0127445
 31
0.0
  0
LINE
  5
CD9
330
1D
100
AcDbEntity
  8
0
100
AcDbLine
 10
246.263
 20
0.0127445
 30
0.0
 11
245.618
 21
0.0127445
 31
0.0
  0
LINE
  5
CDA
330
1D
100
AcDbEntity
  8
0
100
AcDbLine
 10
246.263
 20
2.0127455
 30
0.0
 11
245.618
 21
2.0127455
 31
0.0
  0
LINE
  5
CDB
330
1D
100
AcDbEntity
  8
0
100
AcDbLine
 10
245.618
 20
0.0127445
 30
0.0
 11
245.618
 21
2.0127455
 31
0.0
  0
LINE
  5
CDC
330
1D
100
AcDbEntity
  8
0
100
AcDbLine
 10
245.618
 20
2.0127455
 30
0.0
 11
245.618
 21
0.0127445
 31
0.0
  0
LINE
  5
CDD
330
1D
100
AcDbEntity
  8
0
100
AcDbLine
 10
228.406
 20
0.0127445
 30
0.0
 11
226.9
 21
0.0127445
 31
0.0
  0
LINE
  5
CDE
330
1D
100
AcDbEntity
  8
0
100
AcDbLine
 10
228.406
 20
0.0127445
 30
0.0
 11
226.9
 21
0.0127445
 31
0.0
  0
LINE
  5
CDF
330
1D
100
AcDbEntity
  8
0
100
AcDbLine
 10
228.406
 20
0.0127445
 30
0.0
 11
226.9
 21
0.0127445
 31
0.0
  0
LINE
  5
CE0
330
1D
100
AcDbEntity
  8
0
100
AcDbLine
 10
228.406
 20
0.0127445
 30
0.0
 11
226.9
 21
0.0127445
 31
0.0
  0
LINE
  5
CE1
330
1D
100
AcDbEntity
  8
0
100
AcDbLine
 10
228.406
 20
0.0127445
 30
0.0
 11
226.9
 21
0.0127445
 31
0.0
  0
LINE
  5
CE2
330
1D
100
AcDbEntity
  8
0
100
AcDbLine
 10
228.406
 20
0.0127445
 30
0.0
 11
226.9
 21
0.0127445
 31
0.0
  0
LINE
  5
CE3
330
1D
100
AcDbEntity
  8
0
100
AcDbLine
 10
228.406
 20
0.0127445
 30
0.0
 11
226.9
 21
0.0127445
 31
0.0
  0
LINE
  5
CE4
330
1D
100
AcDbEntity
  8
0
100
AcDbLine
 10
228.406
 20
0.0127445
 30
0.0
 11
226.9
 21
0.0127445
 31
0.0
  0
LINE
  5
CE5
330
1D
100
AcDbEntity
  8
0
100
AcDbLine
 10
228.406
 20
0.0127445
 30
0.0
 11
226.9
 21
0.0127445
 31
0.0
  0
LINE
  5
CE6
330
1D
100
AcDbEntity
  8
0
100
AcDbLine
 10
228.406
 20
0.0127445
 30
0.0
 11
226.9
 21
0.0127445
 31
0.0
  0
LINE
  5
CE7
330
1D
100
AcDbEntity
  8
0
100
AcDbLine
 10
228.406
 20
0.0127445
 30
0.0
 11
226.9
 21
0.0127445
 31
0.0
  0
LINE
  5
CE8
330
1D
100
AcDbEntity
  8
0
100
AcDbLine
 10
228.406
 20
0.0127445
 30
0.0
 11
226.9
 21
0.0127445
 31
0.0
  0
LINE
  5
CE9
330
1D
100
AcDbEntity
  8
0
100
AcDbLine
 10
228.406
 20
0.0127445
 30
0.0
 11
226.9
 21
0.0127445
 31
0.0
  0
LINE
  5
CEA
330
1D
100
AcDbEntity
  8
0
100
AcDbLine
 10
228.406
 20
0.0127445
 30
0.0
 11
226.9
 21
0.0127445
 31
0.0
  0
LINE
  5
CEB
330
1D
100
AcDbEntity
  8
0
100
AcDbLine
 10
228.406
 20
0.0127445
 30
0.0
 11
226.9
 21
0.0127445
 31
0.0
  0
LINE
  5
CEC
330
1D
100
AcDbEntity
  8
0
100
AcDbLine
 10
228.406
 20
0.0127445
 30
0.0
 11
226.9
 21
0.0127445
 31
0.0
  0
LINE
  5
CED
330
1D
100
AcDbEntity
  8
0
100
AcDbLine
 10
228.406
 20
0.0127445
 30
0.0
 11
226.9
 21
0.0127445
 31
0.0
  0
LINE
  5
CEE
330
1D
100
AcDbEntity
  8
0
100
AcDbLine
 10
228.406
 20
0.0127445
 30
0.0
 11
226.9
 21
0.0127445
 31
0.0
  0
LINE
  5
CEF
330
1D
100
AcDbEntity
  8
0
100
AcDbLine
 10
228.406
 20
0.0127445
 30
0.0
 11
226.9
 21
0.0127445
 31
0.0
  0
LINE
  5
CF0
330
1D
100
AcDbEntity
  8
0
100
AcDbLine
 10
228.406
 20
0.0127445
 30
0.0
 11
226.9
 21
0.0127445
 31
0.0
  0
LINE
  5
CF1
330
1D
100
AcDbEntity
  8
0
100
AcDbLine
 10
228.406
 20
2.0127455
 30
0.0
 11
226.9
 21
2.0127455
 31
0.0
  0
LINE
  5
CF2
330
1D
100
AcDbEntity
  8
0
100
AcDbLine
 10
229.912
 20
0.0127445
 30
0.0
 11
228.406
 21
0.0127445
 31
0.0
  0
LINE
  5
CF3
330
1D
100
AcDbEntity
  8
0
100
AcDbLine
 10
229.912
 20
0.0127445
 30
0.0
 11
228.406
 21
0.0127445
 31
0.0
  0
LINE
  5
CF4
330
1D
100
AcDbEntity
  8
0
100
AcDbLine
 10
229.912
 20
0.0127445
 30
0.0
 11
228.406
 21
0.0127445
 31
0.0
  0
LINE
  5
CF5
330
1D
100
AcDbEntity
  8
0
100
AcDbLine
 10
229.912
 20
0.0127445
 30
0.0
 11
228.406
 21
0.0127445
 31
0.0
  0
LINE
  5
CF6
330
1D
100
AcDbEntity
  8
0
100
AcDbLine
 10
229.912
 20
0.0127445
 30
0.0
 11
228.406
 21
0.0127445
 31
0.0
  0
LINE
  5
CF7
330
1D
100
AcDbEntity
  8
0
100
AcDbLine
 10
229.912
 20
0.0127445
 30
0.0
 11
228.406
 21
0.0127445
 31
0.0
  0
LINE
  5
CF8
330
1D
100
AcDbEntity
  8
0
100
AcDbLine
 10
229.912
 20
0.0127445
 30
0.0
 11
228.406
 21
0.0127445
 31
0.0
  0
LINE
  5
CF9
330
1D
100
AcDbEntity
  8
0
100
AcDbLine
 10
229.912
 20
0.0127445
 30
0.0
 11
228.406
 21
0.0127445
 31
0.0
  0
LINE
  5
CFA
330
1D
100
AcDbEntity
  8
0
100
AcDbLine
 10
229.912
 20
0.0127445
 30
0.0
 11
228.406
 21
0.0127445
 31
0.0
  0
LINE
  5
CFB
330
1D
100
AcDbEntity
  8
0
100
AcDbLine
 10
229.912
 20
0.0127445
 30
0.0
 11
228.406
 21
0.0127445
 31
0.0
  0
LINE
  5
CFC
330
1D
100
AcDbEntity
  8
0
100
AcDbLine
 10
229.912
 20
0.0127445
 30
0.0
 11
228.406
 21
0.0127445
 31
0.0
  0
LINE
  5
CFD
330
1D
100
AcDbEntity
  8
0
100
AcDbLine
 10
229.912
 20
0.0127445
 30
0.0
 11
228.406
 21
0.0127445
 31
0.0
  0
LINE
  5
CFE
330
1D
100
AcDbEntity
  8
0
100
AcDbLine
 10
229.912
 20
0.0127445
 30
0.0
 11
228.406
 21
0.0127445
 31
0.0
  0
LINE
  5
CFF
330
1D
100
AcDbEntity
  8
0
100
AcDbLine
 10
229.912
 20
0.0127445
 30
0.0
 11
228.406
 21
0.0127445
 31
0.0
  0
LINE
  5
D00
330
1D
100
AcDbEntity
  8
0
100
AcDbLine
 10
229.912
 20
0.0127445
 30
0.0
 11
228.406
 21
0.0127445
 31
0.0
  0
LINE
  5
D01
330
1D
100
AcDbEntity
  8
0
100
AcDbLine
 10
229.912
 20
0.0127445
 30
0.0
 11
228.406
 21
0.0127445
 31
0.0
  0
LINE
  5
D02
330
1D
100
AcDbEntity
  8
0
100
AcDbLine
 10
229.912
 20
0.0127445
 30
0.0
 11
228.406
 21
0.0127445
 31
0.0
  0
LINE
  5
D03
330
1D
100
AcDbEntity
  8
0
100
AcDbLine
 10
229.912
 20
0.0127445
 30
0.0
 11
228.406
 21
0.0127445
 31
0.0
  0
LINE
  5
D04
330
1D
100
AcDbEntity
  8
0
100
AcDbLine
 10
229.912
 20
0.0127445
 30
0.0
 11
228.406
 21
0.0127445
 31
0.0
  0
LINE
  5
D05
330
1D
100
AcDbEntity
  8
0
100
AcDbLine
 10
229.912
 20
0.0127445
 30
0.0
 11
228.406
 21
0.0127445
 31
0.0
  0
LINE
  5
D06
330
1D
100
AcDbEntity
  8
0
100
AcDbLine
 10
229.912
 20
2.0127455
 30
0.0
 11
228.406
 21
2.0127455
 31
0.0
  0
LINE
  5
D07
330
1D
100
AcDbEntity
  8
0
100
AcDbLine
 10
230.558
 20
0.0127445
 30
0.0
 11
230.558
 21
2.0127455
 31
0.0
  0
LINE
  5
D08
330
1D
100
AcDbEntity
  8
0
100
AcDbLine
 10
230.558
 20
0.0127445
 30
0.0
 11
230.558
 21
2.0127455
 31
0.0
  0
LINE
  5
D09
330
1D
100
AcDbEntity
  8
0
100
AcDbLine
 10
230.558
 20
0.0127445
 30
0.0
 11
230.558
 21
2.0127455
 31
0.0
  0
LINE
  5
D0A
330
1D
100
AcDbEntity
  8
0
100
AcDbLine
 10
230.558
 20
0.0127445
 30
0.0
 11
230.558
 21
2.0127455
 31
0.0
  0
LINE
  5
D0B
330
1D
100
AcDbEntity
  8
0
100
AcDbLine
 10
230.558
 20
0.0127445
 30
0.0
 11
230.558
 21
2.0127455
 31
0.0
  0
LINE
  5
D0C
330
1D
100
AcDbEntity
  8
0
100
AcDbLine
 10
230.558
 20
0.0127445
 30
0.0
 11
230.558
 21
2.0127455
 31
0.0
  0
LINE
  5
D0D
330
1D
100
AcDbEntity
  8
0
100
AcDbLine
 10
230.558
 20
0.0127445
 30
0.0
 11
230.558
 21
2.0127455
 31
0.0
  0
LINE
  5
D0E
330
1D
100
AcDbEntity
  8
0
100
AcDbLine
 10
230.558
 20
0.0127445
 30
0.0
 11
230.558
 21
2.0127455
 31
0.0
  0
LINE
  5
D0F
330
1D
100
AcDbEntity
  8
0
100
AcDbLine
 10
230.558
 20
0.0127445
 30
0.0
 11
230.558
 21
2.0127455
 31
0.0
  0
LINE
  5
D10
330
1D
100
AcDbEntity
  8
0
100
AcDbLine
 10
230.558
 20
0.0127445
 30
0.0
 11
230.558
 21
2.0127455
 31
0.0
  0
LINE
  5
D11
330
1D
100
AcDbEntity
  8
0
100
AcDbLine
 10
230.558
 20
2.0127455
 30
0.0
 11
230.558
 21
0.0127445
 31
0.0
  0
LINE
  5
D12
330
1D
100
AcDbEntity
  8
0
100
AcDbLine
 10
230.558
 20
2.0127455
 30
0.0
 11
230.558
 21
0.0127445
 31
0.0
  0
LINE
  5
D13
330
1D
100
AcDbEntity
  8
0
100
AcDbLine
 10
230.558
 20
2.0127455
 30
0.0
 11
230.558
 21
0.0127445
 31
0.0
  0
LINE
  5
D14
330
1D
100
AcDbEntity
  8
0
100
AcDbLine
 10
230.558
 20
2.0127455
 30
0.0
 11
230.558
 21
0.0127445
 31
0.0
  0
LINE
  5
D15
330
1D
100
AcDbEntity
  8
0
100
AcDbLine
 10
230.558
 20
2.0127455
 30
0.0
 11
230.558
 21
0.0127445
 31
0.0
  0
LINE
  5
D16
330
1D
100
AcDbEntity
  8
0
100
AcDbLine
 10
230.558
 20
2.0127455
 30
0.0
 11
230.558
 21
0.0127445
 31
0.0
  0
LINE
  5
D17
330
1D
100
AcDbEntity
  8
0
100
AcDbLine
 10
230.558
 20
2.0127455
 30
0.0
 11
230.558
 21
0.0127445
 31
0.0
  0
LINE
  5
D18
330
1D
100
AcDbEntity
  8
0
100
AcDbLine
 10
230.558
 20
2.0127455
 30
0.0
 11
230.558
 21
0.0127445
 31
0.0
  0
LINE
  5
D19
330
1D
100
AcDbEntity
  8
0
100
AcDbLine
 10
230.558
 20
2.0127455
 30
0.0
 11
230.558
 21
0.0127445
 31
0.0
  0
LINE
  5
D1A
330
1D
100
AcDbEntity
  8
0
100
AcDbLine
 10
230.558
 20
2.0127455
 30
0.0
 11
230.558
 21
0.0127445
 31
0.0
  0
LINE
  5
D1B
330
1D
100
AcDbEntity
  8
0
100
AcDbLine
 10
230.558
 20
0.0127445
 30
0.0
 11
229.912
 21
0.0127445
 31
0.0
  0
LINE
  5
D1C
330
1D
100
AcDbEntity
  8
0
100
AcDbLine
 10
230.558
 20
0.0127445
 30
0.0
 11
229.912
 21
0.0127445
 31
0.0
  0
LINE
  5
D1D
330
1D
100
AcDbEntity
  8
0
100
AcDbLine
 10
230.558
 20
0.0127445
 30
0.0
 11
229.912
 21
0.0127445
 31
0.0
  0
LINE
  5
D1E
330
1D
100
AcDbEntity
  8
0
100
AcDbLine
 10
230.558
 20
0.0127445
 30
0.0
 11
229.912
 21
0.0127445
 31
0.0
  0
LINE
  5
D1F
330
1D
100
AcDbEntity
  8
0
100
AcDbLine
 10
230.558
 20
0.0127445
 30
0.0
 11
229.912
 21
0.0127445
 31
0.0
  0
LINE
  5
D20
330
1D
100
AcDbEntity
  8
0
100
AcDbLine
 10
230.558
 20
0.0127445
 30
0.0
 11
229.912
 21
0.0127445
 31
0.0
  0
LINE
  5
D21
330
1D
100
AcDbEntity
  8
0
100
AcDbLine
 10
230.558
 20
0.0127445
 30
0.0
 11
229.912
 21
0.0127445
 31
0.0
  0
LINE
  5
D22
330
1D
100
AcDbEntity
  8
0
100
AcDbLine
 10
230.558
 20
0.0127445
 30
0.0
 11
229.912
 21
0.0127445
 31
0.0
  0
LINE
  5
D23
330
1D
100
AcDbEntity
  8
0
100
AcDbLine
 10
230.558
 20
0.0127445
 30
0.0
 11
229.912
 21
0.0127445
 31
0.0
  0
LINE
  5
D24
330
1D
100
AcDbEntity
  8
0
100
AcDbLine
 10
230.558
 20
0.0127445
 30
0.0
 11
229.912
 21
0.0127445
 31
0.0
  0
LINE
  5
D25
330
1D
100
AcDbEntity
  8
0
100
AcDbLine
 10
230.558
 20
0.0127445
 30
0.0
 11
229.912
 21
0.0127445
 31
0.0
  0
LINE
  5
D26
330
1D
100
AcDbEntity
  8
0
100
AcDbLine
 10
230.558
 20
0.0127445
 30
0.0
 11
229.912
 21
0.0127445
 31
0.0
  0
LINE
  5
D27
330
1D
100
AcDbEntity
  8
0
100
AcDbLine
 10
230.558
 20
0.0127445
 30
0.0
 11
229.912
 21
0.0127445
 31
0.0
  0
LINE
  5
D28
330
1D
100
AcDbEntity
  8
0
100
AcDbLine
 10
230.558
 20
0.0127445
 30
0.0
 11
229.912
 21
0.0127445
 31
0.0
  0
LINE
  5
D29
330
1D
100
AcDbEntity
  8
0
100
AcDbLine
 10
230.558
 20
0.0127445
 30
0.0
 11
229.912
 21
0.0127445
 31
0.0
  0
LINE
  5
D2A
330
1D
100
AcDbEntity
  8
0
100
AcDbLine
 10
230.558
 20
0.0127445
 30
0.0
 11
229.912
 21
0.0127445
 31
0.0
  0
LINE
  5
D2B
330
1D
100
AcDbEntity
  8
0
100
AcDbLine
 10
230.558
 20
0.0127445
 30
0.0
 11
229.912
 21
0.0127445
 31
0.0
  0
LINE
  5
D2C
330
1D
100
AcDbEntity
  8
0
100
AcDbLine
 10
230.558
 20
0.0127445
 30
0.0
 11
229.912
 21
0.0127445
 31
0.0
  0
LINE
  5
D2D
330
1D
100
AcDbEntity
  8
0
100
AcDbLine
 10
230.558
 20
0.0127445
 30
0.0
 11
229.912
 21
0.0127445
 31
0.0
  0
LINE
  5
D2E
330
1D
100
AcDbEntity
  8
0
100
AcDbLine
 10
230.558
 20
0.0127445
 30
0.0
 11
229.912
 21
0.0127445
 31
0.0
  0
LINE
  5
D2F
330
1D
100
AcDbEntity
  8
0
100
AcDbLine
 10
230.558
 20
2.0127455
 30
0.0
 11
229.912
 21
2.0127455
 31
0.0
  0
LINE
  5
D30
330
1D
100
AcDbEntity
  8
0
100
AcDbLine
 10
226.9
 20
0.0127445
 30
0.0
 11
226.255
 21
0.0127445
 31
0.0
  0
LINE
  5
D31
330
1D
100
AcDbEntity
  8
0
100
AcDbLine
 10
226.9
 20
0.0127445
 30
0.0
 11
226.255
 21
0.0127445
 31
0.0
  0
LINE
  5
D32
330
1D
100
AcDbEntity
  8
0
100
AcDbLine
 10
226.9
 20
0.0127445
 30
0.0
 11
226.255
 21
0.0127445
 31
0.0
  0
LINE
  5
D33
330
1D
100
AcDbEntity
  8
0
100
AcDbLine
 10
226.9
 20
0.0127445
 30
0.0
 11
226.255
 21
0.0127445
 31
0.0
  0
LINE
  5
D34
330
1D
100
AcDbEntity
  8
0
100
AcDbLine
 10
226.9
 20
0.0127445
 30
0.0
 11
226.255
 21
0.0127445
 31
0.0
  0
LINE
  5
D35
330
1D
100
AcDbEntity
  8
0
100
AcDbLine
 10
226.9
 20
0.0127445
 30
0.0
 11
226.255
 21
0.0127445
 31
0.0
  0
LINE
  5
D36
330
1D
100
AcDbEntity
  8
0
100
AcDbLine
 10
226.9
 20
0.0127445
 30
0.0
 11
226.255
 21
0.0127445
 31
0.0
  0
LINE
  5
D37
330
1D
100
AcDbEntity
  8
0
100
AcDbLine
 10
226.9
 20
0.0127445
 30
0.0
 11
226.255
 21
0.0127445
 31
0.0
  0
LINE
  5
D38
330
1D
100
AcDbEntity
  8
0
100
AcDbLine
 10
226.9
 20
0.0127445
 30
0.0
 11
226.255
 21
0.0127445
 31
0.0
  0
LINE
  5
D39
330
1D
100
AcDbEntity
  8
0
100
AcDbLine
 10
226.9
 20
0.0127445
 30
0.0
 11
226.255
 21
0.0127445
 31
0.0
  0
LINE
  5
D3A
330
1D
100
AcDbEntity
  8
0
100
AcDbLine
 10
226.9
 20
0.0127445
 30
0.0
 11
226.255
 21
0.0127445
 31
0.0
  0
LINE
  5
D3B
330
1D
100
AcDbEntity
  8
0
100
AcDbLine
 10
226.9
 20
0.0127445
 30
0.0
 11
226.255
 21
0.0127445
 31
0.0
  0
LINE
  5
D3C
330
1D
100
AcDbEntity
  8
0
100
AcDbLine
 10
226.9
 20
0.0127445
 30
0.0
 11
226.255
 21
0.0127445
 31
0.0
  0
LINE
  5
D3D
330
1D
100
AcDbEntity
  8
0
100
AcDbLine
 10
226.9
 20
0.0127445
 30
0.0
 11
226.255
 21
0.0127445
 31
0.0
  0
LINE
  5
D3E
330
1D
100
AcDbEntity
  8
0
100
AcDbLine
 10
226.9
 20
0.0127445
 30
0.0
 11
226.255
 21
0.0127445
 31
0.0
  0
LINE
  5
D3F
330
1D
100
AcDbEntity
  8
0
100
AcDbLine
 10
226.9
 20
0.0127445
 30
0.0
 11
226.255
 21
0.0127445
 31
0.0
  0
LINE
  5
D40
330
1D
100
AcDbEntity
  8
0
100
AcDbLine
 10
226.9
 20
0.0127445
 30
0.0
 11
226.255
 21
0.0127445
 31
0.0
  0
LINE
  5
D41
330
1D
100
AcDbEntity
  8
0
100
AcDbLine
 10
226.9
 20
0.0127445
 30
0.0
 11
226.255
 21
0.0127445
 31
0.0
  0
LINE
  5
D42
330
1D
100
AcDbEntity
  8
0
100
AcDbLine
 10
226.9
 20
0.0127445
 30
0.0
 11
226.255
 21
0.0127445
 31
0.0
  0
LINE
  5
D43
330
1D
100
AcDbEntity
  8
0
100
AcDbLine
 10
226.9
 20
0.0127445
 30
0.0
 11
226.255
 21
0.0127445
 31
0.0
  0
LINE
  5
D44
330
1D
100
AcDbEntity
  8
0
100
AcDbLine
 10
226.9
 20
2.0127455
 30
0.0
 11
226.255
 21
2.0127455
 31
0.0
  0
LINE
  5
D45
330
1D
100
AcDbEntity
  8
0
100
AcDbLine
 10
226.255
 20
0.0127445
 30
0.0
 11
226.255
 21
2.0127455
 31
0.0
  0
LINE
  5
D46
330
1D
100
AcDbEntity
  8
0
100
AcDbLine
 10
226.255
 20
2.0127455
 30
0.0
 11
226.255
 21
0.0127445
 31
0.0
  0
LINE
  5
D47
330
1D
100
AcDbEntity
  8
0
100
AcDbLine
 10
194.5
 20
32.0127555
 30
0.0
 11
194.5
 21
53.5854555
 31
0.0
  0
LINE
  5
D48
330
1D
100
AcDbEntity
  8
0
100
AcDbLine
 10
194.5
 20
53.5854555
 30
0.0
 11
194.5
 21
32.0127555
 31
0.0
  0
LINE
  5
D49
330
1D
100
AcDbEntity
  8
0
100
AcDbLine
 10
206.892
 20
2.0127455
 30
0.0
 11
194.343
 21
2.0127455
 31
0.0
  0
LINE
  5
D4A
330
1D
100
AcDbEntity
  8
0
100
AcDbLine
 10
206.892
 20
2.0127455
 30
0.0
 11
194.343
 21
2.0127455
 31
0.0
  0
LINE
  5
D4B
330
1D
100
AcDbEntity
  8
0
100
AcDbLine
 10
209.044
 20
0.0127445
 30
0.0
 11
207.538
 21
0.0127445
 31
0.0
  0
LINE
  5
D4C
330
1D
100
AcDbEntity
  8
0
100
AcDbLine
 10
209.044
 20
0.0127445
 30
0.0
 11
207.538
 21
0.0127445
 31
0.0
  0
LINE
  5
D4D
330
1D
100
AcDbEntity
  8
0
100
AcDbLine
 10
209.044
 20
0.0127445
 30
0.0
 11
207.538
 21
0.0127445
 31
0.0
  0
LINE
  5
D4E
330
1D
100
AcDbEntity
  8
0
100
AcDbLine
 10
209.044
 20
0.0127445
 30
0.0
 11
207.538
 21
0.0127445
 31
0.0
  0
LINE
  5
D4F
330
1D
100
AcDbEntity
  8
0
100
AcDbLine
 10
209.044
 20
0.0127445
 30
0.0
 11
207.538
 21
0.0127445
 31
0.0
  0
LINE
  5
D50
330
1D
100
AcDbEntity
  8
0
100
AcDbLine
 10
209.044
 20
0.0127445
 30
0.0
 11
207.538
 21
0.0127445
 31
0.0
  0
LINE
  5
D51
330
1D
100
AcDbEntity
  8
0
100
AcDbLine
 10
209.044
 20
0.0127445
 30
0.0
 11
207.538
 21
0.0127445
 31
0.0
  0
LINE
  5
D52
330
1D
100
AcDbEntity
  8
0
100
AcDbLine
 10
209.044
 20
0.0127445
 30
0.0
 11
207.538
 21
0.0127445
 31
0.0
  0
LINE
  5
D53
330
1D
100
AcDbEntity
  8
0
100
AcDbLine
 10
209.044
 20
0.0127445
 30
0.0
 11
207.538
 21
0.0127445
 31
0.0
  0
LINE
  5
D54
330
1D
100
AcDbEntity
  8
0
100
AcDbLine
 10
209.044
 20
0.0127445
 30
0.0
 11
207.538
 21
0.0127445
 31
0.0
  0
LINE
  5
D55
330
1D
100
AcDbEntity
  8
0
100
AcDbLine
 10
209.044
 20
0.0127445
 30
0.0
 11
207.538
 21
0.0127445
 31
0.0
  0
LINE
  5
D56
330
1D
100
AcDbEntity
  8
0
100
AcDbLine
 10
209.044
 20
0.0127445
 30
0.0
 11
207.538
 21
0.0127445
 31
0.0
  0
LINE
  5
D57
330
1D
100
AcDbEntity
  8
0
100
AcDbLine
 10
209.044
 20
0.0127445
 30
0.0
 11
207.538
 21
0.0127445
 31
0.0
  0
LINE
  5
D58
330
1D
100
AcDbEntity
  8
0
100
AcDbLine
 10
209.044
 20
0.0127445
 30
0.0
 11
207.538
 21
0.0127445
 31
0.0
  0
LINE
  5
D59
330
1D
100
AcDbEntity
  8
0
100
AcDbLine
 10
209.044
 20
0.0127445
 30
0.0
 11
207.538
 21
0.0127445
 31
0.0
  0
LINE
  5
D5A
330
1D
100
AcDbEntity
  8
0
100
AcDbLine
 10
209.044
 20
0.0127445
 30
0.0
 11
207.538
 21
0.0127445
 31
0.0
  0
LINE
  5
D5B
330
1D
100
AcDbEntity
  8
0
100
AcDbLine
 10
209.044
 20
0.0127445
 30
0.0
 11
207.538
 21
0.0127445
 31
0.0
  0
LINE
  5
D5C
330
1D
100
AcDbEntity
  8
0
100
AcDbLine
 10
209.044
 20
0.0127445
 30
0.0
 11
207.538
 21
0.0127445
 31
0.0
  0
LINE
  5
D5D
330
1D
100
AcDbEntity
  8
0
100
AcDbLine
 10
209.044
 20
2.0127455
 30
0.0
 11
207.538
 21
2.0127455
 31
0.0
  0
LINE
  5
D5E
330
1D
100
AcDbEntity
  8
0
100
AcDbLine
 10
211.195
 20
0.0127445
 30
0.0
 11
210.55
 21
0.0127445
 31
0.0
  0
LINE
  5
D5F
330
1D
100
AcDbEntity
  8
0
100
AcDbLine
 10
211.195
 20
0.0127445
 30
0.0
 11
210.55
 21
0.0127445
 31
0.0
  0
LINE
  5
D60
330
1D
100
AcDbEntity
  8
0
100
AcDbLine
 10
211.195
 20
0.0127445
 30
0.0
 11
210.55
 21
0.0127445
 31
0.0
  0
LINE
  5
D61
330
1D
100
AcDbEntity
  8
0
100
AcDbLine
 10
211.195
 20
0.0127445
 30
0.0
 11
210.55
 21
0.0127445
 31
0.0
  0
LINE
  5
D62
330
1D
100
AcDbEntity
  8
0
100
AcDbLine
 10
211.195
 20
0.0127445
 30
0.0
 11
210.55
 21
0.0127445
 31
0.0
  0
LINE
  5
D63
330
1D
100
AcDbEntity
  8
0
100
AcDbLine
 10
211.195
 20
0.0127445
 30
0.0
 11
210.55
 21
0.0127445
 31
0.0
  0
LINE
  5
D64
330
1D
100
AcDbEntity
  8
0
100
AcDbLine
 10
211.195
 20
0.0127445
 30
0.0
 11
210.55
 21
0.0127445
 31
0.0
  0
LINE
  5
D65
330
1D
100
AcDbEntity
  8
0
100
AcDbLine
 10
211.195
 20
0.0127445
 30
0.0
 11
210.55
 21
0.0127445
 31
0.0
  0
LINE
  5
D66
330
1D
100
AcDbEntity
  8
0
100
AcDbLine
 10
211.195
 20
0.0127445
 30
0.0
 11
210.55
 21
0.0127445
 31
0.0
  0
LINE
  5
D67
330
1D
100
AcDbEntity
  8
0
100
AcDbLine
 10
211.195
 20
0.0127445
 30
0.0
 11
210.55
 21
0.0127445
 31
0.0
  0
LINE
  5
D68
330
1D
100
AcDbEntity
  8
0
100
AcDbLine
 10
211.195
 20
0.0127445
 30
0.0
 11
210.55
 21
0.0127445
 31
0.0
  0
LINE
  5
D69
330
1D
100
AcDbEntity
  8
0
100
AcDbLine
 10
211.195
 20
0.0127445
 30
0.0
 11
210.55
 21
0.0127445
 31
0.0
  0
LINE
  5
D6A
330
1D
100
AcDbEntity
  8
0
100
AcDbLine
 10
211.195
 20
0.0127445
 30
0.0
 11
210.55
 21
0.0127445
 31
0.0
  0
LINE
  5
D6B
330
1D
100
AcDbEntity
  8
0
100
AcDbLine
 10
211.195
 20
0.0127445
 30
0.0
 11
210.55
 21
0.0127445
 31
0.0
  0
LINE
  5
D6C
330
1D
100
AcDbEntity
  8
0
100
AcDbLine
 10
211.195
 20
0.0127445
 30
0.0
 11
210.55
 21
0.0127445
 31
0.0
  0
LINE
  5
D6D
330
1D
100
AcDbEntity
  8
0
100
AcDbLine
 10
211.195
 20
0.0127445
 30
0.0
 11
210.55
 21
0.0127445
 31
0.0
  0
LINE
  5
D6E
330
1D
100
AcDbEntity
  8
0
100
AcDbLine
 10
211.195
 20
0.0127445
 30
0.0
 11
210.55
 21
0.0127445
 31
0.0
  0
LINE
  5
D6F
330
1D
100
AcDbEntity
  8
0
100
AcDbLine
 10
211.195
 20
0.0127445
 30
0.0
 11
210.55
 21
0.0127445
 31
0.0
  0
LINE
  5
D70
330
1D
100
AcDbEntity
  8
0
100
AcDbLine
 10
211.195
 20
2.0127455
 30
0.0
 11
210.55
 21
2.0127455
 31
0.0
  0
LINE
  5
D71
330
1D
100
AcDbEntity
  8
0
100
AcDbLine
 10
211.195
 20
0.0127445
 30
0.0
 11
211.195
 21
2.0127455
 31
0.0
  0
LINE
  5
D72
330
1D
100
AcDbEntity
  8
0
100
AcDbLine
 10
211.195
 20
0.0127445
 30
0.0
 11
211.195
 21
2.0127455
 31
0.0
  0
LINE
  5
D73
330
1D
100
AcDbEntity
  8
0
100
AcDbLine
 10
211.195
 20
0.0127445
 30
0.0
 11
211.195
 21
2.0127455
 31
0.0
  0
LINE
  5
D74
330
1D
100
AcDbEntity
  8
0
100
AcDbLine
 10
211.195
 20
0.0127445
 30
0.0
 11
211.195
 21
2.0127455
 31
0.0
  0
LINE
  5
D75
330
1D
100
AcDbEntity
  8
0
100
AcDbLine
 10
211.195
 20
0.0127445
 30
0.0
 11
211.195
 21
2.0127455
 31
0.0
  0
LINE
  5
D76
330
1D
100
AcDbEntity
  8
0
100
AcDbLine
 10
211.195
 20
0.0127445
 30
0.0
 11
211.195
 21
2.0127455
 31
0.0
  0
LINE
  5
D77
330
1D
100
AcDbEntity
  8
0
100
AcDbLine
 10
211.195
 20
0.0127445
 30
0.0
 11
211.195
 21
2.0127455
 31
0.0
  0
LINE
  5
D78
330
1D
100
AcDbEntity
  8
0
100
AcDbLine
 10
211.195
 20
0.0127445
 30
0.0
 11
211.195
 21
2.0127455
 31
0.0
  0
LINE
  5
D79
330
1D
100
AcDbEntity
  8
0
100
AcDbLine
 10
211.195
 20
0.0127445
 30
0.0
 11
211.195
 21
2.0127455
 31
0.0
  0
LINE
  5
D7A
330
1D
100
AcDbEntity
  8
0
100
AcDbLine
 10
211.195
 20
2.0127455
 30
0.0
 11
211.195
 21
0.0127445
 31
0.0
  0
LINE
  5
D7B
330
1D
100
AcDbEntity
  8
0
100
AcDbLine
 10
211.195
 20
2.0127455
 30
0.0
 11
211.195
 21
0.0127445
 31
0.0
  0
LINE
  5
D7C
330
1D
100
AcDbEntity
  8
0
100
AcDbLine
 10
211.195
 20
2.0127455
 30
0.0
 11
211.195
 21
0.0127445
 31
0.0
  0
LINE
  5
D7D
330
1D
100
AcDbEntity
  8
0
100
AcDbLine
 10
211.195
 20
2.0127455
 30
0.0
 11
211.195
 21
0.0127445
 31
0.0
  0
LINE
  5
D7E
330
1D
100
AcDbEntity
  8
0
100
AcDbLine
 10
211.195
 20
2.0127455
 30
0.0
 11
211.195
 21
0.0127445
 31
0.0
  0
LINE
  5
D7F
330
1D
100
AcDbEntity
  8
0
100
AcDbLine
 10
211.195
 20
2.0127455
 30
0.0
 11
211.195
 21
0.0127445
 31
0.0
  0
LINE
  5
D80
330
1D
100
AcDbEntity
  8
0
100
AcDbLine
 10
211.195
 20
2.0127455
 30
0.0
 11
211.195
 21
0.0127445
 31
0.0
  0
LINE
  5
D81
330
1D
100
AcDbEntity
  8
0
100
AcDbLine
 10
211.195
 20
2.0127455
 30
0.0
 11
211.195
 21
0.0127445
 31
0.0
  0
LINE
  5
D82
330
1D
100
AcDbEntity
  8
0
100
AcDbLine
 10
211.195
 20
2.0127455
 30
0.0
 11
211.195
 21
0.0127445
 31
0.0
  0
LINE
  5
D83
330
1D
100
AcDbEntity
  8
0
100
AcDbLine
 10
210.55
 20
0.0127445
 30
0.0
 11
209.044
 21
0.0127445
 31
0.0
  0
LINE
  5
D84
330
1D
100
AcDbEntity
  8
0
100
AcDbLine
 10
210.55
 20
0.0127445
 30
0.0
 11
209.044
 21
0.0127445
 31
0.0
  0
LINE
  5
D85
330
1D
100
AcDbEntity
  8
0
100
AcDbLine
 10
210.55
 20
0.0127445
 30
0.0
 11
209.044
 21
0.0127445
 31
0.0
  0
LINE
  5
D86
330
1D
100
AcDbEntity
  8
0
100
AcDbLine
 10
210.55
 20
0.0127445
 30
0.0
 11
209.044
 21
0.0127445
 31
0.0
  0
LINE
  5
D87
330
1D
100
AcDbEntity
  8
0
100
AcDbLine
 10
210.55
 20
0.0127445
 30
0.0
 11
209.044
 21
0.0127445
 31
0.0
  0
LINE
  5
D88
330
1D
100
AcDbEntity
  8
0
100
AcDbLine
 10
210.55
 20
0.0127445
 30
0.0
 11
209.044
 21
0.0127445
 31
0.0
  0
LINE
  5
D89
330
1D
100
AcDbEntity
  8
0
100
AcDbLine
 10
210.55
 20
0.0127445
 30
0.0
 11
209.044
 21
0.0127445
 31
0.0
  0
LINE
  5
D8A
330
1D
100
AcDbEntity
  8
0
100
AcDbLine
 10
210.55
 20
0.0127445
 30
0.0
 11
209.044
 21
0.0127445
 31
0.0
  0
LINE
  5
D8B
330
1D
100
AcDbEntity
  8
0
100
AcDbLine
 10
210.55
 20
0.0127445
 30
0.0
 11
209.044
 21
0.0127445
 31
0.0
  0
LINE
  5
D8C
330
1D
100
AcDbEntity
  8
0
100
AcDbLine
 10
210.55
 20
0.0127445
 30
0.0
 11
209.044
 21
0.0127445
 31
0.0
  0
LINE
  5
D8D
330
1D
100
AcDbEntity
  8
0
100
AcDbLine
 10
210.55
 20
0.0127445
 30
0.0
 11
209.044
 21
0.0127445
 31
0.0
  0
LINE
  5
D8E
330
1D
100
AcDbEntity
  8
0
100
AcDbLine
 10
210.55
 20
0.0127445
 30
0.0
 11
209.044
 21
0.0127445
 31
0.0
  0
LINE
  5
D8F
330
1D
100
AcDbEntity
  8
0
100
AcDbLine
 10
210.55
 20
0.0127445
 30
0.0
 11
209.044
 21
0.0127445
 31
0.0
  0
LINE
  5
D90
330
1D
100
AcDbEntity
  8
0
100
AcDbLine
 10
210.55
 20
0.0127445
 30
0.0
 11
209.044
 21
0.0127445
 31
0.0
  0
LINE
  5
D91
330
1D
100
AcDbEntity
  8
0
100
AcDbLine
 10
210.55
 20
0.0127445
 30
0.0
 11
209.044
 21
0.0127445
 31
0.0
  0
LINE
  5
D92
330
1D
100
AcDbEntity
  8
0
100
AcDbLine
 10
210.55
 20
0.0127445
 30
0.0
 11
209.044
 21
0.0127445
 31
0.0
  0
LINE
  5
D93
330
1D
100
AcDbEntity
  8
0
100
AcDbLine
 10
210.55
 20
0.0127445
 30
0.0
 11
209.044
 21
0.0127445
 31
0.0
  0
LINE
  5
D94
330
1D
100
AcDbEntity
  8
0
100
AcDbLine
 10
210.55
 20
0.0127445
 30
0.0
 11
209.044
 21
0.0127445
 31
0.0
  0
LINE
  5
D95
330
1D
100
AcDbEntity
  8
0
100
AcDbLine
 10
210.55
 20
2.0127455
 30
0.0
 11
209.044
 21
2.0127455
 31
0.0
  0
LINE
  5
D96
330
1D
100
AcDbEntity
  8
0
100
AcDbLine
 10
206.892
 20
0.0127445
 30
0.0
 11
206.892
 21
2.0127455
 31
0.0
  0
LINE
  5
D97
330
1D
100
AcDbEntity
  8
0
100
AcDbLine
 10
206.892
 20
2.0127455
 30
0.0
 11
206.892
 21
0.0127445
 31
0.0
  0
LINE
  5
D98
330
1D
100
AcDbEntity
  8
0
100
AcDbLine
 10
207.538
 20
0.0127445
 30
0.0
 11
206.892
 21
0.0127445
 31
0.0
  0
LINE
  5
D99
330
1D
100
AcDbEntity
  8
0
100
AcDbLine
 10
207.538
 20
0.0127445
 30
0.0
 11
206.892
 21
0.0127445
 31
0.0
  0
LINE
  5
D9A
330
1D
100
AcDbEntity
  8
0
100
AcDbLine
 10
207.538
 20
0.0127445
 30
0.0
 11
206.892
 21
0.0127445
 31
0.0
  0
LINE
  5
D9B
330
1D
100
AcDbEntity
  8
0
100
AcDbLine
 10
207.538
 20
0.0127445
 30
0.0
 11
206.892
 21
0.0127445
 31
0.0
  0
LINE
  5
D9C
330
1D
100
AcDbEntity
  8
0
100
AcDbLine
 10
207.538
 20
0.0127445
 30
0.0
 11
206.892
 21
0.0127445
 31
0.0
  0
LINE
  5
D9D
330
1D
100
AcDbEntity
  8
0
100
AcDbLine
 10
207.538
 20
0.0127445
 30
0.0
 11
206.892
 21
0.0127445
 31
0.0
  0
LINE
  5
D9E
330
1D
100
AcDbEntity
  8
0
100
AcDbLine
 10
207.538
 20
0.0127445
 30
0.0
 11
206.892
 21
0.0127445
 31
0.0
  0
LINE
  5
D9F
330
1D
100
AcDbEntity
  8
0
100
AcDbLine
 10
207.538
 20
0.0127445
 30
0.0
 11
206.892
 21
0.0127445
 31
0.0
  0
LINE
  5
DA0
330
1D
100
AcDbEntity
  8
0
100
AcDbLine
 10
207.538
 20
0.0127445
 30
0.0
 11
206.892
 21
0.0127445
 31
0.0
  0
LINE
  5
DA1
330
1D
100
AcDbEntity
  8
0
100
AcDbLine
 10
207.538
 20
0.0127445
 30
0.0
 11
206.892
 21
0.0127445
 31
0.0
  0
LINE
  5
DA2
330
1D
100
AcDbEntity
  8
0
100
AcDbLine
 10
207.538
 20
0.0127445
 30
0.0
 11
206.892
 21
0.0127445
 31
0.0
  0
LINE
  5
DA3
330
1D
100
AcDbEntity
  8
0
100
AcDbLine
 10
207.538
 20
0.0127445
 30
0.0
 11
206.892
 21
0.0127445
 31
0.0
  0
LINE
  5
DA4
330
1D
100
AcDbEntity
  8
0
100
AcDbLine
 10
207.538
 20
0.0127445
 30
0.0
 11
206.892
 21
0.0127445
 31
0.0
  0
LINE
  5
DA5
330
1D
100
AcDbEntity
  8
0
100
AcDbLine
 10
207.538
 20
0.0127445
 30
0.0
 11
206.892
 21
0.0127445
 31
0.0
  0
LINE
  5
DA6
330
1D
100
AcDbEntity
  8
0
100
AcDbLine
 10
207.538
 20
0.0127445
 30
0.0
 11
206.892
 21
0.0127445
 31
0.0
  0
LINE
  5
DA7
330
1D
100
AcDbEntity
  8
0
100
AcDbLine
 10
207.538
 20
0.0127445
 30
0.0
 11
206.892
 21
0.0127445
 31
0.0
  0
LINE
  5
DA8
330
1D
100
AcDbEntity
  8
0
100
AcDbLine
 10
207.538
 20
0.0127445
 30
0.0
 11
206.892
 21
0.0127445
 31
0.0
  0
LINE
  5
DA9
330
1D
100
AcDbEntity
  8
0
100
AcDbLine
 10
207.538
 20
0.0127445
 30
0.0
 11
206.892
 21
0.0127445
 31
0.0
  0
LINE
  5
DAA
330
1D
100
AcDbEntity
  8
0
100
AcDbLine
 10
207.538
 20
2.0127455
 30
0.0
 11
206.892
 21
2.0127455
 31
0.0
  0
LINE
  5
DAB
330
1D
100
AcDbEntity
  8
0
100
AcDbLine
 10
195.0
 20
22.0127555
 30
0.0
 11
195.0
 21
31.5853555
 31
0.0
  0
LINE
  5
DAC
330
1D
100
AcDbEntity
  8
0
100
AcDbLine
 10
195.0
 20
31.5853555
 30
0.0
 11
195.0
 21
22.0127555
 31
0.0
  0
LINE
  5
DAD
330
1D
100
AcDbEntity
  8
0
100
AcDbLine
 10
191.833
 20
0.0127445
 30
0.0
 11
191.187
 21
0.0127445
 31
0.0
  0
LINE
  5
DAE
330
1D
100
AcDbEntity
  8
0
100
AcDbLine
 10
191.833
 20
0.0127445
 30
0.0
 11
191.187
 21
0.0127445
 31
0.0
  0
LINE
  5
DAF
330
1D
100
AcDbEntity
  8
0
100
AcDbLine
 10
191.833
 20
0.0127445
 30
0.0
 11
191.187
 21
0.0127445
 31
0.0
  0
LINE
  5
DB0
330
1D
100
AcDbEntity
  8
0
100
AcDbLine
 10
191.833
 20
0.0127445
 30
0.0
 11
191.187
 21
0.0127445
 31
0.0
  0
LINE
  5
DB1
330
1D
100
AcDbEntity
  8
0
100
AcDbLine
 10
191.833
 20
0.0127445
 30
0.0
 11
191.187
 21
0.0127445
 31
0.0
  0
LINE
  5
DB2
330
1D
100
AcDbEntity
  8
0
100
AcDbLine
 10
191.833
 20
0.0127445
 30
0.0
 11
191.187
 21
0.0127445
 31
0.0
  0
LINE
  5
DB3
330
1D
100
AcDbEntity
  8
0
100
AcDbLine
 10
192.449
 20
0.0127445
 30
0.0
 11
190.155
 21
0.0127445
 31
0.0
  0
LINE
  5
DB4
330
1D
100
AcDbEntity
  8
0
100
AcDbLine
 10
191.833
 20
0.0127445
 30
0.0
 11
191.187
 21
0.0127445
 31
0.0
  0
LINE
  5
DB5
330
1D
100
AcDbEntity
  8
0
100
AcDbLine
 10
191.833
 20
0.0127445
 30
0.0
 11
191.187
 21
0.0127445
 31
0.0
  0
LINE
  5
DB6
330
1D
100
AcDbEntity
  8
0
100
AcDbLine
 10
191.833
 20
0.0127445
 30
0.0
 11
191.187
 21
0.0127445
 31
0.0
  0
LINE
  5
DB7
330
1D
100
AcDbEntity
  8
0
100
AcDbLine
 10
191.833
 20
0.0127445
 30
0.0
 11
191.187
 21
0.0127445
 31
0.0
  0
LINE
  5
DB8
330
1D
100
AcDbEntity
  8
0
100
AcDbLine
 10
191.833
 20
2.0127455
 30
0.0
 11
191.187
 21
2.0127455
 31
0.0
  0
LINE
  5
DB9
330
1D
100
AcDbEntity
  8
0
100
AcDbLine
 10
191.833
 20
0.0127445
 30
0.0
 11
191.187
 21
0.0127445
 31
0.0
  0
LINE
  5
DBA
330
1D
100
AcDbEntity
  8
0
100
AcDbLine
 10
191.833
 20
0.0127445
 30
0.0
 11
191.187
 21
0.0127445
 31
0.0
  0
LINE
  5
DBB
330
1D
100
AcDbEntity
  8
0
100
AcDbLine
 10
191.833
 20
0.0127445
 30
0.0
 11
191.187
 21
0.0127445
 31
0.0
  0
LINE
  5
DBC
330
1D
100
AcDbEntity
  8
0
100
AcDbLine
 10
191.833
 20
0.0127445
 30
0.0
 11
191.187
 21
0.0127445
 31
0.0
  0
LINE
  5
DBD
330
1D
100
AcDbEntity
  8
0
100
AcDbLine
 10
192.449
 20
0.0127445
 30
0.0
 11
190.155
 21
0.0127445
 31
0.0
  0
LINE
  5
DBE
330
1D
100
AcDbEntity
  8
0
100
AcDbLine
 10
194.343
 20
2.0127455
 30
0.0
 11
194.343
 21
0.0127445
 31
0.0
  0
LINE
  5
DBF
330
1D
100
AcDbEntity
  8
0
100
AcDbLine
 10
194.343
 20
2.0127455
 30
0.0
 11
193.826
 21
2.0127455
 31
0.0
  0
LINE
  5
DC0
330
1D
100
AcDbEntity
  8
0
100
AcDbLine
 10
193.826
 20
0.0127445
 30
0.0
 11
192.449
 21
0.0127445
 31
0.0
  0
LINE
  5
DC1
330
1D
100
AcDbEntity
  8
0
100
AcDbLine
 10
193.826
 20
2.0127455
 30
0.0
 11
192.449
 21
2.0127455
 31
0.0
  0
LINE
  5
DC2
330
1D
100
AcDbEntity
  8
0
100
AcDbLine
 10
193.826
 20
0.0127445
 30
0.0
 11
192.449
 21
0.0127445
 31
0.0
  0
LINE
  5
DC3
330
1D
100
AcDbEntity
  8
0
100
AcDbLine
 10
194.343
 20
0.0127445
 30
0.0
 11
193.826
 21
0.0127445
 31
0.0
  0
LINE
  5
DC4
330
1D
100
AcDbEntity
  8
0
100
AcDbLine
 10
194.343
 20
0.0127445
 30
0.0
 11
193.826
 21
0.0127445
 31
0.0
  0
LINE
  5
DC5
330
1D
100
AcDbEntity
  8
0
100
AcDbLine
 10
194.343
 20
0.0127445
 30
0.0
 11
194.343
 21
2.0127455
 31
0.0
  0
LINE
  5
DC6
330
1D
100
AcDbEntity
  8
0
100
AcDbLine
 10
192.449
 20
2.0127455
 30
0.0
 11
191.833
 21
2.0127455
 31
0.0
  0
LINE
  5
DC7
330
1D
100
AcDbEntity
  8
0
100
AcDbLine
 10
187.114
 20
0.0127445
 30
0.0
 11
183.672
 21
0.0127445
 31
0.0
  0
LINE
  5
DC8
330
1D
100
AcDbEntity
  8
0
100
AcDbLine
 10
187.114
 20
2.0127455
 30
0.0
 11
183.672
 21
2.0127455
 31
0.0
  0
LINE
  5
DC9
330
1D
100
AcDbEntity
  8
0
100
AcDbLine
 10
187.114
 20
0.0127445
 30
0.0
 11
183.672
 21
0.0127445
 31
0.0
  0
LINE
  5
DCA
330
1D
100
AcDbEntity
  8
0
100
AcDbLine
 10
190.155
 20
0.0127445
 30
0.0
 11
187.114
 21
0.0127445
 31
0.0
  0
LINE
  5
DCB
330
1D
100
AcDbEntity
  8
0
100
AcDbLine
 10
189.681
 20
0.0127445
 30
0.0
 11
188.175
 21
0.0127445
 31
0.0
  0
LINE
  5
DCC
330
1D
100
AcDbEntity
  8
0
100
AcDbLine
 10
189.681
 20
0.0127445
 30
0.0
 11
188.175
 21
0.0127445
 31
0.0
  0
LINE
  5
DCD
330
1D
100
AcDbEntity
  8
0
100
AcDbLine
 10
189.681
 20
0.0127445
 30
0.0
 11
188.175
 21
0.0127445
 31
0.0
  0
LINE
  5
DCE
330
1D
100
AcDbEntity
  8
0
100
AcDbLine
 10
189.681
 20
0.0127445
 30
0.0
 11
188.175
 21
0.0127445
 31
0.0
  0
LINE
  5
DCF
330
1D
100
AcDbEntity
  8
0
100
AcDbLine
 10
189.681
 20
0.0127445
 30
0.0
 11
188.175
 21
0.0127445
 31
0.0
  0
LINE
  5
DD0
330
1D
100
AcDbEntity
  8
0
100
AcDbLine
 10
189.681
 20
0.0127445
 30
0.0
 11
188.175
 21
0.0127445
 31
0.0
  0
LINE
  5
DD1
330
1D
100
AcDbEntity
  8
0
100
AcDbLine
 10
189.681
 20
0.0127445
 30
0.0
 11
188.175
 21
0.0127445
 31
0.0
  0
LINE
  5
DD2
330
1D
100
AcDbEntity
  8
0
100
AcDbLine
 10
189.681
 20
0.0127445
 30
0.0
 11
188.175
 21
0.0127445
 31
0.0
  0
LINE
  5
DD3
330
1D
100
AcDbEntity
  8
0
100
AcDbLine
 10
189.681
 20
0.0127445
 30
0.0
 11
188.175
 21
0.0127445
 31
0.0
  0
LINE
  5
DD4
330
1D
100
AcDbEntity
  8
0
100
AcDbLine
 10
189.681
 20
0.0127445
 30
0.0
 11
188.175
 21
0.0127445
 31
0.0
  0
LINE
  5
DD5
330
1D
100
AcDbEntity
  8
0
100
AcDbLine
 10
189.681
 20
0.0127445
 30
0.0
 11
188.175
 21
0.0127445
 31
0.0
  0
LINE
  5
DD6
330
1D
100
AcDbEntity
  8
0
100
AcDbLine
 10
189.681
 20
2.0127455
 30
0.0
 11
188.175
 21
2.0127455
 31
0.0
  0
LINE
  5
DD7
330
1D
100
AcDbEntity
  8
0
100
AcDbLine
 10
189.681
 20
0.0127445
 30
0.0
 11
188.175
 21
0.0127445
 31
0.0
  0
LINE
  5
DD8
330
1D
100
AcDbEntity
  8
0
100
AcDbLine
 10
189.681
 20
0.0127445
 30
0.0
 11
188.175
 21
0.0127445
 31
0.0
  0
LINE
  5
DD9
330
1D
100
AcDbEntity
  8
0
100
AcDbLine
 10
189.681
 20
0.0127445
 30
0.0
 11
188.175
 21
0.0127445
 31
0.0
  0
LINE
  5
DDA
330
1D
100
AcDbEntity
  8
0
100
AcDbLine
 10
190.155
 20
0.0127445
 30
0.0
 11
187.114
 21
0.0127445
 31
0.0
  0
LINE
  5
DDB
330
1D
100
AcDbEntity
  8
0
100
AcDbLine
 10
191.187
 20
0.0127445
 30
0.0
 11
189.681
 21
0.0127445
 31
0.0
  0
LINE
  5
DDC
330
1D
100
AcDbEntity
  8
0
100
AcDbLine
 10
191.187
 20
0.0127445
 30
0.0
 11
189.681
 21
0.0127445
 31
0.0
  0
LINE
  5
DDD
330
1D
100
AcDbEntity
  8
0
100
AcDbLine
 10
191.187
 20
0.0127445
 30
0.0
 11
189.681
 21
0.0127445
 31
0.0
  0
LINE
  5
DDE
330
1D
100
AcDbEntity
  8
0
100
AcDbLine
 10
191.187
 20
0.0127445
 30
0.0
 11
189.681
 21
0.0127445
 31
0.0
  0
LINE
  5
DDF
330
1D
100
AcDbEntity
  8
0
100
AcDbLine
 10
191.187
 20
0.0127445
 30
0.0
 11
189.681
 21
0.0127445
 31
0.0
  0
LINE
  5
DE0
330
1D
100
AcDbEntity
  8
0
100
AcDbLine
 10
191.187
 20
0.0127445
 30
0.0
 11
189.681
 21
0.0127445
 31
0.0
  0
LINE
  5
DE1
330
1D
100
AcDbEntity
  8
0
100
AcDbLine
 10
191.187
 20
0.0127445
 30
0.0
 11
189.681
 21
0.0127445
 31
0.0
  0
LINE
  5
DE2
330
1D
100
AcDbEntity
  8
0
100
AcDbLine
 10
191.187
 20
0.0127445
 30
0.0
 11
189.681
 21
0.0127445
 31
0.0
  0
LINE
  5
DE3
330
1D
100
AcDbEntity
  8
0
100
AcDbLine
 10
191.187
 20
0.0127445
 30
0.0
 11
189.681
 21
0.0127445
 31
0.0
  0
LINE
  5
DE4
330
1D
100
AcDbEntity
  8
0
100
AcDbLine
 10
191.187
 20
0.0127445
 30
0.0
 11
189.681
 21
0.0127445
 31
0.0
  0
LINE
  5
DE5
330
1D
100
AcDbEntity
  8
0
100
AcDbLine
 10
191.187
 20
0.0127445
 30
0.0
 11
189.681
 21
0.0127445
 31
0.0
  0
LINE
  5
DE6
330
1D
100
AcDbEntity
  8
0
100
AcDbLine
 10
191.187
 20
2.0127455
 30
0.0
 11
189.681
 21
2.0127455
 31
0.0
  0
LINE
  5
DE7
330
1D
100
AcDbEntity
  8
0
100
AcDbLine
 10
191.187
 20
0.0127445
 30
0.0
 11
189.681
 21
0.0127445
 31
0.0
  0
LINE
  5
DE8
330
1D
100
AcDbEntity
  8
0
100
AcDbLine
 10
191.187
 20
0.0127445
 30
0.0
 11
189.681
 21
0.0127445
 31
0.0
  0
LINE
  5
DE9
330
1D
100
AcDbEntity
  8
0
100
AcDbLine
 10
191.187
 20
0.0127445
 30
0.0
 11
189.681
 21
0.0127445
 31
0.0
  0
LINE
  5
DEA
330
1D
100
AcDbEntity
  8
0
100
AcDbLine
 10
188.175
 20
0.0127445
 30
0.0
 11
187.53
 21
0.0127445
 31
0.0
  0
LINE
  5
DEB
330
1D
100
AcDbEntity
  8
0
100
AcDbLine
 10
188.175
 20
0.0127445
 30
0.0
 11
187.53
 21
0.0127445
 31
0.0
  0
LINE
  5
DEC
330
1D
100
AcDbEntity
  8
0
100
AcDbLine
 10
188.175
 20
0.0127445
 30
0.0
 11
187.53
 21
0.0127445
 31
0.0
  0
LINE
  5
DED
330
1D
100
AcDbEntity
  8
0
100
AcDbLine
 10
188.175
 20
0.0127445
 30
0.0
 11
187.53
 21
0.0127445
 31
0.0
  0
LINE
  5
DEE
330
1D
100
AcDbEntity
  8
0
100
AcDbLine
 10
188.175
 20
0.0127445
 30
0.0
 11
187.53
 21
0.0127445
 31
0.0
  0
LINE
  5
DEF
330
1D
100
AcDbEntity
  8
0
100
AcDbLine
 10
188.175
 20
0.0127445
 30
0.0
 11
187.53
 21
0.0127445
 31
0.0
  0
LINE
  5
DF0
330
1D
100
AcDbEntity
  8
0
100
AcDbLine
 10
188.175
 20
0.0127445
 30
0.0
 11
187.53
 21
0.0127445
 31
0.0
  0
LINE
  5
DF1
330
1D
100
AcDbEntity
  8
0
100
AcDbLine
 10
188.175
 20
0.0127445
 30
0.0
 11
187.53
 21
0.0127445
 31
0.0
  0
LINE
  5
DF2
330
1D
100
AcDbEntity
  8
0
100
AcDbLine
 10
188.175
 20
0.0127445
 30
0.0
 11
187.53
 21
0.0127445
 31
0.0
  0
LINE
  5
DF3
330
1D
100
AcDbEntity
  8
0
100
AcDbLine
 10
188.175
 20
0.0127445
 30
0.0
 11
187.53
 21
0.0127445
 31
0.0
  0
LINE
  5
DF4
330
1D
100
AcDbEntity
  8
0
100
AcDbLine
 10
188.175
 20
0.0127445
 30
0.0
 11
187.53
 21
0.0127445
 31
0.0
  0
LINE
  5
DF5
330
1D
100
AcDbEntity
  8
0
100
AcDbLine
 10
188.175
 20
0.0127445
 30
0.0
 11
187.53
 21
0.0127445
 31
0.0
  0
LINE
  5
DF6
330
1D
100
AcDbEntity
  8
0
100
AcDbLine
 10
188.175
 20
2.0127455
 30
0.0
 11
187.53
 21
2.0127455
 31
0.0
  0
LINE
  5
DF7
330
1D
100
AcDbEntity
  8
0
100
AcDbLine
 10
188.175
 20
0.0127445
 30
0.0
 11
187.53
 21
0.0127445
 31
0.0
  0
LINE
  5
DF8
330
1D
100
AcDbEntity
  8
0
100
AcDbLine
 10
187.53
 20
0.0127445
 30
0.0
 11
187.53
 21
2.0127455
 31
0.0
  0
LINE
  5
DF9
330
1D
100
AcDbEntity
  8
0
100
AcDbLine
 10
187.53
 20
2.0127455
 30
0.0
 11
187.53
 21
0.0127445
 31
0.0
  0
LINE
  5
DFA
330
1D
100
AcDbEntity
  8
0
100
AcDbLine
 10
188.175
 20
0.0127445
 30
0.0
 11
187.53
 21
0.0127445
 31
0.0
  0
LINE
  5
DFB
330
1D
100
AcDbEntity
  8
0
100
AcDbLine
 10
187.53
 20
2.0127455
 30
0.0
 11
187.114
 21
2.0127455
 31
0.0
  0
LINE
  5
DFC
330
1D
100
AcDbEntity
  8
0
100
AcDbLine
 10
194.46
 20
31.5853555
 30
0.0
 11
193.02
 21
31.5853555
 31
0.0
  0
LINE
  5
DFD
330
1D
100
AcDbEntity
  8
0
100
AcDbLine
 10
193.02
 20
31.5853555
 30
0.0
 11
190.62
 21
31.5853555
 31
0.0
  0
LINE
  5
DFE
330
1D
100
AcDbEntity
  8
0
100
AcDbLine
 10
194.64
 20
32.0127555
 30
0.0
 11
194.1
 21
32.0127555
 31
0.0
  0
LINE
  5
DFF
330
1D
100
AcDbEntity
  8
0
100
AcDbLine
 10
194.1
 20
32.0127555
 30
0.0
 11
192.66
 21
32.0127555
 31
0.0
  0
LINE
  5
E00
330
1D
100
AcDbEntity
  8
0
100
AcDbLine
 10
192.66
 20
32.0127555
 30
0.0
 11
190.32
 21
32.0127555
 31
0.0
  0
LINE
  5
E01
330
1D
100
AcDbEntity
  8
0
100
AcDbLine
 10
190.62
 20
31.5853555
 30
0.0
 11
187.44
 21
31.5853555
 31
0.0
  0
LINE
  5
E02
330
1D
100
AcDbEntity
  8
0
100
AcDbLine
 10
195.0
 20
31.5853555
 30
0.0
 11
194.64
 21
32.0127555
 31
0.0
  0
LINE
  5
E03
330
1D
100
AcDbEntity
  8
0
100
AcDbLine
 10
195.0
 20
31.5853555
 30
0.0
 11
194.46
 21
31.5853555
 31
0.0
  0
LINE
  5
E04
330
1D
100
AcDbEntity
  8
0
100
AcDbLine
 10
190.32
 20
32.0127555
 30
0.0
 11
187.26
 21
32.0127555
 31
0.0
  0
LINE
  5
E05
330
1D
100
AcDbEntity
  8
0
100
AcDbLine
 10
187.26
 20
32.0127555
 30
0.0
 11
183.78
 21
32.0127555
 31
0.0
  0
LINE
  5
E06
330
1D
100
AcDbEntity
  8
0
100
AcDbLine
 10
187.44
 20
31.5853555
 30
0.0
 11
183.84
 21
31.5853555
 31
0.0
  0
LINE
  5
E07
330
1D
100
AcDbEntity
  8
0
100
AcDbLine
 10
204.724
 20
78.4811555
 30
0.0
 11
200.762
 21
78.0087555
 31
0.0
  0
LINE
  5
E08
330
1D
100
AcDbEntity
  8
0
100
AcDbLine
 10
214.247
 20
81.1884555
 30
0.0
 11
213.297
 21
80.5571555
 31
0.0
  0
LINE
  5
E09
330
1D
100
AcDbEntity
  8
0
100
AcDbLine
 10
217.796
 20
87.2688555
 30
0.0
 11
217.442
 21
85.8254555
 31
0.0
  0
LINE
  5
E0A
330
1D
100
AcDbEntity
  8
0
100
AcDbLine
 10
216.94
 20
84.5809555
 30
0.0
 11
216.43
 21
83.6907555
 31
0.0
  0
LINE
  5
E0B
330
1D
100
AcDbEntity
  8
0
100
AcDbLine
 10
217.442
 20
85.8254555
 30
0.0
 11
216.94
 21
84.5809555
 31
0.0
  0
LINE
  5
E0C
330
1D
100
AcDbEntity
  8
0
100
AcDbLine
 10
215.799
 20
82.7400555
 30
0.0
 11
215.071
 21
81.9162555
 31
0.0
  0
LINE
  5
E0D
330
1D
100
AcDbEntity
  8
0
100
AcDbLine
 10
216.43
 20
83.6907555
 30
0.0
 11
215.799
 21
82.7400555
 31
0.0
  0
LINE
  5
E0E
330
1D
100
AcDbEntity
  8
0
100
AcDbLine
 10
215.071
 20
81.9162555
 30
0.0
 11
214.247
 21
81.1884555
 31
0.0
  0
LINE
  5
E0F
330
1D
100
AcDbEntity
  8
0
100
AcDbLine
 10
218.12
 20
89.0217555
 30
0.0
 11
217.796
 21
87.2688555
 31
0.0
  0
LINE
  5
E10
330
1D
100
AcDbEntity
  8
0
100
AcDbLine
 10
209.718
 20
79.1908555
 30
0.0
 11
207.965
 21
78.8672555
 31
0.0
  0
LINE
  5
E11
330
1D
100
AcDbEntity
  8
0
100
AcDbLine
 10
207.965
 20
78.8672555
 30
0.0
 11
204.724
 21
78.4811555
 31
0.0
  0
LINE
  5
E12
330
1D
100
AcDbEntity
  8
0
100
AcDbLine
 10
211.162
 20
79.5454555
 30
0.0
 11
209.718
 21
79.1908555
 31
0.0
  0
LINE
  5
E13
330
1D
100
AcDbEntity
  8
0
100
AcDbLine
 10
213.297
 20
80.5571555
 30
0.0
 11
212.406
 21
80.0469555
 31
0.0
  0
LINE
  5
E14
330
1D
100
AcDbEntity
  8
0
100
AcDbLine
 10
212.406
 20
80.0469555
 30
0.0
 11
211.162
 21
79.5454555
 31
0.0
  0
LINE
  5
E15
330
1D
100
AcDbEntity
  8
0
100
AcDbLine
 10
191.058
 20
68.8932555
 30
0.0
 11
191.058
 21
58.3264555
 31
0.0
  0
LINE
  5
E16
330
1D
100
AcDbEntity
  8
0
100
AcDbLine
 10
191.058
 20
58.3264555
 30
0.0
 11
191.058
 21
68.8932555
 31
0.0
  0
LINE
  5
E17
330
1D
100
AcDbEntity
  8
0
100
AcDbLine
 10
192.238
 20
54.0127555
 30
0.0
 11
189.976
 21
54.0127555
 31
0.0
  0
LINE
  5
E18
330
1D
100
AcDbEntity
  8
0
100
AcDbLine
 10
192.586
 20
53.5854555
 30
0.0
 11
190.266
 21
53.5854555
 31
0.0
  0
LINE
  5
E19
330
1D
100
AcDbEntity
  8
0
100
AcDbLine
 10
191.440691285081
 20
54.0127555
 30
0.0
 11
190.996
 21
54.9087555
 31
0.0
  0
LINE
  5
E1A
330
1D
100
AcDbEntity
  8
0
100
AcDbLine
 10
194.152
 20
54.0127555
 30
0.0
 11
193.63
 21
54.0127555
 31
0.0
  0
LINE
  5
E1B
330
1D
100
AcDbEntity
  8
0
100
AcDbLine
 10
193.63
 20
54.0127555
 30
0.0
 11
192.238
 21
54.0127555
 31
0.0
  0
LINE
  5
E1C
330
1D
100
AcDbEntity
  8
0
100
AcDbLine
 10
193.978
 20
53.5854555
 30
0.0
 11
192.586
 21
53.5854555
 31
0.0
  0
LINE
  5
E1D
330
1D
100
AcDbEntity
  8
0
100
AcDbLine
 10
194.5
 20
53.5854555
 30
0.0
 11
194.152
 21
54.0127555
 31
0.0
  0
LINE
  5
E1E
330
1D
100
AcDbEntity
  8
0
100
AcDbLine
 10
194.5
 20
53.5854555
 30
0.0
 11
193.978
 21
53.5854555
 31
0.0
  0
LINE
  5
E1F
330
1D
100
AcDbEntity
  8
0
100
AcDbLine
 10
190.996
 20
54.9087555
 30
0.0
 11
188.964
 21
57.1130555
 31
0.0
  0
LINE
  5
E20
330
1D
100
AcDbEntity
  8
0
100
AcDbLine
 10
189.976
 20
54.0127555
 30
0.0
 11
187.018
 21
54.0127555
 31
0.0
  0
LINE
  5
E21
330
1D
100
AcDbEntity
  8
0
100
AcDbLine
 10
190.266
 20
53.5854555
 30
0.0
 11
187.192
 21
53.5854555
 31
0.0
  0
LINE
  5
E22
330
1D
100
AcDbEntity
  8
0
100
AcDbLine
 10
187.018
 20
54.0127555
 30
0.0
 11
183.654
 21
54.0127555
 31
0.0
  0
LINE
  5
E23
330
1D
100
AcDbEntity
  8
0
100
AcDbLine
 10
187.192
 20
53.5854555
 30
0.0
 11
183.712
 21
53.5854555
 31
0.0
  0
LINE
  5
E24
330
1D
100
AcDbEntity
  8
0
100
AcDbLine
 10
190.792
 20
57.8406555
 30
0.0
 11
190.394
 21
57.8406555
 31
0.0
  0
LINE
  5
E25
330
1D
100
AcDbEntity
  8
0
100
AcDbLine
 10
190.394
 20
57.8406555
 30
0.0
 11
189.333
 21
57.8406555
 31
0.0
  0
LINE
  5
E26
330
1D
100
AcDbEntity
  8
0
100
AcDbLine
 10
189.333
 20
57.8406555
 30
0.0
 11
187.815
 21
57.8406555
 31
0.0
  0
LINE
  5
E27
330
1D
100
AcDbEntity
  8
0
100
AcDbLine
 10
189.333
 20
57.8406555
 30
0.0
 11
187.608
 21
57.8406555
 31
0.0
  0
LINE
  5
E28
330
1D
100
AcDbEntity
  8
0
100
AcDbLine
 10
187.608
 20
57.8406555
 30
0.0
 11
185.352
 21
57.8406555
 31
0.0
  0
LINE
  5
E29
330
1D
100
AcDbEntity
  8
0
100
AcDbLine
 10
187.815
 20
57.8406555
 30
0.0
 11
187.604
 21
57.8406555
 31
0.0
  0
LINE
  5
E2A
330
1D
100
AcDbEntity
  8
0
100
AcDbLine
 10
188.964
 20
57.1130555
 30
0.0
 11
187.815
 21
57.8406555
 31
0.0
  0
LINE
  5
E2B
330
1D
100
AcDbEntity
  8
0
100
AcDbLine
 10
187.604
 20
57.8406555
 30
0.0
 11
186.128
 21
57.8406555
 31
0.0
  0
LINE
  5
E2C
330
1D
100
AcDbEntity
  8
0
100
AcDbLine
 10
185.352
 20
57.8406555
 30
0.0
 11
182.787
 21
57.8406555
 31
0.0
  0
LINE
  5
E2D
330
1D
100
AcDbEntity
  8
0
100
AcDbLine
 10
185.65
 20
57.8406555
 30
0.0
 11
182.611
 21
57.8406555
 31
0.0
  0
LINE
  5
E2E
330
1D
100
AcDbEntity
  8
0
100
AcDbLine
 10
186.128
 20
57.8406555
 30
0.0
 11
185.65
 21
57.8406555
 31
0.0
  0
LINE
  5
E2F
330
1D
100
AcDbEntity
  8
0
100
AcDbLine
 10
182.611
 20
57.8406555
 30
0.0
 11
182.302
 21
57.8406555
 31
0.0
  0
LINE
  5
E30
330
1D
100
AcDbEntity
  8
0
100
AcDbLine
 10
191.058
 20
58.3264555
 30
0.0
 11
190.792
 21
57.8406555
 31
0.0
  0
LINE
  5
E31
330
1D
100
AcDbEntity
  8
0
100
AcDbLine
 10
200.762
 20
78.0087555
 30
0.0
 11
195.02
 21
77.5745555
 31
0.0
  0
LINE
  5
E32
330
1D
100
AcDbEntity
  8
0
100
AcDbLine
 10
195.02
 20
77.5745555
 30
0.0
 11
191.0
 21
77.353029015494
 31
0.0
  0
LINE
  5
E33
330
1D
100
AcDbEntity
  8
0
100
AcDbLine
 10
191.058
 20
68.8932555
 30
0.0
 11
191.0
 21
74.9203555
 31
0.0
  0
LINE
  5
E34
330
1D
100
AcDbEntity
  8
0
100
AcDbLine
 10
191.0
 20
74.9203555
 30
0.0
 11
191.0
 21
81.0754555
 31
0.0
  0
LINE
  5
E35
330
1D
100
AcDbEntity
  8
0
100
AcDbLine
 10
191.0
 20
87.0178555
 30
0.0
 11
191.0
 21
81.0754555
 31
0.0
  0
LINE
  5
E36
330
1D
100
AcDbEntity
  8
0
100
AcDbLine
 10
191.0
 20
81.0754555
 30
0.0
 11
191.0
 21
87.0178555
 31
0.0
  0
LINE
  5
E37
330
1D
100
AcDbEntity
  8
0
100
AcDbLine
 10
191.0
 20
81.0754555
 30
0.0
 11
191.0
 21
74.9203555
 31
0.0
  0
LINE
  5
E38
330
1D
100
AcDbEntity
  8
0
100
AcDbLine
 10
219.413
 20
132.0072555
 30
0.0
 11
218.979
 21
137.7492555
 31
0.0
  0
LINE
  5
E39
330
1D
100
AcDbEntity
  8
0
100
AcDbLine
 10
219.947
 20
113.5762555
 30
0.0
 11
219.774
 21
108.5182555
 31
0.0
  0
LINE
  5
E3A
330
1D
100
AcDbEntity
  8
0
100
AcDbLine
 10
219.774
 20
108.5182555
 30
0.0
 11
219.413
 21
101.9672555
 31
0.0
  0
LINE
  5
E3B
330
1D
100
AcDbEntity
  8
0
100
AcDbLine
 10
218.979
 20
96.2248555
 30
0.0
 11
218.506
 21
92.2629555
 31
0.0
  0
LINE
  5
E3C
330
1D
100
AcDbEntity
  8
0
100
AcDbLine
 10
219.413
 20
101.9672555
 30
0.0
 11
218.979
 21
96.2248555
 31
0.0
  0
LINE
  5
E3D
330
1D
100
AcDbEntity
  8
0
100
AcDbLine
 10
219.947
 20
120.3982555
 30
0.0
 11
219.774
 21
125.4562555
 31
0.0
  0
LINE
  5
E3E
330
1D
100
AcDbEntity
  8
0
100
AcDbLine
 10
220.0
 20
116.9872555
 30
0.0
 11
219.947
 21
120.3982555
 31
0.0
  0
LINE
  5
E3F
330
1D
100
AcDbEntity
  8
0
100
AcDbLine
 10
220.0
 20
116.9872555
 30
0.0
 11
219.947
 21
113.5762555
 31
0.0
  0
LINE
  5
E40
330
1D
100
AcDbEntity
  8
0
100
AcDbLine
 10
219.774
 20
125.4562555
 30
0.0
 11
219.413
 21
132.0072555
 31
0.0
  0
LINE
  5
E41
330
1D
100
AcDbEntity
  8
0
100
AcDbLine
 10
191.0
 20
113.2612555
 30
0.0
 11
191.0
 21
110.4792555
 31
0.0
  0
LINE
  5
E42
330
1D
100
AcDbEntity
  8
0
100
AcDbLine
 10
191.0
 20
110.4792555
 30
0.0
 11
191.0
 21
113.2612555
 31
0.0
  0
LINE
  5
E43
330
1D
100
AcDbEntity
  8
0
100
AcDbLine
 10
191.0
 20
97.8618555
 30
0.0
 11
191.0
 21
92.6452555
 31
0.0
  0
LINE
  5
E44
330
1D
100
AcDbEntity
  8
0
100
AcDbLine
 10
191.0
 20
97.8618555
 30
0.0
 11
191.0
 21
102.8092555
 31
0.0
  0
LINE
  5
E45
330
1D
100
AcDbEntity
  8
0
100
AcDbLine
 10
191.0
 20
92.6452555
 30
0.0
 11
191.0
 21
97.8618555
 31
0.0
  0
LINE
  5
E46
330
1D
100
AcDbEntity
  8
0
100
AcDbLine
 10
191.0
 20
110.4792555
 30
0.0
 11
191.0
 21
106.9832555
 31
0.0
  0
LINE
  5
E47
330
1D
100
AcDbEntity
  8
0
100
AcDbLine
 10
191.0
 20
106.9832555
 30
0.0
 11
191.0
 21
102.8092555
 31
0.0
  0
LINE
  5
E48
330
1D
100
AcDbEntity
  8
0
100
AcDbLine
 10
191.0
 20
106.9832555
 30
0.0
 11
191.0
 21
110.4792555
 31
0.0
  0
LINE
  5
E49
330
1D
100
AcDbEntity
  8
0
100
AcDbLine
 10
191.0
 20
102.8092555
 30
0.0
 11
191.0
 21
106.9832555
 31
0.0
  0
LINE
  5
E4A
330
1D
100
AcDbEntity
  8
0
100
AcDbLine
 10
191.0
 20
102.8092555
 30
0.0
 11
191.0
 21
97.8618555
 31
0.0
  0
LINE
  5
E4B
330
1D
100
AcDbEntity
  8
0
100
AcDbLine
 10
191.0
 20
116.5112555
 30
0.0
 11
191.0
 21
115.2842555
 31
0.0
  0
LINE
  5
E4C
330
1D
100
AcDbEntity
  8
0
100
AcDbLine
 10
191.0
 20
116.5112555
 30
0.0
 11
191.0
 21
116.9232555
 31
0.0
  0
LINE
  5
E4D
330
1D
100
AcDbEntity
  8
0
100
AcDbLine
 10
191.0
 20
115.2842555
 30
0.0
 11
191.0
 21
113.2612555
 31
0.0
  0
LINE
  5
E4E
330
1D
100
AcDbEntity
  8
0
100
AcDbLine
 10
191.0
 20
115.2842555
 30
0.0
 11
191.0
 21
116.5112555
 31
0.0
  0
LINE
  5
E4F
330
1D
100
AcDbEntity
  8
0
100
AcDbLine
 10
191.0
 20
113.2612555
 30
0.0
 11
191.0
 21
115.2842555
 31
0.0
  0
LINE
  5
E50
330
1D
100
AcDbEntity
  8
0
100
AcDbLine
 10
189.548
 20
122.3902555
 30
0.0
 11
187.788
 21
124.7272555
 31
0.0
  0
LINE
  5
E51
330
1D
100
AcDbEntity
  8
0
100
AcDbLine
 10
190.604
 20
119.7442555
 30
0.0
 11
189.548
 21
122.3902555
 31
0.0
  0
LINE
  5
E52
330
1D
100
AcDbEntity
  8
0
100
AcDbLine
 10
191.0
 20
116.9232555
 30
0.0
 11
190.970969395018
 21
116.716375784698
 31
0.0
  0
LINE
  5
E53
330
1D
100
AcDbEntity
  8
0
100
AcDbLine
 10
191.0
 20
116.9232555
 30
0.0
 11
190.604
 21
119.7442555
 31
0.0
  0
LINE
  5
E54
330
1D
100
AcDbEntity
  8
0
100
AcDbLine
 10
191.0
 20
116.9232555
 30
0.0
 11
191.0
 21
116.5112555
 31
0.0
  0
LINE
  5
E55
330
1D
100
AcDbEntity
  8
0
100
AcDbLine
 10
185.456
 20
126.4902555
 30
0.0
 11
182.816
 21
127.5492555
 31
0.0
  0
LINE
  5
E56
330
1D
100
AcDbEntity
  8
0
100
AcDbLine
 10
187.788
 20
124.7272555
 30
0.0
 11
185.456
 21
126.4902555
 31
0.0
  0
LINE
  5
E57
330
1D
100
AcDbEntity
  8
0
100
AcDbLine
 10
204.724
 20
155.4932555
 30
0.0
 11
200.762
 21
155.9662555
 31
0.0
  0
LINE
  5
E58
330
1D
100
AcDbEntity
  8
0
100
AcDbLine
 10
214.247
 20
152.7862555
 30
0.0
 11
213.297
 21
153.4172555
 31
0.0
  0
LINE
  5
E59
330
1D
100
AcDbEntity
  8
0
100
AcDbLine
 10
218.12
 20
144.9522555
 30
0.0
 11
217.796
 21
146.7052555
 31
0.0
  0
LINE
  5
E5A
330
1D
100
AcDbEntity
  8
0
100
AcDbLine
 10
218.979
 20
137.7492555
 30
0.0
 11
218.506
 21
141.7112555
 31
0.0
  0
LINE
  5
E5B
330
1D
100
AcDbEntity
  8
0
100
AcDbLine
 10
218.506
 20
141.7112555
 30
0.0
 11
218.12
 21
144.9522555
 31
0.0
  0
LINE
  5
E5C
330
1D
100
AcDbEntity
  8
0
100
AcDbLine
 10
217.796
 20
146.7052555
 30
0.0
 11
217.442
 21
148.1492555
 31
0.0
  0
LINE
  5
E5D
330
1D
100
AcDbEntity
  8
0
100
AcDbLine
 10
217.442
 20
148.1492555
 30
0.0
 11
216.94
 21
149.3932555
 31
0.0
  0
LINE
  5
E5E
330
1D
100
AcDbEntity
  8
0
100
AcDbLine
 10
216.94
 20
149.3932555
 30
0.0
 11
216.43
 21
150.2832555
 31
0.0
  0
LINE
  5
E5F
330
1D
100
AcDbEntity
  8
0
100
AcDbLine
 10
216.43
 20
150.2832555
 30
0.0
 11
215.799
 21
151.2342555
 31
0.0
  0
LINE
  5
E60
330
1D
100
AcDbEntity
  8
0
100
AcDbLine
 10
215.799
 20
151.2342555
 30
0.0
 11
215.071
 21
152.0582555
 31
0.0
  0
LINE
  5
E61
330
1D
100
AcDbEntity
  8
0
100
AcDbLine
 10
215.071
 20
152.0582555
 30
0.0
 11
214.247
 21
152.7862555
 31
0.0
  0
LINE
  5
E62
330
1D
100
AcDbEntity
  8
0
100
AcDbLine
 10
213.297
 20
153.4172555
 30
0.0
 11
212.406
 21
153.9272555
 31
0.0
  0
LINE
  5
E63
330
1D
100
AcDbEntity
  8
0
100
AcDbLine
 10
212.406
 20
153.9272555
 30
0.0
 11
211.162
 21
154.4292555
 31
0.0
  0
LINE
  5
E64
330
1D
100
AcDbEntity
  8
0
100
AcDbLine
 10
211.162
 20
154.4292555
 30
0.0
 11
209.718
 21
154.7832555
 31
0.0
  0
LINE
  5
E65
330
1D
100
AcDbEntity
  8
0
100
AcDbLine
 10
209.718
 20
154.7832555
 30
0.0
 11
207.965
 21
155.1072555
 31
0.0
  0
LINE
  5
E66
330
1D
100
AcDbEntity
  8
0
100
AcDbLine
 10
207.965
 20
155.1072555
 30
0.0
 11
204.724
 21
155.4932555
 31
0.0
  0
LINE
  5
E67
330
1D
100
AcDbEntity
  8
0
100
AcDbLine
 10
200.762
 20
155.9662555
 30
0.0
 11
195.02
 21
156.4002555
 31
0.0
  0
LINE
  5
E68
330
1D
100
AcDbEntity
  8
0
100
AcDbLine
 10
195.02
 20
156.4002555
 30
0.0
 11
188.469
 21
156.7612555
 31
0.0
  0
LINE
  5
E69
330
1D
100
AcDbEntity
  8
0
100
AcDbLine
 10
188.469
 20
156.7612555
 30
0.0
 11
183.411
 21
156.9342555
 31
0.0
  0
ENDSEC
  0
SECTION
  2
OBJECTS
  0
DICTIONARY
  5
C
330
0
100
AcDbDictionary
281
     1
  3
ACAD_GROUP
350
D
  3
ACAD_LAYOUT
350
1A
  3
ACAD_MLEADERSTYLE
350
E6C
  3
ACAD_MLINESTYLE
350
17
  3
ACAD_PLOTSETTINGS
350
19
  3
ACAD_PLOTSTYLENAME
350
E
  3
ACAD_SCALELIST
350
9FA
  3
AcDbVariableDictionary
350
E6A
  3
DWGPROPS
350
E6F
  0
DICTIONARY
  5
D
102
{ACAD_REACTORS
330
C
102
}
330
C
100
AcDbDictionary
281
     1
  0
DICTIONARY
  5
1A
102
{ACAD_REACTORS
330
C
102
}
330
C
100
AcDbDictionary
281
     1
  3
Layout1
350
1C
  3
Model
350
1E
  0
DICTIONARY
  5
E6C
102
{ACAD_REACTORS
330
C
102
}
330
C
100
AcDbDictionary
281
     1
  0
DICTIONARY
  5
17
102
{ACAD_REACTORS
330
C
102
}
330
C
100
AcDbDictionary
281
     1
  3
Standard
350
18
  0
DICTIONARY
  5
19
102
{ACAD_REACTORS
330
C
102
}
330
C
100
AcDbDictionary
281
     1
  0
ACDBDICTIONARYWDFLT
  5
E
102
{ACAD_REACTORS
330
C
102
}
330
C
100
AcDbDictionary
281
     1
  3
Normal
350
F
100
AcDbDictionaryWithDefault
340
F
  0
DICTIONARY
  5
9FA
102
{ACAD_REACTORS
330
C
102
}
330
C
100
AcDbDictionary
281
     1
  3
A0
350
9FB
  3
A1
350
9FC
  3
A2
350
9FD
  3
A3
350
9FE
  3
A4
350
9FF
  3
A5
350
A00
  3
A6
350
A01
  3
A7
350
A02
  3
A8
350
A03
  3
A9
350
A04
  3
B0
350
A05
  3
B1
350
A06
  3
B2
350
A07
  3
B3
350
A08
  3
B4
350
A09
  3
B5
350
A0A
  3
B6
350
A0B
  3
B7
350
A0C
  3
B8
350
A0D
  3
B9
350
A0E
  3
C0
350
A0F
  3
C1
350
A10
  3
C2
350
A11
  3
C3
350
A12
  3
C4
350
A13
  3
C5
350
A14
  3
C6
350
A15
  3
C7
350
A16
  3
C8
350
A17
  3
C9
350
A18
  3
D0
350
A19
  3
D1
350
A1A
  3
D2
350
A1B
  0
DICTIONARY
  5
E6A
102
{ACAD_REACTORS
330
C
102
}
330
C
100
AcDbDictionary
281
     1
  3
CANNOSCALE
350
E6D
  0
XRECORD
  5
E6F
102
{ACAD_REACTORS
330
C
102
}
330
C
100
AcDbXrecord
280
     1
  1
DWGPROPS COOKIE
  2

  3

  4

  6

  7

  8
MARTIN
  9

300
=
301
=
302
=
303
=
304
=
305
=
306
=
307
=
308
=
309
=
 40
0.0
 41
2455870.833802511
 42
2455870.836808148
  1

 90
        0
  0
LAYOUT
  5
1C
102
{ACAD_REACTORS
330
1A
102
}
330
1A
100
AcDbPlotSettings
  1

  2
none_device
  4

  6

 40
0.0
 41
0.0
 42
0.0
 43
0.0
 44
0.0
 45
0.0
 46
0.0
 47
0.0
 48
0.0
 49
0.0
140
0.0
141
0.0
142
1.0
143
1.0
 70
   688
 72
     0
 73
     0
 74
     5
  7

 75
    16
147
1.0
148
0.0
149
0.0
100
AcDbLayout
  1
Layout1
 70
     1
 71
     1
 10
0.0
 20
0.0
 11
12.0
 21
9.0
 12
0.0
 22
0.0
 32
0.0
 14
1.000000000000E+20
 24
1.000000000000E+20
 34
1.000000000000E+20
 15
-1.000000000000E+20
 25
-1.000000000000E+20
 35
-1.000000000000E+20
146
0.0
 13
0.0
 23
0.0
 33
0.0
 16
1.0
 26
0.0
 36
0.0
 17
0.0
 27
1.0
 37
0.0
 76
     0
330
1B
  0
LAYOUT
  5
1E
102
{ACAD_REACTORS
330
1A
102
}
330
1A
100
AcDbPlotSettings
  1

  2
none_device
  4

  6

 40
0.0
 41
0.0
 42
0.0
 43
0.0
 44
0.0
 45
0.0
 46
0.0
 47
0.0
 48
0.0
 49
0.0
140
0.0
141
0.0
142
1.0
143
1.0
 70
  1712
 72
     0
 73
     0
 74
     0
  7

 75
     0
147
1.0
148
0.0
149
0.0
100
AcDbLayout
  1
Model
 70
     1
 71
     0
 10
0.0
 20
0.0
 11
12.0
 21
9.0
 12
0.0
 22
0.0
 32
0.0
 14
0.0
 24
0.0127445
 34
0.0
 15
360.0
 25
156.9872555
 35
0.0
146
0.0
 13
0.0
 23
0.0
 33
0.0
 16
1.0
 26
0.0
 36
0.0
 17
0.0
 27
1.0
 37
0.0
 76
     0
330
1D
331
9F5
  0
MLINESTYLE
  5
18
102
{ACAD_REACTORS
330
17
102
}
330
17
100
AcDbMlineStyle
  2
Standard
 70
     0
  3

 62
   256
 51
90.0
 52
90.0
 71
     2
 49
0.5
 62
   256
  6
BYLAYER
 49
-0.5
 62
   256
  6
BYLAYER
  0
ACDBPLACEHOLDER
  5
F
102
{ACAD_REACTORS
330
E
102
}
330
E
  0
SCALE
  5
9FB
102
{ACAD_REACTORS
330
9FA
102
}
330
9FA
100
AcDbScale
 70
     0
300
1:1
140
1.0
141
1.0
290
     1
  0
SCALE
  5
9FC
102
{ACAD_REACTORS
330
9FA
102
}
330
9FA
100
AcDbScale
 70
     0
300
1:2
140
1.0
141
2.0
290
     0
  0
SCALE
  5
9FD
102
{ACAD_REACTORS
330
9FA
102
}
330
9FA
100
AcDbScale
 70
     0
300
1:4
140
1.0
141
4.0
290
     0
  0
SCALE
  5
9FE
102
{ACAD_REACTORS
330
9FA
102
}
330
9FA
100
AcDbScale
 70
     0
300
1:5
140
1.0
141
5.0
290
     0
  0
SCALE
  5
9FF
102
{ACAD_REACTORS
330
9FA
102
}
330
9FA
100
AcDbScale
 70
     0
300
1:8
140
1.0
141
8.0
290
     0
  0
SCALE
  5
A00
102
{ACAD_REACTORS
330
9FA
102
}
330
9FA
100
AcDbScale
 70
     0
300
1:10
140
1.0
141
10.0
290
     0
  0
SCALE
  5
A01
102
{ACAD_REACTORS
330
9FA
102
}
330
9FA
100
AcDbScale
 70
     0
300
1:16
140
1.0
141
16.0
290
     0
  0
SCALE
  5
A02
102
{ACAD_REACTORS
330
9FA
102
}
330
9FA
100
AcDbScale
 70
     0
300
1:20
140
1.0
141
20.0
290
     0
  0
SCALE
  5
A03
102
{ACAD_REACTORS
330
9FA
102
}
330
9FA
100
AcDbScale
 70
     0
300
1:30
140
1.0
141
30.0
290
     0
  0
SCALE
  5
A04
102
{ACAD_REACTORS
330
9FA
102
}
330
9FA
100
AcDbScale
 70
     0
300
1:40
140
1.0
141
40.0
290
     0
  0
SCALE
  5
A05
102
{ACAD_REACTORS
330
9FA
102
}
330
9FA
100
AcDbScale
 70
     0
300
1:50
140
1.0
141
50.0
290
     0
  0
SCALE
  5
A06
102
{ACAD_REACTORS
330
9FA
102
}
330
9FA
100
AcDbScale
 70
     0
300
1:100
140
1.0
141
100.0
290
     0
  0
SCALE
  5
A07
102
{ACAD_REACTORS
330
9FA
102
}
330
9FA
100
AcDbScale
 70
     0
300
2:1
140
2.0
141
1.0
290
     0
  0
SCALE
  5
A08
102
{ACAD_REACTORS
330
9FA
102
}
330
9FA
100
AcDbScale
 70
     0
300
4:1
140
4.0
141
1.0
290
     0
  0
SCALE
  5
A09
102
{ACAD_REACTORS
330
9FA
102
}
330
9FA
100
AcDbScale
 70
     0
300
8:1
140
8.0
141
1.0
290
     0
  0
SCALE
  5
A0A
102
{ACAD_REACTORS
330
9FA
102
}
330
9FA
100
AcDbScale
 70
     0
300
10:1
140
10.0
141
1.0
290
     0
  0
SCALE
  5
A0B
102
{ACAD_REACTORS
330
9FA
102
}
330
9FA
100
AcDbScale
 70
     0
300
100:1
140
100.0
141
1.0
290
     0
  0
SCALE
  5
A0C
102
{ACAD_REACTORS
330
9FA
102
}
330
9FA
100
AcDbScale
 70
     0
300
1/128" = 1'-0"
140
0.0078125
141
12.0
290
     0
  0
SCALE
  5
A0D
102
{ACAD_REACTORS
330
9FA
102
}
330
9FA
100
AcDbScale
 70
     0
300
1/64" = 1'-0"
140
0.015625
141
12.0
290
     0
  0
SCALE
  5
A0E
102
{ACAD_REACTORS
330
9FA
102
}
330
9FA
100
AcDbScale
 70
     0
300
1/32" = 1'-0"
140
0.03125
141
12.0
290
     0
  0
SCALE
  5
A0F
102
{ACAD_REACTORS
330
9FA
102
}
330
9FA
100
AcDbScale
 70
     0
300
1/16" = 1'-0"
140
0.0625
141
12.0
290
     0
  0
SCALE
  5
A10
102
{ACAD_REACTORS
330
9FA
102
}
330
9FA
100
AcDbScale
 70
     0
300
3/32" = 1'-0"
140
0.09375
141
12.0
290
     0
  0
SCALE
  5
A11
102
{ACAD_REACTORS
330
9FA
102
}
330
9FA
100
AcDbScale
 70
     0
300
1/8" = 1'-0"
140
0.125
141
12.0
290
     0
  0
SCALE
  5
A12
102
{ACAD_REACTORS
330
9FA
102
}
330
9FA
100
AcDbScale
 70
     0
300
3/16" = 1'-0"
140
0.1875
141
12.0
290
     0
  0
SCALE
  5
A13
102
{ACAD_REACTORS
330
9FA
102
}
330
9FA
100
AcDbScale
 70
     0
300
1/4" = 1'-0"
140
0.25
141
12.0
290
     0
  0
SCALE
  5
A14
102
{ACAD_REACTORS
330
9FA
102
}
330
9FA
100
AcDbScale
 70
     0
300
3/8" = 1'-0"
140
0.375
141
12.0
290
     0
  0
SCALE
  5
A15
102
{ACAD_REACTORS
330
9FA
102
}
330
9FA
100
AcDbScale
 70
     0
300
1/2" = 1'-0"
140
0.5
141
12.0
290
     0
  0
SCALE
  5
A16
102
{ACAD_REACTORS
330
9FA
102
}
330
9FA
100
AcDbScale
 70
     0
300
3/4" = 1'-0"
140
0.75
141
12.0
290
     0
  0
SCALE
  5
A17
102
{ACAD_REACTORS
330
9FA
102
}
330
9FA
100
AcDbScale
 70
     0
300
1" = 1'-0"
140
1.0
141
12.0
290
     0
  0
SCALE
  5
A18
102
{ACAD_REACTORS
330
9FA
102
}
330
9FA
100
AcDbScale
 70
     0
300
1-1/2" = 1'-0"
140
1.5
141
12.0
290
     0
  0
SCALE
  5
A19
102
{ACAD_REACTORS
330
9FA
102
}
330
9FA
100
AcDbScale
 70
     0
300
3" = 1'-0"
140
3.0
141
12.0
290
     0
  0
SCALE
  5
A1A
102
{ACAD_REACTORS
330
9FA
102
}
330
9FA
100
AcDbScale
 70
     0
300
6" = 1'-0"
140
6.0
141
12.0
290
     0
  0
SCALE
  5
A1B
102
{ACAD_REACTORS
330
9FA
102
}
330
9FA
100
AcDbScale
 70
     0
300
1'-0" = 1'-0"
140
12.0
141
12.0
290
     0
  0
DICTIONARYVAR
  5
E6D
102
{ACAD_REACTORS
330
E6A
102
}
330
E6A
100
DictionaryVariables
280
     0
  1
1:1
  0
ENDSEC
  0
SECTION
  2
THUMBNAILIMAGE
 90
    16364
310
28000000B40000005500000001000800000000000000000000000000000000000000000000000000FFFFFF000000FF0000FFFF0000FF0000FFFF0000FF000000FF00FF000000000080808000C0C0C0000000FF007F7FFF000000A5005252A50000007F003F3F7F0000004C0026264C000000260013132600003FFF007F9FFF
310
000029A5005267A500001F7F003F4F7F0000134C00262F4C000009260013172600007FFF007FBFFF000052A500527CA500003F7F003F5F7F0000264C0026394C0000132600131C260000BFFF007FDFFF00007CA5005291A500005F7F003F6F7F0000394C0026424C00001C26001321260000FFFF007FFFFF0000A5A50052A5
310
A500007F7F003F7F7F00004C4C00264C4C00002626001326260000FFBF007FFFDF0000A57C0052A59100007F5F003F7F6F00004C3900264C420000261C001326210000FF7F007FFFBF0000A5520052A57C00007F3F003F7F5F00004C2600264C39000026130013261C0000FF3F007FFF9F0000A5290052A56700007F1F003F
310
7F4F00004C1300264C2F00002609001326170000FF00007FFF7F0000A5000052A55200007F00003F7F3F00004C0000264C260000260000132613003FFF00009FFF7F0029A5000067A552001F7F00004F7F3F00134C00002F4C260009260000172613007FFF0000BFFF7F0052A500007CA552003F7F00005F7F3F00264C0000
310
394C2600132600001C261300BFFF0000DFFF7F007CA5000091A552005F7F00006F7F3F00394C0000424C26001C26000021261300FFFF0000FFFF7F00A5A50000A5A552007F7F00007F7F3F004C4C00004C4C26002626000026261300FFBF0000FFDF7F00A57C0000A59152007F5F00007F6F3F004C3900004C422600261C00
310
0026211300FF7F0000FFBF7F00A5520000A57C52007F3F00007F5F3F004C2600004C39260026130000261C1300FF3F0000FF9F7F00A5290000A56752007F1F00007F4F3F004C1300004C2F26002609000026171300FF000000FF7F7F00A5000000A55252007F0000007F3F3F004C0000004C2626002600000026131300FF00
310
3F00FF7F9F00A5002900A55267007F001F007F3F4F004C0013004C262F002600090026131700FF007F00FF7FBF00A5005200A5527C007F003F007F3F5F004C0026004C2639002600130026131C00FF00BF00FF7FDF00A5007C00A55291007F005F007F3F6F004C0039004C26420026001C0026132100FF00FF00FF7FFF00A5
310
00A500A552A5007F007F007F3F7F004C004C004C264C002600260026132600BF00FF00DF7FFF007C00A5009152A5005F007F006F3F7F0039004C0042264C001C002600211326007F00FF00BF7FFF005200A5007C52A5003F007F005F3F7F0026004C0039264C00130026001C1326003F00FF009F7FFF002900A5006752A500
310
1F007F004F3F7F0013004C002F264C000900260017132600000000002D2D2D005B5B5B0089898900B7B7B700B3B3B30000000000000000000000000000000000000000000000000000000000000000000000000000000000000000000000000000000000000000000000000000000000000000000000000000000000000000
310
00000000000000000000000000000000000000000000000000000000000000000000000000000000000000000000000000000000000000000000000000000000000000000000000000000000000000000000000000000000000000000000000000000000000000000000000000000000000000000000000000000000000000
310
00000000000000000000000000000000000000000000000000000000000000000000000000000000000000000000000000000000000000000000000000000000000000000000000000000000000000000000000000000000000000000000000000000000000000000000000000000000000000000000000000000000000000
310
00000000000000000000000000000000000000000000000000000000000000000000000000000000000000000000000000000000000000000000000000000000000000000000000000000000000000000000000000000000000000000000000000000000000000000000000000000000000000000000000000000000000000
310
00000000000000000000000000000000000000000000000000000000000000000000000000000000000000000000000000000000000000000000000000000000000000000000000000000000000000000000000000000000070707000000000000000707070000000000000707070000000000000007070700000000000007
310
07070000000000000007070700000000000007070700000000000000070707000000000007070707070707000707070707070700000000000707070000000000000007070700000000000007070700000000000000070707000000000000070707000000000000000707070000000000000707070000000000000007070700
310
00000000000000000707070707070707070707070707070707070707070707070707070707070707070707070707070707070707070707070707070707070707070707070707070707070707070707070707070707070707070707070707070700070707070707070707070707070707070707070707070707070707070707
310
07070707070707070707070707070707070707070707070707070707070707070707070707070707070707070707070707070707070707070707000000070000000000000000000000000000000000000000000000000000000000000000000000000000000000000000000000000000000000000000000000000000000000
310
00000000000000000000000000000000000000000000000000000000000000000000000000000000000000000000000000000000000000000000000000000000000000000000000000000000000000000000000000000000000000000000000000000000000000000000000000000700000007000000000000000000000000
310
00000000000000000000000000000000000000000000000000000000000000000000000000000000000000000000000000000000000000000000000000000000000000000000000000000000000000000000000000000000000000000000000000000000000000000000000000000000000000000000000000000000000000
310
00000000000000000000000000000000000000000000000000000000000000000000000007000000070000000000000000000000000000000000000000000000000000000000000000000000000000000000000000000000000000000000000000000000000000000000000000000000000000000000000000000000000000
310
00000000000000000000000000000000000000000000000000000000000000000000000000000000000000000000000000000000000000000000000000000000000000000000000000000000000000000000000000000000000700000007000000000000000000000000000000000000000000000000000000000000000000
310
00000000000000000000000000000000000000000000000000000000000000000000000000000000000000000000000000000000000000000000000000000000000000000000000000000000000000000000000000000000000000000000000000000000000000000000000000000000000000000000000000000000000000
310
00000000000000000000000000000007000000070000000000000000000000000000000000000000000000000000000000000000000000000000000000000000000000000000000000000000000000000000000000000000000000000000000000000000000000000000000000000000000000000000000000000000000000
310
00000000000000000000000000000000000000000000000000000000000000000000000000000000000000000000000000000000000000000000000000000000000000000700000007070707070707070707070707070707070707070707070707070707070707070707070707070707070707070707070707070707070707
310
07070707070707070707070707070707070707070707070707070707070707070700070707070707070707070707070707070707070707070707070707070707070707070707070707070707070707070707070707070707070707070707070707070707070707070707070707070707070707070707070707070000000000
310
07070700000000000000000000000000000000000000000000000000000000000000000000000000000000000000000000000000000000000000000000000000000000000000000000000000000000000000000000000000000000000000000000000000000000000000000000000000000000000000000000000000000000
310
00000000000000000000000000000000000000000000000000000000000000000000000000000000000000070707000000000000000000000707070707070707070707000000000000000000000000000000000000000000000000000000000000000000000000000000000000000000000000000000000000000000000000
310
00000000000000000000000000000000000000000000000000000000000000000000000000000000000000000000000000000000000000000000000000000000000000000000000000000000000000000000000000070707070707070707070700000000000000000000000000000000000000000000000007070707070707
310
07070707070707070707070707070000000000000000000000000000000000000000000000000000000000000000000000000000000000000000000000000000000000000000000000000000000000000000000000000000000000000000000000000000000000000000000000000000000000000007070707070707070707
310
07070707070707070707070000000000000000000000000000000000000000000000000000000000000000000000000000000000000000000000000000000000000000070707070707070707070707070707070707070707070707070707070707070707070707070707070707070707070707070707000707070707070707
310
07070707070707070707070707070707070707070707070707070707070707070707070707070707070707000000000000000000000000000000000000000000000000000000000000000000000000000000000000000000000000000000000000000000000000000000000000000000000000000000000000000000000000
310
00000000000000000000000000000000000000000000000000000000000000000000000000070000000000000000000000000007000000000000000000000000000000000000000000000000000000000000000000000000000000000000000000000000000000000000000000000000000000000000000000000000000000
310
00000000000000000000000000000000000000000000000000000000000000000000000000000000000000000000000000000000000000000000000000000000000000000000000000000000000000000000000000000000000007000000000000000000000000000700000000000000000000000000000000000000000000
310
00000000000000000000000000000000000000000000000000000000000000000000000000000000000000000000000000000000000000000000000000000000000000000000000000000000000000000000000000000000000000000000000000000000000000000000000000000000000000000000000000000000000000
310
00000000000000000000000000000000070000000000000000000000000007000000000000000000000000000000000000000000000000000000000000000000000000000000000000000000000000000000000000000000000000000000000000000000000000000000000000000000000000000000000000000000000000
310
00000000000000000000000000000000000000000000000000000000000000000000000000000000000000000000000000000000000000000000000000000000000000000007000000000000000000000000000700000000000000000000000000000000000000000000000000000000000000000000000000000000000000
310
00000000000000000000000000000000000000000000000000000000000000000000000000000000000000000000000000000000000000000000000000000000000000000000000000000000000000000000000000000000000000000000000000000000000000000000000000000000000000000000000000000707070707
310
07070007070707070707000000000000000000000000000000000000000000000000000000000000000000000000000000000000000000000000000000000000000000000000000000000000000000000000000000000000000000000000000000000000000000000000000000000000000000000000000000000000000000
310
00000000000000000000000000000000000000000000000000000000000000000000000000000000000000000000000007000000000000000000000000000700000000000000000000000000000000000000000000000000000000000000000000000000000000000000000000000000000000000000000000000000000000
310
00000000000000000000000000000000000000000000000000000000000000000000000000000000000000000000000000000000000000000000000000000000000000000000000000000000000000000000000000000000000000000000000000000000000700000000000000000000000000070000000000000000000000
310
00000000000000000000000000000000000000000000000000000000000000000000000000000000000000000000000000000000000000000000000000000000000000000000000000000000000000000000000000000000000000000000000000000000000000000000000000000000000000000000000000000000000000
310
00000000000000000000000000000000000000000000000000000007000000000000000000000000000700000000000000000000000000000000000000000000000000000000000000000000000000000000000000000000000000000000000000000000000000000000000000000000000000000000000000000000000000
310
00000000000000000000000000000000000000000000000000000000000000000000000000000000000000000000000000000000000000000000000000000000000000000000000000000000000000000700000000000000000000000000070000000000000000000000000000000000000000000000000000000000000000
310
00000000000000000000000000000000000000000000000000000000000000000000000000000000000000000000000000000000000000000000000000000000000000000000000000000000000000000000000000000000000000000000000000000000000000000000000000000000000000000000000000000000000000
310
00000000000007000000000000000000000000000700000000000000000000000000000000000000000000000000000000000000000000000000000000000000000000000000000000000000000000000000000000000000000000000000000000000000000000000000000000000000000000000000000000000000000000
310
00000000000000000000000000000000000000000000000000000000000000000000000000000000000000000000000000000000000000000000000700000000000000000000000000070000000000000000000000000000000000000000000000000000000000000000000000000000000000000000000000000000000000
310
00000000000000000000000000000000000000000000000000000000000000000000000000000000000000000000000000000000000000000000000000000000000000000000000000000000000000000000000000000000000000000000000000000000000000000000000000000000070000000000000000000000000007
310
00000000000000000000000000000000000000000000000000000000000000000000000000000000000000000000000000000000000000000000000000000000000000000000000000000000000000000000000000000000000000000000000000000000000000000000000000000000000000000000000000000000000000
310
00000000000000000000000000000000000000000000000000000000000000000000000000000700000000000000000000000000070000000000000000000000000000000000000000000000000000000000000000000000000000000000000000000000000000000000000000000000000000000000000000000000000000
310
00000000000000000000000000000000000000000000000000000000000000000000000000000000000000000000000000000000000000000000000000000000000000000000000000000000000000000000000000000000000000070000000000000000000000000007000000000000000000000000000000000000000000
310
00000000000000000000000000000000000000000000000000000000000000000000000000000000000000000000000000000000000000000000000000000000000000000000000000000000000000000000000000000000000000000000000000000000000000000000000000000000000000000000000000000000000000
310
00000000000000000000000000000000000707070707070700070707070707070000000000000000000000000000000000000000000000000000000000000000000000000000000000000000000000000000000000000000000000000000000000000000000000000000000000000000000000000000000000000000000000
310
00000000000000000000000000000000000000000000000000000000000000000000000000000000000000000000000000000000000000000000000000000000000000000000000007000000000000000000070000000000000000000000000000000000000000000000000000000000000000000000000000000000000000
310
00000000000000000000000000000000000000000000000000000000000000000000000000000000000000000000000000000000000000000000000000000000000000000000000000000000000000000000000000000000000000000000000000000000000000000000000000000000000000000000000000000000000707
310
07070700070707070700000000000000000000000000000000000000000000000000000000000000000000000000000000000000000000000000000000000000000000000000000000000000000000000000000000000000000000000000000000000000000000000000000000000000000000000000000000000000000000
310
00000000000000000000000000000000000000000000000000000000000000000000000000000000000000000000000000000007000000000000000000070000000000000000000000000000000000000000000000000000000000000000000000000000000000000000000000000000000000000000000000000000000000
310
00000000000000000000000000000000000000000000000000000000000000000000000000000000000000000000000000000000000000000000000000000000000000000000000000000000000000000000000000000000000000000000000000000000000000000700000000000000000007000000000000000000000000
310
00000000000000000000000000000000000000000000000000000000000000000000000000000000000000000000000000000000000000000000000000000000000000000000000000000000000000000000000000000000000000000000000000000000000000000000000000000000000000000000000000000000000000
310
00000000000000000000000000000000000000000000000000000000000007000000000000000000070000000000000000000000000000000000000000000000000000000000000000000000000000000000000000000000000000000000000000000000000000000000000000000000000000000000000000000000000000
310
00000000000000000000000000000000000000000000000000000000000000000000000000000000000000000000000000000000000000000000000000000000000000000000000000000000000000000000000700000000000000000007000000000000000000000000000000000000000000000000000000000000000000
310
00000000000000000000000000000000000000000000000000000000000000000000000000000000000000000000000000000000000000000000000000000000000000000000000000000000000000000000000000000000000000000000000000000000000000000000000000000000000000000000000000000000000000
310
00000000000000000007000000000000000000070000000000000000000000000000000000000000000000000000000000000000000000000000000000000000000000000000000000000000000000000000000000000000000000000000000000000000000000000000000000000000000000000000000000000000000000
310
00000000000000000000000000000000000000000000000000000000000000000000000000000000000000000000000000000000000000000000000000000700000000000000000007000000000000000000000000000000000000000000000000000000000000000000000000000000000000000000000000000000000000
310
00000000000000000000000000000000000000000000000000000000000000000000000000000000000000000000000000000000000000000000000000000000000000000000000000000000000000000000000000000000000000000000000000000000000000000000000000000000000000070000000000000000000700
310
00000000000000000000000000000000000000000000000000000000000000000000000000000000000000000000000000000000000000000000000000000000000000000000000000000000000000000000000000000000000000000000000000000000000000000000000000000000000000000000000000000000000000
310
00000000000000000000000000000000000000000000000000000000000000000000000000000000000700000000000000000007000000000000000000000000000000000000000000000000000000000000000000000000000000000000000000000000000000000000000000000000000000000000000000000000000000
310
00000000000000000000000000000000000000000000000000000000000000000000000000000000000000000000000000000000000000000000000000000000000000000000000000000000000000000000000000000000000000000000070000000000000000000700000000000000000000000000000000000000000000
310
00000000000000000000000000000000000000000000000000000000000000000000000000000000000000000000000000000000000000000000000000000000000000000000000000000000000000000000000000000000000000000000000000000000000000000000000000000000000000000000000000000000000000
310
00000000000000000000000000070707070707070700000000000000000007070707070707070000000000000000000000000000000000000000000000000000000000000000000000000000000000000000000000000000000000000000000000000000000000000000000000000000000000000000000000000000000000
310
00000000000000000000000000000000000000000000000000000000000000000000000000000000000000000000000000000000000000000000000000000707070700000000000000070000000000000000000700000000000000070707070000000000000000000000000000000000000000000000000000000000000000
310
00000000000000000000000000000000000000000000000000000000000000000000000000000000000000000000000000000000000000000000000000000000000000000000000000000000000000000000000000000000000000000000000000000000000000000000000000000000000007070000000000000000000007
310
00000000000000000007000000000000000000000707000000000000000000000000000000000000000000000000000000000000000000000000000000000000000000000000000000000000000000000000000000000000000000000000000000000000000000000000000000000000000000000000000000000000000000
310
00000000000000000000000000000000000000000000000000000000000000000000000000000007000000000000000000000000070000000000000000000700000000000000000000000007000000000000000000000000000000000000000000000000000000000000000000000000000000000000000000000000000000
310
00000000000000000000000000000000000000000000000000000000000000000000000000000000000000000000000000000000000000000000000000000000000000000000000000000000000000000000000000000000000000000700000000000000000000000007000000000000000000070000000000000000000000
310
00070000000000000000000000000000000000000000000000000000000000000000000000000000000000000000000000000000000000000000000000000000000000000000000000000000000000000000000000000000000000000000000000000000000000000000000000000000000000000000000000000000000000
310
00000000000000000000000000000000000700000000000000000000000000070000000000000000000700000000000000000000000000070000000000000000000000000000000000000000000000000000000000000000000000000000000000000000000000000000000000000000000000000000000000000000000000
310
00000000000000000000000000000000000000000000000000000000000000000000000000000000000000000000000000000000000000000000000000000000000000000000070000000000000000000000000007000000000000000000070000000000000000000000000007000000000000000000000000000000000000
310
00000000000000000000000000000000000000000000000000000000000000000000000000000000000000000000000000000000000000000000000000000000000000000000000000000000000000000000000000000000000000000000000000000000000000000000000000000000000000000000000000000007000000
310
00000000000000000000070000000000000000000700000000000000000000000000070000000000000000000000000000000000000000000000000000000000000000000000000000000000000000000000000000000000000000000000000000000000000000000000000000000000000000000000000000000000000000
310
00000000000000000000000000000000000000000000000000000000000000000000000000000000000000000000000000070000000000000000000000000007000000000000000000070000000000000000000000000007000000000000000000000000000000000000000000000000000000000000000000000000000000
310
00000000000000000000000000000000000000000000000000000000000000000000000000000000000000000000000000000000000000000000000000000000000000000000000000000000000000000000000000000000000000000000000000000000000007000000000000000000000000000700000000000000000007
310
00000000000000000000000000070000000000000000000000000000000000000000000000000000000000000000000000000000000000000000000000000000000000000000000000000000000000000000000000000000000000000000000000000000000000000000000000000000000000000000000000000000000000
310
00000000000000000000000000000000000000000000000000000000070000000000000000000000000007000000000000000000070000000000000000000000000007000000000000000000000000000000000000000000000000000000000000000000000000000000000000000000000000000000000000000000000000
310
00000000000000000000000000000000000000000000000000000000000000000000000000000000000000000000000000000000000000000000000000000000000000000000000000000000000000000007000000000000000000000000000700000000000000000007000000000000000000000000000700000000000000
310
00000000000000000000000000000000000000000000000000000000000000000000000000000000000000000000000000000000000000000000000000000000000000000000000000000000000000000000000000000000000000000000000000000000000000000000000000000000000000000000000000000000000000
310
00000000000000070000000000000000000000000007000000000000000000070000000000000000000000000007000000000000000000000000000000000000000000000000000000000000000000000000000000000000000000000000000000000000000000000000000000000000000000000000000000000000000000
310
00000000000000000000000000000000000000000000000000000000000000000000000000000000000000000000000000000000000000000000000007000000000000000000000000000700000000000000000007000000000000000000000000000700000000000000000000000000000000000000000000000000000000
310
00000000000000000000000000000000000000000000000000000000000000000000000000000000000000000000000000000000000000000000000000000000000000000000000000000000000000000000000000000000000000000000000000000000000000000000000000000000000700000000000000000000000000
310
07000000000000000000070000000000000000000000000007000000000000000000000000000000000000000000000000000000000000000000000000000000000000000000000000000000000000000000000000000000000000000000000000000000000000000000000000000000000000000000000000000000000000
310
00000000000000000000000000000000000000000000000000000000000000000000000000000007000000000000000000000000000700000000000000000007000000000000000000000000000700000000000000000000000000000000000000000000000000000000000000000000000000000000000000000000000000
310
00000000000000000000000000000000000000000000000000000000000000000000000000000000000000000000000000000000000000000000000000000000000000000000000000000000000000000000000000000000000000000700000000000000000000000000070000000000000000000700000000000000000000
310
00000007000000000000000000000000000000000000000000000000000000000000000000000000000000000000000000000000000000000000000000000000000000000000000000000000000000000000000000000000000000000000000000000000000000000000000000000000000000000000000000000000000000
310
00000000000000000000000000000000000700000000000000000000000000000700000000000000000007000000000000000000000000000007000000000000000000000000000000000000000000000000000000000000000000000000000000000000000000000000000000000000000000000000000000000000000000
310
00000000000000000000000000000000000000000000000000000000000000000000000000000000000000000000000000000000000000000000000000000000000000000000070000000000000000000000000000070000000000000000000700000000000000000000000000000700000000000000000000000000000000
310
00000000000000000000000000000000000000000000000000000000000000000000000000000000000000000000000000000000000000000000000000000000000000000000000000000000000000000000000000000000000000000000000000000000000000000000000000000000000000000000000000000007000000
310
00000000000000000000000700000000000000000007000000000000000000000000000007000000000000000000000000000000000000000000000000000000000000000000000000000000000000000000000000000000000000000000000000000000000000000000000000000000000000000000000000000000000000
310
00000000000000000000000000000000000000000000000000000000000000000000000000000000000000000000000000070000000000000000000000000000070000000000000000000700000000000000000000000000000700000000000000000000000000000000000000000000000000000000000000000000000000
310
00000000000000000000000000000000000000000000000000000000000000000000000000000000000000000000000000000000000000000000000000000000000000000000000000000000000000000000000000000000000000000000000000000000000007000000000000000000000000000007000000000000000000
310
07000000000000000000000000000007000000000000000000000000000000000000000000000000000000000000000000000000000000000000000000000000000000000000000000000000000000000000000000000000000000000000000000000000000000000000000000000000000000000000000000000000000000
310
00000000000000000000000000000000000000000000000000000000070000000000000000000000000000070000000000000000000700000000000000000000000000000700000000000000000000000000000000000000000000000000000000000000000000000000000000000000000000000000000000000000000000
310
00000000000000000000000000000000000000000000000000000000000000000000000000000000000000000000000000000000000000000000000000000000000000000000000000000000000000000000070000000000000000000000000000070000000000000007000000000000000000000000000007000000000000
310
00000000000000000000000000000000000000000000000000000000000000000000000000000000000000000000000000000000000000000000000000000000000000000000000000000000000000000000000000000000000000000000000000000000000000000000000000000000000000000000000000000000000000
310
00000000000000000700000000000000000000000000000007000000000007000000000000000000000000000000070000000000000000000000000000000000000000000000000000000000000000000000000000000000000000000000000000000000000000000000000000000000000000000000000000000000000000
310
00000000000000000000000000000000000000000000000000000000000000000000000000000000000000000000000000000000000000000000000000070000000000000000000000000000000007070007070000000000000000000000000000000007000000000000000000000000000000000000000000000000000000
310
00000000000000000000000000000000000000000000000000000000000000000000000000000000000000000000000000000000000000000000000000000000000000000000000000000000000000000000000000000000000000000000000000000000000000000000000000000000000007000000000000000000000000
310
00000000000000000000000000000000000000000000000000070000000000000000000000000000000000000000000000000000000000000000000000000000000000000000000000000000000000000000000000000000000000000000000000000000000000000000000000000000000000000000000000000000000000
310
00000000000000000000000000000000000000000000000000000000000000000000000000000000070000000000000000000000000000000000000000000000000000000000000000000000000007000000000000000000000000000000000000000000000000000000000000000000000000000000000000000000000000
310
00000000000000000000000000000000000000000000000000000000000000000000000000000000000000000000000000000000000000000000000000000000000000000000000000000000000000000000000000000000000000000007000000000000000000000000000000000000000000000000000000000000000000
310
00000000070000000000000000000000000000000000000000000000000000000000000000000000000000000000000000000000000000000000000000000000000000000000000000000000000000000000000000000000000000000000000000000000000000000000000000000000000000000000000000000000000000
310
00000000000000000000000000000000000000070000000000000000000000000000000000000000000000000000000000000000000000000007000000000000000000000000000000000000000000000000000000000000000000000000000000000000000000000000000000000000000000000000000000000000000000
310
00000000000000000000000000000000000000000000000000000000000000000000000000000000000000000000000000000000000000000000000000000000000000000000000007000000000000000000000000000000000000000000000000000000000000000000000000000700000000000000000000000000000000
310
00000000000000000000000000000000000000000000000000000000000000000000000000000000000000000000000000000000000000000000000000000000000000000000000000000000000000000000000000000000000000000000000000000000000000000000000000000000000000000000000000000000000700
310
00000000000000000000000000000000000000000000000000000000000000000000000007000000000000000000000000000000000000000000000000000000000000000000000000000000000000000000000000000000000000000000000000000000000000000000000000000000000000000000000000000000000000
310
00000000000000000000000000000000000000000000000000000000000000000000000000000000000000000000000000000007000000000000000000000000000000000000000000000000000000000000000000000000000700000000000000000000000000000000000000000000000000000000000000000000000000
310
00000000000000000000000000000000000000000000000000000000000000000000000000000000000000000000000000000000000000000000000000000000000000000000000000000000000000000000000000000000000000000000000000000000000000000700000000000000000000000000000000000000000000
310
00000000000000000000000000000007000000000000000000000000000000000000000000000000000000000000000000000000000000000000000000000000000000000000000000000000000000000000000000000000000000000000000000000000000000000000000000000000000000000000000000000000000000
310
00000000000000000000000000000000000000000000000000000000000007000000000000000000000000000000000000000000000000000000000000000000000000000700000000000000000000000000000000000000000000000000000000000000000000000000000000000000000000000000000000000000000000
310
00000000000000000000000000000000000000000000000000000000000000000000000000000000000000000000000000000000000000000000000000000000000000000000000000000000000000000000000007000000000000000000000000000000000000000000000000000000000000000000000007000000000000
310
00000000000000000000000000000000000000000000000000000000000000000000000000000000000000000000000000000000000000000000000000000000000000000000000000000000000000000000000000000000000000000000000000000000000000000000000000000000000000000000000000000000000000
310
00000000000000000000070000000000000000000000000000000000000000000000000000000000000000000000070000000000000000000000000000000000000000000000000000000000000000000000000000000000000000000000000000000000000000000000000000000000000000000000000000000000000000
310
00000000000000000000000000000000000000000000000000000000000000000000000000000000000000000000000000000000000000000000000000000000070700000000000000000000000000000000000000000000000000000000000000070700000000000000000000000000000000000000000000000000000000
310
00000000000000000000000000000000000000000000000000000000000000000000000000000000000000000000000000000000000000000000000000000000000000000000000000000000000000000000000000000000000000000000000000000000000000000000000000000000000000000000000707070707070700
310
00000000000000000000000000000000070707070707070000000000000000000000000000000000000000000000000000000000000000000000000000000000000000000000000000000000000000000000000000000000000000000000000000000000000000000000000000000000000000000000000000000000000000
310
00000000000000000000000000000000000000000000000000000000000000000000000000000000000000000000000000000000070707070707070700070707070707070700000000000000000000000000000000000000000000000000000000000000000000000000000000000000000000000000000000000000000000
310
00000000000000000000000000000000000000000000000000000000000000000000000000000000000000000000000000000000000000000000000000000000000000000000000000000000000000000000000000000000000000000000000000000000000000000000000000000000000000000000000000000000000000
310
00000000000000000000000000000000000000000000000000000000000000000000000000000000000000000000000000000000000000000000000000000000000000000000000000000000000000000000000000000000000000000000000000000000000000000000000000000000000000000000000000000000000000
310
00000000000000000000000000000000000000000000000000000000000000000000000000000000000000000000000000000000000000000000000000000000000000000000000000000000000000000000000000000000000000000000000000000000000000000000000000000000000000000000000000000000000000
310
00000000000000000000000000000000000000000000000000000000000000000000000000000000000000000000000000000000000000000000000000000000000000000000000000000000000000000000000000000000000000000000000000000000000000000000000000000000000000000000000000000000000000
310
00000000000000000000000000000000000000000000000000000000000000000000000000000000000000000000000000000000000000000000000000000000000000000000000000000000000000000000000000000000000000000000000000000000000000000000000000000000000000000000000000000000000000
310
000000000000000000000000000000000000000000000000000000000000000000000000000000000000000000000000000000000000000000000000000000000000000000000000000000000000000000000000000000000000000000000000000000000000000000000000
  0
ENDSEC
  0
EOF
