  0
SECTION
  2
HEADER
  9
$ACADVER
  1
AC1015
  9
$ACADMAINTVER
 70
     6
  9
$DWGCODEPAGE
  3
ANSI_1252
  9
$INSBASE
 10
0.0
 20
0.0
 30
0.0
  9
$EXTMIN
 10
0.0
 20
0.0
 30
0.0
  9
$EXTMAX
 10
700.0
 20
200.0
 30
0.0
  9
$LIMMIN
 10
0.0
 20
0.0
  9
$LIMMAX
 10
12.0
 20
9.0
  9
$ORTHOMODE
 70
     0
  9
$REGENMODE
 70
     1
  9
$FILLMODE
 70
     1
  9
$QTEXTMODE
 70
     0
  9
$MIRRTEXT
 70
     1
  9
$LTSCALE
 40
1.0
  9
$ATTMODE
 70
     1
  9
$TEXTSIZE
 40
0.2
  9
$TRACEWID
 40
0.05
  9
$TEXTSTYLE
  7
Standard
  9
$CLAYER
  8
0
  9
$CELTYPE
  6
Continuous
  9
$CECOLOR
 62
   256
  9
$CELTSCALE
 40
1.0
  9
$DISPSILH
 70
     0
  9
$DIMSCALE
 40
1.0
  9
$DIMASZ
 40
0.18
  9
$DIMEXO
 40
0.0625
  9
$DIMDLI
 40
0.38
  9
$DIMRND
 40
0.0
  9
$DIMDLE
 40
0.0
  9
$DIMEXE
 40
0.18
  9
$DIMTP
 40
0.0
  9
$DIMTM
 40
0.0
  9
$DIMTXT
 40
0.18
  9
$DIMCEN
 40
0.09
  9
$DIMTSZ
 40
0.0
  9
$DIMTOL
 70
     0
  9
$DIMLIM
 70
     0
  9
$DIMTIH
 70
     1
  9
$DIMTOH
 70
     1
  9
$DIMSE1
 70
     0
  9
$DIMSE2
 70
     0
  9
$DIMTAD
 70
     0
  9
$DIMZIN
 70
     0
  9
$DIMBLK
  1

  9
$DIMASO
 70
     1
  9
$DIMSHO
 70
     1
  9
$DIMPOST
  1

  9
$DIMAPOST
  1

  9
$DIMALT
 70
     0
  9
$DIMALTD
 70
     2
  9
$DIMALTF
 40
25.4
  9
$DIMLFAC
 40
1.0
  9
$DIMTOFL
 70
     0
  9
$DIMTVP
 40
0.0
  9
$DIMTIX
 70
     0
  9
$DIMSOXD
 70
     0
  9
$DIMSAH
 70
     0
  9
$DIMBLK1
  1

  9
$DIMBLK2
  1

  9
$DIMSTYLE
  2
Standard
  9
$DIMCLRD
 70
     0
  9
$DIMCLRE
 70
     0
  9
$DIMCLRT
 70
     0
  9
$DIMTFAC
 40
1.0
  9
$DIMGAP
 40
0.09
  9
$DIMJUST
 70
     0
  9
$DIMSD1
 70
     0
  9
$DIMSD2
 70
     0
  9
$DIMTOLJ
 70
     1
  9
$DIMTZIN
 70
     0
  9
$DIMALTZ
 70
     0
  9
$DIMALTTZ
 70
     0
  9
$DIMUPT
 70
     0
  9
$DIMDEC
 70
     4
  9
$DIMTDEC
 70
     4
  9
$DIMALTU
 70
     2
  9
$DIMALTTD
 70
     2
  9
$DIMTXSTY
  7
Standard
  9
$DIMAUNIT
 70
     0
  9
$DIMADEC
 70
     0
  9
$DIMALTRND
 40
0.0
  9
$DIMAZIN
 70
     0
  9
$DIMDSEP
 70
    46
  9
$DIMATFIT
 70
     3
  9
$DIMFRAC
 70
     0
  9
$DIMLDRBLK
  1

  9
$DIMLUNIT
 70
     2
  9
$DIMLWD
 70
    -2
  9
$DIMLWE
 70
    -2
  9
$DIMTMOVE
 70
     0
  9
$LUNITS
 70
     2
  9
$LUPREC
 70
     4
  9
$SKETCHINC
 40
0.1
  9
$FILLETRAD
 40
0.0
  9
$AUNITS
 70
     0
  9
$AUPREC
 70
     0
  9
$MENU
  1
.
  9
$ELEVATION
 40
0.0
  9
$PELEVATION
 40
0.0
  9
$THICKNESS
 40
0.0
  9
$LIMCHECK
 70
     0
  9
$CHAMFERA
 40
0.0
  9
$CHAMFERB
 40
0.0
  9
$CHAMFERC
 40
0.0
  9
$CHAMFERD
 40
0.0
  9
$SKPOLY
 70
     0
  9
$TDCREATE
 40
2455655.554321829
  9
$TDUCREATE
 40
2455655.470988495
  9
$TDUPDATE
 40
2455821.648508924
  9
$TDUUPDATE
 40
2455821.56517559
  9
$TDINDWG
 40
0.0058866782
  9
$TDUSRTIMER
 40
0.0058866782
  9
$USRTIMER
 70
     1
  9
$ANGBASE
 50
0.0
  9
$ANGDIR
 70
     0
  9
$PDMODE
 70
     0
  9
$PDSIZE
 40
0.0
  9
$PLINEWID
 40
0.0
  9
$SPLFRAME
 70
     0
  9
$SPLINETYPE
 70
     6
  9
$SPLINESEGS
 70
     8
  9
$HANDSEED
  5
51A
  9
$SURFTAB1
 70
     6
  9
$SURFTAB2
 70
     6
  9
$SURFTYPE
 70
     6
  9
$SURFU
 70
     6
  9
$SURFV
 70
     6
  9
$UCSBASE
  2

  9
$UCSNAME
  2

  9
$UCSORG
 10
0.0
 20
0.0
 30
0.0
  9
$UCSXDIR
 10
1.0
 20
0.0
 30
0.0
  9
$UCSYDIR
 10
0.0
 20
1.0
 30
0.0
  9
$UCSORTHOREF
  2

  9
$UCSORTHOVIEW
 70
     1
  9
$UCSORGTOP
 10
0.0
 20
0.0
 30
0.0
  9
$UCSORGBOTTOM
 10
0.0
 20
0.0
 30
0.0
  9
$UCSORGLEFT
 10
0.0
 20
0.0
 30
0.0
  9
$UCSORGRIGHT
 10
0.0
 20
0.0
 30
0.0
  9
$UCSORGFRONT
 10
0.0
 20
0.0
 30
0.0
  9
$UCSORGBACK
 10
0.0
 20
0.0
 30
0.0
  9
$PUCSBASE
  2

  9
$PUCSNAME
  2

  9
$PUCSORG
 10
0.0
 20
0.0
 30
0.0
  9
$PUCSXDIR
 10
1.0
 20
0.0
 30
0.0
  9
$PUCSYDIR
 10
0.0
 20
1.0
 30
0.0
  9
$PUCSORTHOREF
  2

  9
$PUCSORTHOVIEW
 70
     0
  9
$PUCSORGTOP
 10
0.0
 20
0.0
 30
0.0
  9
$PUCSORGBOTTOM
 10
0.0
 20
0.0
 30
0.0
  9
$PUCSORGLEFT
 10
0.0
 20
0.0
 30
0.0
  9
$PUCSORGRIGHT
 10
0.0
 20
0.0
 30
0.0
  9
$PUCSORGFRONT
 10
0.0
 20
0.0
 30
0.0
  9
$PUCSORGBACK
 10
0.0
 20
0.0
 30
0.0
  9
$USERI1
 70
     0
  9
$USERI2
 70
     0
  9
$USERI3
 70
     0
  9
$USERI4
 70
     0
  9
$USERI5
 70
     0
  9
$USERR1
 40
0.0
  9
$USERR2
 40
0.0
  9
$USERR3
 40
0.0
  9
$USERR4
 40
0.0
  9
$USERR5
 40
0.0
  9
$WORLDVIEW
 70
     1
  9
$SHADEDGE
 70
     3
  9
$SHADEDIF
 70
    70
  9
$TILEMODE
 70
     1
  9
$MAXACTVP
 70
    64
  9
$PINSBASE
 10
0.0
 20
0.0
 30
0.0
  9
$PLIMCHECK
 70
     0
  9
$PEXTMIN
 10
1.000000000000E+20
 20
1.000000000000E+20
 30
1.000000000000E+20
  9
$PEXTMAX
 10
-1.000000000000E+20
 20
-1.000000000000E+20
 30
-1.000000000000E+20
  9
$PLIMMIN
 10
0.0
 20
0.0
  9
$PLIMMAX
 10
12.0
 20
9.0
  9
$UNITMODE
 70
     0
  9
$VISRETAIN
 70
     1
  9
$PLINEGEN
 70
     0
  9
$PSLTSCALE
 70
     1
  9
$TREEDEPTH
 70
  3020
  9
$CMLSTYLE
  2
Standard
  9
$CMLJUST
 70
     0
  9
$CMLSCALE
 40
1.0
  9
$PROXYGRAPHICS
 70
     1
  9
$MEASUREMENT
 70
     0
  9
$CELWEIGHT
370
    -1
  9
$ENDCAPS
280
     0
  9
$JOINSTYLE
280
     0
  9
$LWDISPLAY
290
     0
  9
$INSUNITS
 70
     0
  9
$HYPERLINKBASE
  1

  9
$STYLESHEET
  1

  9
$XEDIT
290
     1
  9
$CEPSNTYPE
380
     0
  9
$PSTYLEMODE
290
     1
  9
$FINGERPRINTGUID
  2
{3BAA9016-A35A-480E-B9BC-1195AD5126A9}
  9
$VERSIONGUID
  2
{B440DB76-7FA5-4FD5-8BBE-DEB2B04B4549}
  9
$EXTNAMES
290
     1
  9
$PSVPSCALE
 40
0.0
  9
$OLESTARTUP
290
     0
  0
ENDSEC
  0
SECTION
  2
CLASSES
  0
CLASS
  1
ACDBDICTIONARYWDFLT
  2
AcDbDictionaryWithDefault
  3
ObjectDBX Classes
 90
        0
280
     0
281
     0
  0
CLASS
  1
ACDBPLACEHOLDER
  2
AcDbPlaceHolder
  3
ObjectDBX Classes
 90
        0
280
     0
281
     0
  0
CLASS
  1
LAYOUT
  2
AcDbLayout
  3
ObjectDBX Classes
 90
        0
280
     0
281
     0
  0
CLASS
  1
DICTIONARYVAR
  2
AcDbDictionaryVar
  3
ObjectDBX Classes
 90
        0
280
     0
281
     0
  0
CLASS
  1
SCALE
  2
AcDbScale
  3
ObjectDBX Classes
 90
     1153
280
     0
281
     0
  0
ENDSEC
  0
SECTION
  2
TABLES
  0
TABLE
  2
VPORT
  5
8
330
0
100
AcDbSymbolTable
 70
     1
  0
VPORT
  5
4F1
330
8
100
AcDbSymbolTableRecord
100
AcDbViewportTableRecord
  2
*Active
 70
     0
 10
0.0
 20
0.0
 11
1.0
 21
1.0
 12
350.0
 22
100.0
 13
0.0
 23
0.0
 14
1.0
 24
1.0
 15
0.0
 25
0.0
 16
0.0
 26
0.0
 36
1.0
 17
0.0
 27
0.0
 37
0.0
 40
338.717796378753
 41
2.073363431151
 42
50.0
 43
0.0
 44
0.0
 50
0.0
 51
0.0
 71
     0
 72
   100
 73
     1
 74
     3
 75
     0
 76
     0
 77
     0
 78
     0
281
     0
 65
     1
110
0.0
120
0.0
130
0.0
111
1.0
121
0.0
131
0.0
112
0.0
122
1.0
132
0.0
 79
     1
146
0.0
  0
ENDTAB
  0
TABLE
  2
LTYPE
  5
5
330
0
100
AcDbSymbolTable
 70
     1
  0
LTYPE
  5
13
330
5
100
AcDbSymbolTableRecord
100
AcDbLinetypeTableRecord
  2
ByBlock
 70
     0
  3

 72
    65
 73
     0
 40
0.0
  0
LTYPE
  5
14
330
5
100
AcDbSymbolTableRecord
100
AcDbLinetypeTableRecord
  2
ByLayer
 70
     0
  3

 72
    65
 73
     0
 40
0.0
  0
LTYPE
  5
15
330
5
100
AcDbSymbolTableRecord
100
AcDbLinetypeTableRecord
  2
Continuous
 70
     0
  3
Solid line
 72
    65
 73
     0
 40
0.0
  0
ENDTAB
  0
TABLE
  2
LAYER
  5
2
330
0
100
AcDbSymbolTable
 70
     1
  0
LAYER
  5
10
330
2
100
AcDbSymbolTableRecord
100
AcDbLayerTableRecord
  2
0
 70
     0
 62
     7
  6
Continuous
370
    -3
390
F
  0
ENDTAB
  0
TABLE
  2
STYLE
  5
3
330
0
100
AcDbSymbolTable
 70
     1
  0
STYLE
  5
11
330
3
100
AcDbSymbolTableRecord
100
AcDbTextStyleTableRecord
  2
Standard
 70
     0
 40
0.0
 41
1.0
 50
0.0
 71
     0
 42
0.2
  3
txt
  4

  0
ENDTAB
  0
TABLE
  2
VIEW
  5
6
330
0
100
AcDbSymbolTable
 70
     0
  0
ENDTAB
  0
TABLE
  2
UCS
  5
7
330
0
100
AcDbSymbolTable
 70
     0
  0
ENDTAB
  0
TABLE
  2
APPID
  5
9
330
0
100
AcDbSymbolTable
 70
     1
  0
APPID
  5
12
330
9
100
AcDbSymbolTableRecord
100
AcDbRegAppTableRecord
  2
ACAD
 70
     0
  0
ENDTAB
  0
TABLE
  2
DIMSTYLE
  5
A
330
0
100
AcDbSymbolTable
 70
     1
100
AcDbDimStyleTable
  0
DIMSTYLE
105
443
330
A
100
AcDbSymbolTableRecord
100
AcDbDimStyleTableRecord
  2
Standard
 70
     0
340
11
  0
ENDTAB
  0
TABLE
  2
BLOCK_RECORD
  5
1
330
0
100
AcDbSymbolTable
 70
     0
  0
BLOCK_RECORD
  5
1E
330
1
100
AcDbSymbolTableRecord
100
AcDbBlockTableRecord
  2
*Model_Space
340
21
  0
BLOCK_RECORD
  5
1A
330
1
100
AcDbSymbolTableRecord
100
AcDbBlockTableRecord
  2
*Paper_Space
340
1D
  0
ENDTAB
  0
ENDSEC
  0
SECTION
  2
BLOCKS
  0
BLOCK
  5
1F
330
1E
100
AcDbEntity
  8
0
100
AcDbBlockBegin
  2
*Model_Space
 70
     0
 10
0.0
 20
0.0
 30
0.0
  3
*Model_Space
  1
*Model_Space
  0
ENDBLK
  5
20
330
1E
100
AcDbEntity
  8
0
100
AcDbBlockEnd
  0
BLOCK
  5
1B
330
1A
100
AcDbEntity
 67
     1
  8
0
100
AcDbBlockBegin
  2
*Paper_Space
 70
     0
 10
0.0
 20
0.0
 30
0.0
  3
*Paper_Space
  1
*Paper_Space
  0
ENDBLK
  5
1C
330
1A
100
AcDbEntity
 67
     1
  8
0
100
AcDbBlockEnd
  0
ENDSEC
  0
SECTION
  2
ENTITIES
  0
LINE
  5
22
330
1E
100
AcDbEntity
  8
0
100
AcDbLine
 10
0.0
 20
0.0
 30
0.0
 11
149.0
 21
50.0
 31
0.0
  0
LINE
  5
23
330
1E
100
AcDbEntity
  8
0
100
AcDbLine
 10
0.0
 20
0.0
 30
0.0
 11
0.0
 21
200.0
 31
0.0
  0
LINE
  5
24
330
1E
100
AcDbEntity
  8
0
100
AcDbLine
 10
0.0
 20
0.0
 30
0.0
 11
149.0
 21
50.0
 31
0.0
  0
LINE
  5
25
330
1E
100
AcDbEntity
  8
0
100
AcDbLine
 10
149.0
 20
50.0
 30
0.0
 11
149.0
 21
150.0
 31
0.0
  0
LINE
  5
26
330
1E
100
AcDbEntity
  8
0
100
AcDbLine
 10
149.0
 20
50.0
 30
0.0
 11
149.0
 21
150.0
 31
0.0
  0
LINE
  5
27
330
1E
100
AcDbEntity
  8
0
100
AcDbLine
 10
149.0
 20
50.0
 30
0.0
 11
551.0
 21
50.0
 31
0.0
  0
LINE
  5
28
330
1E
100
AcDbEntity
  8
0
100
AcDbLine
 10
0.0
 20
0.0
 30
0.0
 11
0.0
 21
200.0
 31
0.0
  0
LINE
  5
29
330
1E
100
AcDbEntity
  8
0
100
AcDbLine
 10
0.0
 20
0.0
 30
0.0
 11
700.0
 21
0.0
 31
0.0
  0
LINE
  5
2A
330
1E
100
AcDbEntity
  8
0
100
AcDbLine
 10
199.476
 20
93.1591
 30
0.0
 11
199.952
 21
93.0
 31
0.0
  0
LINE
  5
2B
330
1E
100
AcDbEntity
  8
0
100
AcDbLine
 10
199.476
 20
93.1591
 30
0.0
 11
199.476
 21
93.2678
 31
0.0
  0
LINE
  5
2C
330
1E
100
AcDbEntity
  8
0
100
AcDbLine
 10
234.624
 20
79.756
 30
0.0
 11
240.0
 21
79.0
 31
0.0
  0
LINE
  5
2D
330
1E
100
AcDbEntity
  8
0
100
AcDbLine
 10
229.584
 20
81.772
 30
0.0
 11
234.624
 21
79.756
 31
0.0
  0
LINE
  5
2E
330
1E
100
AcDbEntity
  8
0
100
AcDbLine
 10
240.0
 20
79.0
 30
0.0
 11
245.376
 21
79.756
 31
0.0
  0
LINE
  5
2F
330
1E
100
AcDbEntity
  8
0
100
AcDbLine
 10
234.88
 20
80.72
 30
0.0
 11
240.0
 21
80.0
 31
0.0
  0
LINE
  5
30
330
1E
100
AcDbEntity
  8
0
100
AcDbLine
 10
230.08
 20
82.64
 30
0.0
 11
234.88
 21
80.72
 31
0.0
  0
LINE
  5
31
330
1E
100
AcDbEntity
  8
0
100
AcDbLine
 10
240.0
 20
80.0
 30
0.0
 11
245.12
 21
80.72
 31
0.0
  0
LINE
  5
32
330
1E
100
AcDbEntity
  8
0
100
AcDbLine
 10
225.132
 20
85.132
 30
0.0
 11
229.584
 21
81.772
 31
0.0
  0
LINE
  5
33
330
1E
100
AcDbEntity
  8
0
100
AcDbLine
 10
225.84
 20
85.84
 30
0.0
 11
230.08
 21
82.64
 31
0.0
  0
LINE
  5
34
330
1E
100
AcDbEntity
  8
0
100
AcDbLine
 10
236.16
 20
85.54
 30
0.0
 11
240.0
 21
85.0
 31
0.0
  0
LINE
  5
35
330
1E
100
AcDbEntity
  8
0
100
AcDbLine
 10
232.56
 20
86.98
 30
0.0
 11
236.16
 21
85.54
 31
0.0
  0
LINE
  5
36
330
1E
100
AcDbEntity
  8
0
100
AcDbLine
 10
240.0
 20
85.0
 30
0.0
 11
243.84
 21
85.54
 31
0.0
  0
LINE
  5
37
330
1E
100
AcDbEntity
  8
0
100
AcDbLine
 10
245.376
 20
79.756
 30
0.0
 11
250.416
 21
81.772
 31
0.0
  0
LINE
  5
38
330
1E
100
AcDbEntity
  8
0
100
AcDbLine
 10
250.416
 20
81.772
 30
0.0
 11
254.868
 21
85.132
 31
0.0
  0
LINE
  5
39
330
1E
100
AcDbEntity
  8
0
100
AcDbLine
 10
245.12
 20
80.72
 30
0.0
 11
249.92
 21
82.64
 31
0.0
  0
LINE
  5
3A
330
1E
100
AcDbEntity
  8
0
100
AcDbLine
 10
249.92
 20
82.64
 30
0.0
 11
254.16
 21
85.84
 31
0.0
  0
LINE
  5
3B
330
1E
100
AcDbEntity
  8
0
100
AcDbLine
 10
243.84
 20
85.54
 30
0.0
 11
247.44
 21
86.98
 31
0.0
  0
LINE
  5
3C
330
1E
100
AcDbEntity
  8
0
100
AcDbLine
 10
221.772
 20
89.584
 30
0.0
 11
225.132
 21
85.132
 31
0.0
  0
LINE
  5
3D
330
1E
100
AcDbEntity
  8
0
100
AcDbLine
 10
215.0
 20
91.0
 30
0.0
 11
215.0
 21
91.324
 31
0.0
  0
LINE
  5
3E
330
1E
100
AcDbEntity
  8
0
100
AcDbLine
 10
215.0
 20
91.0
 30
0.0
 11
221.2056
 21
91.0
 31
0.0
  0
LINE
  5
3F
330
1E
100
AcDbEntity
  8
0
100
AcDbLine
 10
215.0
 20
91.324
 30
0.0
 11
215.0
 21
92.188
 31
0.0
  0
LINE
  5
40
330
1E
100
AcDbEntity
  8
0
100
AcDbLine
 10
215.0
 20
91.324
 30
0.0
 11
215.0
 21
91.0
 31
0.0
  0
LINE
  5
41
330
1E
100
AcDbEntity
  8
0
100
AcDbLine
 10
215.0
 20
92.188
 30
0.0
 11
215.0
 21
93.628
 31
0.0
  0
LINE
  5
42
330
1E
100
AcDbEntity
  8
0
100
AcDbLine
 10
215.0
 20
92.188
 30
0.0
 11
215.0
 21
91.324
 31
0.0
  0
LINE
  5
43
330
1E
100
AcDbEntity
  8
0
100
AcDbLine
 10
215.0
 20
92.188
 30
0.0
 11
215.0
 21
93.0
 31
0.0
  0
LINE
  5
44
330
1E
100
AcDbEntity
  8
0
100
AcDbLine
 10
222.64
 20
90.08
 30
0.0
 11
225.84
 21
85.84
 31
0.0
  0
LINE
  5
45
330
1E
100
AcDbEntity
  8
0
100
AcDbLine
 10
240.0
 20
89.0
 30
0.0
 11
242.816
 21
89.396
 31
0.0
  0
LINE
  5
46
330
1E
100
AcDbEntity
  8
0
100
AcDbLine
 10
237.184
 20
89.396
 30
0.0
 11
240.0
 21
89.0
 31
0.0
  0
LINE
  5
47
330
1E
100
AcDbEntity
  8
0
100
AcDbLine
 10
242.816
 20
89.396
 30
0.0
 11
245.456
 21
90.452
 31
0.0
  0
LINE
  5
48
330
1E
100
AcDbEntity
  8
0
100
AcDbLine
 10
245.456
 20
90.452
 30
0.0
 11
247.788
 21
92.212
 31
0.0
  0
LINE
  5
4E
330
1E
100
AcDbEntity
  8
0
100
AcDbLine
 10
242.176
 20
92.0075
 30
0.0
 11
244.072
 21
93.0962
 31
0.0
  0
LINE
  5
51
330
1E
100
AcDbEntity
  8
0
100
AcDbLine
 10
240.0
 20
91.2045
 30
0.0
 11
242.176
 21
92.0075
 31
0.0
  0
LINE
  5
5A
330
1E
100
AcDbEntity
  8
0
100
AcDbLine
 10
237.824
 20
92.0075
 30
0.0
 11
240.0
 21
91.2045
 31
0.0
  0
LINE
  5
5B
330
1E
100
AcDbEntity
  8
0
100
AcDbLine
 10
247.788
 20
92.212
 30
0.0
 11
249.548
 21
94.544
 31
0.0
  0
LINE
  5
5C
330
1E
100
AcDbEntity
  8
0
100
AcDbLine
 10
234.544
 20
90.452
 30
0.0
 11
237.184
 21
89.396
 31
0.0
  0
LINE
  5
5D
330
1E
100
AcDbEntity
  8
0
100
AcDbLine
 10
232.212
 20
92.212
 30
0.0
 11
234.544
 21
90.452
 31
0.0
  0
LINE
  5
5E
330
1E
100
AcDbEntity
  8
0
100
AcDbLine
 10
229.38
 20
89.38
 30
0.0
 11
232.56
 21
86.98
 31
0.0
  0
LINE
  5
5F
330
1E
100
AcDbEntity
  8
0
100
AcDbLine
 10
226.98
 20
92.56
 30
0.0
 11
229.38
 21
89.38
 31
0.0
  0
LINE
  5
60
330
1E
100
AcDbEntity
  8
0
100
AcDbLine
 10
247.44
 20
86.98
 30
0.0
 11
250.62
 21
89.38
 31
0.0
  0
LINE
  5
61
330
1E
100
AcDbEntity
  8
0
100
AcDbLine
 10
254.868
 20
85.132
 30
0.0
 11
258.228
 21
89.584
 31
0.0
  0
LINE
  5
62
330
1E
100
AcDbEntity
  8
0
100
AcDbLine
 10
258.228
 20
89.584
 30
0.0
 11
260.244
 21
94.624
 31
0.0
  0
LINE
  5
63
330
1E
100
AcDbEntity
  8
0
100
AcDbLine
 10
254.16
 20
85.84
 30
0.0
 11
257.36
 21
90.08
 31
0.0
  0
LINE
  5
64
330
1E
100
AcDbEntity
  8
0
100
AcDbLine
 10
257.36
 20
90.08
 30
0.0
 11
259.28
 21
94.88
 31
0.0
  0
LINE
  5
65
330
1E
100
AcDbEntity
  8
0
100
AcDbLine
 10
258.7944
 20
91.0
 30
0.0
 11
265.0
 21
91.0
 31
0.0
  0
LINE
  5
66
330
1E
100
AcDbEntity
  8
0
100
AcDbLine
 10
265.0
 20
91.0
 30
0.0
 11
265.0
 21
91.324
 31
0.0
  0
LINE
  5
67
330
1E
100
AcDbEntity
  8
0
100
AcDbLine
 10
265.0
 20
91.324
 30
0.0
 11
265.0
 21
92.188
 31
0.0
  0
LINE
  5
68
330
1E
100
AcDbEntity
  8
0
100
AcDbLine
 10
265.0
 20
91.324
 30
0.0
 11
265.0
 21
91.0
 31
0.0
  0
LINE
  5
69
330
1E
100
AcDbEntity
  8
0
100
AcDbLine
 10
265.0
 20
92.188
 30
0.0
 11
265.0
 21
93.628
 31
0.0
  0
LINE
  5
6A
330
1E
100
AcDbEntity
  8
0
100
AcDbLine
 10
265.0
 20
92.188
 30
0.0
 11
265.0
 21
91.324
 31
0.0
  0
LINE
  5
6B
330
1E
100
AcDbEntity
  8
0
100
AcDbLine
 10
250.62
 20
89.38
 30
0.0
 11
253.02
 21
92.56
 31
0.0
  0
LINE
  5
6C
330
1E
100
AcDbEntity
  8
0
100
AcDbLine
 10
215.0
 20
93.0
 30
0.0
 11
215.0
 21
93.252
 31
0.0
  0
LINE
  5
6D
330
1E
100
AcDbEntity
  8
0
100
AcDbLine
 10
215.0
 20
93.0
 30
0.0
 11
215.0
 21
92.188
 31
0.0
  0
LINE
  5
6E
330
1E
100
AcDbEntity
  8
0
100
AcDbLine
 10
209.0
 20
93.0
 30
0.0
 11
209.0
 21
93.252
 31
0.0
  0
LINE
  5
6F
330
1E
100
AcDbEntity
  8
0
100
AcDbLine
 10
209.0
 20
93.0
 30
0.0
 11
215.0
 21
93.0
 31
0.0
  0
LINE
  5
74
330
1E
100
AcDbEntity
  8
0
100
AcDbLine
 10
244.072
 20
93.0962
 30
0.0
 11
245.979
 21
94.1909
 31
0.0
  0
LINE
  5
76
330
1E
100
AcDbEntity
  8
0
100
AcDbLine
 10
235.928
 20
93.0962
 30
0.0
 11
237.824
 21
92.0075
 31
0.0
  0
LINE
  5
78
330
1E
100
AcDbEntity
  8
0
100
AcDbLine
 10
253.02
 20
92.56
 30
0.0
 11
254.46
 21
96.16
 31
0.0
  0
LINE
  5
79
330
1E
100
AcDbEntity
  8
0
100
AcDbLine
 10
208.048
 20
93.0
 30
0.0
 11
208.524
 21
93.1591
 31
0.0
  0
LINE
  5
7A
330
1E
100
AcDbEntity
  8
0
100
AcDbLine
 10
208.524
 20
93.1591
 30
0.0
 11
208.857
 21
93.6363
 31
0.0
  0
LINE
  5
7B
330
1E
100
AcDbEntity
  8
0
100
AcDbLine
 10
208.524
 20
93.1591
 30
0.0
 11
208.524
 21
93.2678
 31
0.0
  0
LINE
  5
7C
330
1E
100
AcDbEntity
  8
0
100
AcDbLine
 10
199.952
 20
93.0
 30
0.0
 11
208.048
 21
93.0
 31
0.0
  0
LINE
  5
7D
330
1E
100
AcDbEntity
  8
0
100
AcDbLine
 10
215.0
 20
93.252
 30
0.0
 11
215.0
 21
93.924
 31
0.0
  0
LINE
  5
7E
330
1E
100
AcDbEntity
  8
0
100
AcDbLine
 10
209.0
 20
93.252
 30
0.0
 11
209.0
 21
93.924
 31
0.0
  0
LINE
  5
7F
330
1E
100
AcDbEntity
  8
0
100
AcDbLine
 10
209.0
 20
93.252
 30
0.0
 11
209.0
 21
93.0
 31
0.0
  0
LINE
  5
82
330
1E
100
AcDbEntity
  8
0
100
AcDbLine
 10
199.476
 20
93.2678
 30
0.0
 11
199.476
 21
93.1591
 31
0.0
  0
LINE
  5
83
330
1E
100
AcDbEntity
  8
0
100
AcDbLine
 10
208.524
 20
93.2678
 30
0.0
 11
208.801
 21
93.7836
 31
0.0
  0
LINE
  5
85
330
1E
100
AcDbEntity
  8
0
100
AcDbLine
 10
208.524
 20
93.2678
 30
0.0
 11
208.524
 21
93.1591
 31
0.0
  0
LINE
  5
8E
330
1E
100
AcDbEntity
  8
0
100
AcDbLine
 10
199.199
 20
93.7836
 30
0.0
 11
199.476
 21
93.2678
 31
0.0
  0
LINE
  5
90
330
1E
100
AcDbEntity
  8
0
100
AcDbLine
 10
208.801
 20
93.7836
 30
0.0
 11
208.904
 21
94.6304
 31
0.0
  0
LINE
  5
92
330
1E
100
AcDbEntity
  8
0
100
AcDbLine
 10
199.0
 20
94.1137
 30
0.0
 11
199.143
 21
93.6363
 31
0.0
  0
LINE
  5
93
330
1E
100
AcDbEntity
  8
0
100
AcDbLine
 10
199.0
 20
94.1137
 30
0.0
 11
199.0
 21
94.3363
 31
0.0
  0
LINE
  5
94
330
1E
100
AcDbEntity
  8
0
100
AcDbLine
 10
199.143
 20
93.6363
 30
0.0
 11
199.476
 21
93.1591
 31
0.0
  0
LINE
  5
96
330
1E
100
AcDbEntity
  8
0
100
AcDbLine
 10
215.0
 20
93.628
 30
0.0
 11
215.0
 21
95.536
 31
0.0
  0
LINE
  5
97
330
1E
100
AcDbEntity
  8
0
100
AcDbLine
 10
215.0
 20
93.628
 30
0.0
 11
215.0
 21
92.188
 31
0.0
  0
LINE
  5
98
330
1E
100
AcDbEntity
  8
0
100
AcDbLine
 10
215.0
 20
93.924
 30
0.0
 11
215.0
 21
95.044
 31
0.0
  0
LINE
  5
99
330
1E
100
AcDbEntity
  8
0
100
AcDbLine
 10
209.0
 20
93.924
 30
0.0
 11
209.0
 21
95.044
 31
0.0
  0
LINE
  5
9A
330
1E
100
AcDbEntity
  8
0
100
AcDbLine
 10
209.0
 20
93.924
 30
0.0
 11
209.0
 21
93.252
 31
0.0
  0
LINE
  5
9B
330
1E
100
AcDbEntity
  8
0
100
AcDbLine
 10
209.0
 20
93.924
 30
0.0
 11
209.0
 21
94.1137
 31
0.0
  0
LINE
  5
9D
330
1E
100
AcDbEntity
  8
0
100
AcDbLine
 10
265.0
 20
93.628
 30
0.0
 11
265.0
 21
95.536
 31
0.0
  0
LINE
  5
9E
330
1E
100
AcDbEntity
  8
0
100
AcDbLine
 10
265.0
 20
93.628
 30
0.0
 11
265.0
 21
92.188
 31
0.0
  0
LINE
  5
A1
330
1E
100
AcDbEntity
  8
0
100
AcDbLine
 10
240.013
 20
93.3891
 30
0.0
 11
241.701
 21
93.7021
 31
0.0
  0
LINE
  5
A4
330
1E
100
AcDbEntity
  8
0
100
AcDbLine
 10
241.701
 20
93.7021
 30
0.0
 11
243.257
 21
94.3627
 31
0.0
  0
LINE
  5
A6
330
1E
100
AcDbEntity
  8
0
100
AcDbLine
 10
238.259
 20
93.6847
 30
0.0
 11
240.013
 21
93.3891
 31
0.0
  0
LINE
  5
A9
330
1E
100
AcDbEntity
  8
0
100
AcDbLine
 10
209.0
 20
94.1137
 30
0.0
 11
209.0
 21
94.3363
 31
0.0
  0
LINE
  5
AA
330
1E
100
AcDbEntity
  8
0
100
AcDbLine
 10
209.0
 20
94.1137
 30
0.0
 11
209.0
 21
93.924
 31
0.0
  0
LINE
  5
AB
330
1E
100
AcDbEntity
  8
0
100
AcDbLine
 10
208.857
 20
93.6363
 30
0.0
 11
209.0
 21
94.1137
 31
0.0
  0
LINE
  5
AC
330
1E
100
AcDbEntity
  8
0
100
AcDbLine
 10
245.979
 20
94.1909
 30
0.0
 11
247.314
 21
94.9576
 31
0.0
  0
LINE
  5
AF
330
1E
100
AcDbEntity
  8
0
100
AcDbLine
 10
234.021
 20
94.1909
 30
0.0
 11
235.928
 21
93.0962
 31
0.0
  0
LINE
  5
B1
330
1E
100
AcDbEntity
  8
0
100
AcDbLine
 10
209.0
 20
94.3363
 30
0.0
 11
209.0
 21
94.1137
 31
0.0
  0
LINE
  5
B2
330
1E
100
AcDbEntity
  8
0
100
AcDbLine
 10
209.0
 20
94.3363
 30
0.0
 11
209.0
 21
94.9091
 31
0.0
  0
LINE
  5
B3
330
1E
100
AcDbEntity
  8
0
100
AcDbLine
 10
199.0
 20
94.3363
 30
0.0
 11
199.0
 21
94.9091
 31
0.0
  0
LINE
  5
B4
330
1E
100
AcDbEntity
  8
0
100
AcDbLine
 10
199.0
 20
94.3363
 30
0.0
 11
199.0
 21
94.1137
 31
0.0
  0
LINE
  5
B7
330
1E
100
AcDbEntity
  8
0
100
AcDbLine
 10
243.257
 20
94.3627
 30
0.0
 11
244.603
 21
95.5102
 31
0.0
  0
LINE
  5
B8
330
1E
100
AcDbEntity
  8
0
100
AcDbLine
 10
236.805
 20
94.3454
 30
0.0
 11
238.259
 21
93.6847
 31
0.0
  0
LINE
  5
B9
330
1E
100
AcDbEntity
  8
0
100
AcDbLine
 10
249.548
 20
94.544
 30
0.0
 11
250.604
 21
97.184
 31
0.0
  0
LINE
  5
BA
330
1E
100
AcDbEntity
  8
0
100
AcDbLine
 10
219.756
 20
94.624
 30
0.0
 11
221.772
 21
89.584
 31
0.0
  0
LINE
  5
BB
330
1E
100
AcDbEntity
  8
0
100
AcDbLine
 10
260.244
 20
94.624
 30
0.0
 11
261.0
 21
100.0
 31
0.0
  0
LINE
  5
BC
330
1E
100
AcDbEntity
  8
0
100
AcDbLine
 10
230.452
 20
94.544
 30
0.0
 11
232.212
 21
92.212
 31
0.0
  0
LINE
  5
C2
330
1E
100
AcDbEntity
  8
0
100
AcDbLine
 10
220.72
 20
94.88
 30
0.0
 11
222.64
 21
90.08
 31
0.0
  0
LINE
  5
C3
330
1E
100
AcDbEntity
  8
0
100
AcDbLine
 10
259.28
 20
94.88
 30
0.0
 11
260.0
 21
100.0
 31
0.0
  0
LINE
  5
C6
330
1E
100
AcDbEntity
  8
0
100
AcDbLine
 10
209.0
 20
94.9091
 30
0.0
 11
209.0
 21
94.3363
 31
0.0
  0
LINE
  5
C7
330
1E
100
AcDbEntity
  8
0
100
AcDbLine
 10
199.096
 20
94.6304
 30
0.0
 11
199.173
 21
95.4818
 31
0.0
  0
LINE
  5
C8
330
1E
100
AcDbEntity
  8
0
100
AcDbLine
 10
199.096
 20
94.6304
 30
0.0
 11
199.199
 21
93.7836
 31
0.0
  0
LINE
  5
C9
330
1E
100
AcDbEntity
  8
0
100
AcDbLine
 10
199.0
 20
94.8582
 30
0.0
 11
199.0
 21
95.0881
 31
0.0
  0
LINE
  5
CA
330
1E
100
AcDbEntity
  8
0
100
AcDbLine
 10
199.0
 20
95.6155
 30
0.0
 11
199.0
 21
96.5079
 31
0.0
  0
LINE
  5
CB
330
1E
100
AcDbEntity
  8
0
100
AcDbLine
 10
199.0
 20
95.6155
 30
0.0
 11
199.0
 21
95.1016
 31
0.0
  0
LINE
  5
CC
330
1E
100
AcDbEntity
  8
0
100
AcDbLine
 10
199.0
 20
95.1016
 30
0.0
 11
199.0
 21
94.8582
 31
0.0
  0
LINE
  5
CD
330
1E
100
AcDbEntity
  8
0
100
AcDbLine
 10
199.0
 20
95.1016
 30
0.0
 11
199.0
 21
95.6155
 31
0.0
  0
LINE
  5
CE
330
1E
100
AcDbEntity
  8
0
100
AcDbLine
 10
199.0
 20
95.6019
 30
0.0
 11
199.0
 21
96.5215
 31
0.0
  0
LINE
  5
CF
330
1E
100
AcDbEntity
  8
0
100
AcDbLine
 10
199.0
 20
95.6019
 30
0.0
 11
199.0
 21
95.0881
 31
0.0
  0
LINE
  5
D0
330
1E
100
AcDbEntity
  8
0
100
AcDbLine
 10
199.0
 20
95.8318
 30
0.0
 11
199.0
 21
94.9091
 31
0.0
  0
LINE
  5
D3
330
1E
100
AcDbEntity
  8
0
100
AcDbLine
 10
199.0
 20
95.8318
 30
0.0
 11
199.0
 21
97.0727
 31
0.0
  0
LINE
  5
D4
330
1E
100
AcDbEntity
  8
0
100
AcDbLine
 10
215.0
 20
95.044
 30
0.0
 11
215.0
 21
96.528
 31
0.0
  0
LINE
  5
D5
330
1E
100
AcDbEntity
  8
0
100
AcDbLine
 10
209.0
 20
95.044
 30
0.0
 11
209.0
 21
96.528
 31
0.0
  0
LINE
  5
D6
330
1E
100
AcDbEntity
  8
0
100
AcDbLine
 10
209.0
 20
95.044
 30
0.0
 11
209.0
 21
93.924
 31
0.0
  0
LINE
  5
DA
330
1E
100
AcDbEntity
  8
0
100
AcDbLine
 10
247.314
 20
94.9576
 30
0.0
 11
248.0
 21
95.4886
 31
0.0
  0
LINE
  5
DB
330
1E
100
AcDbEntity
  8
0
100
AcDbLine
 10
232.686
 20
94.9576
 30
0.0
 11
234.021
 21
94.1909
 31
0.0
  0
LINE
  5
DD
330
1E
100
AcDbEntity
  8
0
100
AcDbLine
 10
208.827
 20
95.4818
 30
0.0
 11
208.904
 21
94.6304
 31
0.0
  0
LINE
  5
DE
330
1E
100
AcDbEntity
  8
0
100
AcDbLine
 10
248.0
 20
95.4886
 30
0.0
 11
248.0
 21
96.0279
 31
0.0
  0
LINE
  5
DF
330
1E
100
AcDbEntity
  8
0
100
AcDbLine
 10
215.0
 20
95.536
 30
0.0
 11
215.0
 21
97.696
 31
0.0
  0
LINE
  5
E0
330
1E
100
AcDbEntity
  8
0
100
AcDbLine
 10
215.0
 20
95.536
 30
0.0
 11
215.0
 21
93.628
 31
0.0
  0
LINE
  5
E3
330
1E
100
AcDbEntity
  8
0
100
AcDbLine
 10
232.168
 20
95.6227
 30
0.0
 11
232.686
 21
94.9576
 31
0.0
  0
LINE
  5
E4
330
1E
100
AcDbEntity
  8
0
100
AcDbLine
 10
265.0
 20
95.536
 30
0.0
 11
265.0
 21
97.696
 31
0.0
  0
LINE
  5
E5
330
1E
100
AcDbEntity
  8
0
100
AcDbLine
 10
265.0
 20
95.536
 30
0.0
 11
265.0
 21
93.628
 31
0.0
  0
LINE
  5
E9
330
1E
100
AcDbEntity
  8
0
100
AcDbLine
 10
244.603
 20
95.5102
 30
0.0
 11
245.595
 21
96.988
 31
0.0
  0
LINE
  5
EA
330
1E
100
AcDbEntity
  8
0
100
AcDbLine
 10
235.415
 20
95.5276
 30
0.0
 11
236.805
 21
94.3454
 31
0.0
  0
LINE
  5
EF
330
1E
100
AcDbEntity
  8
0
100
AcDbLine
 10
209.0
 20
95.8318
 30
0.0
 11
209.0
 21
102.9273
 31
0.0
  0
LINE
  5
F0
330
1E
100
AcDbEntity
  8
0
100
AcDbLine
 10
199.173
 20
95.4818
 30
0.0
 11
199.476
 21
96.0781
 31
0.0
  0
LINE
  5
F2
330
1E
100
AcDbEntity
  8
0
100
AcDbLine
 10
199.0
 20
95.0881
 30
0.0
 11
199.0
 21
95.6019
 31
0.0
  0
LINE
  5
F3
330
1E
100
AcDbEntity
  8
0
100
AcDbLine
 10
199.0
 20
95.0881
 30
0.0
 11
199.0
 21
94.8582
 31
0.0
  0
LINE
  5
F4
330
1E
100
AcDbEntity
  8
0
100
AcDbLine
 10
199.0
 20
94.9091
 30
0.0
 11
199.0
 21
94.3363
 31
0.0
  0
LINE
  5
F5
330
1E
100
AcDbEntity
  8
0
100
AcDbLine
 10
199.0
 20
94.9091
 30
0.0
 11
199.0
 21
95.8318
 31
0.0
  0
LINE
  5
F9
330
1E
100
AcDbEntity
  8
0
100
AcDbLine
 10
199.0
 20
96.5079
 30
0.0
 11
199.0
 21
97.6573
 31
0.0
  0
LINE
  5
FA
330
1E
100
AcDbEntity
  8
0
100
AcDbLine
 10
199.0
 20
96.5079
 30
0.0
 11
199.0
 21
95.6155
 31
0.0
  0
LINE
  5
FB
330
1E
100
AcDbEntity
  8
0
100
AcDbLine
 10
199.0
 20
97.6573
 30
0.0
 11
199.0
 21
98.7797
 31
0.0
  0
LINE
  5
FC
330
1E
100
AcDbEntity
  8
0
100
AcDbLine
 10
199.0
 20
97.6573
 30
0.0
 11
199.0
 21
96.5079
 31
0.0
  0
LINE
  5
FD
330
1E
100
AcDbEntity
  8
0
100
AcDbLine
 10
199.0
 20
97.0727
 30
0.0
 11
199.0
 21
98.4727
 31
0.0
  0
LINE
  5
FE
330
1E
100
AcDbEntity
  8
0
100
AcDbLine
 10
199.0
 20
97.0727
 30
0.0
 11
199.0
 21
95.8318
 31
0.0
  0
LINE
  5
101
330
1E
100
AcDbEntity
  8
0
100
AcDbLine
 10
199.0
 20
97.6438
 30
0.0
 11
199.0
 21
96.5215
 31
0.0
  0
LINE
  5
102
330
1E
100
AcDbEntity
  8
0
100
AcDbLine
 10
199.0
 20
97.6438
 30
0.0
 11
199.0
 21
98.7797
 31
0.0
  0
LINE
  5
103
330
1E
100
AcDbEntity
  8
0
100
AcDbLine
 10
199.0
 20
96.5215
 30
0.0
 11
199.0
 21
95.6019
 31
0.0
  0
LINE
  5
104
330
1E
100
AcDbEntity
  8
0
100
AcDbLine
 10
199.0
 20
96.5215
 30
0.0
 11
199.0
 21
97.6438
 31
0.0
  0
LINE
  5
105
330
1E
100
AcDbEntity
  8
0
100
AcDbLine
 10
199.0
 20
98.7797
 30
0.0
 11
199.0
 21
99.9832
 31
0.0
  0
LINE
  5
106
330
1E
100
AcDbEntity
  8
0
100
AcDbLine
 10
199.0
 20
98.7797
 30
0.0
 11
199.0
 21
97.6438
 31
0.0
  0
LINE
  5
107
330
1E
100
AcDbEntity
  8
0
100
AcDbLine
 10
199.0
 20
98.7797
 30
0.0
 11
199.0
 21
99.9967
 31
0.0
  0
LINE
  5
108
330
1E
100
AcDbEntity
  8
0
100
AcDbLine
 10
199.0
 20
98.7797
 30
0.0
 11
199.0
 21
97.6573
 31
0.0
  0
LINE
  5
109
330
1E
100
AcDbEntity
  8
0
100
AcDbLine
 10
199.0
 20
99.9967
 30
0.0
 11
199.0
 21
101.2002
 31
0.0
  0
LINE
  5
10A
330
1E
100
AcDbEntity
  8
0
100
AcDbLine
 10
199.0
 20
99.9967
 30
0.0
 11
199.0
 21
98.7797
 31
0.0
  0
LINE
  5
10B
330
1E
100
AcDbEntity
  8
0
100
AcDbLine
 10
199.0
 20
101.2002
 30
0.0
 11
199.0
 21
99.9967
 31
0.0
  0
LINE
  5
10C
330
1E
100
AcDbEntity
  8
0
100
AcDbLine
 10
199.0
 20
101.2002
 30
0.0
 11
199.0
 21
102.3496
 31
0.0
  0
LINE
  5
10D
330
1E
100
AcDbEntity
  8
0
100
AcDbLine
 10
199.0
 20
101.5273
 30
0.0
 11
199.0
 21
102.9273
 31
0.0
  0
LINE
  5
10E
330
1E
100
AcDbEntity
  8
0
100
AcDbLine
 10
199.0
 20
101.5273
 30
0.0
 11
199.0
 21
100.0
 31
0.0
  0
LINE
  5
110
330
1E
100
AcDbEntity
  8
0
100
AcDbLine
 10
199.0
 20
101.1867
 30
0.0
 11
199.0
 21
102.3361
 31
0.0
  0
LINE
  5
111
330
1E
100
AcDbEntity
  8
0
100
AcDbLine
 10
199.0
 20
101.1867
 30
0.0
 11
199.0
 21
99.9832
 31
0.0
  0
LINE
  5
112
330
1E
100
AcDbEntity
  8
0
100
AcDbLine
 10
199.0
 20
100.0
 30
0.0
 11
199.0
 21
98.4727
 31
0.0
  0
LINE
  5
113
330
1E
100
AcDbEntity
  8
0
100
AcDbLine
 10
199.0
 20
100.0
 30
0.0
 11
199.0
 21
101.5273
 31
0.0
  0
LINE
  5
114
330
1E
100
AcDbEntity
  8
0
100
AcDbLine
 10
199.0
 20
99.9832
 30
0.0
 11
199.0
 21
98.7797
 31
0.0
  0
LINE
  5
115
330
1E
100
AcDbEntity
  8
0
100
AcDbLine
 10
199.0
 20
99.9832
 30
0.0
 11
199.0
 21
101.1867
 31
0.0
  0
LINE
  5
118
330
1E
100
AcDbEntity
  8
0
100
AcDbLine
 10
248.0
 20
96.0279
 30
0.0
 11
248.0
 21
95.4886
 31
0.0
  0
LINE
  5
119
330
1E
100
AcDbEntity
  8
0
100
AcDbLine
 10
248.0
 20
96.0279
 30
0.0
 11
248.0
 21
97.9382
 31
0.0
  0
LINE
  5
11C
330
1E
100
AcDbEntity
  8
0
100
AcDbLine
 10
232.0
 20
96.0279
 30
0.0
 11
232.0
 21
97.9382
 31
0.0
  0
LINE
  5
11E
330
1E
100
AcDbEntity
  8
0
100
AcDbLine
 10
232.0
 20
96.0279
 30
0.0
 11
232.168
 21
95.6227
 31
0.0
  0
LINE
  5
11F
330
1E
100
AcDbEntity
  8
0
100
AcDbLine
 10
208.524
 20
96.0781
 30
0.0
 11
208.827
 21
95.4818
 31
0.0
  0
LINE
  5
121
330
1E
100
AcDbEntity
  8
0
100
AcDbLine
 10
208.524
 20
96.0781
 30
0.0
 11
208.524
 21
96.5954
 31
0.0
  0
LINE
  5
125
330
1E
100
AcDbEntity
  8
0
100
AcDbLine
 10
199.476
 20
96.5954
 30
0.0
 11
199.476
 21
96.9106
 31
0.0
  0
LINE
  5
126
330
1E
100
AcDbEntity
  8
0
100
AcDbLine
 10
199.476
 20
96.5954
 30
0.0
 11
199.476
 21
96.0781
 31
0.0
  0
LINE
  5
12B
330
1E
100
AcDbEntity
  8
0
100
AcDbLine
 10
208.524
 20
96.5954
 30
0.0
 11
208.524
 21
96.0781
 31
0.0
  0
LINE
  5
12C
330
1E
100
AcDbEntity
  8
0
100
AcDbLine
 10
208.524
 20
96.5954
 30
0.0
 11
208.524
 21
96.9106
 31
0.0
  0
LINE
  5
12F
330
1E
100
AcDbEntity
  8
0
100
AcDbLine
 10
199.476
 20
96.9106
 30
0.0
 11
199.476
 21
96.5954
 31
0.0
  0
LINE
  5
130
330
1E
100
AcDbEntity
  8
0
100
AcDbLine
 10
225.54
 20
96.16
 30
0.0
 11
226.98
 21
92.56
 31
0.0
  0
LINE
  5
131
330
1E
100
AcDbEntity
  8
0
100
AcDbLine
 10
215.0
 20
96.528
 30
0.0
 11
215.0
 21
98.208
 31
0.0
  0
LINE
  5
132
330
1E
100
AcDbEntity
  8
0
100
AcDbLine
 10
209.0
 20
96.528
 30
0.0
 11
209.0
 21
102.9273
 31
0.0
  0
LINE
  5
133
330
1E
100
AcDbEntity
  8
0
100
AcDbLine
 10
209.0
 20
96.528
 30
0.0
 11
209.0
 21
95.044
 31
0.0
  0
LINE
  5
139
330
1E
100
AcDbEntity
  8
0
100
AcDbLine
 10
240.0
 20
97.0
 30
0.0
 11
240.768
 21
97.108
 31
0.0
  0
LINE
  5
13A
330
1E
100
AcDbEntity
  8
0
100
AcDbLine
 10
245.595
 20
96.988
 30
0.0
 11
246.075
 21
98.431
 31
0.0
  0
LINE
  5
13C
330
1E
100
AcDbEntity
  8
0
100
AcDbLine
 10
254.46
 20
96.16
 30
0.0
 11
255.0
 21
100.0
 31
0.0
  0
LINE
  5
13D
330
1E
100
AcDbEntity
  8
0
100
AcDbLine
 10
208.524
 20
96.9106
 30
0.0
 11
208.886
 21
98.3963
 31
0.0
  0
LINE
  5
13E
330
1E
100
AcDbEntity
  8
0
100
AcDbLine
 10
208.524
 20
96.9106
 30
0.0
 11
208.524
 21
96.5954
 31
0.0
  0
LINE
  5
13F
330
1E
100
AcDbEntity
  8
0
100
AcDbLine
 10
199.114
 20
98.3963
 30
0.0
 11
199.476
 21
96.9106
 31
0.0
  0
LINE
  5
141
330
1E
100
AcDbEntity
  8
0
100
AcDbLine
 10
215.0
 20
97.696
 30
0.0
 11
215.0
 21
100.0
 31
0.0
  0
LINE
  5
142
330
1E
100
AcDbEntity
  8
0
100
AcDbLine
 10
215.0
 20
97.696
 30
0.0
 11
215.0
 21
95.536
 31
0.0
  0
LINE
  5
143
330
1E
100
AcDbEntity
  8
0
100
AcDbLine
 10
215.0
 20
98.208
 30
0.0
 11
215.0
 21
100.0
 31
0.0
  0
LINE
  5
144
330
1E
100
AcDbEntity
  8
0
100
AcDbLine
 10
219.0
 20
100.0
 30
0.0
 11
219.756
 21
105.376
 31
0.0
  0
LINE
  5
145
330
1E
100
AcDbEntity
  8
0
100
AcDbLine
 10
219.0
 20
100.0
 30
0.0
 11
219.756
 21
94.624
 31
0.0
  0
LINE
  5
146
330
1E
100
AcDbEntity
  8
0
100
AcDbLine
 10
215.0
 20
100.0
 30
0.0
 11
215.0
 21
101.792
 31
0.0
  0
LINE
  5
147
330
1E
100
AcDbEntity
  8
0
100
AcDbLine
 10
215.0
 20
100.0
 30
0.0
 11
215.0
 21
102.304
 31
0.0
  0
LINE
  5
148
330
1E
100
AcDbEntity
  8
0
100
AcDbLine
 10
215.0
 20
100.0
 30
0.0
 11
215.0
 21
97.696
 31
0.0
  0
LINE
  5
149
330
1E
100
AcDbEntity
  8
0
100
AcDbLine
 10
220.0
 20
100.0
 30
0.0
 11
220.72
 21
105.12
 31
0.0
  0
LINE
  5
14A
330
1E
100
AcDbEntity
  8
0
100
AcDbLine
 10
220.0
 20
100.0
 30
0.0
 11
220.72
 21
94.88
 31
0.0
  0
LINE
  5
14B
330
1E
100
AcDbEntity
  8
0
100
AcDbLine
 10
239.232
 20
97.108
 30
0.0
 11
240.0
 21
97.0
 31
0.0
  0
LINE
  5
14C
330
1E
100
AcDbEntity
  8
0
100
AcDbLine
 10
240.768
 20
97.108
 30
0.0
 11
241.488
 21
97.396
 31
0.0
  0
LINE
  5
14E
330
1E
100
AcDbEntity
  8
0
100
AcDbLine
 10
234.372
 20
97.0749
 30
0.0
 11
235.415
 21
95.5276
 31
0.0
  0
LINE
  5
14F
330
1E
100
AcDbEntity
  8
0
100
AcDbLine
 10
250.604
 20
97.184
 30
0.0
 11
251.0
 21
100.0
 31
0.0
  0
LINE
  5
150
330
1E
100
AcDbEntity
  8
0
100
AcDbLine
 10
232.0
 20
100.0
 30
0.0
 11
232.0
 21
97.9382
 31
0.0
  0
LINE
  5
151
330
1E
100
AcDbEntity
  8
0
100
AcDbLine
 10
232.0
 20
100.0
 30
0.0
 11
232.0
 21
102.0618
 31
0.0
  0
LINE
  5
153
330
1E
100
AcDbEntity
  8
0
100
AcDbLine
 10
238.512
 20
97.396
 30
0.0
 11
239.232
 21
97.108
 31
0.0
  0
LINE
  5
154
330
1E
100
AcDbEntity
  8
0
100
AcDbLine
 10
237.876
 20
97.876
 30
0.0
 11
238.512
 21
97.396
 31
0.0
  0
LINE
  5
155
330
1E
100
AcDbEntity
  8
0
100
AcDbLine
 10
241.488
 20
97.396
 30
0.0
 11
242.124
 21
97.876
 31
0.0
  0
LINE
  5
156
330
1E
100
AcDbEntity
  8
0
100
AcDbLine
 10
242.124
 20
97.876
 30
0.0
 11
242.604
 21
98.512
 31
0.0
  0
LINE
  5
157
330
1E
100
AcDbEntity
  8
0
100
AcDbLine
 10
246.075
 20
98.431
 30
0.0
 11
246.29
 21
99.9958
 31
0.0
  0
LINE
  5
15C
330
1E
100
AcDbEntity
  8
0
100
AcDbLine
 10
265.0
 20
97.696
 30
0.0
 11
265.0
 21
100.0
 31
0.0
  0
LINE
  5
15D
330
1E
100
AcDbEntity
  8
0
100
AcDbLine
 10
265.0
 20
97.696
 30
0.0
 11
265.0
 21
95.536
 31
0.0
  0
LINE
  5
15E
330
1E
100
AcDbEntity
  8
0
100
AcDbLine
 10
248.0
 20
97.9382
 30
0.0
 11
248.0
 21
96.0279
 31
0.0
  0
LINE
  5
15F
330
1E
100
AcDbEntity
  8
0
100
AcDbLine
 10
237.396
 20
98.512
 30
0.0
 11
237.876
 21
97.876
 31
0.0
  0
LINE
  5
160
330
1E
100
AcDbEntity
  8
0
100
AcDbLine
 10
237.108
 20
99.232
 30
0.0
 11
237.396
 21
98.512
 31
0.0
  0
LINE
  5
161
330
1E
100
AcDbEntity
  8
0
100
AcDbLine
 10
242.604
 20
98.512
 30
0.0
 11
242.892
 21
99.232
 31
0.0
  0
LINE
  5
162
330
1E
100
AcDbEntity
  8
0
100
AcDbLine
 10
242.892
 20
99.232
 30
0.0
 11
243.0
 21
100.0
 31
0.0
  0
LINE
  5
163
330
1E
100
AcDbEntity
  8
0
100
AcDbLine
 10
237.0
 20
100.0
 30
0.0
 11
237.108
 21
100.768
 31
0.0
  0
LINE
  5
164
330
1E
100
AcDbEntity
  8
0
100
AcDbLine
 10
237.0
 20
100.0
 30
0.0
 11
237.108
 21
99.232
 31
0.0
  0
LINE
  5
165
330
1E
100
AcDbEntity
  8
0
100
AcDbLine
 10
265.0
 20
100.0
 30
0.0
 11
265.0
 21
102.304
 31
0.0
  0
LINE
  5
166
330
1E
100
AcDbEntity
  8
0
100
AcDbLine
 10
265.0
 20
100.0
 30
0.0
 11
265.0
 21
97.696
 31
0.0
  0
LINE
  5
168
330
1E
100
AcDbEntity
  8
0
100
AcDbLine
 10
248.0
 20
100.0
 30
0.0
 11
248.0
 21
97.9382
 31
0.0
  0
LINE
  5
169
330
1E
100
AcDbEntity
  8
0
100
AcDbLine
 10
233.903258627228
 20
98.465875904985
 30
0.0
 11
234.372
 21
97.0749
 31
0.0
  0
LINE
  5
16B
330
1E
100
AcDbEntity
  8
0
100
AcDbLine
 10
233.741
 20
99.9784
 30
0.0
 11
233.907
 21
98.431
 31
0.0
  0
LINE
  5
16C
330
1E
100
AcDbEntity
  8
0
100
AcDbLine
 10
233.741
 20
99.9784
 30
0.0
 11
233.89
 21
101.5257
 31
0.0
  0
LINE
  5
16F
330
1E
100
AcDbEntity
  8
0
100
AcDbLine
 10
232.0
 20
97.9382
 30
0.0
 11
232.0
 21
100.0
 31
0.0
  0
LINE
  5
170
330
1E
100
AcDbEntity
  8
0
100
AcDbLine
 10
232.0
 20
97.9382
 30
0.0
 11
232.0
 21
96.0279
 31
0.0
  0
LINE
  5
174
330
1E
100
AcDbEntity
  8
0
100
AcDbLine
 10
229.396
 20
97.184
 30
0.0
 11
230.452
 21
94.544
 31
0.0
  0
LINE
  5
175
330
1E
100
AcDbEntity
  8
0
100
AcDbLine
 10
229.0
 20
100.0
 30
0.0
 11
229.396
 21
97.184
 31
0.0
  0
LINE
  5
176
330
1E
100
AcDbEntity
  8
0
100
AcDbLine
 10
229.0
 20
100.0
 30
0.0
 11
229.396
 21
102.816
 31
0.0
  0
LINE
  5
177
330
1E
100
AcDbEntity
  8
0
100
AcDbLine
 10
225.0
 20
100.0
 30
0.0
 11
225.54
 21
103.84
 31
0.0
  0
LINE
  5
178
330
1E
100
AcDbEntity
  8
0
100
AcDbLine
 10
225.0
 20
100.0
 30
0.0
 11
225.54
 21
96.16
 31
0.0
  0
LINE
  5
17B
330
1E
100
AcDbEntity
  8
0
100
AcDbLine
 10
242.892
 20
100.768
 30
0.0
 11
243.0
 21
100.0
 31
0.0
  0
LINE
  5
17C
330
1E
100
AcDbEntity
  8
0
100
AcDbLine
 10
242.604
 20
101.488
 30
0.0
 11
242.892
 21
100.768
 31
0.0
  0
LINE
  5
17D
330
1E
100
AcDbEntity
  8
0
100
AcDbLine
 10
237.396
 20
101.488
 30
0.0
 11
237.876
 21
102.124
 31
0.0
  0
LINE
  5
17E
330
1E
100
AcDbEntity
  8
0
100
AcDbLine
 10
237.108
 20
100.768
 30
0.0
 11
237.396
 21
101.488
 31
0.0
  0
LINE
  5
17F
330
1E
100
AcDbEntity
  8
0
100
AcDbLine
 10
233.89
 20
101.5257
 30
0.0
 11
234.42
 21
103.0035
 31
0.0
  0
LINE
  5
182
330
1E
100
AcDbEntity
  8
0
100
AcDbLine
 10
208.886
 20
98.3963
 30
0.0
 11
208.952
 21
100.0
 31
0.0
  0
LINE
  5
183
330
1E
100
AcDbEntity
  8
0
100
AcDbLine
 10
209.0
 20
102.9273
 30
0.0
 11
209.0
 21
95.8318
 31
0.0
  0
LINE
  5
184
330
1E
100
AcDbEntity
  8
0
100
AcDbLine
 10
209.0
 20
102.9273
 30
0.0
 11
209.0
 21
96.528
 31
0.0
  0
LINE
  5
185
330
1E
100
AcDbEntity
  8
0
100
AcDbLine
 10
199.048
 20
100.0
 30
0.0
 11
199.114
 21
101.6037
 31
0.0
  0
LINE
  5
186
330
1E
100
AcDbEntity
  8
0
100
AcDbLine
 10
199.048
 20
100.0
 30
0.0
 11
199.114
 21
98.3963
 31
0.0
  0
LINE
  5
189
330
1E
100
AcDbEntity
  8
0
100
AcDbLine
 10
199.0
 20
98.4727
 30
0.0
 11
199.0
 21
100.0
 31
0.0
  0
LINE
  5
18A
330
1E
100
AcDbEntity
  8
0
100
AcDbLine
 10
199.0
 20
98.4727
 30
0.0
 11
199.0
 21
97.0727
 31
0.0
  0
LINE
  5
18C
330
1E
100
AcDbEntity
  8
0
100
AcDbLine
 10
199.0
 20
102.3496
 30
0.0
 11
199.0
 21
103.4855
 31
0.0
  0
LINE
  5
18D
330
1E
100
AcDbEntity
  8
0
100
AcDbLine
 10
199.0
 20
102.3496
 30
0.0
 11
199.0
 21
101.2002
 31
0.0
  0
LINE
  5
18E
330
1E
100
AcDbEntity
  8
0
100
AcDbLine
 10
199.0
 20
103.4855
 30
0.0
 11
199.0
 21
104.405
 31
0.0
  0
LINE
  5
18F
330
1E
100
AcDbEntity
  8
0
100
AcDbLine
 10
199.0
 20
103.4855
 30
0.0
 11
199.0
 21
102.3496
 31
0.0
  0
LINE
  5
190
330
1E
100
AcDbEntity
  8
0
100
AcDbLine
 10
199.0
 20
104.405
 30
0.0
 11
199.0
 21
103.4855
 31
0.0
  0
LINE
  5
191
330
1E
100
AcDbEntity
  8
0
100
AcDbLine
 10
199.0
 20
104.405
 30
0.0
 11
199.0
 21
104.9324
 31
0.0
  0
LINE
  5
192
330
1E
100
AcDbEntity
  8
0
100
AcDbLine
 10
199.0
 20
105.0909
 30
0.0
 11
199.0
 21
104.1682
 31
0.0
  0
LINE
  5
193
330
1E
100
AcDbEntity
  8
0
100
AcDbLine
 10
199.0
 20
105.0909
 30
0.0
 11
199.0
 21
105.6636
 31
0.0
  0
LINE
  5
196
330
1E
100
AcDbEntity
  8
0
100
AcDbLine
 10
199.0
 20
104.4185
 30
0.0
 11
199.0
 21
104.9324
 31
0.0
  0
LINE
  5
197
330
1E
100
AcDbEntity
  8
0
100
AcDbLine
 10
199.0
 20
104.4185
 30
0.0
 11
199.0
 21
103.5396
 31
0.0
  0
LINE
  5
198
330
1E
100
AcDbEntity
  8
0
100
AcDbLine
 10
199.0
 20
103.5396
 30
0.0
 11
199.0
 21
102.3361
 31
0.0
  0
LINE
  5
199
330
1E
100
AcDbEntity
  8
0
100
AcDbLine
 10
199.0
 20
103.5396
 30
0.0
 11
199.0
 21
104.4185
 31
0.0
  0
LINE
  5
19A
330
1E
100
AcDbEntity
  8
0
100
AcDbLine
 10
199.0
 20
104.1682
 30
0.0
 11
199.0
 21
102.9273
 31
0.0
  0
LINE
  5
19B
330
1E
100
AcDbEntity
  8
0
100
AcDbLine
 10
199.0
 20
104.1682
 30
0.0
 11
199.0
 21
105.0909
 31
0.0
  0
LINE
  5
19E
330
1E
100
AcDbEntity
  8
0
100
AcDbLine
 10
199.0
 20
102.3361
 30
0.0
 11
199.0
 21
103.5396
 31
0.0
  0
LINE
  5
19F
330
1E
100
AcDbEntity
  8
0
100
AcDbLine
 10
199.0
 20
102.3361
 30
0.0
 11
199.0
 21
101.1867
 31
0.0
  0
LINE
  5
1A0
330
1E
100
AcDbEntity
  8
0
100
AcDbLine
 10
199.0
 20
102.9273
 30
0.0
 11
199.0
 21
101.5273
 31
0.0
  0
LINE
  5
1A1
330
1E
100
AcDbEntity
  8
0
100
AcDbLine
 10
199.0
 20
102.9273
 30
0.0
 11
199.0
 21
104.1682
 31
0.0
  0
LINE
  5
1A3
330
1E
100
AcDbEntity
  8
0
100
AcDbLine
 10
199.0
 20
105.6636
 30
0.0
 11
199.0
 21
105.0909
 31
0.0
  0
LINE
  5
1A5
330
1E
100
AcDbEntity
  8
0
100
AcDbLine
 10
199.0
 20
105.6636
 30
0.0
 11
199.0
 21
105.8864
 31
0.0
  0
LINE
  5
1A6
330
1E
100
AcDbEntity
  8
0
100
AcDbLine
 10
199.0
 20
105.8864
 30
0.0
 11
199.143
 21
106.3636
 31
0.0
  0
LINE
  5
1A7
330
1E
100
AcDbEntity
  8
0
100
AcDbLine
 10
199.0
 20
105.8864
 30
0.0
 11
199.0
 21
105.6636
 31
0.0
  0
LINE
  5
1A8
330
1E
100
AcDbEntity
  8
0
100
AcDbLine
 10
199.0
 20
105.1352
 30
0.0
 11
199.0
 21
104.9324
 31
0.0
  0
LINE
  5
1A9
330
1E
100
AcDbEntity
  8
0
100
AcDbLine
 10
199.114
 20
101.6037
 30
0.0
 11
199.476
 21
103.0894
 31
0.0
  0
LINE
  5
1AD
330
1E
100
AcDbEntity
  8
0
100
AcDbLine
 10
199.096
 20
105.3696
 30
0.0
 11
199.173
 21
104.5182
 31
0.0
  0
LINE
  5
1AE
330
1E
100
AcDbEntity
  8
0
100
AcDbLine
 10
199.096
 20
105.3696
 30
0.0
 11
199.199
 21
106.2164
 31
0.0
  0
LINE
  5
1AF
330
1E
100
AcDbEntity
  8
0
100
AcDbLine
 10
208.886
 20
101.6037
 30
0.0
 11
208.952
 21
100.0
 31
0.0
  0
LINE
  5
1B0
330
1E
100
AcDbEntity
  8
0
100
AcDbLine
 10
208.524
 20
103.0894
 30
0.0
 11
208.886
 21
101.6037
 31
0.0
  0
LINE
  5
1B1
330
1E
100
AcDbEntity
  8
0
100
AcDbLine
 10
208.524
 20
103.0894
 30
0.0
 11
208.524
 21
103.4045
 31
0.0
  0
LINE
  5
1B3
330
1E
100
AcDbEntity
  8
0
100
AcDbLine
 10
199.476
 20
103.4045
 30
0.0
 11
199.476
 21
103.0894
 31
0.0
  0
LINE
  5
1B6
330
1E
100
AcDbEntity
  8
0
100
AcDbLine
 10
199.476
 20
103.9219
 30
0.0
 11
199.476
 21
103.4045
 31
0.0
  0
LINE
  5
1BA
330
1E
100
AcDbEntity
  8
0
100
AcDbLine
 10
209.0
 20
103.472
 30
0.0
 11
209.0
 21
104.956
 31
0.0
  0
LINE
  5
1BB
330
1E
100
AcDbEntity
  8
0
100
AcDbLine
 10
209.0
 20
103.472
 30
0.0
 11
209.0
 21
102.9273
 31
0.0
  0
LINE
  5
1BC
330
1E
100
AcDbEntity
  8
0
100
AcDbLine
 10
208.524
 20
103.4045
 30
0.0
 11
208.524
 21
103.0894
 31
0.0
  0
LINE
  5
1BE
330
1E
100
AcDbEntity
  8
0
100
AcDbLine
 10
208.524
 20
103.4045
 30
0.0
 11
208.524
 21
103.9219
 31
0.0
  0
LINE
  5
1BF
330
1E
100
AcDbEntity
  8
0
100
AcDbLine
 10
199.476
 20
103.0894
 30
0.0
 11
199.476
 21
103.4045
 31
0.0
  0
LINE
  5
1C1
330
1E
100
AcDbEntity
  8
0
100
AcDbLine
 10
215.0
 20
101.792
 30
0.0
 11
215.0
 21
103.472
 31
0.0
  0
LINE
  5
1C4
330
1E
100
AcDbEntity
  8
0
100
AcDbLine
 10
246.108
 20
101.5431
 30
0.0
 11
246.29
 21
99.9958
 31
0.0
  0
LINE
  5
1C6
330
1E
100
AcDbEntity
  8
0
100
AcDbLine
 10
215.0
 20
102.304
 30
0.0
 11
215.0
 21
104.464
 31
0.0
  0
LINE
  5
1C7
330
1E
100
AcDbEntity
  8
0
100
AcDbLine
 10
215.0
 20
102.304
 30
0.0
 11
215.0
 21
100.0
 31
0.0
  0
LINE
  5
1C8
330
1E
100
AcDbEntity
  8
0
100
AcDbLine
 10
241.488
 20
102.604
 30
0.0
 11
242.124
 21
102.124
 31
0.0
  0
LINE
  5
1C9
330
1E
100
AcDbEntity
  8
0
100
AcDbLine
 10
242.124
 20
102.124
 30
0.0
 11
242.604
 21
101.488
 31
0.0
  0
LINE
  5
1CA
330
1E
100
AcDbEntity
  8
0
100
AcDbLine
 10
238.512
 20
102.604
 30
0.0
 11
239.232
 21
102.892
 31
0.0
  0
LINE
  5
1CB
330
1E
100
AcDbEntity
  8
0
100
AcDbLine
 10
237.876
 20
102.124
 30
0.0
 11
238.512
 21
102.604
 31
0.0
  0
LINE
  5
1CC
330
1E
100
AcDbEntity
  8
0
100
AcDbLine
 10
248.0
 20
102.0618
 30
0.0
 11
248.0
 21
103.9721
 31
0.0
  0
LINE
  5
1CD
330
1E
100
AcDbEntity
  8
0
100
AcDbLine
 10
248.0
 20
102.0618
 30
0.0
 11
248.0
 21
100.0
 31
0.0
  0
LINE
  5
1CE
330
1E
100
AcDbEntity
  8
0
100
AcDbLine
 10
232.0
 20
102.0618
 30
0.0
 11
232.0
 21
100.0
 31
0.0
  0
LINE
  5
1CF
330
1E
100
AcDbEntity
  8
0
100
AcDbLine
 10
232.0
 20
102.0618
 30
0.0
 11
232.0
 21
103.9721
 31
0.0
  0
LINE
  5
1D4
330
1E
100
AcDbEntity
  8
0
100
AcDbLine
 10
250.604
 20
102.816
 30
0.0
 11
251.0
 21
100.0
 31
0.0
  0
LINE
  5
1D5
330
1E
100
AcDbEntity
  8
0
100
AcDbLine
 10
215.0
 20
103.472
 30
0.0
 11
215.0
 21
104.956
 31
0.0
  0
LINE
  5
1D6
330
1E
100
AcDbEntity
  8
0
100
AcDbLine
 10
240.0
 20
103.0
 30
0.0
 11
240.768
 21
102.892
 31
0.0
  0
LINE
  5
1D7
330
1E
100
AcDbEntity
  8
0
100
AcDbLine
 10
240.768
 20
102.892
 30
0.0
 11
241.488
 21
102.604
 31
0.0
  0
LINE
  5
1D8
330
1E
100
AcDbEntity
  8
0
100
AcDbLine
 10
239.232
 20
102.892
 30
0.0
 11
240.0
 21
103.0
 31
0.0
  0
LINE
  5
1D9
330
1E
100
AcDbEntity
  8
0
100
AcDbLine
 10
245.562
 20
103.0209
 30
0.0
 11
246.108
 21
101.5431
 31
0.0
  0
LINE
  5
1E0
330
1E
100
AcDbEntity
  8
0
100
AcDbLine
 10
234.42
 20
103.0035
 30
0.0
 11
235.398
 21
104.5509
 31
0.0
  0
LINE
  5
1E2
330
1E
100
AcDbEntity
  8
0
100
AcDbLine
 10
229.396
 20
102.816
 30
0.0
 11
230.452
 21
105.456
 31
0.0
  0
LINE
  5
1E7
330
1E
100
AcDbEntity
  8
0
100
AcDbLine
 10
265.0
 20
102.304
 30
0.0
 11
265.0
 21
104.464
 31
0.0
  0
LINE
  5
1E8
330
1E
100
AcDbEntity
  8
0
100
AcDbLine
 10
265.0
 20
102.304
 30
0.0
 11
265.0
 21
100.0
 31
0.0
  0
LINE
  5
1E9
330
1E
100
AcDbEntity
  8
0
100
AcDbLine
 10
254.46
 20
103.84
 30
0.0
 11
255.0
 21
100.0
 31
0.0
  0
LINE
  5
1EA
330
1E
100
AcDbEntity
  8
0
100
AcDbLine
 10
225.54
 20
103.84
 30
0.0
 11
226.98
 21
107.44
 31
0.0
  0
LINE
  5
1EB
330
1E
100
AcDbEntity
  8
0
100
AcDbLine
 10
209.0
 20
102.9273
 30
0.0
 11
209.0
 21
104.1682
 31
0.0
  0
LINE
  5
1EC
330
1E
100
AcDbEntity
  8
0
100
AcDbLine
 10
209.0
 20
102.9273
 30
0.0
 11
209.0
 21
103.472
 31
0.0
  0
LINE
  5
1ED
330
1E
100
AcDbEntity
  8
0
100
AcDbLine
 10
248.0
 20
103.9721
 30
0.0
 11
248.0
 21
102.0618
 31
0.0
  0
LINE
  5
1EE
330
1E
100
AcDbEntity
  8
0
100
AcDbLine
 10
248.0
 20
103.9721
 30
0.0
 11
248.0
 21
104.5114
 31
0.0
  0
LINE
  5
1F3
330
1E
100
AcDbEntity
  8
0
100
AcDbLine
 10
232.0
 20
103.9721
 30
0.0
 11
232.0
 21
102.0618
 31
0.0
  0
LINE
  5
1F5
330
1E
100
AcDbEntity
  8
0
100
AcDbLine
 10
232.0
 20
103.9721
 30
0.0
 11
232.168
 21
104.3773
 31
0.0
  0
LINE
  5
1F6
330
1E
100
AcDbEntity
  8
0
100
AcDbLine
 10
209.0
 20
104.956
 30
0.0
 11
209.0
 21
106.076
 31
0.0
  0
LINE
  5
1F7
330
1E
100
AcDbEntity
  8
0
100
AcDbLine
 10
209.0
 20
104.956
 30
0.0
 11
209.0
 21
103.472
 31
0.0
  0
LINE
  5
1F9
330
1E
100
AcDbEntity
  8
0
100
AcDbLine
 10
215.0
 20
104.464
 30
0.0
 11
215.0
 21
106.372
 31
0.0
  0
LINE
  5
1FA
330
1E
100
AcDbEntity
  8
0
100
AcDbLine
 10
215.0
 20
104.464
 30
0.0
 11
215.0
 21
102.304
 31
0.0
  0
LINE
  5
1FD
330
1E
100
AcDbEntity
  8
0
100
AcDbLine
 10
244.619
 20
104.4813
 30
0.0
 11
245.562
 21
103.0209
 31
0.0
  0
LINE
  5
1FE
330
1E
100
AcDbEntity
  8
0
100
AcDbLine
 10
248.0
 20
104.5114
 30
0.0
 11
248.0
 21
103.9721
 31
0.0
  0
LINE
  5
201
330
1E
100
AcDbEntity
  8
0
100
AcDbLine
 10
235.398
 20
104.5509
 30
0.0
 11
236.738
 21
105.6809
 31
0.0
  0
LINE
  5
203
330
1E
100
AcDbEntity
  8
0
100
AcDbLine
 10
232.168
 20
104.3773
 30
0.0
 11
234.021
 21
105.8091
 31
0.0
  0
LINE
  5
209
330
1E
100
AcDbEntity
  8
0
100
AcDbLine
 10
215.0
 20
104.956
 30
0.0
 11
215.0
 21
106.076
 31
0.0
  0
LINE
  5
20A
330
1E
100
AcDbEntity
  8
0
100
AcDbLine
 10
219.756
 20
105.376
 30
0.0
 11
221.772
 21
110.416
 31
0.0
  0
LINE
  5
20B
330
1E
100
AcDbEntity
  8
0
100
AcDbLine
 10
220.72
 20
105.12
 30
0.0
 11
222.64
 21
109.92
 31
0.0
  0
LINE
  5
20F
330
1E
100
AcDbEntity
  8
0
100
AcDbLine
 10
247.314
 20
105.0424
 30
0.0
 11
248.0
 21
104.5114
 31
0.0
  0
LINE
  5
214
330
1E
100
AcDbEntity
  8
0
100
AcDbLine
 10
260.244
 20
105.376
 30
0.0
 11
261.0
 21
100.0
 31
0.0
  0
LINE
  5
215
330
1E
100
AcDbEntity
  8
0
100
AcDbLine
 10
259.28
 20
105.12
 30
0.0
 11
260.0
 21
100.0
 31
0.0
  0
LINE
  5
216
330
1E
100
AcDbEntity
  8
0
100
AcDbLine
 10
265.0
 20
104.464
 30
0.0
 11
265.0
 21
106.372
 31
0.0
  0
LINE
  5
217
330
1E
100
AcDbEntity
  8
0
100
AcDbLine
 10
265.0
 20
104.464
 30
0.0
 11
265.0
 21
102.304
 31
0.0
  0
LINE
  5
218
330
1E
100
AcDbEntity
  8
0
100
AcDbLine
 10
249.548
 20
105.456
 30
0.0
 11
250.604
 21
102.816
 31
0.0
  0
LINE
  5
219
330
1E
100
AcDbEntity
  8
0
100
AcDbLine
 10
243.245
 20
105.6636
 30
0.0
 11
244.619
 21
104.4813
 31
0.0
  0
LINE
  5
21A
330
1E
100
AcDbEntity
  8
0
100
AcDbLine
 10
230.452
 20
105.456
 30
0.0
 11
232.212
 21
107.788
 31
0.0
  0
LINE
  5
21B
330
1E
100
AcDbEntity
  8
0
100
AcDbLine
 10
209.0
 20
105.0909
 30
0.0
 11
209.0
 21
105.6636
 31
0.0
  0
LINE
  5
21C
330
1E
100
AcDbEntity
  8
0
100
AcDbLine
 10
209.0
 20
104.1682
 30
0.0
 11
209.0
 21
102.9273
 31
0.0
  0
LINE
  5
21D
330
1E
100
AcDbEntity
  8
0
100
AcDbLine
 10
208.827
 20
104.5182
 30
0.0
 11
208.904
 21
105.3696
 31
0.0
  0
LINE
  5
21E
330
1E
100
AcDbEntity
  8
0
100
AcDbLine
 10
208.524
 20
103.9219
 30
0.0
 11
208.827
 21
104.5182
 31
0.0
  0
LINE
  5
220
330
1E
100
AcDbEntity
  8
0
100
AcDbLine
 10
208.524
 20
103.9219
 30
0.0
 11
208.524
 21
103.4045
 31
0.0
  0
LINE
  5
221
330
1E
100
AcDbEntity
  8
0
100
AcDbLine
 10
199.173
 20
104.5182
 30
0.0
 11
199.476
 21
103.9219
 31
0.0
  0
LINE
  5
224
330
1E
100
AcDbEntity
  8
0
100
AcDbLine
 10
245.979
 20
105.8091
 30
0.0
 11
247.314
 21
105.0424
 31
0.0
  0
LINE
  5
228
330
1E
100
AcDbEntity
  8
0
100
AcDbLine
 10
236.738
 20
105.6809
 30
0.0
 11
238.327
 21
106.3416
 31
0.0
  0
LINE
  5
229
330
1E
100
AcDbEntity
  8
0
100
AcDbLine
 10
234.021
 20
105.8091
 30
0.0
 11
235.928
 21
106.9038
 31
0.0
  0
LINE
  5
22B
330
1E
100
AcDbEntity
  8
0
100
AcDbLine
 10
209.0
 20
105.8864
 30
0.0
 11
209.0
 21
105.6636
 31
0.0
  0
LINE
  5
22C
330
1E
100
AcDbEntity
  8
0
100
AcDbLine
 10
209.0
 20
105.8864
 30
0.0
 11
209.0
 21
106.076
 31
0.0
  0
LINE
  5
22D
330
1E
100
AcDbEntity
  8
0
100
AcDbLine
 10
209.0
 20
105.6636
 30
0.0
 11
209.0
 21
105.8864
 31
0.0
  0
LINE
  5
22E
330
1E
100
AcDbEntity
  8
0
100
AcDbLine
 10
209.0
 20
105.6636
 30
0.0
 11
209.0
 21
105.0909
 31
0.0
  0
LINE
  5
22F
330
1E
100
AcDbEntity
  8
0
100
AcDbLine
 10
199.0
 20
104.9324
 30
0.0
 11
199.0
 21
105.1352
 31
0.0
  0
LINE
  5
230
330
1E
100
AcDbEntity
  8
0
100
AcDbLine
 10
199.0
 20
104.9324
 30
0.0
 11
199.0
 21
104.4185
 31
0.0
  0
LINE
  5
231
330
1E
100
AcDbEntity
  8
0
100
AcDbLine
 10
199.0
 20
104.9324
 30
0.0
 11
199.0
 21
104.405
 31
0.0
  0
LINE
  5
23D
330
1E
100
AcDbEntity
  8
0
100
AcDbLine
 10
208.524
 20
106.7322
 30
0.0
 11
208.524
 21
106.8409
 31
0.0
  0
LINE
  5
23F
330
1E
100
AcDbEntity
  8
0
100
AcDbLine
 10
208.524
 20
106.7322
 30
0.0
 11
208.801
 21
106.2164
 31
0.0
  0
LINE
  5
240
330
1E
100
AcDbEntity
  8
0
100
AcDbLine
 10
199.476
 20
106.7322
 30
0.0
 11
199.476
 21
106.8409
 31
0.0
  0
LINE
  5
242
330
1E
100
AcDbEntity
  8
0
100
AcDbLine
 10
199.199
 20
106.2164
 30
0.0
 11
199.476
 21
106.7322
 31
0.0
  0
LINE
  5
243
330
1E
100
AcDbEntity
  8
0
100
AcDbLine
 10
199.952
 20
107.0
 30
0.0
 11
208.048
 21
107.0
 31
0.0
  0
LINE
  5
244
330
1E
100
AcDbEntity
  8
0
100
AcDbLine
 10
199.476
 20
106.8409
 30
0.0
 11
199.952
 21
107.0
 31
0.0
  0
LINE
  5
245
330
1E
100
AcDbEntity
  8
0
100
AcDbLine
 10
199.476
 20
106.8409
 30
0.0
 11
199.476
 21
106.7322
 31
0.0
  0
LINE
  5
246
330
1E
100
AcDbEntity
  8
0
100
AcDbLine
 10
199.143
 20
106.3636
 30
0.0
 11
199.476
 21
106.8409
 31
0.0
  0
LINE
  5
248
330
1E
100
AcDbEntity
  8
0
100
AcDbLine
 10
149.0
 20
150.0
 30
0.0
 11
551.0
 21
150.0
 31
0.0
  0
LINE
  5
249
330
1E
100
AcDbEntity
  8
0
100
AcDbLine
 10
149.0
 20
150.0
 30
0.0
 11
149.0
 21
50.0
 31
0.0
  0
LINE
  5
24A
330
1E
100
AcDbEntity
  8
0
100
AcDbLine
 10
0.0
 20
200.0
 30
0.0
 11
700.0
 21
200.0
 31
0.0
  0
LINE
  5
24B
330
1E
100
AcDbEntity
  8
0
100
AcDbLine
 10
0.0
 20
200.0
 30
0.0
 11
0.0
 21
0.0
 31
0.0
  0
LINE
  5
24C
330
1E
100
AcDbEntity
  8
0
100
AcDbLine
 10
0.0
 20
200.0
 30
0.0
 11
149.0
 21
150.0
 31
0.0
  0
LINE
  5
24D
330
1E
100
AcDbEntity
  8
0
100
AcDbLine
 10
208.048
 20
107.0
 30
0.0
 11
208.524
 21
106.8409
 31
0.0
  0
LINE
  5
24E
330
1E
100
AcDbEntity
  8
0
100
AcDbLine
 10
215.0
 20
106.076
 30
0.0
 11
215.0
 21
106.748
 31
0.0
  0
LINE
  5
24F
330
1E
100
AcDbEntity
  8
0
100
AcDbLine
 10
209.0
 20
106.076
 30
0.0
 11
209.0
 21
105.8864
 31
0.0
  0
LINE
  5
250
330
1E
100
AcDbEntity
  8
0
100
AcDbLine
 10
209.0
 20
106.076
 30
0.0
 11
209.0
 21
106.748
 31
0.0
  0
LINE
  5
251
330
1E
100
AcDbEntity
  8
0
100
AcDbLine
 10
209.0
 20
106.076
 30
0.0
 11
209.0
 21
104.956
 31
0.0
  0
LINE
  5
254
330
1E
100
AcDbEntity
  8
0
100
AcDbLine
 10
241.706
 20
106.3416
 30
0.0
 11
243.245
 21
105.6636
 31
0.0
  0
LINE
  5
256
330
1E
100
AcDbEntity
  8
0
100
AcDbLine
 10
238.327
 20
106.3416
 30
0.0
 11
240.114
 21
106.6024
 31
0.0
  0
LINE
  5
259
330
1E
100
AcDbEntity
  8
0
100
AcDbLine
 10
208.801
 20
106.2164
 30
0.0
 11
208.904
 21
105.3696
 31
0.0
  0
LINE
  5
25A
330
1E
100
AcDbEntity
  8
0
100
AcDbLine
 10
209.0
 20
107.0
 30
0.0
 11
209.0
 21
106.748
 31
0.0
  0
LINE
  5
25B
330
1E
100
AcDbEntity
  8
0
100
AcDbLine
 10
209.0
 20
107.0
 30
0.0
 11
215.0
 21
107.0
 31
0.0
  0
LINE
  5
25C
330
1E
100
AcDbEntity
  8
0
100
AcDbLine
 10
215.0
 20
106.372
 30
0.0
 11
215.0
 21
107.812
 31
0.0
  0
LINE
  5
25D
330
1E
100
AcDbEntity
  8
0
100
AcDbLine
 10
215.0
 20
106.372
 30
0.0
 11
215.0
 21
104.464
 31
0.0
  0
LINE
  5
25E
330
1E
100
AcDbEntity
  8
0
100
AcDbLine
 10
215.0
 20
107.0
 30
0.0
 11
215.0
 21
107.812
 31
0.0
  0
LINE
  5
25F
330
1E
100
AcDbEntity
  8
0
100
AcDbLine
 10
215.0
 20
109.0
 30
0.0
 11
215.0
 21
108.676
 31
0.0
  0
LINE
  5
260
330
1E
100
AcDbEntity
  8
0
100
AcDbLine
 10
215.0
 20
109.0
 30
0.0
 11
221.2056
 21
109.0
 31
0.0
  0
LINE
  5
261
330
1E
100
AcDbEntity
  8
0
100
AcDbLine
 10
215.0
 20
108.676
 30
0.0
 11
215.0
 21
107.812
 31
0.0
  0
LINE
  5
262
330
1E
100
AcDbEntity
  8
0
100
AcDbLine
 10
215.0
 20
108.676
 30
0.0
 11
215.0
 21
109.0
 31
0.0
  0
LINE
  5
263
330
1E
100
AcDbEntity
  8
0
100
AcDbLine
 10
215.0
 20
107.812
 30
0.0
 11
215.0
 21
107.0
 31
0.0
  0
LINE
  5
264
330
1E
100
AcDbEntity
  8
0
100
AcDbLine
 10
215.0
 20
107.812
 30
0.0
 11
215.0
 21
108.676
 31
0.0
  0
LINE
  5
265
330
1E
100
AcDbEntity
  8
0
100
AcDbLine
 10
215.0
 20
107.812
 30
0.0
 11
215.0
 21
106.372
 31
0.0
  0
LINE
  5
266
330
1E
100
AcDbEntity
  8
0
100
AcDbLine
 10
215.0
 20
106.748
 30
0.0
 11
215.0
 21
107.0
 31
0.0
  0
LINE
  5
267
330
1E
100
AcDbEntity
  8
0
100
AcDbLine
 10
209.0
 20
106.748
 30
0.0
 11
209.0
 21
106.076
 31
0.0
  0
LINE
  5
268
330
1E
100
AcDbEntity
  8
0
100
AcDbLine
 10
209.0
 20
106.748
 30
0.0
 11
209.0
 21
107.0
 31
0.0
  0
LINE
  5
269
330
1E
100
AcDbEntity
  8
0
100
AcDbLine
 10
225.132
 20
114.868
 30
0.0
 11
229.584
 21
118.228
 31
0.0
  0
LINE
  5
26A
330
1E
100
AcDbEntity
  8
0
100
AcDbLine
 10
221.772
 20
110.416
 30
0.0
 11
225.132
 21
114.868
 31
0.0
  0
LINE
  5
26B
330
1E
100
AcDbEntity
  8
0
100
AcDbLine
 10
225.84
 20
114.16
 30
0.0
 11
230.08
 21
117.36
 31
0.0
  0
LINE
  5
26C
330
1E
100
AcDbEntity
  8
0
100
AcDbLine
 10
222.64
 20
109.92
 30
0.0
 11
225.84
 21
114.16
 31
0.0
  0
LINE
  5
26F
330
1E
100
AcDbEntity
  8
0
100
AcDbLine
 10
240.0
 20
109.0
 30
0.0
 11
240.463
 21
108.9369
 31
0.0
  0
LINE
  5
273
330
1E
100
AcDbEntity
  8
0
100
AcDbLine
 10
239.537
 20
108.9369
 30
0.0
 11
240.0
 21
109.0
 31
0.0
  0
LINE
  5
276
330
1E
100
AcDbEntity
  8
0
100
AcDbLine
 10
239.011
 20
108.6557
 30
0.0
 11
239.537
 21
108.9369
 31
0.0
  0
LINE
  5
278
330
1E
100
AcDbEntity
  8
0
100
AcDbLine
 10
237.824
 20
107.9925
 30
0.0
 11
239.011
 21
108.6557
 31
0.0
  0
LINE
  5
27C
330
1E
100
AcDbEntity
  8
0
100
AcDbLine
 10
235.928
 20
106.9038
 30
0.0
 11
237.824
 21
107.9925
 31
0.0
  0
LINE
  5
281
330
1E
100
AcDbEntity
  8
0
100
AcDbLine
 10
240.114
 20
106.6024
 30
0.0
 11
241.706
 21
106.3416
 31
0.0
  0
LINE
  5
282
330
1E
100
AcDbEntity
  8
0
100
AcDbLine
 10
244.072
 20
106.9038
 30
0.0
 11
245.979
 21
105.8091
 31
0.0
  0
LINE
  5
284
330
1E
100
AcDbEntity
  8
0
100
AcDbLine
 10
242.176
 20
107.9925
 30
0.0
 11
244.072
 21
106.9038
 31
0.0
  0
LINE
  5
286
330
1E
100
AcDbEntity
  8
0
100
AcDbLine
 10
240.989
 20
108.6557
 30
0.0
 11
242.176
 21
107.9925
 31
0.0
  0
LINE
  5
287
330
1E
100
AcDbEntity
  8
0
100
AcDbLine
 10
240.463
 20
108.9369
 30
0.0
 11
240.989
 21
108.6557
 31
0.0
  0
LINE
  5
28C
330
1E
100
AcDbEntity
  8
0
100
AcDbLine
 10
245.456
 20
109.548
 30
0.0
 11
247.788
 21
107.788
 31
0.0
  0
LINE
  5
28D
330
1E
100
AcDbEntity
  8
0
100
AcDbLine
 10
247.788
 20
107.788
 30
0.0
 11
249.548
 21
105.456
 31
0.0
  0
LINE
  5
28E
330
1E
100
AcDbEntity
  8
0
100
AcDbLine
 10
242.816
 20
110.604
 30
0.0
 11
245.456
 21
109.548
 31
0.0
  0
LINE
  5
28F
330
1E
100
AcDbEntity
  8
0
100
AcDbLine
 10
237.184
 20
110.604
 30
0.0
 11
240.0
 21
111.0
 31
0.0
  0
LINE
  5
290
330
1E
100
AcDbEntity
  8
0
100
AcDbLine
 10
234.544
 20
109.548
 30
0.0
 11
237.184
 21
110.604
 31
0.0
  0
LINE
  5
291
330
1E
100
AcDbEntity
  8
0
100
AcDbLine
 10
232.212
 20
107.788
 30
0.0
 11
234.544
 21
109.548
 31
0.0
  0
LINE
  5
292
330
1E
100
AcDbEntity
  8
0
100
AcDbLine
 10
250.62
 20
110.62
 30
0.0
 11
253.02
 21
107.44
 31
0.0
  0
LINE
  5
294
330
1E
100
AcDbEntity
  8
0
100
AcDbLine
 10
265.0
 20
109.0
 30
0.0
 11
265.0
 21
108.676
 31
0.0
  0
LINE
  5
295
330
1E
100
AcDbEntity
  8
0
100
AcDbLine
 10
265.0
 20
108.676
 30
0.0
 11
265.0
 21
109.0
 31
0.0
  0
LINE
  5
296
330
1E
100
AcDbEntity
  8
0
100
AcDbLine
 10
265.0
 20
108.676
 30
0.0
 11
265.0
 21
107.812
 31
0.0
  0
LINE
  5
297
330
1E
100
AcDbEntity
  8
0
100
AcDbLine
 10
265.0
 20
107.812
 30
0.0
 11
265.0
 21
108.676
 31
0.0
  0
LINE
  5
298
330
1E
100
AcDbEntity
  8
0
100
AcDbLine
 10
265.0
 20
107.812
 30
0.0
 11
265.0
 21
106.372
 31
0.0
  0
LINE
  5
29C
330
1E
100
AcDbEntity
  8
0
100
AcDbLine
 10
265.0
 20
106.372
 30
0.0
 11
265.0
 21
107.812
 31
0.0
  0
LINE
  5
29D
330
1E
100
AcDbEntity
  8
0
100
AcDbLine
 10
265.0
 20
106.372
 30
0.0
 11
265.0
 21
104.464
 31
0.0
  0
LINE
  5
29E
330
1E
100
AcDbEntity
  8
0
100
AcDbLine
 10
258.228
 20
110.416
 30
0.0
 11
260.244
 21
105.376
 31
0.0
  0
LINE
  5
29F
330
1E
100
AcDbEntity
  8
0
100
AcDbLine
 10
257.36
 20
109.92
 30
0.0
 11
259.28
 21
105.12
 31
0.0
  0
LINE
  5
2A0
330
1E
100
AcDbEntity
  8
0
100
AcDbLine
 10
258.7944
 20
109.0
 30
0.0
 11
265.0
 21
109.0
 31
0.0
  0
LINE
  5
2A1
330
1E
100
AcDbEntity
  8
0
100
AcDbLine
 10
253.02
 20
107.44
 30
0.0
 11
254.46
 21
103.84
 31
0.0
  0
LINE
  5
2A2
330
1E
100
AcDbEntity
  8
0
100
AcDbLine
 10
229.584
 20
118.228
 30
0.0
 11
234.624
 21
120.244
 31
0.0
  0
LINE
  5
2A3
330
1E
100
AcDbEntity
  8
0
100
AcDbLine
 10
230.08
 20
117.36
 30
0.0
 11
234.88
 21
119.28
 31
0.0
  0
LINE
  5
2A4
330
1E
100
AcDbEntity
  8
0
100
AcDbLine
 10
240.0
 20
111.0
 30
0.0
 11
242.816
 21
110.604
 31
0.0
  0
LINE
  5
2A5
330
1E
100
AcDbEntity
  8
0
100
AcDbLine
 10
243.84
 20
114.46
 30
0.0
 11
247.44
 21
113.02
 31
0.0
  0
LINE
  5
2A6
330
1E
100
AcDbEntity
  8
0
100
AcDbLine
 10
254.16
 20
114.16
 30
0.0
 11
257.36
 21
109.92
 31
0.0
  0
LINE
  5
2A7
330
1E
100
AcDbEntity
  8
0
100
AcDbLine
 10
247.44
 20
113.02
 30
0.0
 11
250.62
 21
110.62
 31
0.0
  0
LINE
  5
2A8
330
1E
100
AcDbEntity
  8
0
100
AcDbLine
 10
240.0
 20
121.0
 30
0.0
 11
245.376
 21
120.244
 31
0.0
  0
LINE
  5
2A9
330
1E
100
AcDbEntity
  8
0
100
AcDbLine
 10
234.624
 20
120.244
 30
0.0
 11
240.0
 21
121.0
 31
0.0
  0
LINE
  5
2AA
330
1E
100
AcDbEntity
  8
0
100
AcDbLine
 10
240.0
 20
120.0
 30
0.0
 11
245.12
 21
119.28
 31
0.0
  0
LINE
  5
2AB
330
1E
100
AcDbEntity
  8
0
100
AcDbLine
 10
234.88
 20
119.28
 30
0.0
 11
240.0
 21
120.0
 31
0.0
  0
LINE
  5
2AC
330
1E
100
AcDbEntity
  8
0
100
AcDbLine
 10
254.868
 20
114.868
 30
0.0
 11
258.228
 21
110.416
 31
0.0
  0
LINE
  5
2AD
330
1E
100
AcDbEntity
  8
0
100
AcDbLine
 10
245.376
 20
120.244
 30
0.0
 11
250.416
 21
118.228
 31
0.0
  0
LINE
  5
2AE
330
1E
100
AcDbEntity
  8
0
100
AcDbLine
 10
250.416
 20
118.228
 30
0.0
 11
254.868
 21
114.868
 31
0.0
  0
LINE
  5
2AF
330
1E
100
AcDbEntity
  8
0
100
AcDbLine
 10
245.12
 20
119.28
 30
0.0
 11
249.92
 21
117.36
 31
0.0
  0
LINE
  5
2B0
330
1E
100
AcDbEntity
  8
0
100
AcDbLine
 10
249.92
 20
117.36
 30
0.0
 11
254.16
 21
114.16
 31
0.0
  0
LINE
  5
2B1
330
1E
100
AcDbEntity
  8
0
100
AcDbLine
 10
240.0
 20
115.0
 30
0.0
 11
243.84
 21
114.46
 31
0.0
  0
LINE
  5
2B2
330
1E
100
AcDbEntity
  8
0
100
AcDbLine
 10
236.16
 20
114.46
 30
0.0
 11
240.0
 21
115.0
 31
0.0
  0
LINE
  5
2B3
330
1E
100
AcDbEntity
  8
0
100
AcDbLine
 10
232.56
 20
113.02
 30
0.0
 11
236.16
 21
114.46
 31
0.0
  0
LINE
  5
2B4
330
1E
100
AcDbEntity
  8
0
100
AcDbLine
 10
229.38
 20
110.62
 30
0.0
 11
232.56
 21
113.02
 31
0.0
  0
LINE
  5
2B5
330
1E
100
AcDbEntity
  8
0
100
AcDbLine
 10
226.98
 20
107.44
 30
0.0
 11
229.38
 21
110.62
 31
0.0
  0
LINE
  5
2B6
330
1E
100
AcDbEntity
  8
0
100
AcDbLine
 10
208.857
 20
106.3636
 30
0.0
 11
209.0
 21
105.8864
 31
0.0
  0
LINE
  5
2B7
330
1E
100
AcDbEntity
  8
0
100
AcDbLine
 10
208.524
 20
106.8409
 30
0.0
 11
208.857
 21
106.3636
 31
0.0
  0
LINE
  5
2B8
330
1E
100
AcDbEntity
  8
0
100
AcDbLine
 10
208.524
 20
106.8409
 30
0.0
 11
208.524
 21
106.7322
 31
0.0
  0
LINE
  5
333
330
1E
100
AcDbEntity
  8
0
100
AcDbLine
 10
312.257
 20
75.7601
 30
0.0
 11
313.252
 21
78.2481
 31
0.0
  0
LINE
  5
334
330
1E
100
AcDbEntity
  8
0
100
AcDbLine
 10
311.963
 20
72.9773
 30
0.0
 11
312.452
 21
70.1675
 31
0.0
  0
LINE
  5
335
330
1E
100
AcDbEntity
  8
0
100
AcDbLine
 10
311.963
 20
72.9773
 30
0.0
 11
312.257
 21
75.7601
 31
0.0
  0
LINE
  5
336
330
1E
100
AcDbEntity
  8
0
100
AcDbLine
 10
315.115
 20
77.9302
 30
0.0
 11
315.388588317107
 21
80.565794923499
 31
0.0
  0
LINE
  5
337
330
1E
100
AcDbEntity
  8
0
100
AcDbLine
 10
315.115
 20
77.9302
 30
0.0
 11
315.388588317107
 21
80.565794923499
 31
0.0
  0
LINE
  5
338
330
1E
100
AcDbEntity
  8
0
100
AcDbLine
 10
315.115
 20
77.9302
 30
0.0
 11
315.671
 21
74.7009
 31
0.0
  0
LINE
  5
339
330
1E
100
AcDbEntity
  8
0
100
AcDbLine
 10
314.829
 20
80.3856
 30
0.0
 11
315.431450539082
 21
80.987987809954
 31
0.0
  0
LINE
  5
33A
330
1E
100
AcDbEntity
  8
0
100
AcDbLine
 10
313.252
 20
78.2481
 30
0.0
 11
314.829
 21
80.3856
 31
0.0
  0
LINE
  5
33B
330
1E
100
AcDbEntity
  8
0
100
AcDbLine
 10
312.452
 20
70.1675
 30
0.0
 11
313.622
 21
67.6042
 31
0.0
  0
LINE
  5
33C
330
1E
100
AcDbEntity
  8
0
100
AcDbLine
 10
313.622
 20
67.6042
 30
0.0
 11
315.352
 21
65.3518
 31
0.0
  0
LINE
  5
33D
330
1E
100
AcDbEntity
  8
0
100
AcDbLine
 10
315.671
 20
74.7009
 30
0.0
 11
317.028
 21
71.6787
 31
0.0
  0
LINE
  5
33E
330
1E
100
AcDbEntity
  8
0
100
AcDbLine
 10
319.051
 20
69.0509
 30
0.0
 11
321.679
 21
67.0285
 31
0.0
  0
LINE
  5
33F
330
1E
100
AcDbEntity
  8
0
100
AcDbLine
 10
317.028
 20
71.6787
 30
0.0
 11
319.051
 21
69.0509
 31
0.0
  0
LINE
  5
340
330
1E
100
AcDbEntity
  8
0
100
AcDbLine
 10
317.604
 20
63.6218
 30
0.0
 11
320.168
 21
62.4516
 31
0.0
  0
LINE
  5
341
330
1E
100
AcDbEntity
  8
0
100
AcDbLine
 10
315.352
 20
65.3518
 30
0.0
 11
317.604
 21
63.6218
 31
0.0
  0
LINE
  5
342
330
1E
100
AcDbEntity
  8
0
100
AcDbLine
 10
315.47
 20
81.3677
 30
0.0
 11
316.619
 21
84.3551
 31
0.0
  0
LINE
  5
343
330
1E
100
AcDbEntity
  8
0
100
AcDbLine
 10
316.619
 20
84.3551
 30
0.0
 11
318.489
 21
86.8736
 31
0.0
  0
LINE
  5
344
330
1E
100
AcDbEntity
  8
0
100
AcDbLine
 10
318.489
 20
86.8736
 30
0.0
 11
321.108896103965
 21
89.493459193623
 31
0.0
  0
LINE
  5
345
330
1E
100
AcDbEntity
  8
0
100
AcDbLine
 10
318.489
 20
86.8736
 30
0.0
 11
321.108896103965
 21
89.493459193623
 31
0.0
  0
LINE
  5
346
330
1E
100
AcDbEntity
  8
0
100
AcDbLine
 10
319.894
 20
80.9081
 30
0.0
 11
320.299
 21
78.0146
 31
0.0
  0
LINE
  5
347
330
1E
100
AcDbEntity
  8
0
100
AcDbLine
 10
319.894
 20
80.9081
 30
0.0
 11
320.299
 21
83.8016
 31
0.0
  0
LINE
  5
348
330
1E
100
AcDbEntity
  8
0
100
AcDbLine
 10
322.977
 20
61.9635
 30
0.0
 11
325.76
 21
62.2572
 31
0.0
  0
LINE
  5
349
330
1E
100
AcDbEntity
  8
0
100
AcDbLine
 10
321.679
 20
67.0285
 30
0.0
 11
324.701
 21
65.6707
 31
0.0
  0
LINE
  5
34A
330
1E
100
AcDbEntity
  8
0
100
AcDbLine
 10
320.168
 20
62.4516
 30
0.0
 11
322.977
 21
61.9635
 31
0.0
  0
LINE
  5
34B
330
1E
100
AcDbEntity
  8
0
100
AcDbLine
 10
323.13
 20
73.1299
 30
0.0
 11
325.401
 21
71.4187
 31
0.0
  0
LINE
  5
34C
330
1E
100
AcDbEntity
  8
0
100
AcDbLine
 10
321.419
 20
75.4012
 30
0.0
 11
323.13
 21
73.1299
 31
0.0
  0
LINE
  5
34D
330
1E
100
AcDbEntity
  8
0
100
AcDbLine
 10
322.679
 20
75.8353
 30
0.0
 11
323.137
 21
74.7662
 31
0.0
  0
LINE
  5
34E
330
1E
100
AcDbEntity
  8
0
100
AcDbLine
 10
323.137
 20
74.7662
 30
0.0
 11
323.837
 21
73.8371
 31
0.0
  0
LINE
  5
34F
330
1E
100
AcDbEntity
  8
0
100
AcDbLine
 10
324.701
 20
65.6707
 30
0.0
 11
327.93
 21
65.1149
 31
0.0
  0
LINE
  5
350
330
1E
100
AcDbEntity
  8
0
100
AcDbLine
 10
325.76
 20
62.2572
 30
0.0
 11
328.248
 21
63.2518
 31
0.0
  0
LINE
  5
351
330
1E
100
AcDbEntity
  8
0
100
AcDbLine
 10
325.401
 20
71.4187
 30
0.0
 11
328.015
 21
70.2987
 31
0.0
  0
LINE
  5
352
330
1E
100
AcDbEntity
  8
0
100
AcDbLine
 10
327.93
 20
65.1149
 30
0.0
 11
330.454979464389
 21
65.377425225738
 31
0.0
  0
LINE
  5
353
330
1E
100
AcDbEntity
  8
0
100
AcDbLine
 10
328.015
 20
70.2987
 30
0.0
 11
330.908
 21
69.8942
 31
0.0
  0
LINE
  5
354
330
1E
100
AcDbEntity
  8
0
100
AcDbLine
 10
327.019
 20
72.5134
 30
0.0
 11
328.203
 21
72.6788
 31
0.0
  0
LINE
  5
355
330
1E
100
AcDbEntity
  8
0
100
AcDbLine
 10
325.835
 20
72.6788
 30
0.0
 11
327.019
 21
72.5134
 31
0.0
  0
LINE
  5
356
330
1E
100
AcDbEntity
  8
0
100
AcDbLine
 10
324.766
 20
73.137
 30
0.0
 11
325.835
 21
72.6788
 31
0.0
  0
LINE
  5
357
330
1E
100
AcDbEntity
  8
0
100
AcDbLine
 10
323.837
 20
73.8371
 30
0.0
 11
324.766
 21
73.137
 31
0.0
  0
LINE
  5
358
330
1E
100
AcDbEntity
  8
0
100
AcDbLine
 10
320.299
 20
78.0146
 30
0.0
 11
321.419
 21
75.4012
 31
0.0
  0
LINE
  5
359
330
1E
100
AcDbEntity
  8
0
100
AcDbLine
 10
323.137
 20
79.2719
 30
0.0
 11
323.837
 21
80.201
 31
0.0
  0
LINE
  5
35A
330
1E
100
AcDbEntity
  8
0
100
AcDbLine
 10
322.679
 20
78.2027
 30
0.0
 11
323.137
 21
79.2719
 31
0.0
  0
LINE
  5
35B
330
1E
100
AcDbEntity
  8
0
100
AcDbLine
 10
322.513
 20
77.019
 30
0.0
 11
322.679
 21
75.8353
 31
0.0
  0
LINE
  5
35C
330
1E
100
AcDbEntity
  8
0
100
AcDbLine
 10
322.513
 20
77.019
 30
0.0
 11
322.679
 21
78.2027
 31
0.0
  0
LINE
  5
35D
330
1E
100
AcDbEntity
  8
0
100
AcDbLine
 10
320.299
 20
83.8016
 30
0.0
 11
321.419
 21
86.4151
 31
0.0
  0
LINE
  5
35E
330
1E
100
AcDbEntity
  8
0
100
AcDbLine
 10
323.837
 20
80.201
 30
0.0
 11
324.766
 21
80.901
 31
0.0
  0
LINE
  5
35F
330
1E
100
AcDbEntity
  8
0
100
AcDbLine
 10
324.766
 20
80.901
 30
0.0
 11
325.664018732638
 21
81.285997179764
 31
0.0
  0
LINE
  5
360
330
1E
100
AcDbEntity
  8
0
100
AcDbLine
 10
328.248
 20
63.2518
 30
0.0
 11
330.386
 21
64.8292
 31
0.0
  0
LINE
  5
361
330
1E
100
AcDbEntity
  8
0
100
AcDbLine
 10
329.272
 20
73.137
 30
0.0
 11
330.201
 21
73.8371
 31
0.0
  0
LINE
  5
362
330
1E
100
AcDbEntity
  8
0
100
AcDbLine
 10
328.203
 20
72.6788
 30
0.0
 11
329.272
 21
73.137
 31
0.0
  0
LINE
  5
363
330
1E
100
AcDbEntity
  8
0
100
AcDbLine
 10
328.08
 20
78.0797
 30
0.0
 11
334.48
 21
73.2572
 31
0.0
  0
LINE
  5
364
330
1E
100
AcDbEntity
  8
0
100
AcDbLine
 10
321.419
 20
86.4151
 30
0.0
 11
321.802075853737
 21
87.875776211045
 31
0.0
  0
LINE
  5
365
330
1E
100
AcDbEntity
  8
0
100
AcDbLine
 10
323.257
 20
84.4804
 30
0.0
 11
328.08
 21
78.0797
 31
0.0
  0
LINE
  5
366
330
1E
100
AcDbEntity
  8
0
100
AcDbLine
 10
320.101
 20
91.8456
 30
0.0
 11
323.257
 21
84.4804
 31
0.0
  0
LINE
  5
367
330
1E
100
AcDbEntity
  8
0
100
AcDbLine
 10
318.961
 20
100.0
 30
0.0
 11
320.101
 21
108.1544
 31
0.0
  0
LINE
  5
368
330
1E
100
AcDbEntity
  8
0
100
AcDbLine
 10
318.961
 20
100.0
 30
0.0
 11
320.101
 21
91.8456
 31
0.0
  0
LINE
  5
369
330
1E
100
AcDbEntity
  8
0
100
AcDbLine
 10
331.368
 20
65.4703
 30
0.0
 11
334.355
 21
66.6191
 31
0.0
  0
LINE
  5
36A
330
1E
100
AcDbEntity
  8
0
100
AcDbLine
 10
330.386
 20
64.8292
 30
0.0
 11
330.987712991534
 21
65.430988189992
 31
0.0
  0
LINE
  5
36B
330
1E
100
AcDbEntity
  8
0
100
AcDbLine
 10
330.908
 20
69.8942
 30
0.0
 11
333.802
 21
70.2987
 31
0.0
  0
LINE
  5
36C
330
1E
100
AcDbEntity
  8
0
100
AcDbLine
 10
330.201
 20
73.8371
 30
0.0
 11
330.901
 21
74.7662
 31
0.0
  0
LINE
  5
36D
330
1E
100
AcDbEntity
  8
0
100
AcDbLine
 10
330.901
 20
74.7662
 30
0.0
 11
331.285686283587
 21
75.664165296469
 31
0.0
  0
LINE
  5
36E
330
1E
100
AcDbEntity
  8
0
100
AcDbLine
 10
336.874
 20
68.4888
 30
0.0
 11
339.493746814829
 21
71.108694458185
 31
0.0
  0
LINE
  5
36F
330
1E
100
AcDbEntity
  8
0
100
AcDbLine
 10
334.355
 20
66.6191
 30
0.0
 11
336.874
 21
68.4888
 31
0.0
  0
LINE
  5
370
330
1E
100
AcDbEntity
  8
0
100
AcDbLine
 10
336.415
 20
71.4187
 30
0.0
 11
337.875789445732
 21
71.802026312048
 31
0.0
  0
LINE
  5
371
330
1E
100
AcDbEntity
  8
0
100
AcDbLine
 10
333.802
 20
70.2987
 30
0.0
 11
336.415
 21
71.4187
 31
0.0
  0
LINE
  5
372
330
1E
100
AcDbEntity
  8
0
100
AcDbLine
 10
334.48
 20
73.2572
 30
0.0
 11
341.846
 21
70.1007
 31
0.0
  0
LINE
  5
373
330
1E
100
AcDbEntity
  8
0
100
AcDbLine
 10
341.846
 20
70.1007
 30
0.0
 11
350.0
 21
68.9608
 31
0.0
  0
LINE
  5
374
330
1E
100
AcDbEntity
  8
0
100
AcDbLine
 10
335.858
 20
85.8579
 30
0.0
 11
339.987
 21
82.7466
 31
0.0
  0
LINE
  5
375
330
1E
100
AcDbEntity
  8
0
100
AcDbLine
 10
339.987
 20
82.7466
 30
0.0
 11
344.739
 21
80.7101
 31
0.0
  0
LINE
  5
376
330
1E
100
AcDbEntity
  8
0
100
AcDbLine
 10
332.747
 20
89.9874
 30
0.0
 11
335.858
 21
85.8579
 31
0.0
  0
LINE
  5
377
330
1E
100
AcDbEntity
  8
0
100
AcDbLine
 10
330.71
 20
94.7391
 30
0.0
 11
332.747
 21
89.9874
 31
0.0
  0
LINE
  5
378
330
1E
100
AcDbEntity
  8
0
100
AcDbLine
 10
329.975
 20
100.0
 30
0.0
 11
330.71
 21
105.2609
 31
0.0
  0
LINE
  5
379
330
1E
100
AcDbEntity
  8
0
100
AcDbLine
 10
329.975
 20
100.0
 30
0.0
 11
330.71
 21
94.7391
 31
0.0
  0
LINE
  5
37D
330
1E
100
AcDbEntity
  8
0
100
AcDbLine
 10
344.366
 20
98.4726
 30
0.0
 11
344.943
 21
97.0811
 31
0.0
  0
LINE
  5
37E
330
1E
100
AcDbEntity
  8
0
100
AcDbLine
 10
344.162
 20
100.0
 30
0.0
 11
344.366
 21
101.5274
 31
0.0
  0
LINE
  5
37F
330
1E
100
AcDbEntity
  8
0
100
AcDbLine
 10
344.162
 20
100.0
 30
0.0
 11
344.366
 21
98.4726
 31
0.0
  0
LINE
  5
382
330
1E
100
AcDbEntity
  8
0
100
AcDbLine
 10
344.739
 20
80.7101
 30
0.0
 11
350.0
 21
79.9747
 31
0.0
  0
LINE
  5
383
330
1E
100
AcDbEntity
  8
0
100
AcDbLine
 10
350.0
 20
68.9608
 30
0.0
 11
358.154
 21
70.1007
 31
0.0
  0
LINE
  5
384
330
1E
100
AcDbEntity
  8
0
100
AcDbLine
 10
350.0
 20
79.9747
 30
0.0
 11
355.261
 21
80.7101
 31
0.0
  0
LINE
  5
385
330
1E
100
AcDbEntity
  8
0
100
AcDbLine
 10
350.0
 20
94.1621
 30
0.0
 11
351.527
 21
94.3658
 31
0.0
  0
LINE
  5
386
330
1E
100
AcDbEntity
  8
0
100
AcDbLine
 10
348.473
 20
94.3658
 30
0.0
 11
350.0
 21
94.1621
 31
0.0
  0
LINE
  5
389
330
1E
100
AcDbEntity
  8
0
100
AcDbLine
 10
358.154
 20
70.1007
 30
0.0
 11
365.52
 21
73.2572
 31
0.0
  0
LINE
  5
38A
330
1E
100
AcDbEntity
  8
0
100
AcDbLine
 10
355.261
 20
80.7101
 30
0.0
 11
360.013
 21
82.7466
 31
0.0
  0
LINE
  5
38B
330
1E
100
AcDbEntity
  8
0
100
AcDbLine
 10
360.013
 20
82.7466
 30
0.0
 11
364.142
 21
85.8579
 31
0.0
  0
LINE
  5
38C
330
1E
100
AcDbEntity
  8
0
100
AcDbLine
 10
365.52
 20
73.2572
 30
0.0
 11
371.92
 21
78.0797
 31
0.0
  0
LINE
  5
38D
330
1E
100
AcDbEntity
  8
0
100
AcDbLine
 10
371.92
 20
78.0797
 30
0.0
 11
376.743
 21
84.4804
 31
0.0
  0
LINE
  5
38E
330
1E
100
AcDbEntity
  8
0
100
AcDbLine
 10
453.344
 20
74.936
 30
0.0
 11
460.0
 21
74.0
 31
0.0
  0
LINE
  5
38F
330
1E
100
AcDbEntity
  8
0
100
AcDbLine
 10
460.0
 20
74.0
 30
0.0
 11
466.656
 21
74.936
 31
0.0
  0
LINE
  5
390
330
1E
100
AcDbEntity
  8
0
100
AcDbLine
 10
447.104
 20
77.432
 30
0.0
 11
453.344
 21
74.936
 31
0.0
  0
LINE
  5
391
330
1E
100
AcDbEntity
  8
0
100
AcDbLine
 10
453.6
 20
75.9
 30
0.0
 11
460.0
 21
75.0
 31
0.0
  0
LINE
  5
392
330
1E
100
AcDbEntity
  8
0
100
AcDbLine
 10
447.6
 20
78.3
 30
0.0
 11
453.6
 21
75.9
 31
0.0
  0
LINE
  5
393
330
1E
100
AcDbEntity
  8
0
100
AcDbLine
 10
460.0
 20
75.0
 30
0.0
 11
466.4
 21
75.9
 31
0.0
  0
LINE
  5
394
330
1E
100
AcDbEntity
  8
0
100
AcDbLine
 10
466.656
 20
74.936
 30
0.0
 11
472.896
 21
77.432
 31
0.0
  0
LINE
  5
395
330
1E
100
AcDbEntity
  8
0
100
AcDbLine
 10
472.896
 20
77.432
 30
0.0
 11
478.408
 21
81.592
 31
0.0
  0
LINE
  5
396
330
1E
100
AcDbEntity
  8
0
100
AcDbLine
 10
466.4
 20
75.9
 30
0.0
 11
472.4
 21
78.3
 31
0.0
  0
LINE
  5
397
330
1E
100
AcDbEntity
  8
0
100
AcDbLine
 10
437.432
 20
87.104
 30
0.0
 11
441.592
 21
81.592
 31
0.0
  0
LINE
  5
398
330
1E
100
AcDbEntity
  8
0
100
AcDbLine
 10
441.592
 20
81.592
 30
0.0
 11
447.104
 21
77.432
 31
0.0
  0
LINE
  5
399
330
1E
100
AcDbEntity
  8
0
100
AcDbLine
 10
442.3
 20
82.3
 30
0.0
 11
447.6
 21
78.3
 31
0.0
  0
LINE
  5
39A
330
1E
100
AcDbEntity
  8
0
100
AcDbLine
 10
438.3
 20
87.6
 30
0.0
 11
442.3
 21
82.3
 31
0.0
  0
LINE
  5
39B
330
1E
100
AcDbEntity
  8
0
100
AcDbLine
 10
472.4
 20
78.3
 30
0.0
 11
477.7
 21
82.3
 31
0.0
  0
LINE
  5
39C
330
1E
100
AcDbEntity
  8
0
100
AcDbLine
 10
700.0
 20
0.0
 30
0.0
 11
700.0
 21
200.0
 31
0.0
  0
LINE
  5
39D
330
1E
100
AcDbEntity
  8
0
100
AcDbLine
 10
478.408
 20
81.592
 30
0.0
 11
482.568
 21
87.104
 31
0.0
  0
LINE
  5
39E
330
1E
100
AcDbEntity
  8
0
100
AcDbLine
 10
482.568
 20
87.104
 30
0.0
 11
485.064
 21
93.344
 31
0.0
  0
LINE
  5
39F
330
1E
100
AcDbEntity
  8
0
100
AcDbLine
 10
551.0
 20
50.0
 30
0.0
 11
551.0
 21
150.0
 31
0.0
  0
LINE
  5
3A0
330
1E
100
AcDbEntity
  8
0
100
AcDbLine
 10
551.0
 20
50.0
 30
0.0
 11
700.0
 21
0.0
 31
0.0
  0
LINE
  5
3A1
330
1E
100
AcDbEntity
  8
0
100
AcDbLine
 10
551.0
 20
50.0
 30
0.0
 11
700.0
 21
0.0
 31
0.0
  0
LINE
  5
3A2
330
1E
100
AcDbEntity
  8
0
100
AcDbLine
 10
477.7
 20
82.3
 30
0.0
 11
481.7
 21
87.6
 31
0.0
  0
LINE
  5
3A3
330
1E
100
AcDbEntity
  8
0
100
AcDbLine
 10
481.7
 20
87.6
 30
0.0
 11
484.1
 21
93.6
 31
0.0
  0
LINE
  5
3A4
330
1E
100
AcDbEntity
  8
0
100
AcDbLine
 10
376.743
 20
84.4804
 30
0.0
 11
379.899
 21
91.8456
 31
0.0
  0
LINE
  5
3A5
330
1E
100
AcDbEntity
  8
0
100
AcDbLine
 10
434.936
 20
93.344
 30
0.0
 11
437.432
 21
87.104
 31
0.0
  0
LINE
  5
3A6
330
1E
100
AcDbEntity
  8
0
100
AcDbLine
 10
485.064
 20
93.344
 30
0.0
 11
486.0
 21
100.0
 31
0.0
  0
LINE
  5
3A7
330
1E
100
AcDbEntity
  8
0
100
AcDbLine
 10
435.9
 20
93.6
 30
0.0
 11
438.3
 21
87.6
 31
0.0
  0
LINE
  5
3A8
330
1E
100
AcDbEntity
  8
0
100
AcDbLine
 10
484.1
 20
93.6
 30
0.0
 11
485.0
 21
100.0
 31
0.0
  0
LINE
  5
3A9
330
1E
100
AcDbEntity
  8
0
100
AcDbLine
 10
379.899
 20
91.8456
 30
0.0
 11
381.039
 21
100.0
 31
0.0
  0
LINE
  5
3AA
330
1E
100
AcDbEntity
  8
0
100
AcDbLine
 10
367.253
 20
89.9874
 30
0.0
 11
369.29
 21
94.7391
 31
0.0
  0
LINE
  5
3AB
330
1E
100
AcDbEntity
  8
0
100
AcDbLine
 10
364.142
 20
85.8579
 30
0.0
 11
367.253
 21
89.9874
 31
0.0
  0
LINE
  5
3AC
330
1E
100
AcDbEntity
  8
0
100
AcDbLine
 10
369.29
 20
94.7391
 30
0.0
 11
370.025
 21
100.0
 31
0.0
  0
LINE
  5
3AD
330
1E
100
AcDbEntity
  8
0
100
AcDbLine
 10
351.527
 20
94.3658
 30
0.0
 11
352.919
 21
94.9428
 31
0.0
  0
LINE
  5
3AF
330
1E
100
AcDbEntity
  8
0
100
AcDbLine
 10
347.081
 20
94.9428
 30
0.0
 11
348.473
 21
94.3658
 31
0.0
  0
LINE
  5
3B0
330
1E
100
AcDbEntity
  8
0
100
AcDbLine
 10
352.919
 20
94.9428
 30
0.0
 11
354.141
 21
95.8592
 31
0.0
  0
LINE
  5
3B1
330
1E
100
AcDbEntity
  8
0
100
AcDbLine
 10
345.859
 20
95.8592
 30
0.0
 11
347.081
 21
94.9428
 31
0.0
  0
LINE
  5
3B2
330
1E
100
AcDbEntity
  8
0
100
AcDbLine
 10
355.057
 20
97.0811
 30
0.0
 11
355.634
 21
98.4726
 31
0.0
  0
LINE
  5
3B3
330
1E
100
AcDbEntity
  8
0
100
AcDbLine
 10
354.141
 20
95.8592
 30
0.0
 11
355.057
 21
97.0811
 31
0.0
  0
LINE
  5
3B7
330
1E
100
AcDbEntity
  8
0
100
AcDbLine
 10
355.634
 20
101.5274
 30
0.0
 11
355.838
 21
100.0
 31
0.0
  0
LINE
  5
3B8
330
1E
100
AcDbEntity
  8
0
100
AcDbLine
 10
355.634
 20
98.4726
 30
0.0
 11
355.838
 21
100.0
 31
0.0
  0
LINE
  5
3B9
330
1E
100
AcDbEntity
  8
0
100
AcDbLine
 10
434.0
 20
100.0
 30
0.0
 11
434.936
 21
106.656
 31
0.0
  0
LINE
  5
3BA
330
1E
100
AcDbEntity
  8
0
100
AcDbLine
 10
434.0
 20
100.0
 30
0.0
 11
434.936
 21
93.344
 31
0.0
  0
LINE
  5
3BB
330
1E
100
AcDbEntity
  8
0
100
AcDbLine
 10
435.0
 20
100.0
 30
0.0
 11
435.9
 21
106.4
 31
0.0
  0
LINE
  5
3BC
330
1E
100
AcDbEntity
  8
0
100
AcDbLine
 10
435.0
 20
100.0
 30
0.0
 11
435.9
 21
93.6
 31
0.0
  0
LINE
  5
3BE
330
1E
100
AcDbEntity
  8
0
100
AcDbLine
 10
344.943
 20
97.0811
 30
0.0
 11
345.859
 21
95.8592
 31
0.0
  0
LINE
  5
3BF
330
1E
100
AcDbEntity
  8
0
100
AcDbLine
 10
344.366
 20
101.5274
 30
0.0
 11
344.943
 21
102.9189
 31
0.0
  0
LINE
  5
3C2
330
1E
100
AcDbEntity
  8
0
100
AcDbLine
 10
344.943
 20
102.9189
 30
0.0
 11
345.859
 21
104.1408
 31
0.0
  0
LINE
  5
3C3
330
1E
100
AcDbEntity
  8
0
100
AcDbLine
 10
330.71
 20
105.2609
 30
0.0
 11
332.747
 21
110.0126
 31
0.0
  0
LINE
  5
3C5
330
1E
100
AcDbEntity
  8
0
100
AcDbLine
 10
355.057
 20
102.9189
 30
0.0
 11
355.634
 21
101.5274
 31
0.0
  0
LINE
  5
3C6
330
1E
100
AcDbEntity
  8
0
100
AcDbLine
 10
354.141
 20
104.1408
 30
0.0
 11
355.057
 21
102.9189
 31
0.0
  0
LINE
  5
3C9
330
1E
100
AcDbEntity
  8
0
100
AcDbLine
 10
352.919
 20
105.0572
 30
0.0
 11
354.141
 21
104.1408
 31
0.0
  0
LINE
  5
3CA
330
1E
100
AcDbEntity
  8
0
100
AcDbLine
 10
369.29
 20
105.2609
 30
0.0
 11
370.025
 21
100.0
 31
0.0
  0
LINE
  5
3CC
330
1E
100
AcDbEntity
  8
0
100
AcDbLine
 10
351.527
 20
105.6342
 30
0.0
 11
352.919
 21
105.0572
 31
0.0
  0
LINE
  5
3CE
330
1E
100
AcDbEntity
  8
0
100
AcDbLine
 10
350.0
 20
105.8379
 30
0.0
 11
351.527
 21
105.6342
 31
0.0
  0
LINE
  5
3D0
330
1E
100
AcDbEntity
  8
0
100
AcDbLine
 10
348.473
 20
105.6342
 30
0.0
 11
350.0
 21
105.8379
 31
0.0
  0
LINE
  5
3D2
330
1E
100
AcDbEntity
  8
0
100
AcDbLine
 10
347.081
 20
105.0572
 30
0.0
 11
348.473
 21
105.6342
 31
0.0
  0
LINE
  5
3D3
330
1E
100
AcDbEntity
  8
0
100
AcDbLine
 10
345.859
 20
104.1408
 30
0.0
 11
347.081
 21
105.0572
 31
0.0
  0
LINE
  5
3D6
330
1E
100
AcDbEntity
  8
0
100
AcDbLine
 10
320.101
 20
108.1544
 30
0.0
 11
323.257
 21
115.52
 31
0.0
  0
LINE
  5
3D7
330
1E
100
AcDbEntity
  8
0
100
AcDbLine
 10
332.747
 20
110.0126
 30
0.0
 11
335.858
 21
114.1421
 31
0.0
  0
LINE
  5
3D8
330
1E
100
AcDbEntity
  8
0
100
AcDbLine
 10
323.257
 20
115.52
 30
0.0
 11
328.08
 21
121.92
 31
0.0
  0
LINE
  5
3D9
330
1E
100
AcDbEntity
  8
0
100
AcDbLine
 10
334.48
 20
126.743
 30
0.0
 11
341.846
 21
129.899
 31
0.0
  0
LINE
  5
3DA
330
1E
100
AcDbEntity
  8
0
100
AcDbLine
 10
328.08
 20
121.92
 30
0.0
 11
334.48
 21
126.743
 31
0.0
  0
LINE
  5
3DB
330
1E
100
AcDbEntity
  8
0
100
AcDbLine
 10
350.0
 20
131.039
 30
0.0
 11
358.154
 21
129.899
 31
0.0
  0
LINE
  5
3DC
330
1E
100
AcDbEntity
  8
0
100
AcDbLine
 10
341.846
 20
129.899
 30
0.0
 11
350.0
 21
131.039
 31
0.0
  0
LINE
  5
3DD
330
1E
100
AcDbEntity
  8
0
100
AcDbLine
 10
350.0
 20
120.025
 30
0.0
 11
355.261
 21
119.29
 31
0.0
  0
LINE
  5
3DE
330
1E
100
AcDbEntity
  8
0
100
AcDbLine
 10
344.739
 20
119.29
 30
0.0
 11
350.0
 21
120.025
 31
0.0
  0
LINE
  5
3DF
330
1E
100
AcDbEntity
  8
0
100
AcDbLine
 10
339.987
 20
117.253
 30
0.0
 11
344.739
 21
119.29
 31
0.0
  0
LINE
  5
3E0
330
1E
100
AcDbEntity
  8
0
100
AcDbLine
 10
335.858
 20
114.1421
 30
0.0
 11
339.987
 21
117.253
 31
0.0
  0
LINE
  5
3E1
330
1E
100
AcDbEntity
  8
0
100
AcDbLine
 10
484.1
 20
106.4
 30
0.0
 11
485.0
 21
100.0
 31
0.0
  0
LINE
  5
3E2
330
1E
100
AcDbEntity
  8
0
100
AcDbLine
 10
485.064
 20
106.656
 30
0.0
 11
486.0
 21
100.0
 31
0.0
  0
LINE
  5
3E3
330
1E
100
AcDbEntity
  8
0
100
AcDbLine
 10
434.936
 20
106.656
 30
0.0
 11
437.432
 21
112.896
 31
0.0
  0
LINE
  5
3E4
330
1E
100
AcDbEntity
  8
0
100
AcDbLine
 10
435.9
 20
106.4
 30
0.0
 11
438.3
 21
112.4
 31
0.0
  0
LINE
  5
3E5
330
1E
100
AcDbEntity
  8
0
100
AcDbLine
 10
380.043
 20
108.2626
 30
0.0
 11
380.134
 21
106.5248
 31
0.0
  0
LINE
  5
3E6
330
1E
100
AcDbEntity
  8
0
100
AcDbLine
 10
379.899
 20
108.1544
 30
0.0
 11
381.039
 21
100.0
 31
0.0
  0
LINE
  5
3E7
330
1E
100
AcDbEntity
  8
0
100
AcDbLine
 10
378.197959220907
 20
112.124357529304
 30
0.0
 11
378.581
 21
113.5849
 31
0.0
  0
LINE
  5
3E8
330
1E
100
AcDbEntity
  8
0
100
AcDbLine
 10
379.648
 20
110.0187
 30
0.0
 11
380.043
 21
108.2626
 31
0.0
  0
LINE
  5
3E9
330
1E
100
AcDbEntity
  8
0
100
AcDbLine
 10
379.270299220328
 20
110.885730788386
 30
0.0
 11
379.648
 21
110.0187
 31
0.0
  0
LINE
  5
3EA
330
1E
100
AcDbEntity
  8
0
100
AcDbLine
 10
481.7
 20
112.4
 30
0.0
 11
484.1
 21
106.4
 31
0.0
  0
LINE
  5
3EB
330
1E
100
AcDbEntity
  8
0
100
AcDbLine
 10
482.568
 20
112.896
 30
0.0
 11
485.064
 21
106.656
 31
0.0
  0
LINE
  5
3EC
330
1E
100
AcDbEntity
  8
0
100
AcDbLine
 10
437.432
 20
112.896
 30
0.0
 11
441.592
 21
118.408
 31
0.0
  0
LINE
  5
3ED
330
1E
100
AcDbEntity
  8
0
100
AcDbLine
 10
438.3
 20
112.4
 30
0.0
 11
442.3
 21
117.7
 31
0.0
  0
LINE
  5
3EE
330
1E
100
AcDbEntity
  8
0
100
AcDbLine
 10
381.511
 20
113.1264
 30
0.0
 11
383.381
 21
115.645
 31
0.0
  0
LINE
  5
3EF
330
1E
100
AcDbEntity
  8
0
100
AcDbLine
 10
378.891142213415
 20
110.506579123217
 30
0.0
 11
381.511
 21
113.1264
 31
0.0
  0
LINE
  5
3F0
330
1E
100
AcDbEntity
  8
0
100
AcDbLine
 10
378.581
 20
113.5849
 30
0.0
 11
379.701
 21
116.198
 31
0.0
  0
LINE
  5
3F1
330
1E
100
AcDbEntity
  8
0
100
AcDbLine
 10
441.592
 20
118.408
 30
0.0
 11
447.104
 21
122.568
 31
0.0
  0
LINE
  5
3F2
330
1E
100
AcDbEntity
  8
0
100
AcDbLine
 10
478.408
 20
118.408
 30
0.0
 11
482.568
 21
112.896
 31
0.0
  0
LINE
  5
3F3
330
1E
100
AcDbEntity
  8
0
100
AcDbLine
 10
477.7
 20
117.7
 30
0.0
 11
481.7
 21
112.4
 31
0.0
  0
LINE
  5
3F4
330
1E
100
AcDbEntity
  8
0
100
AcDbLine
 10
442.3
 20
117.7
 30
0.0
 11
447.6
 21
121.7
 31
0.0
  0
LINE
  5
3F5
330
1E
100
AcDbEntity
  8
0
100
AcDbLine
 10
383.381
 20
115.645
 30
0.0
 11
384.53
 21
118.632
 31
0.0
  0
LINE
  5
3F6
330
1E
100
AcDbEntity
  8
0
100
AcDbLine
 10
384.56853723446
 20
119.011650149181
 30
0.0
 11
385.171
 21
119.614
 31
0.0
  0
LINE
  5
3F7
330
1E
100
AcDbEntity
  8
0
100
AcDbLine
 10
379.701
 20
116.198
 30
0.0
 11
380.106
 21
119.092
 31
0.0
  0
LINE
  5
3F8
330
1E
100
AcDbEntity
  8
0
100
AcDbLine
 10
375.234
 20
119.099
 30
0.0
 11
376.163
 21
119.799
 31
0.0
  0
LINE
  5
3F9
330
1E
100
AcDbEntity
  8
0
100
AcDbLine
 10
374.33586655583
 20
118.714205689963
 30
0.0
 11
375.234
 21
119.099
 31
0.0
  0
LINE
  5
3FA
330
1E
100
AcDbEntity
  8
0
100
AcDbLine
 10
376.743
 20
115.52
 30
0.0
 11
379.899
 21
108.1544
 31
0.0
  0
LINE
  5
3FB
330
1E
100
AcDbEntity
  8
0
100
AcDbLine
 10
364.142
 20
114.1421
 30
0.0
 11
367.253
 21
110.0126
 31
0.0
  0
LINE
  5
3FC
330
1E
100
AcDbEntity
  8
0
100
AcDbLine
 10
367.253
 20
110.0126
 30
0.0
 11
369.29
 21
105.2609
 31
0.0
  0
LINE
  5
3FD
330
1E
100
AcDbEntity
  8
0
100
AcDbLine
 10
360.013
 20
117.253
 30
0.0
 11
364.142
 21
114.1421
 31
0.0
  0
LINE
  5
3FE
330
1E
100
AcDbEntity
  8
0
100
AcDbLine
 10
369.799
 20
126.163
 30
0.0
 11
370.728
 21
126.863
 31
0.0
  0
LINE
  5
3FF
330
1E
100
AcDbEntity
  8
0
100
AcDbLine
 10
369.099
 20
125.234
 30
0.0
 11
369.799
 21
126.163
 31
0.0
  0
LINE
  5
400
330
1E
100
AcDbEntity
  8
0
100
AcDbLine
 10
368.714205689963
 20
124.33586655583
 30
0.0
 11
369.099
 21
125.234
 31
0.0
  0
LINE
  5
401
330
1E
100
AcDbEntity
  8
0
100
AcDbLine
 10
376.163
 20
119.799
 30
0.0
 11
376.863
 21
120.728
 31
0.0
  0
LINE
  5
402
330
1E
100
AcDbEntity
  8
0
100
AcDbLine
 10
376.863
 20
120.728
 30
0.0
 11
377.321
 21
121.797
 31
0.0
  0
LINE
  5
403
330
1E
100
AcDbEntity
  8
0
100
AcDbLine
 10
384.61048474347
 20
119.424896669764
 30
0.0
 11
384.885
 21
122.07
 31
0.0
  0
LINE
  5
404
330
1E
100
AcDbEntity
  8
0
100
AcDbLine
 10
384.61048474347
 20
119.424896669764
 30
0.0
 11
384.885
 21
122.07
 31
0.0
  0
LINE
  5
405
330
1E
100
AcDbEntity
  8
0
100
AcDbLine
 10
385.171
 20
119.614
 30
0.0
 11
386.748
 21
121.752
 31
0.0
  0
LINE
  5
406
330
1E
100
AcDbEntity
  8
0
100
AcDbLine
 10
472.4
 20
121.7
 30
0.0
 11
477.7
 21
117.7
 31
0.0
  0
LINE
  5
407
330
1E
100
AcDbEntity
  8
0
100
AcDbLine
 10
447.6
 20
121.7
 30
0.0
 11
453.6
 21
124.1
 31
0.0
  0
LINE
  5
408
330
1E
100
AcDbEntity
  8
0
100
AcDbLine
 10
386.748
 20
121.752
 30
0.0
 11
387.743
 21
124.24
 31
0.0
  0
LINE
  5
409
330
1E
100
AcDbEntity
  8
0
100
AcDbLine
 10
447.104
 20
122.568
 30
0.0
 11
453.344
 21
125.064
 31
0.0
  0
LINE
  5
40A
330
1E
100
AcDbEntity
  8
0
100
AcDbLine
 10
472.896
 20
122.568
 30
0.0
 11
478.408
 21
118.408
 31
0.0
  0
LINE
  5
40B
330
1E
100
AcDbEntity
  8
0
100
AcDbLine
 10
466.4
 20
124.1
 30
0.0
 11
472.4
 21
121.7
 31
0.0
  0
LINE
  5
40C
330
1E
100
AcDbEntity
  8
0
100
AcDbLine
 10
453.6
 20
124.1
 30
0.0
 11
460.0
 21
125.0
 31
0.0
  0
LINE
  5
40D
330
1E
100
AcDbEntity
  8
0
100
AcDbLine
 10
379.701
 20
121.985
 30
0.0
 11
380.106
 21
119.092
 31
0.0
  0
LINE
  5
40E
330
1E
100
AcDbEntity
  8
0
100
AcDbLine
 10
377.321
 20
121.797
 30
0.0
 11
377.487
 21
122.981
 31
0.0
  0
LINE
  5
40F
330
1E
100
AcDbEntity
  8
0
100
AcDbLine
 10
460.0
 20
126.0
 30
0.0
 11
466.656
 21
125.064
 31
0.0
  0
LINE
  5
410
330
1E
100
AcDbEntity
  8
0
100
AcDbLine
 10
466.656
 20
125.064
 30
0.0
 11
472.896
 21
122.568
 31
0.0
  0
LINE
  5
411
330
1E
100
AcDbEntity
  8
0
100
AcDbLine
 10
453.344
 20
125.064
 30
0.0
 11
460.0
 21
126.0
 31
0.0
  0
LINE
  5
412
330
1E
100
AcDbEntity
  8
0
100
AcDbLine
 10
460.0
 20
125.0
 30
0.0
 11
466.4
 21
124.1
 31
0.0
  0
LINE
  5
413
330
1E
100
AcDbEntity
  8
0
100
AcDbLine
 10
384.329
 20
125.299
 30
0.0
 11
384.885
 21
122.07
 31
0.0
  0
LINE
  5
414
330
1E
100
AcDbEntity
  8
0
100
AcDbLine
 10
387.743
 20
124.24
 30
0.0
 11
388.037
 21
127.023
 31
0.0
  0
LINE
  5
415
330
1E
100
AcDbEntity
  8
0
100
AcDbLine
 10
378.581
 20
124.599
 30
0.0
 11
379.701
 21
121.985
 31
0.0
  0
LINE
  5
416
330
1E
100
AcDbEntity
  8
0
100
AcDbLine
 10
377.321
 20
124.165
 30
0.0
 11
377.487
 21
122.981
 31
0.0
  0
LINE
  5
417
330
1E
100
AcDbEntity
  8
0
100
AcDbLine
 10
376.863
 20
125.234
 30
0.0
 11
377.321
 21
124.165
 31
0.0
  0
LINE
  5
418
330
1E
100
AcDbEntity
  8
0
100
AcDbLine
 10
376.163
 20
126.163
 30
0.0
 11
376.863
 21
125.234
 31
0.0
  0
LINE
  5
419
330
1E
100
AcDbEntity
  8
0
100
AcDbLine
 10
371.92
 20
121.92
 30
0.0
 11
376.743
 21
115.52
 31
0.0
  0
LINE
  5
41A
330
1E
100
AcDbEntity
  8
0
100
AcDbLine
 10
362.124167487953
 20
128.197961635626
 30
0.0
 11
363.585
 21
128.581
 31
0.0
  0
LINE
  5
41B
330
1E
100
AcDbEntity
  8
0
100
AcDbLine
 10
365.645
 20
133.381
 30
0.0
 11
368.632
 21
134.53
 31
0.0
  0
LINE
  5
41C
330
1E
100
AcDbEntity
  8
0
100
AcDbLine
 10
363.126
 20
131.511
 30
0.0
 11
365.645
 21
133.381
 31
0.0
  0
LINE
  5
41D
330
1E
100
AcDbEntity
  8
0
100
AcDbLine
 10
360.506320793682
 20
128.891136244249
 30
0.0
 11
363.126
 21
131.511
 31
0.0
  0
LINE
  5
41E
330
1E
100
AcDbEntity
  8
0
100
AcDbLine
 10
363.585
 20
128.581
 30
0.0
 11
366.198
 21
129.701
 31
0.0
  0
LINE
  5
41F
330
1E
100
AcDbEntity
  8
0
100
AcDbLine
 10
369.462094448159
 20
134.614260586863
 30
0.0
 11
372.07
 21
134.885
 31
0.0
  0
LINE
  5
420
330
1E
100
AcDbEntity
  8
0
100
AcDbLine
 10
369.614
 20
135.171
 30
0.0
 11
371.752
 21
136.748
 31
0.0
  0
LINE
  5
421
330
1E
100
AcDbEntity
  8
0
100
AcDbLine
 10
369.012405060858
 20
134.569279754684
 30
0.0
 11
369.614
 21
135.171
 31
0.0
  0
LINE
  5
422
330
1E
100
AcDbEntity
  8
0
100
AcDbLine
 10
371.752
 20
136.748
 30
0.0
 11
374.24
 21
137.743
 31
0.0
  0
LINE
  5
423
330
1E
100
AcDbEntity
  8
0
100
AcDbLine
 10
369.092
 20
130.106
 30
0.0
 11
371.985
 21
129.701
 31
0.0
  0
LINE
  5
424
330
1E
100
AcDbEntity
  8
0
100
AcDbLine
 10
366.198
 20
129.701
 30
0.0
 11
369.092
 21
130.106
 31
0.0
  0
LINE
  5
425
330
1E
100
AcDbEntity
  8
0
100
AcDbLine
 10
370.728
 20
126.863
 30
0.0
 11
371.797
 21
127.321
 31
0.0
  0
LINE
  5
426
330
1E
100
AcDbEntity
  8
0
100
AcDbLine
 10
372.07
 20
134.885
 30
0.0
 11
375.299
 21
134.329
 31
0.0
  0
LINE
  5
427
330
1E
100
AcDbEntity
  8
0
100
AcDbLine
 10
371.985
 20
129.701
 30
0.0
 11
374.599
 21
128.581
 31
0.0
  0
LINE
  5
428
330
1E
100
AcDbEntity
  8
0
100
AcDbLine
 10
372.981
 20
127.487
 30
0.0
 11
374.165
 21
127.321
 31
0.0
  0
LINE
  5
429
330
1E
100
AcDbEntity
  8
0
100
AcDbLine
 10
374.24
 20
137.743
 30
0.0
 11
377.023
 21
138.036
 31
0.0
  0
LINE
  5
42A
330
1E
100
AcDbEntity
  8
0
100
AcDbLine
 10
375.299
 20
134.329
 30
0.0
 11
378.321
 21
132.971
 31
0.0
  0
LINE
  5
42B
330
1E
100
AcDbEntity
  8
0
100
AcDbLine
 10
382.972
 20
128.321
 30
0.0
 11
384.329
 21
125.299
 31
0.0
  0
LINE
  5
42C
330
1E
100
AcDbEntity
  8
0
100
AcDbLine
 10
380.949
 20
130.949
 30
0.0
 11
382.972
 21
128.321
 31
0.0
  0
LINE
  5
42D
330
1E
100
AcDbEntity
  8
0
100
AcDbLine
 10
378.321
 20
132.971
 30
0.0
 11
380.949
 21
130.949
 31
0.0
  0
LINE
  5
42E
330
1E
100
AcDbEntity
  8
0
100
AcDbLine
 10
387.548
 20
129.832
 30
0.0
 11
388.037
 21
127.023
 31
0.0
  0
LINE
  5
42F
330
1E
100
AcDbEntity
  8
0
100
AcDbLine
 10
386.378
 20
132.396
 30
0.0
 11
387.548
 21
129.832
 31
0.0
  0
LINE
  5
430
330
1E
100
AcDbEntity
  8
0
100
AcDbLine
 10
377.023
 20
138.036
 30
0.0
 11
379.832
 21
137.548
 31
0.0
  0
LINE
  5
431
330
1E
100
AcDbEntity
  8
0
100
AcDbLine
 10
379.832
 20
137.548
 30
0.0
 11
382.396
 21
136.378
 31
0.0
  0
LINE
  5
432
330
1E
100
AcDbEntity
  8
0
100
AcDbLine
 10
700.0
 20
200.0
 30
0.0
 11
700.0
 21
0.0
 31
0.0
  0
LINE
  5
433
330
1E
100
AcDbEntity
  8
0
100
AcDbLine
 10
551.0
 20
150.0
 30
0.0
 11
551.0
 21
50.0
 31
0.0
  0
LINE
  5
434
330
1E
100
AcDbEntity
  8
0
100
AcDbLine
 10
551.0
 20
150.0
 30
0.0
 11
700.0
 21
200.0
 31
0.0
  0
LINE
  5
435
330
1E
100
AcDbEntity
  8
0
100
AcDbLine
 10
551.0
 20
150.0
 30
0.0
 11
551.0
 21
50.0
 31
0.0
  0
LINE
  5
436
330
1E
100
AcDbEntity
  8
0
100
AcDbLine
 10
382.396
 20
136.378
 30
0.0
 11
384.648
 21
134.648
 31
0.0
  0
LINE
  5
437
330
1E
100
AcDbEntity
  8
0
100
AcDbLine
 10
384.648
 20
134.648
 30
0.0
 11
386.378
 21
132.396
 31
0.0
  0
LINE
  5
438
330
1E
100
AcDbEntity
  8
0
100
AcDbLine
 10
374.599
 20
128.581
 30
0.0
 11
376.87
 21
126.87
 31
0.0
  0
LINE
  5
439
330
1E
100
AcDbEntity
  8
0
100
AcDbLine
 10
376.87
 20
126.87
 30
0.0
 11
378.581
 21
124.599
 31
0.0
  0
LINE
  5
43A
330
1E
100
AcDbEntity
  8
0
100
AcDbLine
 10
374.165
 20
127.321
 30
0.0
 11
375.234
 21
126.863
 31
0.0
  0
LINE
  5
43B
330
1E
100
AcDbEntity
  8
0
100
AcDbLine
 10
375.234
 20
126.863
 30
0.0
 11
376.163
 21
126.163
 31
0.0
  0
LINE
  5
43C
330
1E
100
AcDbEntity
  8
0
100
AcDbLine
 10
371.797
 20
127.321
 30
0.0
 11
372.981
 21
127.487
 31
0.0
  0
LINE
  5
43D
330
1E
100
AcDbEntity
  8
0
100
AcDbLine
 10
365.52
 20
126.743
 30
0.0
 11
371.92
 21
121.92
 31
0.0
  0
LINE
  5
43E
330
1E
100
AcDbEntity
  8
0
100
AcDbLine
 10
358.154
 20
129.899
 30
0.0
 11
365.52
 21
126.743
 31
0.0
  0
LINE
  5
43F
330
1E
100
AcDbEntity
  8
0
100
AcDbLine
 10
355.261
 20
119.29
 30
0.0
 11
360.013
 21
117.253
 31
0.0
  0
LINE
  5
447
330
1E
100
AcDbEntity
  8
0
100
AcDbLine
 10
271.0
 20
102.9273
 30
0.0
 11
271.0
 21
95.8318
 31
0.0
  0
LINE
  5
448
330
1E
100
AcDbEntity
  8
0
100
AcDbLine
 10
271.0
 20
95.8318
 30
0.0
 11
271.0
 21
102.9273
 31
0.0
  0
LINE
  5
449
330
1E
100
AcDbEntity
  8
0
100
AcDbLine
 10
271.0
 20
102.9273
 30
0.0
 11
271.0
 21
96.528
 31
0.0
  0
LINE
  5
44A
330
1E
100
AcDbEntity
  8
0
100
AcDbLine
 10
271.0
 20
96.528
 30
0.0
 11
271.0
 21
102.9273
 31
0.0
  0
LINE
  5
44B
330
1E
100
AcDbEntity
  8
0
100
AcDbLine
 10
271.114
 20
101.6037
 30
0.0
 11
271.048
 21
100.0
 31
0.0
  0
LINE
  5
44C
330
1E
100
AcDbEntity
  8
0
100
AcDbLine
 10
280.952
 20
100.0
 30
0.0
 11
280.886
 21
101.6037
 31
0.0
  0
LINE
  5
44D
330
1E
100
AcDbEntity
  8
0
100
AcDbLine
 10
281.0
 20
99.9832
 30
0.0
 11
281.0
 21
101.1867
 31
0.0
  0
LINE
  5
44E
330
1E
100
AcDbEntity
  8
0
100
AcDbLine
 10
281.0
 20
100.0
 30
0.0
 11
281.0
 21
101.5273
 31
0.0
  0
LINE
  5
44F
330
1E
100
AcDbEntity
  8
0
100
AcDbLine
 10
281.0
 20
101.1867
 30
0.0
 11
281.0
 21
99.9832
 31
0.0
  0
LINE
  5
450
330
1E
100
AcDbEntity
  8
0
100
AcDbLine
 10
281.0
 20
101.5273
 30
0.0
 11
281.0
 21
100.0
 31
0.0
  0
LINE
  5
451
330
1E
100
AcDbEntity
  8
0
100
AcDbLine
 10
281.0
 20
101.2002
 30
0.0
 11
281.0
 21
99.9967
 31
0.0
  0
LINE
  5
452
330
1E
100
AcDbEntity
  8
0
100
AcDbLine
 10
281.0
 20
99.9967
 30
0.0
 11
281.0
 21
101.2002
 31
0.0
  0
LINE
  5
453
330
1E
100
AcDbEntity
  8
0
100
AcDbLine
 10
271.0
 20
93.0
 30
0.0
 11
265.0
 21
93.0
 31
0.0
  0
LINE
  5
454
330
1E
100
AcDbEntity
  8
0
100
AcDbLine
 10
280.524
 20
93.1591
 30
0.0
 11
280.048
 21
93.0
 31
0.0
  0
LINE
  5
455
330
1E
100
AcDbEntity
  8
0
100
AcDbLine
 10
280.524
 20
96.5954
 30
0.0
 11
280.524
 21
96.0781
 31
0.0
  0
LINE
  5
456
330
1E
100
AcDbEntity
  8
0
100
AcDbLine
 10
281.0
 20
96.5215
 30
0.0
 11
281.0
 21
95.6019
 31
0.0
  0
LINE
  5
457
330
1E
100
AcDbEntity
  8
0
100
AcDbLine
 10
281.0
 20
97.0727
 30
0.0
 11
281.0
 21
95.8318
 31
0.0
  0
LINE
  5
458
330
1E
100
AcDbEntity
  8
0
100
AcDbLine
 10
281.0
 20
96.5079
 30
0.0
 11
281.0
 21
95.6155
 31
0.0
  0
LINE
  5
459
330
1E
100
AcDbEntity
  8
0
100
AcDbLine
 10
281.0
 20
95.8318
 30
0.0
 11
281.0
 21
97.0727
 31
0.0
  0
LINE
  5
45A
330
1E
100
AcDbEntity
  8
0
100
AcDbLine
 10
281.0
 20
95.6019
 30
0.0
 11
281.0
 21
96.5215
 31
0.0
  0
LINE
  5
45B
330
1E
100
AcDbEntity
  8
0
100
AcDbLine
 10
281.0
 20
95.6155
 30
0.0
 11
281.0
 21
96.5079
 31
0.0
  0
LINE
  5
45C
330
1E
100
AcDbEntity
  8
0
100
AcDbLine
 10
281.0
 20
94.9091
 30
0.0
 11
281.0
 21
95.8318
 31
0.0
  0
LINE
  5
45D
330
1E
100
AcDbEntity
  8
0
100
AcDbLine
 10
281.0
 20
94.9091
 30
0.0
 11
281.0
 21
94.3363
 31
0.0
  0
LINE
  5
45E
330
1E
100
AcDbEntity
  8
0
100
AcDbLine
 10
281.0
 20
95.0881
 30
0.0
 11
281.0
 21
94.8582
 31
0.0
  0
LINE
  5
45F
330
1E
100
AcDbEntity
  8
0
100
AcDbLine
 10
281.0
 20
95.0881
 30
0.0
 11
281.0
 21
95.6019
 31
0.0
  0
LINE
  5
460
330
1E
100
AcDbEntity
  8
0
100
AcDbLine
 10
280.827
 20
95.4818
 30
0.0
 11
280.524
 21
96.0781
 31
0.0
  0
LINE
  5
461
330
1E
100
AcDbEntity
  8
0
100
AcDbLine
 10
281.0
 20
95.8318
 30
0.0
 11
281.0
 21
94.9091
 31
0.0
  0
LINE
  5
462
330
1E
100
AcDbEntity
  8
0
100
AcDbLine
 10
281.0
 20
95.6019
 30
0.0
 11
281.0
 21
95.0881
 31
0.0
  0
LINE
  5
463
330
1E
100
AcDbEntity
  8
0
100
AcDbLine
 10
281.0
 20
95.1016
 30
0.0
 11
281.0
 21
95.6155
 31
0.0
  0
LINE
  5
464
330
1E
100
AcDbEntity
  8
0
100
AcDbLine
 10
281.0
 20
95.1016
 30
0.0
 11
281.0
 21
94.8582
 31
0.0
  0
LINE
  5
465
330
1E
100
AcDbEntity
  8
0
100
AcDbLine
 10
281.0
 20
95.6155
 30
0.0
 11
281.0
 21
95.1016
 31
0.0
  0
LINE
  5
466
330
1E
100
AcDbEntity
  8
0
100
AcDbLine
 10
281.0
 20
94.8582
 30
0.0
 11
281.0
 21
95.0881
 31
0.0
  0
LINE
  5
467
330
1E
100
AcDbEntity
  8
0
100
AcDbLine
 10
280.904
 20
94.6304
 30
0.0
 11
280.801
 21
93.7836
 31
0.0
  0
LINE
  5
468
330
1E
100
AcDbEntity
  8
0
100
AcDbLine
 10
280.904
 20
94.6304
 30
0.0
 11
280.827
 21
95.4818
 31
0.0
  0
LINE
  5
469
330
1E
100
AcDbEntity
  8
0
100
AcDbLine
 10
281.0
 20
94.3363
 30
0.0
 11
281.0
 21
94.1137
 31
0.0
  0
LINE
  5
46A
330
1E
100
AcDbEntity
  8
0
100
AcDbLine
 10
281.0
 20
94.3363
 30
0.0
 11
281.0
 21
94.9091
 31
0.0
  0
LINE
  5
46B
330
1E
100
AcDbEntity
  8
0
100
AcDbLine
 10
280.857
 20
93.6363
 30
0.0
 11
280.524
 21
93.1591
 31
0.0
  0
LINE
  5
46C
330
1E
100
AcDbEntity
  8
0
100
AcDbLine
 10
281.0
 20
94.1137
 30
0.0
 11
281.0
 21
94.3363
 31
0.0
  0
LINE
  5
46D
330
1E
100
AcDbEntity
  8
0
100
AcDbLine
 10
281.0
 20
94.1137
 30
0.0
 11
280.857
 21
93.6363
 31
0.0
  0
LINE
  5
46E
330
1E
100
AcDbEntity
  8
0
100
AcDbLine
 10
280.801
 20
93.7836
 30
0.0
 11
280.524
 21
93.2678
 31
0.0
  0
LINE
  5
46F
330
1E
100
AcDbEntity
  8
0
100
AcDbLine
 10
280.524
 20
93.2678
 30
0.0
 11
280.524
 21
93.1591
 31
0.0
  0
LINE
  5
470
330
1E
100
AcDbEntity
  8
0
100
AcDbLine
 10
280.524
 20
93.1591
 30
0.0
 11
280.524
 21
93.2678
 31
0.0
  0
LINE
  5
471
330
1E
100
AcDbEntity
  8
0
100
AcDbLine
 10
281.0
 20
98.4727
 30
0.0
 11
281.0
 21
97.0727
 31
0.0
  0
LINE
  5
472
330
1E
100
AcDbEntity
  8
0
100
AcDbLine
 10
281.0
 20
98.4727
 30
0.0
 11
281.0
 21
100.0
 31
0.0
  0
LINE
  5
473
330
1E
100
AcDbEntity
  8
0
100
AcDbLine
 10
280.952
 20
100.0
 30
0.0
 11
280.886
 21
98.3963
 31
0.0
  0
LINE
  5
474
330
1E
100
AcDbEntity
  8
0
100
AcDbLine
 10
280.886
 20
98.3963
 30
0.0
 11
280.524
 21
96.9106
 31
0.0
  0
LINE
  5
475
330
1E
100
AcDbEntity
  8
0
100
AcDbLine
 10
280.524
 20
96.9106
 30
0.0
 11
280.524
 21
96.5954
 31
0.0
  0
LINE
  5
476
330
1E
100
AcDbEntity
  8
0
100
AcDbLine
 10
280.524
 20
96.5954
 30
0.0
 11
280.524
 21
96.9106
 31
0.0
  0
LINE
  5
477
330
1E
100
AcDbEntity
  8
0
100
AcDbLine
 10
281.0
 20
99.9832
 30
0.0
 11
281.0
 21
98.7797
 31
0.0
  0
LINE
  5
478
330
1E
100
AcDbEntity
  8
0
100
AcDbLine
 10
281.0
 20
100.0
 30
0.0
 11
281.0
 21
98.4727
 31
0.0
  0
LINE
  5
479
330
1E
100
AcDbEntity
  8
0
100
AcDbLine
 10
281.0
 20
99.9967
 30
0.0
 11
281.0
 21
98.7797
 31
0.0
  0
LINE
  5
47A
330
1E
100
AcDbEntity
  8
0
100
AcDbLine
 10
281.0
 20
98.7797
 30
0.0
 11
281.0
 21
97.6573
 31
0.0
  0
LINE
  5
47B
330
1E
100
AcDbEntity
  8
0
100
AcDbLine
 10
281.0
 20
98.7797
 30
0.0
 11
281.0
 21
99.9967
 31
0.0
  0
LINE
  5
47C
330
1E
100
AcDbEntity
  8
0
100
AcDbLine
 10
281.0
 20
98.7797
 30
0.0
 11
281.0
 21
97.6438
 31
0.0
  0
LINE
  5
47D
330
1E
100
AcDbEntity
  8
0
100
AcDbLine
 10
281.0
 20
98.7797
 30
0.0
 11
281.0
 21
99.9832
 31
0.0
  0
LINE
  5
47E
330
1E
100
AcDbEntity
  8
0
100
AcDbLine
 10
281.0
 20
96.5215
 30
0.0
 11
281.0
 21
97.6438
 31
0.0
  0
LINE
  5
47F
330
1E
100
AcDbEntity
  8
0
100
AcDbLine
 10
281.0
 20
97.6438
 30
0.0
 11
281.0
 21
98.7797
 31
0.0
  0
LINE
  5
480
330
1E
100
AcDbEntity
  8
0
100
AcDbLine
 10
281.0
 20
97.6438
 30
0.0
 11
281.0
 21
96.5215
 31
0.0
  0
LINE
  5
481
330
1E
100
AcDbEntity
  8
0
100
AcDbLine
 10
281.0
 20
97.0727
 30
0.0
 11
281.0
 21
98.4727
 31
0.0
  0
LINE
  5
482
330
1E
100
AcDbEntity
  8
0
100
AcDbLine
 10
281.0
 20
97.6573
 30
0.0
 11
281.0
 21
96.5079
 31
0.0
  0
LINE
  5
483
330
1E
100
AcDbEntity
  8
0
100
AcDbLine
 10
281.0
 20
97.6573
 30
0.0
 11
281.0
 21
98.7797
 31
0.0
  0
LINE
  5
484
330
1E
100
AcDbEntity
  8
0
100
AcDbLine
 10
281.0
 20
96.5079
 30
0.0
 11
281.0
 21
97.6573
 31
0.0
  0
LINE
  5
485
330
1E
100
AcDbEntity
  8
0
100
AcDbLine
 10
271.0
 20
96.528
 30
0.0
 11
271.0
 21
95.044
 31
0.0
  0
LINE
  5
486
330
1E
100
AcDbEntity
  8
0
100
AcDbLine
 10
271.476
 20
96.5954
 30
0.0
 11
271.476
 21
96.0781
 31
0.0
  0
LINE
  5
487
330
1E
100
AcDbEntity
  8
0
100
AcDbLine
 10
271.476
 20
96.0781
 30
0.0
 11
271.476
 21
96.5954
 31
0.0
  0
LINE
  5
488
330
1E
100
AcDbEntity
  8
0
100
AcDbLine
 10
271.0
 20
95.044
 30
0.0
 11
271.0
 21
96.528
 31
0.0
  0
LINE
  5
489
330
1E
100
AcDbEntity
  8
0
100
AcDbLine
 10
280.048
 20
93.0
 30
0.0
 11
271.952
 21
93.0
 31
0.0
  0
LINE
  5
48A
330
1E
100
AcDbEntity
  8
0
100
AcDbLine
 10
271.476
 20
96.0781
 30
0.0
 11
271.173
 21
95.4818
 31
0.0
  0
LINE
  5
48B
330
1E
100
AcDbEntity
  8
0
100
AcDbLine
 10
271.173
 20
95.4818
 30
0.0
 11
271.096
 21
94.6304
 31
0.0
  0
LINE
  5
48C
330
1E
100
AcDbEntity
  8
0
100
AcDbLine
 10
271.0
 20
95.044
 30
0.0
 11
271.0
 21
93.924
 31
0.0
  0
LINE
  5
48D
330
1E
100
AcDbEntity
  8
0
100
AcDbLine
 10
271.0
 20
94.9091
 30
0.0
 11
271.0
 21
94.3363
 31
0.0
  0
LINE
  5
48E
330
1E
100
AcDbEntity
  8
0
100
AcDbLine
 10
271.0
 20
94.3363
 30
0.0
 11
271.0
 21
94.9091
 31
0.0
  0
LINE
  5
48F
330
1E
100
AcDbEntity
  8
0
100
AcDbLine
 10
271.0
 20
94.3363
 30
0.0
 11
271.0
 21
94.1137
 31
0.0
  0
LINE
  5
490
330
1E
100
AcDbEntity
  8
0
100
AcDbLine
 10
271.143
 20
93.6363
 30
0.0
 11
271.0
 21
94.1137
 31
0.0
  0
LINE
  5
491
330
1E
100
AcDbEntity
  8
0
100
AcDbLine
 10
271.0
 20
94.1137
 30
0.0
 11
271.0
 21
93.924
 31
0.0
  0
LINE
  5
492
330
1E
100
AcDbEntity
  8
0
100
AcDbLine
 10
271.0
 20
94.1137
 30
0.0
 11
271.0
 21
94.3363
 31
0.0
  0
LINE
  5
493
330
1E
100
AcDbEntity
  8
0
100
AcDbLine
 10
271.0
 20
93.924
 30
0.0
 11
271.0
 21
94.1137
 31
0.0
  0
LINE
  5
494
330
1E
100
AcDbEntity
  8
0
100
AcDbLine
 10
271.0
 20
93.924
 30
0.0
 11
271.0
 21
93.252
 31
0.0
  0
LINE
  5
495
330
1E
100
AcDbEntity
  8
0
100
AcDbLine
 10
271.0
 20
93.924
 30
0.0
 11
271.0
 21
95.044
 31
0.0
  0
LINE
  5
496
330
1E
100
AcDbEntity
  8
0
100
AcDbLine
 10
271.199
 20
93.7836
 30
0.0
 11
271.096
 21
94.6304
 31
0.0
  0
LINE
  5
497
330
1E
100
AcDbEntity
  8
0
100
AcDbLine
 10
271.476
 20
93.2678
 30
0.0
 11
271.476
 21
93.1591
 31
0.0
  0
LINE
  5
498
330
1E
100
AcDbEntity
  8
0
100
AcDbLine
 10
271.476
 20
93.2678
 30
0.0
 11
271.199
 21
93.7836
 31
0.0
  0
LINE
  5
499
330
1E
100
AcDbEntity
  8
0
100
AcDbLine
 10
271.0
 20
93.252
 30
0.0
 11
271.0
 21
93.0
 31
0.0
  0
LINE
  5
49A
330
1E
100
AcDbEntity
  8
0
100
AcDbLine
 10
271.0
 20
93.252
 30
0.0
 11
271.0
 21
93.924
 31
0.0
  0
LINE
  5
49B
330
1E
100
AcDbEntity
  8
0
100
AcDbLine
 10
271.476
 20
93.1591
 30
0.0
 11
271.476
 21
93.2678
 31
0.0
  0
LINE
  5
49C
330
1E
100
AcDbEntity
  8
0
100
AcDbLine
 10
271.476
 20
93.1591
 30
0.0
 11
271.143
 21
93.6363
 31
0.0
  0
LINE
  5
49D
330
1E
100
AcDbEntity
  8
0
100
AcDbLine
 10
271.952
 20
93.0
 30
0.0
 11
271.476
 21
93.1591
 31
0.0
  0
LINE
  5
49E
330
1E
100
AcDbEntity
  8
0
100
AcDbLine
 10
271.0
 20
93.0
 30
0.0
 11
271.0
 21
93.252
 31
0.0
  0
LINE
  5
49F
330
1E
100
AcDbEntity
  8
0
100
AcDbLine
 10
271.114
 20
98.3963
 30
0.0
 11
271.048
 21
100.0
 31
0.0
  0
LINE
  5
4A0
330
1E
100
AcDbEntity
  8
0
100
AcDbLine
 10
271.476
 20
96.9106
 30
0.0
 11
271.476
 21
96.5954
 31
0.0
  0
LINE
  5
4A1
330
1E
100
AcDbEntity
  8
0
100
AcDbLine
 10
271.476
 20
96.9106
 30
0.0
 11
271.114
 21
98.3963
 31
0.0
  0
LINE
  5
4A2
330
1E
100
AcDbEntity
  8
0
100
AcDbLine
 10
271.476
 20
96.5954
 30
0.0
 11
271.476
 21
96.9106
 31
0.0
  0
LINE
  5
4A3
330
1E
100
AcDbEntity
  8
0
100
AcDbLine
 10
271.0
 20
107.0
 30
0.0
 11
265.0
 21
107.0
 31
0.0
  0
LINE
  5
4A4
330
1E
100
AcDbEntity
  8
0
100
AcDbLine
 10
280.524
 20
106.8409
 30
0.0
 11
280.048
 21
107.0
 31
0.0
  0
LINE
  5
4A5
330
1E
100
AcDbEntity
  8
0
100
AcDbLine
 10
280.524
 20
103.9219
 30
0.0
 11
280.524
 21
103.4045
 31
0.0
  0
LINE
  5
4A6
330
1E
100
AcDbEntity
  8
0
100
AcDbLine
 10
281.0
 20
102.9273
 30
0.0
 11
281.0
 21
104.1682
 31
0.0
  0
LINE
  5
4A7
330
1E
100
AcDbEntity
  8
0
100
AcDbLine
 10
281.0
 20
104.1682
 30
0.0
 11
281.0
 21
102.9273
 31
0.0
  0
LINE
  5
4A8
330
1E
100
AcDbEntity
  8
0
100
AcDbLine
 10
281.0
 20
103.5396
 30
0.0
 11
281.0
 21
104.4185
 31
0.0
  0
LINE
  5
4A9
330
1E
100
AcDbEntity
  8
0
100
AcDbLine
 10
281.0
 20
104.4185
 30
0.0
 11
281.0
 21
103.5396
 31
0.0
  0
LINE
  5
4AA
330
1E
100
AcDbEntity
  8
0
100
AcDbLine
 10
281.0
 20
104.405
 30
0.0
 11
281.0
 21
103.4855
 31
0.0
  0
LINE
  5
4AB
330
1E
100
AcDbEntity
  8
0
100
AcDbLine
 10
281.0
 20
103.4855
 30
0.0
 11
281.0
 21
104.405
 31
0.0
  0
LINE
  5
4AC
330
1E
100
AcDbEntity
  8
0
100
AcDbLine
 10
280.524
 20
103.0894
 30
0.0
 11
280.524
 21
103.4045
 31
0.0
  0
LINE
  5
4AD
330
1E
100
AcDbEntity
  8
0
100
AcDbLine
 10
280.524
 20
103.4045
 30
0.0
 11
280.524
 21
103.0894
 31
0.0
  0
LINE
  5
4AE
330
1E
100
AcDbEntity
  8
0
100
AcDbLine
 10
280.886
 20
101.6037
 30
0.0
 11
280.524
 21
103.0894
 31
0.0
  0
LINE
  5
4AF
330
1E
100
AcDbEntity
  8
0
100
AcDbLine
 10
281.0
 20
102.9273
 30
0.0
 11
281.0
 21
101.5273
 31
0.0
  0
LINE
  5
4B0
330
1E
100
AcDbEntity
  8
0
100
AcDbLine
 10
281.0
 20
102.3361
 30
0.0
 11
281.0
 21
101.1867
 31
0.0
  0
LINE
  5
4B1
330
1E
100
AcDbEntity
  8
0
100
AcDbLine
 10
281.0
 20
102.3361
 30
0.0
 11
281.0
 21
103.5396
 31
0.0
  0
LINE
  5
4B2
330
1E
100
AcDbEntity
  8
0
100
AcDbLine
 10
281.0
 20
103.5396
 30
0.0
 11
281.0
 21
102.3361
 31
0.0
  0
LINE
  5
4B3
330
1E
100
AcDbEntity
  8
0
100
AcDbLine
 10
281.0
 20
103.4855
 30
0.0
 11
281.0
 21
102.3496
 31
0.0
  0
LINE
  5
4B4
330
1E
100
AcDbEntity
  8
0
100
AcDbLine
 10
281.0
 20
102.3496
 30
0.0
 11
281.0
 21
101.2002
 31
0.0
  0
LINE
  5
4B5
330
1E
100
AcDbEntity
  8
0
100
AcDbLine
 10
281.0
 20
102.3496
 30
0.0
 11
281.0
 21
103.4855
 31
0.0
  0
LINE
  5
4B6
330
1E
100
AcDbEntity
  8
0
100
AcDbLine
 10
281.0
 20
101.1867
 30
0.0
 11
281.0
 21
102.3361
 31
0.0
  0
LINE
  5
4B7
330
1E
100
AcDbEntity
  8
0
100
AcDbLine
 10
281.0
 20
101.5273
 30
0.0
 11
281.0
 21
102.9273
 31
0.0
  0
LINE
  5
4B8
330
1E
100
AcDbEntity
  8
0
100
AcDbLine
 10
281.0
 20
101.2002
 30
0.0
 11
281.0
 21
102.3496
 31
0.0
  0
LINE
  5
4B9
330
1E
100
AcDbEntity
  8
0
100
AcDbLine
 10
280.857
 20
106.3636
 30
0.0
 11
280.524
 21
106.8409
 31
0.0
  0
LINE
  5
4BA
330
1E
100
AcDbEntity
  8
0
100
AcDbLine
 10
280.524
 20
106.8409
 30
0.0
 11
280.524
 21
106.7322
 31
0.0
  0
LINE
  5
4BB
330
1E
100
AcDbEntity
  8
0
100
AcDbLine
 10
280.801
 20
106.2164
 30
0.0
 11
280.524
 21
106.7322
 31
0.0
  0
LINE
  5
4BC
330
1E
100
AcDbEntity
  8
0
100
AcDbLine
 10
280.524
 20
106.7322
 30
0.0
 11
280.524
 21
106.8409
 31
0.0
  0
LINE
  5
4BD
330
1E
100
AcDbEntity
  8
0
100
AcDbLine
 10
281.0
 20
104.9324
 30
0.0
 11
281.0
 21
104.405
 31
0.0
  0
LINE
  5
4BE
330
1E
100
AcDbEntity
  8
0
100
AcDbLine
 10
281.0
 20
104.9324
 30
0.0
 11
281.0
 21
104.4185
 31
0.0
  0
LINE
  5
4BF
330
1E
100
AcDbEntity
  8
0
100
AcDbLine
 10
281.0
 20
104.9324
 30
0.0
 11
281.0
 21
105.1352
 31
0.0
  0
LINE
  5
4C0
330
1E
100
AcDbEntity
  8
0
100
AcDbLine
 10
280.827
 20
104.5182
 30
0.0
 11
280.524
 21
103.9219
 31
0.0
  0
LINE
  5
4C1
330
1E
100
AcDbEntity
  8
0
100
AcDbLine
 10
280.904
 20
105.3696
 30
0.0
 11
280.801
 21
106.2164
 31
0.0
  0
LINE
  5
4C2
330
1E
100
AcDbEntity
  8
0
100
AcDbLine
 10
280.904
 20
105.3696
 30
0.0
 11
280.827
 21
104.5182
 31
0.0
  0
LINE
  5
4C3
330
1E
100
AcDbEntity
  8
0
100
AcDbLine
 10
281.0
 20
105.1352
 30
0.0
 11
281.0
 21
104.9324
 31
0.0
  0
LINE
  5
4C4
330
1E
100
AcDbEntity
  8
0
100
AcDbLine
 10
281.0
 20
105.8864
 30
0.0
 11
281.0
 21
105.6636
 31
0.0
  0
LINE
  5
4C5
330
1E
100
AcDbEntity
  8
0
100
AcDbLine
 10
281.0
 20
105.8864
 30
0.0
 11
280.857
 21
106.3636
 31
0.0
  0
LINE
  5
4C6
330
1E
100
AcDbEntity
  8
0
100
AcDbLine
 10
281.0
 20
105.6636
 30
0.0
 11
281.0
 21
105.8864
 31
0.0
  0
LINE
  5
4C7
330
1E
100
AcDbEntity
  8
0
100
AcDbLine
 10
281.0
 20
105.6636
 30
0.0
 11
281.0
 21
105.0909
 31
0.0
  0
LINE
  5
4C8
330
1E
100
AcDbEntity
  8
0
100
AcDbLine
 10
281.0
 20
104.1682
 30
0.0
 11
281.0
 21
105.0909
 31
0.0
  0
LINE
  5
4C9
330
1E
100
AcDbEntity
  8
0
100
AcDbLine
 10
281.0
 20
104.4185
 30
0.0
 11
281.0
 21
104.9324
 31
0.0
  0
LINE
  5
4CA
330
1E
100
AcDbEntity
  8
0
100
AcDbLine
 10
281.0
 20
105.0909
 30
0.0
 11
281.0
 21
105.6636
 31
0.0
  0
LINE
  5
4CB
330
1E
100
AcDbEntity
  8
0
100
AcDbLine
 10
281.0
 20
105.0909
 30
0.0
 11
281.0
 21
104.1682
 31
0.0
  0
LINE
  5
4CC
330
1E
100
AcDbEntity
  8
0
100
AcDbLine
 10
281.0
 20
104.405
 30
0.0
 11
281.0
 21
104.9324
 31
0.0
  0
LINE
  5
4CD
330
1E
100
AcDbEntity
  8
0
100
AcDbLine
 10
271.476
 20
103.9219
 30
0.0
 11
271.476
 21
103.4045
 31
0.0
  0
LINE
  5
4CE
330
1E
100
AcDbEntity
  8
0
100
AcDbLine
 10
271.0
 20
104.1682
 30
0.0
 11
271.0
 21
102.9273
 31
0.0
  0
LINE
  5
4CF
330
1E
100
AcDbEntity
  8
0
100
AcDbLine
 10
271.0
 20
104.956
 30
0.0
 11
271.0
 21
103.472
 31
0.0
  0
LINE
  5
4D0
330
1E
100
AcDbEntity
  8
0
100
AcDbLine
 10
271.0
 20
102.9273
 30
0.0
 11
271.0
 21
104.1682
 31
0.0
  0
LINE
  5
4D1
330
1E
100
AcDbEntity
  8
0
100
AcDbLine
 10
271.476
 20
103.4045
 30
0.0
 11
271.476
 21
103.9219
 31
0.0
  0
LINE
  5
4D2
330
1E
100
AcDbEntity
  8
0
100
AcDbLine
 10
271.0
 20
103.472
 30
0.0
 11
271.0
 21
104.956
 31
0.0
  0
LINE
  5
4D3
330
1E
100
AcDbEntity
  8
0
100
AcDbLine
 10
271.0
 20
102.9273
 30
0.0
 11
271.0
 21
103.472
 31
0.0
  0
LINE
  5
4D4
330
1E
100
AcDbEntity
  8
0
100
AcDbLine
 10
271.476
 20
103.4045
 30
0.0
 11
271.476
 21
103.0894
 31
0.0
  0
LINE
  5
4D5
330
1E
100
AcDbEntity
  8
0
100
AcDbLine
 10
271.0
 20
103.472
 30
0.0
 11
271.0
 21
102.9273
 31
0.0
  0
LINE
  5
4D6
330
1E
100
AcDbEntity
  8
0
100
AcDbLine
 10
271.476
 20
103.0894
 30
0.0
 11
271.476
 21
103.4045
 31
0.0
  0
LINE
  5
4D7
330
1E
100
AcDbEntity
  8
0
100
AcDbLine
 10
271.476
 20
103.0894
 30
0.0
 11
271.114
 21
101.6037
 31
0.0
  0
LINE
  5
4D8
330
1E
100
AcDbEntity
  8
0
100
AcDbLine
 10
280.048
 20
107.0
 30
0.0
 11
271.952
 21
107.0
 31
0.0
  0
LINE
  5
4D9
330
1E
100
AcDbEntity
  8
0
100
AcDbLine
 10
271.476
 20
106.8409
 30
0.0
 11
271.476
 21
106.7322
 31
0.0
  0
LINE
  5
4DA
330
1E
100
AcDbEntity
  8
0
100
AcDbLine
 10
271.476
 20
106.8409
 30
0.0
 11
271.143
 21
106.3636
 31
0.0
  0
LINE
  5
4DB
330
1E
100
AcDbEntity
  8
0
100
AcDbLine
 10
271.143
 20
106.3636
 30
0.0
 11
271.0
 21
105.8864
 31
0.0
  0
LINE
  5
4DC
330
1E
100
AcDbEntity
  8
0
100
AcDbLine
 10
271.0
 20
106.748
 30
0.0
 11
271.0
 21
107.0
 31
0.0
  0
LINE
  5
4DD
330
1E
100
AcDbEntity
  8
0
100
AcDbLine
 10
271.0
 20
106.748
 30
0.0
 11
271.0
 21
106.076
 31
0.0
  0
LINE
  5
4DE
330
1E
100
AcDbEntity
  8
0
100
AcDbLine
 10
271.0
 20
107.0
 30
0.0
 11
271.0
 21
106.748
 31
0.0
  0
LINE
  5
4DF
330
1E
100
AcDbEntity
  8
0
100
AcDbLine
 10
271.199
 20
106.2164
 30
0.0
 11
271.096
 21
105.3696
 31
0.0
  0
LINE
  5
4E0
330
1E
100
AcDbEntity
  8
0
100
AcDbLine
 10
271.0
 20
106.076
 30
0.0
 11
271.0
 21
104.956
 31
0.0
  0
LINE
  5
4E1
330
1E
100
AcDbEntity
  8
0
100
AcDbLine
 10
271.0
 20
106.076
 30
0.0
 11
271.0
 21
106.748
 31
0.0
  0
LINE
  5
4E2
330
1E
100
AcDbEntity
  8
0
100
AcDbLine
 10
271.0
 20
106.076
 30
0.0
 11
271.0
 21
105.8864
 31
0.0
  0
LINE
  5
4E3
330
1E
100
AcDbEntity
  8
0
100
AcDbLine
 10
271.952
 20
107.0
 30
0.0
 11
271.476
 21
106.8409
 31
0.0
  0
LINE
  5
4E4
330
1E
100
AcDbEntity
  8
0
100
AcDbLine
 10
271.476
 20
106.7322
 30
0.0
 11
271.199
 21
106.2164
 31
0.0
  0
LINE
  5
4E5
330
1E
100
AcDbEntity
  8
0
100
AcDbLine
 10
271.476
 20
106.7322
 30
0.0
 11
271.476
 21
106.8409
 31
0.0
  0
LINE
  5
4E6
330
1E
100
AcDbEntity
  8
0
100
AcDbLine
 10
271.0
 20
105.6636
 30
0.0
 11
271.0
 21
105.0909
 31
0.0
  0
LINE
  5
4E7
330
1E
100
AcDbEntity
  8
0
100
AcDbLine
 10
271.0
 20
105.6636
 30
0.0
 11
271.0
 21
105.8864
 31
0.0
  0
LINE
  5
4E8
330
1E
100
AcDbEntity
  8
0
100
AcDbLine
 10
271.0
 20
105.8864
 30
0.0
 11
271.0
 21
106.076
 31
0.0
  0
LINE
  5
4E9
330
1E
100
AcDbEntity
  8
0
100
AcDbLine
 10
271.0
 20
105.8864
 30
0.0
 11
271.0
 21
105.6636
 31
0.0
  0
LINE
  5
4EA
330
1E
100
AcDbEntity
  8
0
100
AcDbLine
 10
271.476
 20
103.9219
 30
0.0
 11
271.173
 21
104.5182
 31
0.0
  0
LINE
  5
4EB
330
1E
100
AcDbEntity
  8
0
100
AcDbLine
 10
271.173
 20
104.5182
 30
0.0
 11
271.096
 21
105.3696
 31
0.0
  0
LINE
  5
4EC
330
1E
100
AcDbEntity
  8
0
100
AcDbLine
 10
271.0
 20
105.0909
 30
0.0
 11
271.0
 21
105.6636
 31
0.0
  0
LINE
  5
4ED
330
1E
100
AcDbEntity
  8
0
100
AcDbLine
 10
271.0
 20
104.956
 30
0.0
 11
271.0
 21
106.076
 31
0.0
  0
ENDSEC
  0
SECTION
  2
OBJECTS
  0
DICTIONARY
  5
C
330
0
100
AcDbDictionary
281
     1
  3
ACAD_GROUP
350
D
  3
ACAD_LAYOUT
350
19
  3
ACAD_MLEADERSTYLE
350
516
  3
ACAD_MLINESTYLE
350
16
  3
ACAD_PLOTSETTINGS
350
18
  3
ACAD_PLOTSTYLENAME
350
E
  3
ACAD_SCALELIST
350
4F2
  3
AcDbVariableDictionary
350
4EF
  3
DWGPROPS
350
519
  0
DICTIONARY
  5
D
102
{ACAD_REACTORS
330
C
102
}
330
C
100
AcDbDictionary
281
     1
  0
DICTIONARY
  5
19
102
{ACAD_REACTORS
330
C
102
}
330
C
100
AcDbDictionary
281
     1
  3
Layout1
350
1D
  3
Model
350
21
  0
DICTIONARY
  5
516
102
{ACAD_REACTORS
330
C
102
}
330
C
100
AcDbDictionary
281
     1
  0
DICTIONARY
  5
16
102
{ACAD_REACTORS
330
C
102
}
330
C
100
AcDbDictionary
281
     1
  3
Standard
350
17
  0
DICTIONARY
  5
18
102
{ACAD_REACTORS
330
C
102
}
330
C
100
AcDbDictionary
281
     1
  0
ACDBDICTIONARYWDFLT
  5
E
102
{ACAD_REACTORS
330
C
102
}
330
C
100
AcDbDictionary
281
     1
  3
Normal
350
F
100
AcDbDictionaryWithDefault
340
F
  0
DICTIONARY
  5
4F2
102
{ACAD_REACTORS
330
C
102
}
330
C
100
AcDbDictionary
281
     1
  3
A0
350
4F3
  3
A1
350
4F4
  3
A2
350
4F5
  3
A3
350
4F6
  3
A4
350
4F7
  3
A5
350
4F8
  3
A6
350
4F9
  3
A7
350
4FA
  3
A8
350
4FB
  3
A9
350
4FC
  3
B0
350
4FD
  3
B1
350
4FE
  3
B2
350
4FF
  3
B3
350
500
  3
B4
350
501
  3
B5
350
502
  3
B6
350
503
  3
B7
350
504
  3
B8
350
505
  3
B9
350
506
  3
C0
350
507
  3
C1
350
508
  3
C2
350
509
  3
C3
350
50A
  3
C4
350
50B
  3
C5
350
50C
  3
C6
350
50D
  3
C7
350
50E
  3
C8
350
50F
  3
C9
350
510
  3
D0
350
511
  3
D1
350
512
  3
D2
350
513
  0
DICTIONARY
  5
4EF
102
{ACAD_REACTORS
330
C
102
}
330
C
100
AcDbDictionary
281
     1
  3
CANNOSCALE
350
517
  3
DIMASSOC
350
4F0
  0
XRECORD
  5
519
102
{ACAD_REACTORS
330
C
102
}
330
C
100
AcDbXrecord
280
     1
  1
DWGPROPS COOKIE
  2

  3

  4

  6

  7

  8
MARTIN
  9

300
=
301
=
302
=
303
=
304
=
305
=
306
=
307
=
308
=
309
=
 40
0.0
 41
2455655.470988495
 42
2455821.56517559
  1

 90
        0
  0
LAYOUT
  5
1D
102
{ACAD_REACTORS
330
19
102
}
330
19
100
AcDbPlotSettings
  1

  2
C:\Programme\AutoCAD LT 2002 Deu\plotters\DWF ePlot (optimized for plotting).pc3
  4

  6

 40
0.0
 41
0.0
 42
0.0
 43
0.0
 44
0.0
 45
0.0
 46
0.0
 47
0.0
 48
0.0
 49
0.0
140
0.0
141
0.0
142
1.0
143
1.0
 70
   688
 72
     0
 73
     0
 74
     5
  7

 75
    16
147
1.0
148
0.0
149
0.0
100
AcDbLayout
  1
Layout1
 70
     1
 71
     1
 10
0.0
 20
0.0
 11
12.0
 21
9.0
 12
0.0
 22
0.0
 32
0.0
 14
1.000000000000E+20
 24
1.000000000000E+20
 34
1.000000000000E+20
 15
-1.000000000000E+20
 25
-1.000000000000E+20
 35
-1.000000000000E+20
146
0.0
 13
0.0
 23
0.0
 33
0.0
 16
1.0
 26
0.0
 36
0.0
 17
0.0
 27
1.0
 37
0.0
 76
     0
330
1A
  0
LAYOUT
  5
21
102
{ACAD_REACTORS
330
19
102
}
330
19
100
AcDbPlotSettings
  1

  2
C:\Programme\AutoCAD LT 2002 Deu\plotters\DWF ePlot (optimized for plotting).pc3
  4

  6

 40
0.0
 41
0.0
 42
0.0
 43
0.0
 44
0.0
 45
0.0
 46
0.0
 47
0.0
 48
0.0
 49
0.0
140
0.0
141
0.0
142
1.0
143
1.0
 70
  1712
 72
     0
 73
     0
 74
     0
  7

 75
     0
147
1.0
148
0.0
149
0.0
100
AcDbLayout
  1
Model
 70
     1
 71
     0
 10
0.0
 20
0.0
 11
12.0
 21
9.0
 12
0.0
 22
0.0
 32
0.0
 14
0.0
 24
0.0
 34
0.0
 15
0.0
 25
0.0
 35
0.0
146
0.0
 13
0.0
 23
0.0
 33
0.0
 16
1.0
 26
0.0
 36
0.0
 17
0.0
 27
1.0
 37
0.0
 76
     0
330
1E
331
4F1
  0
MLINESTYLE
  5
17
102
{ACAD_REACTORS
330
16
102
}
330
16
100
AcDbMlineStyle
  2
STANDARD
 70
     0
  3

 62
   256
 51
90.0
 52
90.0
 71
     2
 49
0.5
 62
   256
  6
BYLAYER
 49
-0.5
 62
   256
  6
BYLAYER
  0
ACDBPLACEHOLDER
  5
F
102
{ACAD_REACTORS
330
E
102
}
330
E
  0
SCALE
  5
4F3
102
{ACAD_REACTORS
330
4F2
102
}
330
4F2
100
AcDbScale
 70
     0
300
1:1
140
1.0
141
1.0
290
     1
  0
SCALE
  5
4F4
102
{ACAD_REACTORS
330
4F2
102
}
330
4F2
100
AcDbScale
 70
     0
300
1:2
140
1.0
141
2.0
290
     0
  0
SCALE
  5
4F5
102
{ACAD_REACTORS
330
4F2
102
}
330
4F2
100
AcDbScale
 70
     0
300
1:4
140
1.0
141
4.0
290
     0
  0
SCALE
  5
4F6
102
{ACAD_REACTORS
330
4F2
102
}
330
4F2
100
AcDbScale
 70
     0
300
1:5
140
1.0
141
5.0
290
     0
  0
SCALE
  5
4F7
102
{ACAD_REACTORS
330
4F2
102
}
330
4F2
100
AcDbScale
 70
     0
300
1:8
140
1.0
141
8.0
290
     0
  0
SCALE
  5
4F8
102
{ACAD_REACTORS
330
4F2
102
}
330
4F2
100
AcDbScale
 70
     0
300
1:10
140
1.0
141
10.0
290
     0
  0
SCALE
  5
4F9
102
{ACAD_REACTORS
330
4F2
102
}
330
4F2
100
AcDbScale
 70
     0
300
1:16
140
1.0
141
16.0
290
     0
  0
SCALE
  5
4FA
102
{ACAD_REACTORS
330
4F2
102
}
330
4F2
100
AcDbScale
 70
     0
300
1:20
140
1.0
141
20.0
290
     0
  0
SCALE
  5
4FB
102
{ACAD_REACTORS
330
4F2
102
}
330
4F2
100
AcDbScale
 70
     0
300
1:30
140
1.0
141
30.0
290
     0
  0
SCALE
  5
4FC
102
{ACAD_REACTORS
330
4F2
102
}
330
4F2
100
AcDbScale
 70
     0
300
1:40
140
1.0
141
40.0
290
     0
  0
SCALE
  5
4FD
102
{ACAD_REACTORS
330
4F2
102
}
330
4F2
100
AcDbScale
 70
     0
300
1:50
140
1.0
141
50.0
290
     0
  0
SCALE
  5
4FE
102
{ACAD_REACTORS
330
4F2
102
}
330
4F2
100
AcDbScale
 70
     0
300
1:100
140
1.0
141
100.0
290
     0
  0
SCALE
  5
4FF
102
{ACAD_REACTORS
330
4F2
102
}
330
4F2
100
AcDbScale
 70
     0
300
2:1
140
2.0
141
1.0
290
     0
  0
SCALE
  5
500
102
{ACAD_REACTORS
330
4F2
102
}
330
4F2
100
AcDbScale
 70
     0
300
4:1
140
4.0
141
1.0
290
     0
  0
SCALE
  5
501
102
{ACAD_REACTORS
330
4F2
102
}
330
4F2
100
AcDbScale
 70
     0
300
8:1
140
8.0
141
1.0
290
     0
  0
SCALE
  5
502
102
{ACAD_REACTORS
330
4F2
102
}
330
4F2
100
AcDbScale
 70
     0
300
10:1
140
10.0
141
1.0
290
     0
  0
SCALE
  5
503
102
{ACAD_REACTORS
330
4F2
102
}
330
4F2
100
AcDbScale
 70
     0
300
100:1
140
100.0
141
1.0
290
     0
  0
SCALE
  5
504
102
{ACAD_REACTORS
330
4F2
102
}
330
4F2
100
AcDbScale
 70
     0
300
1/128" = 1'-0"
140
0.0078125
141
12.0
290
     0
  0
SCALE
  5
505
102
{ACAD_REACTORS
330
4F2
102
}
330
4F2
100
AcDbScale
 70
     0
300
1/64" = 1'-0"
140
0.015625
141
12.0
290
     0
  0
SCALE
  5
506
102
{ACAD_REACTORS
330
4F2
102
}
330
4F2
100
AcDbScale
 70
     0
300
1/32" = 1'-0"
140
0.03125
141
12.0
290
     0
  0
SCALE
  5
507
102
{ACAD_REACTORS
330
4F2
102
}
330
4F2
100
AcDbScale
 70
     0
300
1/16" = 1'-0"
140
0.0625
141
12.0
290
     0
  0
SCALE
  5
508
102
{ACAD_REACTORS
330
4F2
102
}
330
4F2
100
AcDbScale
 70
     0
300
3/32" = 1'-0"
140
0.09375
141
12.0
290
     0
  0
SCALE
  5
509
102
{ACAD_REACTORS
330
4F2
102
}
330
4F2
100
AcDbScale
 70
     0
300
1/8" = 1'-0"
140
0.125
141
12.0
290
     0
  0
SCALE
  5
50A
102
{ACAD_REACTORS
330
4F2
102
}
330
4F2
100
AcDbScale
 70
     0
300
3/16" = 1'-0"
140
0.1875
141
12.0
290
     0
  0
SCALE
  5
50B
102
{ACAD_REACTORS
330
4F2
102
}
330
4F2
100
AcDbScale
 70
     0
300
1/4" = 1'-0"
140
0.25
141
12.0
290
     0
  0
SCALE
  5
50C
102
{ACAD_REACTORS
330
4F2
102
}
330
4F2
100
AcDbScale
 70
     0
300
3/8" = 1'-0"
140
0.375
141
12.0
290
     0
  0
SCALE
  5
50D
102
{ACAD_REACTORS
330
4F2
102
}
330
4F2
100
AcDbScale
 70
     0
300
1/2" = 1'-0"
140
0.5
141
12.0
290
     0
  0
SCALE
  5
50E
102
{ACAD_REACTORS
330
4F2
102
}
330
4F2
100
AcDbScale
 70
     0
300
3/4" = 1'-0"
140
0.75
141
12.0
290
     0
  0
SCALE
  5
50F
102
{ACAD_REACTORS
330
4F2
102
}
330
4F2
100
AcDbScale
 70
     0
300
1" = 1'-0"
140
1.0
141
12.0
290
     0
  0
SCALE
  5
510
102
{ACAD_REACTORS
330
4F2
102
}
330
4F2
100
AcDbScale
 70
     0
300
1-1/2" = 1'-0"
140
1.5
141
12.0
290
     0
  0
SCALE
  5
511
102
{ACAD_REACTORS
330
4F2
102
}
330
4F2
100
AcDbScale
 70
     0
300
3" = 1'-0"
140
3.0
141
12.0
290
     0
  0
SCALE
  5
512
102
{ACAD_REACTORS
330
4F2
102
}
330
4F2
100
AcDbScale
 70
     0
300
6" = 1'-0"
140
6.0
141
12.0
290
     0
  0
SCALE
  5
513
102
{ACAD_REACTORS
330
4F2
102
}
330
4F2
100
AcDbScale
 70
     0
300
1'-0" = 1'-0"
140
12.0
141
12.0
290
     0
  0
DICTIONARYVAR
  5
517
102
{ACAD_REACTORS
330
4EF
102
}
330
4EF
100
DictionaryVariables
280
     0
  1
1:1
  0
DICTIONARYVAR
  5
4F0
102
{ACAD_REACTORS
330
4EF
102
}
330
4EF
100
DictionaryVariables
280
     0
  1
1
  0
ENDSEC
  0
SECTION
  2
THUMBNAILIMAGE
 90
    16364
310
28000000B40000005500000001000800000000000000000000000000000000000000000000000000FFFFFF000000FF0000FFFF0000FF0000FFFF0000FF000000FF00FF000000000080808000C0C0C0000000FF007F7FFF000000A5005252A50000007F003F3F7F0000004C0026264C000000260013132600003FFF007F9FFF
310
000029A5005267A500001F7F003F4F7F0000134C00262F4C000009260013172600007FFF007FBFFF000052A500527CA500003F7F003F5F7F0000264C0026394C0000132600131C260000BFFF007FDFFF00007CA5005291A500005F7F003F6F7F0000394C0026424C00001C26001321260000FFFF007FFFFF0000A5A50052A5
310
A500007F7F003F7F7F00004C4C00264C4C00002626001326260000FFBF007FFFDF0000A57C0052A59100007F5F003F7F6F00004C3900264C420000261C001326210000FF7F007FFFBF0000A5520052A57C00007F3F003F7F5F00004C2600264C39000026130013261C0000FF3F007FFF9F0000A5290052A56700007F1F003F
310
7F4F00004C1300264C2F00002609001326170000FF00007FFF7F0000A5000052A55200007F00003F7F3F00004C0000264C260000260000132613003FFF00009FFF7F0029A5000067A552001F7F00004F7F3F00134C00002F4C260009260000172613007FFF0000BFFF7F0052A500007CA552003F7F00005F7F3F00264C0000
310
394C2600132600001C261300BFFF0000DFFF7F007CA5000091A552005F7F00006F7F3F00394C0000424C26001C26000021261300FFFF0000FFFF7F00A5A50000A5A552007F7F00007F7F3F004C4C00004C4C26002626000026261300FFBF0000FFDF7F00A57C0000A59152007F5F00007F6F3F004C3900004C422600261C00
310
0026211300FF7F0000FFBF7F00A5520000A57C52007F3F00007F5F3F004C2600004C39260026130000261C1300FF3F0000FF9F7F00A5290000A56752007F1F00007F4F3F004C1300004C2F26002609000026171300FF000000FF7F7F00A5000000A55252007F0000007F3F3F004C0000004C2626002600000026131300FF00
310
3F00FF7F9F00A5002900A55267007F001F007F3F4F004C0013004C262F002600090026131700FF007F00FF7FBF00A5005200A5527C007F003F007F3F5F004C0026004C2639002600130026131C00FF00BF00FF7FDF00A5007C00A55291007F005F007F3F6F004C0039004C26420026001C0026132100FF00FF00FF7FFF00A5
310
00A500A552A5007F007F007F3F7F004C004C004C264C002600260026132600BF00FF00DF7FFF007C00A5009152A5005F007F006F3F7F0039004C0042264C001C002600211326007F00FF00BF7FFF005200A5007C52A5003F007F005F3F7F0026004C0039264C00130026001C1326003F00FF009F7FFF002900A5006752A500
310
1F007F004F3F7F0013004C002F264C000900260017132600000000002D2D2D005B5B5B0089898900B7B7B700B3B3B30000000000000000000000000000000000000000000000000000000000000000000000000000000000000000000000000000000000000000000000000000000000000000000000000000000000000000
310
00000000000000000000000000000000000000000000000000000000000000000000000000000000000000000000000000000000000000000000000000000000000000000000000000000000000000000000000000000000000000000000000000000000000000000000000000000000000000000000000000000000000000
310
00000000000000000000000000000000000000000000000000000000000000000000000000000000000000000000000000000000000000000000000000000000000000000000000000000000000000000000000000000000000000000000000000000000000000000000000000000000000000000000000000000000000000
310
00000000000000000000000000000000000000000000000000000000000000000000000000000000000000000000000000000000000000000000000000000000000000000000000000000000000000000000000000000000000000000000000000000000000000000000000000000000000000000000000000000000000000
310
00000000000000000000000000000000000000000000000000000000000000000000000000000000000000000000000000000000000000000000000000000000000000000000000000000000000000000000000000000000000000000000000000000000000000000000000000000000000000000000000000000000000000
310
00000000000000000000000000000000000000000000000000000000000000000000000000000000000000000000000000000000000000000000000000000000000000000000000000000000000000000000000000000000000000000000000000000000000000000000000000000000000000000000000000000000000000
310
00000000000000000000000000000000000000000000000000000000000000000000000000000000000000000000000000000000000000000000000000000000000000000000000000000000000000000000000000000000000000000000000000000000000000000000000000000000000000000000000000000000000000
310
00000000000000000000000000000000000000000000000000000000000000000000000000000000000000000000000000000000000000000000000000000000000000000000000000000000000000000000000000000000000000000000000000000000000000000000000000000000000000000000000000000000000000
310
00000000000000000000000000000000000000000000000000000000000000000000000000000000000000000000000000000000000000000000000000000000000000000000000000000000000000000000000000000000000000000000000000000000000000000000000000000000000000000000000000000000000000
310
00000000000000000000000000000000000000000000000000000000000000000000000000000000000000000000000000000000000000000000000000000000000000000000000000000000000000000000000000000000000000000000000000000000000000000000000000000000000000000000000000000000000000
310
00000000000000000000000000000000000000000000000000000000000000000000000000000000000000000000000000000000000000000000000000000000000000000000000000000000000000000000000000000000000000000000000000000000000000000000000000000000000000000000000000000000000000
310
00000000000000000000000000000000000000000000000000000000000000000000000000000000000000000000000000000000000000000000000000000000000000000000000000000000000000000000000000000000000000000000000000000000000000000000000000000000000000000000000000000000000000
310
00000000000000000000000000000000000000000000000000000000000000000000000000000000000000000000000000000000000000000000000000000000000000000000000000000000000000000000000000000000000000000000000000000000000000000000000000000000000000000000000000000000000000
310
00000000000000000000000000000000000000000000000000000000000000000000000000000000000000000000000000000000000000000000000000000000000000000000000000000000000000000000000000000000000000000000000000000000000000000000000000000000000000000000000000000000000000
310
00000000000000000000000000000000000000000000000000000000000000000000000000000000000000000000000000000000000000000000000000000000000000000000000000000000000000000000000000000000000000000000000000000000000000000000000000000000000000000000000000000000000000
310
00000000000000000000000000000000000000000000000000000000000000000000000000000000000000000000000000000000000000000000000000000000000000000000000000000000000000000000000000000000000000000000000000000000000000000000000000000000000000000000000000000000000000
310
00000000000000000000000000000000000000000000000000000000000000000000000000000000000000000000000000000000000000000000000000000000000000000000000000000000000000000000000000000000000000000000000000000000000000000000000000000000000000000000000000000000000000
310
00000000000000000000000000000000000000000000000000000000000000000000000000000000000000000000000000000000000000000000000000000000000000000000000000000000000000000000000000000000000000000000000000000000000000000000000000000000000000000000000000000000000000
310
00000000000000000000000000000000000000000000000000000000000000000000000000000000000000000000000000000000000000000000000000000000000000000000000000000000000000000000000000000000000000000000000000000000000000000000000000000000000000000000000000000000000000
310
00000000000000000000000000000000000000000000000000000000000000000000000000000000000000000000000000000000000000000000000000000000000000000000000000000000000000000000000000000000000000000000000000000000000000000000000000000000000000000000000000000000000000
310
00000000000000000000000000000000000000000000000000000000000000000000000000000000000000000000000000000000000000000000000000000000000000000000000000000000000000000000000000000000000000000000000000000000000000000000000000000000000000000000000000000000000000
310
00000000000000000000000000000000000000000000000000000000000000000000000000000000000000000000000000000000000000000000000000000000000000000000000000000000000000000000000000000000000000000000000000000000000000000000000000000000000000000000000000000000000000
310
00000000000000000000000000000000000000000000000000000000000000000000000000000000000000000000000000000000000000000000000000000000000000000000000000000000000000000000000000000000000000000000000000000000000000000000000000000000000000000000000000000000000000
310
00000000000000000007070707070707070707070707070707070707070707070707070707070707070707070707070707070707070707070707070707070707070707070707070707070707070707070707070707070707070707070707070707070707070707070707070707070707070707070707070707070707070707
310
07070707070707070707070707070707070707070707070707070707070707070707070707070707070707070707070707070707070707070707070000000700070707000000000000000000000000000000000000000000000000000000000000000000000000000000000000000000000000000000000000000000000000
310
00000000000000000000000000000000000000000000000000000000000000000000000000000000000000000000000000000000000000000000000000000000000000000000000000000000000000000000000000000000000000000000000000000000000000000000000707070007000000070000000007070700000000
310
00000000000000000000000000000000000000000000000000000000000000000000000000000000000000000000000000000000000000000000000000000000000000000000000000000000000000000000000000000000000000000000000000000000000000000000000000000000000000000000000000000000000000
310
00000000000000000000000000000000000000000000000000000000000007070700000000070000000700000000000000070707000000000000000000000000000000000000000000000000000000000000000000000000000000000000000000000000000000000000000000000000000000000000000000000000000000
310
00000000000000000000000000000000000000000000000000000000000000000000000000000000000000000000000000000000000000000000000000000000000000000000000000000000000000000707070000000000000007000000070000000000000000000007070700000000000000000000000000000000000000
310
00000000000000000000000000000000000000000000000000000000000000000000000000000000000000000000000000000000000000000000000000000000000000000000000000000000000000000000000000000000000000000000000000000000000000000000000000000000000000000000000000000000000000
310
00000007070700000000000000000000070000000700000000000000000000000000070707000000000000000000000000000000000000000000000000000000000000000000000000000000000000000000000000000000000000000000000000000000000000000000000000000000000000000000000000000000000000
310
00000000000000000000000000000000000000000000000000000000000000000000000000000000000000000000000000000000000707070000000000000000000000000007000000070000000000000000000000000000000007070000000000000000000000000000000000000000000000000000000000000000000000
310
00000000000000000000000000000000000000000000000000000000000000000000000000000000000000000000000000000000000000000000000000000000000000000000000000000000000000000000000000000000000000000000000000000000000000000707000000000000000000000000000000000700000007
310
00000000000000000000000000000000000007070700000000000000000000000000000000000000000000000000000000000000000000000000000000000000000000000000000000000000000000000000000000000000000000000000000000000000000000000000000000000000000000000000000000000000000000
310
00000000000000000000000000000000000000000000000000000007070700000000000000000000000000000000000007000000070000000000000000000000000000000000000000000707070000000000000000000000000000000000000000000000000000000000000000000000000000000000000000000000000000
310
00000000000000000000000000000000000000000000000000000000000000000000000000000000000000000000000000000000000000000000000000000000000000000000000000000000000707070000000000000000000000000000000000000000000700000007000000000000000000000000000000000000000000
310
00000007070700000000000000000000000000000000000000000000000000000000000000000000000000000000000000000000000000000000000000000000000000000000000000000000000000000000000000000000000000000000000000000000000000000000000000000000000000000000000000000000000000
310
07070700000000000000000000000000000000000000000000000007000000070000000000000000000000000000000000000000000000000000000707070000000000000000000000000000000000000000000000000000000000000000000000000000000000000000000000000000000000000000000000000000000000
310
00000000000000000000000000000000000000000000000000000000000000000000000000000000000000000000000000000707070000000000000000000000000000000000000000000000000000000700000007000000000000000000000000000000000000000000000000000000000000070707000000000000000000
310
00000000000000000000000000000000000000000000000000000000000000000000000000000000000000000000000000000000000000000000000000000000000000000000000000000000000000000000000000000000000000000000000000000000070707000000000000000000000000000000000000000000000000
310
00000000000007000000070000000000000000000000000000000000000000000000000000000000000000000707070000000000000000000000000000000000000000000000000000000000000000000000000000000000000000000000000000000000000000000000000000000000000000000000000000000000000000
310
00000000000000000000000000000000000000000000000707070000000000000000000000000000000000000000000000000000000000000000000700000007000000000000000000000000000000000000000000000000000000000000000000000000070707070707070707070707070707070707070707070707070707
310
07070707070707070707070707070707070707070707070707070707070707070707070707070707070707070707070707070707070707070707070707070707070707070707070707070707000000000000000000000000000000000000000000000000000000000000000000000000070000000700000000000000000000
310
00000000000000000000000000000000000000000000000000000007000000000000000000000000000000000000000000000000000000000000000000000000000000000000000000000000000000000000000000000000000000000000000000000000000000000000000000000000000000000000000000000000000000
310
07000000000000000000000000000000000000000000000000000000000000000000000000000700000007000000000000000000000000000000000000000000000000000000000000000000000000000700000000000000000000000000000000000000000000000000000000000000000000000000000000000000000000
310
00000000000000000000000000000000000000000000000000000000000000000000000000000000000000000000000000000000000700000000000000000000000000000000000000000000000000000000000000000000000000070000000700000000000000000000000000000000000000000000000000000000000000
310
00000000000007000000000000000000000000000000000000000000000000000000000000000000000000000000000007070707000000000000000000000000000000000000000000000000000000000000000000000000000000000000000000000000000000000000070000000000000000000000000000000000000000
310
00000000000000000000000000000000000700000007000000000000000000000000000000000000000000000000000000000000000000000000000700000000000000000000000000000000000000000000000000000000000000000000000000000000070007070707000000000000000000000000000000000000000000
310
00000000000000000000000000000000000000000000000000000000000000000700000000000000000000000000000000000000000000000000000000000000000000000000070000000700000000000000000000000000000000000000000000000000000000000000000000000000070000000000000000000000000000
310
00000000000000000000000000000000000000000000000000000707000707070707070707070000000000000000000000000000000000000000000000000000000000000000000000000000000000000000000000070000000000000000000000000000000000000000000000000000000000000000000000000007000000
310
07000000000000000000000000000000000000000000000000000000000000000000000000000700000000000000000000000000000000000000000000000000000000000000000000000000000007070007070707070000000000070700000000000000000000000000000000000000000007070707000000000000000000
310
00000000000000000000000700000000000000000000000000000000000000000000000000000000000000000000000000070000000700000000000000000000000000000000000000000000000000000000000000000000000000070000000000000000000000000000000000000000070707070000000000000000000000
310
00000000000700070707000000000700000000070700000000000000000000000000000000000707000000000707000000000000000000000000000000000000070000000000000000000000000000000000000000000000000000000000000000000000000007000000070000000000000000000000000000000000000000
310
00000000000000000000000000000000000700000000000000000000000000000000000000070700070707000000000000000000000000000000070707070000070707000707070000070000000000000000000000000000000007000000000000000007000000000000000000000000000000000007000000000000000000
310
00000000000000000000000000000000000000000000000000000000070000000700000000000000000000000000000000000000000000000000000000000000000000000000070000000000000000000000000000000000000700070707070007000000000000000000000000000000070700000700000000000000070000
310
07000000000000000000000000000007000000000000000000000700000000000000000000000000000000070000000000000000000000000000000000000000000000000000000000000000000000000007000000070000000000000000000000000000000000000000000000000000000000000000000000000007000000
310
00000000000000000000000007070700070707070707000707070000000000000000000000000700000007000000000000000700000007000000000000000000000000070700000000000000000000070000000000000000000000000000000007000000000000000000000000000000000000000000000000000000000000
310
00000000000000070000000700000000000000000000000000000000000000000000000000000000000000000000000000070000000000000000000000070707070707070707070707070707070007070707070000000000000000070000070000000707070000000700000700000000000000000000000007070000000000
310
00000000000007000000000000000000000000000000070000000000000000000000000000000000000000000000000000000000000000000000000007000000070000000000000000000000000000000000000000000000000000000000000000000000000007000000000000000000000007000707070700070707070707
310
07070700070700000700000000000000000700000700000007000700000007000007000000000000000000000000070000000000000000000000000700000000000000000000000000000007000000000000000000000000000000000000000000000000000000000000000000000000000700000007000000000000000000
310
00000000000000000000000000000000000000000000000000000000070000000000000000000000070007070707000707070707070707000007070000070000000000000000070000070000000700070000000000000000000000000000000000000007000000000000000000000000000000000000000000000000000000
310
00070000000000000000000000000000000000000000000000000000000000000000000000000007000000070000000000000000000000000000000000000000000000000000000000000000000000000007000000000000000000000007070707070707070707070707070707000707070707000000000000000007000007
310
00000007070700000007000007000000000000000000000000070700000000000000000000000700000000000000000000000000000007000000000000000000000000000000000000000000000000000000000000000000000000000700000007000000000000000000000000000000000000000000000000000000000000
310
00000000000000070000000000000000000000000000000707070007070707070700070707000000000000000000000000070000000700000000000000070000070700000000000000000000000007070000000000000000000007000000000000000000000000000000000700000000000000000000000000000000000000
310
00000000000000000000000000000000000007000000070000000000000000000000000000000000000000000000000000000000000000000000000007000000000000000000000000000000000000070007070707000700000000000000000000000000000000070000070000000000000007000007070000000000000000
310
00000000000700000000000000000000070000000000000000000000000000000007000000000000000000000000000000000000000000000000000000000000000000000000000700000007000000000000000000000000000000000000000000000000000000000000000000000000000700000000000000000000000000
310
00000000000007070000070700000000000000000000000000000000000700000007070700070707000007070007000000000000000000000000000700000000000000000700000000000000000000000000000000000700000000000000000000000000000000000000000000000000000000000000000000000000070000
310
00070000000000000000000000000000000000000000000000000000000000000000000000000007000000000000000000000000000000000000000007070707000000000000000000000000000000000000000700000000000700000000000707000700000000000000000000000000000700000000000007000000000000
310
00000000000000000000000007000000000000000000000000000000000000000000000000000000000000000000000000000700000007000000000000000000000000000000000000000000000000000000000000000000000000000700000000000000000000000000000000000000000000000000000000000000000000
310
00000000000000000000070700000000000000070707070007000000000000000000000000000000070707070707000000000000000000000000000000000000000700000000000000000000000000000000000000000000000000000000000000000000000000070000000700000000000000000000000000000000000000
310
00000000000000000000000000000000000007000000000000000000000000000000000000000000000000000000000000000000000000000000000000000000000707070707070707070700070700000000000000000000000000000000000000000000000000000000000000000000000000000000070000000000000000
310
00000000000000000000000000000000000000000000000000000000000700000007000000000000000000000000000000000000000000000000000000000000000000000000000700000000000000000000000000000000000000000000000000000000000000000000000000000000000000000000000000000000000707
310
07070007000000000000000000000000000000000000000000000000000000000000000000000000000000000700000000000000000000000000000000000000000000000000000000000000000000000000070000000700000000000000000000000000000000000000000000000000000000000000000000000000070000
310
00000000000000000000000000000000000000000000000000000000000000000000000000000000000000000000000000000000070707070000000000000000000000000000000000000000000000000000000000000000000000000000000000070000000000000000000000000000000000000000000000000000000000
310
00000000000000000700000007000000000000000000000000000000000000000000000000000000000000000000000000000700000000000000000000000000000000000000000000000000000000000000000000000000000000000000000000000000000000000000000000000000000000000000000000000000000000
310
00000000000000000000000000000000000000000000000700000000000000000000000000000000000000000000000000000000000000000000000000070000000700000000000000000000000000000000000000000000000000000000000000000000000000070000000000000000000000000000000000000000000000
310
00000000000000000000000000000000000000000000000000000000000000000000000000000000000000000000000000000000000000000000000000000000000000000000000000000000070000000000000000000000000000000000000000000000000000000000000000000000000007000000070000000000000000
310
00000000000000000000000000000000000000000000000000000000070707070707070707070707070707070707070707070707070707070707070707070707070707070707070707070707070707070707070707070707070707070707070707070707070707070707070707070707070707070707070707070707070707
310
07070707000000000000000000000000000000000000000000000000000000000000000000000000070000000700000000000000000000000000000000000000000000000000000000000000000007070700000000000000000000000000000000000000000000000000000000000000000000000000000000000000000000
310
00000000000000000000000000000000000000000000000000000000000000000000000000000000000000000000000000000000000000000007070700000000000000000000000000000000000000000000000000000000000000000007000000070000000000000000000000000000000000000000000000000000000000
310
00070707000000000000000000000000000000000000000000000000000000000000000000000000000000000000000000000000000000000000000000000000000000000000000000000000000000000000000000000000000000000000000000000000000000000000000000000000000707070000000000000000000000
310
00000000000000000000000000000000000000070000000700000000000000000000000000000000000000000000000000000007070700000000000000000000000000000000000000000000000000000000000000000000000000000000000000000000000000000000000000000000000000000000000000000000000000
310
00000000000000000000000000000000000000000000000000000000000000000000000000000000000007070700000000000000000000000000000000000000000000000000000007000000070000000000000000000000000000000000000000000000000707070000000000000000000000000000000000000000000000
310
00000000000000000000000000000000000000000000000000000000000000000000000000000000000000000000000000000000000000000000000000000000000000000000000000000000000000000000000000000000000000000000000000000707070000000000000000000000000000000000000000000000000700
310
00000700000000000000000000000000000000000000000007070700000000000000000000000000000000000000000000000000000000000000000000000000000000000000000000000000000000000000000000000000000000000000000000000000000000000000000000000000000000000000000000000000000000
310
00000000000000000000000000000000000000000000000000000007070700000000000000000000000000000000000000000007000000070000000000000000000000000000000000000007070000000000000000000000000000000000000000000000000000000000000000000000000000000000000000000000000000
310
00000000000000000000000000000000000000000000000000000000000000000000000000000000000000000000000000000000000000000000000000000000000000000000000000000000000000000000000707000000000000000000000000000000000000000700000007000000000000000000000000000000000707
310
07000000000000000000000000000000000000000000000000000000000000000000000000000000000000000000000000000000000000000000000000000000000000000000000000000000000000000000000000000000000000000000000000000000000000000000000000000000000000000000000000000000000000
310
00000000000000000000000707070000000000000000000000000000000007000000070000000000000000000000000007070700000000000000000000000000000000000000000000000000000000000000000000000000000000000000000000000000000000000000000000000000000000000000000000000000000000
310
00000000000000000000000000000000000000000000000000000000000000000000000000000000000000000000000000000000000000000000000000000000000000070707000000000000000000000000000700000007000000000000000000000707070000000000000000000000000000000000000000000000000000
310
00000000000000000000000000000000000000000000000000000000000000000000000000000000000000000000000000000000000000000000000000000000000000000000000000000000000000000000000000000000000000000000000000000000000000000000000000000000000000000000000000000007070700
310
00000000000000000007000000070000000000000007070700000000000000000000000000000000000000000000000000000000000000000000000000000000000000000000000000000000000000000000000000000000000000000000000000000000000000000000000000000000000000000000000000000000000000
310
00000000000000000000000000000000000000000000000000000000000000000000000000000000000000000000000000000000070707000000000000000700000007000000000707070000000000000000000000000000000000000000000000000000000000000000000000000000000000000000000000000000000000
310
00000000000000000000000000000000000000000000000000000000000000000000000000000000000000000000000000000000000000000000000000000000000000000000000000000000000000000000000000000000000000000000000000000000000000000000000007070700000000070000000700070707000000
310
00000000000000000000000000000000000000000000000000000000000000000000000000000000000000000000000000000000000000000000000000000000000000000000000000000000000000000000000000000000000000000000000000000000000000000000000000000000000000000000000000000000000000
310
00000000000000000000000000000000000000000000000000000000000000000000000000070707000700000007070707070707070707070707070707070707070707070707070707070707070707070707070707070707070707070707070707070707070707070707070707070707070707070707070707070707070707
310
07070707070707070707070707070707070707070707070707070707070707070707070707070707070707070707070707070707070707070707070707070707070707070707070707070707070707070707070707070707070707070707070000000000000000000000000000000000000000000000000000000000000000
310
00000000000000000000000000000000000000000000000000000000000000000000000000000000000000000000000000000000000000000000000000000000000000000000000000000000000000000000000000000000000000000000000000000000000000000000000000000000000000000000000000000000000000
310
00000000000000000000000000000000000000000000000000000000000000000000000000000000000000000000000000000000000000000000000000000000000000000000000000000000000000000000000000000000000000000000000000000000000000000000000000000000000000000000000000000000000000
310
00000000000000000000000000000000000000000000000000000000000000000000000000000000000000000000000000000000000000000000000000000000000000000000000000000000000000000000000000000000000000000000000000000000000000000000000000000000000000000000000000000000000000
310
00000000000000000000000000000000000000000000000000000000000000000000000000000000000000000000000000000000000000000000000000000000000000000000000000000000000000000000000000000000000000000000000000000000000000000000000000000000000000000000000000000000000000
310
00000000000000000000000000000000000000000000000000000000000000000000000000000000000000000000000000000000000000000000000000000000000000000000000000000000000000000000000000000000000000000000000000000000000000000000000000000000000000000000000000000000000000
310
00000000000000000000000000000000000000000000000000000000000000000000000000000000000000000000000000000000000000000000000000000000000000000000000000000000000000000000000000000000000000000000000000000000000000000000000000000000000000000000000000000000000000
310
00000000000000000000000000000000000000000000000000000000000000000000000000000000000000000000000000000000000000000000000000000000000000000000000000000000000000000000000000000000000000000000000000000000000000000000000000000000000000000000000000000000000000
310
00000000000000000000000000000000000000000000000000000000000000000000000000000000000000000000000000000000000000000000000000000000000000000000000000000000000000000000000000000000000000000000000000000000000000000000000000000000000000000000000000000000000000
310
00000000000000000000000000000000000000000000000000000000000000000000000000000000000000000000000000000000000000000000000000000000000000000000000000000000000000000000000000000000000000000000000000000000000000000000000000000000000000000000000000000000000000
310
00000000000000000000000000000000000000000000000000000000000000000000000000000000000000000000000000000000000000000000000000000000000000000000000000000000000000000000000000000000000000000000000000000000000000000000000000000000000000000000000000000000000000
310
00000000000000000000000000000000000000000000000000000000000000000000000000000000000000000000000000000000000000000000000000000000000000000000000000000000000000000000000000000000000000000000000000000000000000000000000000000000000000000000000000000000000000
310
00000000000000000000000000000000000000000000000000000000000000000000000000000000000000000000000000000000000000000000000000000000000000000000000000000000000000000000000000000000000000000000000000000000000000000000000000000000000000000000000000000000000000
310
00000000000000000000000000000000000000000000000000000000000000000000000000000000000000000000000000000000000000000000000000000000000000000000000000000000000000000000000000000000000000000000000000000000000000000000000000000000000000000000000000000000000000
310
00000000000000000000000000000000000000000000000000000000000000000000000000000000000000000000000000000000000000000000000000000000000000000000000000000000000000000000000000000000000000000000000000000000000000000000000000000000000000000000000000000000000000
310
00000000000000000000000000000000000000000000000000000000000000000000000000000000000000000000000000000000000000000000000000000000000000000000000000000000000000000000000000000000000000000000000000000000000000000000000000000000000000000000000000000000000000
310
00000000000000000000000000000000000000000000000000000000000000000000000000000000000000000000000000000000000000000000000000000000000000000000000000000000000000000000000000000000000000000000000000000000000000000000000000000000000000000000000000000000000000
310
00000000000000000000000000000000000000000000000000000000000000000000000000000000000000000000000000000000000000000000000000000000000000000000000000000000000000000000000000000000000000000000000000000000000000000000000000000000000000000000000000000000000000
310
00000000000000000000000000000000000000000000000000000000000000000000000000000000000000000000000000000000000000000000000000000000000000000000000000000000000000000000000000000000000000000000000000000000000000000000000000000000000000000000000000000000000000
310
00000000000000000000000000000000000000000000000000000000000000000000000000000000000000000000000000000000000000000000000000000000000000000000000000000000000000000000000000000000000000000000000000000000000000000000000000000000000000000000000000000000000000
310
00000000000000000000000000000000000000000000000000000000000000000000000000000000000000000000000000000000000000000000000000000000000000000000000000000000000000000000000000000000000000000000000000000000000000000000000000000000000000000000000000000000000000
310
00000000000000000000000000000000000000000000000000000000000000000000000000000000000000000000000000000000000000000000000000000000000000000000000000000000000000000000000000000000000000000000000000000000000000000000000000000000000000000000000000000000000000
310
00000000000000000000000000000000000000000000000000000000000000000000000000000000000000000000000000000000000000000000000000000000000000000000000000000000000000000000000000000000000000000000000000000000000000000000000000000000000000000000000000000000000000
310
00000000000000000000000000000000000000000000000000000000000000000000000000000000000000000000000000000000000000000000000000000000000000000000000000000000000000000000000000000000000000000000000000000000000000000000000000000000000000000000000000000000000000
310
000000000000000000000000000000000000000000000000000000000000000000000000000000000000000000000000000000000000000000000000000000000000000000000000000000000000000000000000000000000000000000000000000000000000000000000000
  0
ENDSEC
  0
EOF
