  0
SECTION
  2
HEADER
  9
$ACADVER
  1
AC1015
  9
$ACADMAINTVER
 70
     6
  9
$DWGCODEPAGE
  3
ANSI_1252
  9
$INSBASE
 10
0.0
 20
0.0
 30
0.0
  9
$EXTMIN
 10
0.0
 20
0.0
 30
0.0
  9
$EXTMAX
 10
700.0
 20
642.0
 30
0.0
  9
$LIMMIN
 10
0.0
 20
0.0
  9
$LIMMAX
 10
12.0
 20
9.0
  9
$ORTHOMODE
 70
     0
  9
$REGENMODE
 70
     1
  9
$FILLMODE
 70
     1
  9
$QTEXTMODE
 70
     0
  9
$MIRRTEXT
 70
     1
  9
$LTSCALE
 40
1.0
  9
$ATTMODE
 70
     1
  9
$TEXTSIZE
 40
0.2
  9
$TRACEWID
 40
0.05
  9
$TEXTSTYLE
  7
Standard
  9
$CLAYER
  8
0
  9
$CELTYPE
  6
Continuous
  9
$CECOLOR
 62
   256
  9
$CELTSCALE
 40
1.0
  9
$DISPSILH
 70
     0
  9
$DIMSCALE
 40
1.0
  9
$DIMASZ
 40
0.18
  9
$DIMEXO
 40
0.0625
  9
$DIMDLI
 40
0.38
  9
$DIMRND
 40
0.0
  9
$DIMDLE
 40
0.0
  9
$DIMEXE
 40
0.18
  9
$DIMTP
 40
0.0
  9
$DIMTM
 40
0.0
  9
$DIMTXT
 40
0.18
  9
$DIMCEN
 40
0.09
  9
$DIMTSZ
 40
0.0
  9
$DIMTOL
 70
     0
  9
$DIMLIM
 70
     0
  9
$DIMTIH
 70
     1
  9
$DIMTOH
 70
     1
  9
$DIMSE1
 70
     0
  9
$DIMSE2
 70
     0
  9
$DIMTAD
 70
     0
  9
$DIMZIN
 70
     0
  9
$DIMBLK
  1

  9
$DIMASO
 70
     1
  9
$DIMSHO
 70
     1
  9
$DIMPOST
  1

  9
$DIMAPOST
  1

  9
$DIMALT
 70
     0
  9
$DIMALTD
 70
     2
  9
$DIMALTF
 40
25.4
  9
$DIMLFAC
 40
1.0
  9
$DIMTOFL
 70
     0
  9
$DIMTVP
 40
0.0
  9
$DIMTIX
 70
     0
  9
$DIMSOXD
 70
     0
  9
$DIMSAH
 70
     0
  9
$DIMBLK1
  1

  9
$DIMBLK2
  1

  9
$DIMSTYLE
  2
Standard
  9
$DIMCLRD
 70
     0
  9
$DIMCLRE
 70
     0
  9
$DIMCLRT
 70
     0
  9
$DIMTFAC
 40
1.0
  9
$DIMGAP
 40
0.09
  9
$DIMJUST
 70
     0
  9
$DIMSD1
 70
     0
  9
$DIMSD2
 70
     0
  9
$DIMTOLJ
 70
     1
  9
$DIMTZIN
 70
     0
  9
$DIMALTZ
 70
     0
  9
$DIMALTTZ
 70
     0
  9
$DIMUPT
 70
     0
  9
$DIMDEC
 70
     4
  9
$DIMTDEC
 70
     4
  9
$DIMALTU
 70
     2
  9
$DIMALTTD
 70
     2
  9
$DIMTXSTY
  7
Standard
  9
$DIMAUNIT
 70
     0
  9
$DIMADEC
 70
     0
  9
$DIMALTRND
 40
0.0
  9
$DIMAZIN
 70
     0
  9
$DIMDSEP
 70
    46
  9
$DIMATFIT
 70
     3
  9
$DIMFRAC
 70
     0
  9
$DIMLDRBLK
  1

  9
$DIMLUNIT
 70
     2
  9
$DIMLWD
 70
    -2
  9
$DIMLWE
 70
    -2
  9
$DIMTMOVE
 70
     0
  9
$LUNITS
 70
     2
  9
$LUPREC
 70
     4
  9
$SKETCHINC
 40
0.1
  9
$FILLETRAD
 40
0.0
  9
$AUNITS
 70
     0
  9
$AUPREC
 70
     0
  9
$MENU
  1
.
  9
$ELEVATION
 40
0.0
  9
$PELEVATION
 40
0.0
  9
$THICKNESS
 40
0.0
  9
$LIMCHECK
 70
     0
  9
$CHAMFERA
 40
0.0
  9
$CHAMFERB
 40
0.0
  9
$CHAMFERC
 40
0.0
  9
$CHAMFERD
 40
0.0
  9
$SKPOLY
 70
     0
  9
$TDCREATE
 40
2455655.55432581
  9
$TDUCREATE
 40
2455655.470992477
  9
$TDUPDATE
 40
2455821.648368958
  9
$TDUUPDATE
 40
2455821.565035625
  9
$TDINDWG
 40
0.0031387384
  9
$TDUSRTIMER
 40
0.0031387384
  9
$USRTIMER
 70
     1
  9
$ANGBASE
 50
0.0
  9
$ANGDIR
 70
     0
  9
$PDMODE
 70
     0
  9
$PDSIZE
 40
0.0
  9
$PLINEWID
 40
0.0
  9
$SPLFRAME
 70
     0
  9
$SPLINETYPE
 70
     6
  9
$SPLINESEGS
 70
     8
  9
$HANDSEED
  5
87E
  9
$SURFTAB1
 70
     6
  9
$SURFTAB2
 70
     6
  9
$SURFTYPE
 70
     6
  9
$SURFU
 70
     6
  9
$SURFV
 70
     6
  9
$UCSBASE
  2

  9
$UCSNAME
  2

  9
$UCSORG
 10
0.0
 20
0.0
 30
0.0
  9
$UCSXDIR
 10
1.0
 20
0.0
 30
0.0
  9
$UCSYDIR
 10
0.0
 20
1.0
 30
0.0
  9
$UCSORTHOREF
  2

  9
$UCSORTHOVIEW
 70
     1
  9
$UCSORGTOP
 10
0.0
 20
0.0
 30
0.0
  9
$UCSORGBOTTOM
 10
0.0
 20
0.0
 30
0.0
  9
$UCSORGLEFT
 10
0.0
 20
0.0
 30
0.0
  9
$UCSORGRIGHT
 10
0.0
 20
0.0
 30
0.0
  9
$UCSORGFRONT
 10
0.0
 20
0.0
 30
0.0
  9
$UCSORGBACK
 10
0.0
 20
0.0
 30
0.0
  9
$PUCSBASE
  2

  9
$PUCSNAME
  2

  9
$PUCSORG
 10
0.0
 20
0.0
 30
0.0
  9
$PUCSXDIR
 10
1.0
 20
0.0
 30
0.0
  9
$PUCSYDIR
 10
0.0
 20
1.0
 30
0.0
  9
$PUCSORTHOREF
  2

  9
$PUCSORTHOVIEW
 70
     0
  9
$PUCSORGTOP
 10
0.0
 20
0.0
 30
0.0
  9
$PUCSORGBOTTOM
 10
0.0
 20
0.0
 30
0.0
  9
$PUCSORGLEFT
 10
0.0
 20
0.0
 30
0.0
  9
$PUCSORGRIGHT
 10
0.0
 20
0.0
 30
0.0
  9
$PUCSORGFRONT
 10
0.0
 20
0.0
 30
0.0
  9
$PUCSORGBACK
 10
0.0
 20
0.0
 30
0.0
  9
$USERI1
 70
     0
  9
$USERI2
 70
     0
  9
$USERI3
 70
     0
  9
$USERI4
 70
     0
  9
$USERI5
 70
     0
  9
$USERR1
 40
0.0
  9
$USERR2
 40
0.0
  9
$USERR3
 40
0.0
  9
$USERR4
 40
0.0
  9
$USERR5
 40
0.0
  9
$WORLDVIEW
 70
     1
  9
$SHADEDGE
 70
     3
  9
$SHADEDIF
 70
    70
  9
$TILEMODE
 70
     1
  9
$MAXACTVP
 70
    64
  9
$PINSBASE
 10
0.0
 20
0.0
 30
0.0
  9
$PLIMCHECK
 70
     0
  9
$PEXTMIN
 10
1.000000000000E+20
 20
1.000000000000E+20
 30
1.000000000000E+20
  9
$PEXTMAX
 10
-1.000000000000E+20
 20
-1.000000000000E+20
 30
-1.000000000000E+20
  9
$PLIMMIN
 10
0.0
 20
0.0
  9
$PLIMMAX
 10
12.0
 20
9.0
  9
$UNITMODE
 70
     0
  9
$VISRETAIN
 70
     1
  9
$PLINEGEN
 70
     0
  9
$PSLTSCALE
 70
     1
  9
$TREEDEPTH
 70
  3020
  9
$CMLSTYLE
  2
Standard
  9
$CMLJUST
 70
     0
  9
$CMLSCALE
 40
1.0
  9
$PROXYGRAPHICS
 70
     1
  9
$MEASUREMENT
 70
     0
  9
$CELWEIGHT
370
    -1
  9
$ENDCAPS
280
     0
  9
$JOINSTYLE
280
     0
  9
$LWDISPLAY
290
     0
  9
$INSUNITS
 70
     0
  9
$HYPERLINKBASE
  1

  9
$STYLESHEET
  1

  9
$XEDIT
290
     1
  9
$CEPSNTYPE
380
     0
  9
$PSTYLEMODE
290
     1
  9
$FINGERPRINTGUID
  2
{4CB876A2-E895-4B7F-B888-FAD7248FB019}
  9
$VERSIONGUID
  2
{4E4B3220-8151-4A1F-A2B0-99C88D6DB09C}
  9
$EXTNAMES
290
     1
  9
$PSVPSCALE
 40
0.0
  9
$OLESTARTUP
290
     0
  0
ENDSEC
  0
SECTION
  2
CLASSES
  0
CLASS
  1
ACDBDICTIONARYWDFLT
  2
AcDbDictionaryWithDefault
  3
ObjectDBX Classes
 90
        0
280
     0
281
     0
  0
CLASS
  1
ACDBPLACEHOLDER
  2
AcDbPlaceHolder
  3
ObjectDBX Classes
 90
        0
280
     0
281
     0
  0
CLASS
  1
LAYOUT
  2
AcDbLayout
  3
ObjectDBX Classes
 90
        0
280
     0
281
     0
  0
CLASS
  1
DICTIONARYVAR
  2
AcDbDictionaryVar
  3
ObjectDBX Classes
 90
        0
280
     0
281
     0
  0
CLASS
  1
SCALE
  2
AcDbScale
  3
ObjectDBX Classes
 90
     1153
280
     0
281
     0
  0
ENDSEC
  0
SECTION
  2
TABLES
  0
TABLE
  2
VPORT
  5
8
330
0
100
AcDbSymbolTable
 70
     1
  0
VPORT
  5
855
330
8
100
AcDbSymbolTableRecord
100
AcDbViewportTableRecord
  2
*Active
 70
     0
 10
0.0
 20
0.0
 11
1.0
 21
1.0
 12
350.0
 22
321.0
 13
0.0
 23
0.0
 14
1.0
 24
1.0
 15
0.0
 25
0.0
 16
0.0
 26
0.0
 36
1.0
 17
0.0
 27
0.0
 37
0.0
 40
646.342728297632
 41
2.073363431151
 42
50.0
 43
0.0
 44
0.0
 50
0.0
 51
0.0
 71
     0
 72
   100
 73
     1
 74
     3
 75
     0
 76
     0
 77
     0
 78
     0
281
     0
 65
     1
110
0.0
120
0.0
130
0.0
111
1.0
121
0.0
131
0.0
112
0.0
122
1.0
132
0.0
 79
     1
146
0.0
  0
ENDTAB
  0
TABLE
  2
LTYPE
  5
5
330
0
100
AcDbSymbolTable
 70
     1
  0
LTYPE
  5
13
330
5
100
AcDbSymbolTableRecord
100
AcDbLinetypeTableRecord
  2
ByBlock
 70
     0
  3

 72
    65
 73
     0
 40
0.0
  0
LTYPE
  5
14
330
5
100
AcDbSymbolTableRecord
100
AcDbLinetypeTableRecord
  2
ByLayer
 70
     0
  3

 72
    65
 73
     0
 40
0.0
  0
LTYPE
  5
15
330
5
100
AcDbSymbolTableRecord
100
AcDbLinetypeTableRecord
  2
Continuous
 70
     0
  3
Solid line
 72
    65
 73
     0
 40
0.0
  0
ENDTAB
  0
TABLE
  2
LAYER
  5
2
330
0
100
AcDbSymbolTable
 70
     1
  0
LAYER
  5
10
330
2
100
AcDbSymbolTableRecord
100
AcDbLayerTableRecord
  2
0
 70
     0
 62
     7
  6
Continuous
370
    -3
390
F
  0
ENDTAB
  0
TABLE
  2
STYLE
  5
3
330
0
100
AcDbSymbolTable
 70
     1
  0
STYLE
  5
11
330
3
100
AcDbSymbolTableRecord
100
AcDbTextStyleTableRecord
  2
Standard
 70
     0
 40
0.0
 41
1.0
 50
0.0
 71
     0
 42
0.2
  3
txt
  4

  0
ENDTAB
  0
TABLE
  2
VIEW
  5
6
330
0
100
AcDbSymbolTable
 70
     0
  0
ENDTAB
  0
TABLE
  2
UCS
  5
7
330
0
100
AcDbSymbolTable
 70
     0
  0
ENDTAB
  0
TABLE
  2
APPID
  5
9
330
0
100
AcDbSymbolTable
 70
     1
  0
APPID
  5
12
330
9
100
AcDbSymbolTableRecord
100
AcDbRegAppTableRecord
  2
ACAD
 70
     0
  0
ENDTAB
  0
TABLE
  2
DIMSTYLE
  5
A
330
0
100
AcDbSymbolTable
 70
     1
100
AcDbDimStyleTable
  0
DIMSTYLE
105
84D
330
A
100
AcDbSymbolTableRecord
100
AcDbDimStyleTableRecord
  2
Standard
 70
     0
340
11
  0
ENDTAB
  0
TABLE
  2
BLOCK_RECORD
  5
1
330
0
100
AcDbSymbolTable
 70
     0
  0
BLOCK_RECORD
  5
1E
330
1
100
AcDbSymbolTableRecord
100
AcDbBlockTableRecord
  2
*Model_Space
340
21
  0
BLOCK_RECORD
  5
1A
330
1
100
AcDbSymbolTableRecord
100
AcDbBlockTableRecord
  2
*Paper_Space
340
1D
  0
ENDTAB
  0
ENDSEC
  0
SECTION
  2
BLOCKS
  0
BLOCK
  5
1F
330
1E
100
AcDbEntity
  8
0
100
AcDbBlockBegin
  2
*Model_Space
 70
     0
 10
0.0
 20
0.0
 30
0.0
  3
*Model_Space
  1
*Model_Space
  0
ENDBLK
  5
20
330
1E
100
AcDbEntity
  8
0
100
AcDbBlockEnd
  0
BLOCK
  5
1B
330
1A
100
AcDbEntity
 67
     1
  8
0
100
AcDbBlockBegin
  2
*Paper_Space
 70
     0
 10
0.0
 20
0.0
 30
0.0
  3
*Paper_Space
  1
*Paper_Space
  0
ENDBLK
  5
1C
330
1A
100
AcDbEntity
 67
     1
  8
0
100
AcDbBlockEnd
  0
ENDSEC
  0
SECTION
  2
ENTITIES
  0
LINE
  5
22
330
1E
100
AcDbEntity
  8
0
100
AcDbLine
 10
0.0
 20
0.0
 30
0.0
 11
700.0
 21
0.0
 31
0.0
  0
LINE
  5
23
330
1E
100
AcDbEntity
  8
0
100
AcDbLine
 10
0.0
 20
0.0
 30
0.0
 11
0.0
 21
50.0
 31
0.0
  0
LINE
  5
24
330
1E
100
AcDbEntity
  8
0
100
AcDbLine
 10
0.0
 20
50.0
 30
0.0
 11
149.0
 21
250.0
 31
0.0
  0
LINE
  5
25
330
1E
100
AcDbEntity
  8
0
100
AcDbLine
 10
0.0
 20
50.0
 30
0.0
 11
0.0
 21
0.0
 31
0.0
  0
LINE
  5
26
330
1E
100
AcDbEntity
  8
0
100
AcDbLine
 10
0.0
 20
50.0
 30
0.0
 11
149.0
 21
250.0
 31
0.0
  0
LINE
  5
27
330
1E
100
AcDbEntity
  8
0
100
AcDbLine
 10
0.0
 20
50.0
 30
0.0
 11
149.0
 21
250.0
 31
0.0
  0
LINE
  5
28
330
1E
100
AcDbEntity
  8
0
100
AcDbLine
 10
149.0
 20
250.0
 30
0.0
 11
149.0
 21
550.0
 31
0.0
  0
LINE
  5
29
330
1E
100
AcDbEntity
  8
0
100
AcDbLine
 10
149.0
 20
450.0
 30
0.0
 11
149.0
 21
250.0
 31
0.0
  0
LINE
  5
2A
330
1E
100
AcDbEntity
  8
0
100
AcDbLine
 10
149.0
 20
450.0
 30
0.0
 11
551.0
 21
450.0
 31
0.0
  0
LINE
  5
2B
330
1E
100
AcDbEntity
  8
0
100
AcDbLine
 10
0.0
 20
50.0
 30
0.0
 11
0.0
 21
0.0
 31
0.0
  0
LINE
  5
2C
330
1E
100
AcDbEntity
  8
0
100
AcDbLine
 10
0.0
 20
50.0
 30
0.0
 11
149.0
 21
250.0
 31
0.0
  0
LINE
  5
2D
330
1E
100
AcDbEntity
  8
0
100
AcDbLine
 10
0.0
 20
0.0
 30
0.0
 11
700.0
 21
0.0
 31
0.0
  0
LINE
  5
2E
330
1E
100
AcDbEntity
  8
0
100
AcDbLine
 10
0.0
 20
0.0
 30
0.0
 11
0.0
 21
50.0
 31
0.0
  0
LINE
  5
2F
330
1E
100
AcDbEntity
  8
0
100
AcDbLine
 10
208.048
 20
525.0
 30
0.0
 11
208.524
 21
525.0
 31
0.0
  0
LINE
  5
30
330
1E
100
AcDbEntity
  8
0
100
AcDbLine
 10
199.952
 20
525.0
 30
0.0
 11
208.048
 21
525.0
 31
0.0
  0
LINE
  5
32
330
1E
100
AcDbEntity
  8
0
100
AcDbLine
 10
199.476
 20
525.0
 30
0.0
 11
199.952
 21
525.0
 31
0.0
  0
LINE
  5
34
330
1E
100
AcDbEntity
  8
0
100
AcDbLine
 10
208.524
 20
525.0
 30
0.0
 11
208.886
 21
525.0
 31
0.0
  0
LINE
  5
36
330
1E
100
AcDbEntity
  8
0
100
AcDbLine
 10
199.114
 20
525.0
 30
0.0
 11
199.476
 21
525.0
 31
0.0
  0
LINE
  5
38
330
1E
100
AcDbEntity
  8
0
100
AcDbLine
 10
232.92
 20
494.0
 30
0.0
 11
235.04
 21
494.0
 31
0.0
  0
LINE
  5
39
330
1E
100
AcDbEntity
  8
0
100
AcDbLine
 10
231.32
 20
494.0
 30
0.0
 11
232.92
 21
494.0
 31
0.0
  0
LINE
  5
3A
330
1E
100
AcDbEntity
  8
0
100
AcDbLine
 10
230.36
 20
494.0
 30
0.0
 11
231.32
 21
494.0
 31
0.0
  0
LINE
  5
3B
330
1E
100
AcDbEntity
  8
0
100
AcDbLine
 10
232.92
 20
514.0
 30
0.0
 11
235.04
 21
514.0
 31
0.0
  0
LINE
  5
3C
330
1E
100
AcDbEntity
  8
0
100
AcDbLine
 10
231.32
 20
514.0
 30
0.0
 11
232.92
 21
514.0
 31
0.0
  0
LINE
  5
3D
330
1E
100
AcDbEntity
  8
0
100
AcDbLine
 10
230.36
 20
514.0
 30
0.0
 11
231.32
 21
514.0
 31
0.0
  0
LINE
  5
3E
330
1E
100
AcDbEntity
  8
0
100
AcDbLine
 10
230.0
 20
514.0
 30
0.0
 11
230.36
 21
514.0
 31
0.0
  0
LINE
  5
3F
330
1E
100
AcDbEntity
  8
0
100
AcDbLine
 10
230.0
 20
514.0
 30
0.0
 11
230.0
 21
494.0
 31
0.0
  0
LINE
  5
40
330
1E
100
AcDbEntity
  8
0
100
AcDbLine
 10
230.0
 20
494.0
 30
0.0
 11
230.0
 21
514.0
 31
0.0
  0
LINE
  5
41
330
1E
100
AcDbEntity
  8
0
100
AcDbLine
 10
230.0
 20
494.0
 30
0.0
 11
230.36
 21
494.0
 31
0.0
  0
LINE
  5
42
330
1E
100
AcDbEntity
  8
0
100
AcDbLine
 10
235.04
 20
514.0
 30
0.0
 11
237.44
 21
514.0
 31
0.0
  0
LINE
  5
43
330
1E
100
AcDbEntity
  8
0
100
AcDbLine
 10
240.0
 20
494.0
 30
0.0
 11
242.56
 21
494.0
 31
0.0
  0
LINE
  5
44
330
1E
100
AcDbEntity
  8
0
100
AcDbLine
 10
237.44
 20
514.0
 30
0.0
 11
240.0
 21
514.0
 31
0.0
  0
LINE
  5
45
330
1E
100
AcDbEntity
  8
0
100
AcDbLine
 10
237.44
 20
494.0
 30
0.0
 11
240.0
 21
494.0
 31
0.0
  0
LINE
  5
46
330
1E
100
AcDbEntity
  8
0
100
AcDbLine
 10
235.04
 20
494.0
 30
0.0
 11
237.44
 21
494.0
 31
0.0
  0
LINE
  5
47
330
1E
100
AcDbEntity
  8
0
100
AcDbLine
 10
236.416
 20
514.0
 30
0.0
 11
240.0
 21
514.0
 31
0.0
  0
LINE
  5
48
330
1E
100
AcDbEntity
  8
0
100
AcDbLine
 10
233.056
 20
514.0
 30
0.0
 11
236.416
 21
514.0
 31
0.0
  0
LINE
  5
49
330
1E
100
AcDbEntity
  8
0
100
AcDbLine
 10
230.088
 20
514.0
 30
0.0
 11
233.056
 21
514.0
 31
0.0
  0
LINE
  5
4A
330
1E
100
AcDbEntity
  8
0
100
AcDbLine
 10
242.56
 20
494.0
 30
0.0
 11
244.96
 21
494.0
 31
0.0
  0
LINE
  5
4B
330
1E
100
AcDbEntity
  8
0
100
AcDbLine
 10
242.56
 20
514.0
 30
0.0
 11
244.96
 21
514.0
 31
0.0
  0
LINE
  5
4C
330
1E
100
AcDbEntity
  8
0
100
AcDbLine
 10
244.96
 20
514.0
 30
0.0
 11
247.08
 21
514.0
 31
0.0
  0
LINE
  5
4D
330
1E
100
AcDbEntity
  8
0
100
AcDbLine
 10
244.96
 20
494.0
 30
0.0
 11
247.08
 21
494.0
 31
0.0
  0
LINE
  5
4E
330
1E
100
AcDbEntity
  8
0
100
AcDbLine
 10
240.0
 20
514.0
 30
0.0
 11
243.584
 21
514.0
 31
0.0
  0
LINE
  5
4F
330
1E
100
AcDbEntity
  8
0
100
AcDbLine
 10
240.0
 20
514.0
 30
0.0
 11
242.56
 21
514.0
 31
0.0
  0
LINE
  5
50
330
1E
100
AcDbEntity
  8
0
100
AcDbLine
 10
243.584
 20
514.0
 30
0.0
 11
246.944
 21
514.0
 31
0.0
  0
LINE
  5
51
330
1E
100
AcDbEntity
  8
0
100
AcDbLine
 10
247.08
 20
494.0
 30
0.0
 11
248.68
 21
494.0
 31
0.0
  0
LINE
  5
52
330
1E
100
AcDbEntity
  8
0
100
AcDbLine
 10
250.0
 20
494.0
 30
0.0
 11
250.0
 21
514.0
 31
0.0
  0
LINE
  5
53
330
1E
100
AcDbEntity
  8
0
100
AcDbLine
 10
248.68
 20
494.0
 30
0.0
 11
249.64
 21
494.0
 31
0.0
  0
LINE
  5
54
330
1E
100
AcDbEntity
  8
0
100
AcDbLine
 10
247.08
 20
514.0
 30
0.0
 11
248.68
 21
514.0
 31
0.0
  0
LINE
  5
55
330
1E
100
AcDbEntity
  8
0
100
AcDbLine
 10
248.68
 20
514.0
 30
0.0
 11
249.64
 21
514.0
 31
0.0
  0
LINE
  5
56
330
1E
100
AcDbEntity
  8
0
100
AcDbLine
 10
249.64
 20
514.0
 30
0.0
 11
250.0
 21
514.0
 31
0.0
  0
LINE
  5
57
330
1E
100
AcDbEntity
  8
0
100
AcDbLine
 10
249.64
 20
494.0
 30
0.0
 11
250.0
 21
494.0
 31
0.0
  0
LINE
  5
58
330
1E
100
AcDbEntity
  8
0
100
AcDbLine
 10
246.944
 20
514.0
 30
0.0
 11
249.912
 21
514.0
 31
0.0
  0
LINE
  5
59
330
1E
100
AcDbEntity
  8
0
100
AcDbLine
 10
249.912
 20
514.0
 30
0.0
 11
252.152
 21
514.0
 31
0.0
  0
LINE
  5
5A
330
1E
100
AcDbEntity
  8
0
100
AcDbLine
 10
250.0
 20
514.0
 30
0.0
 11
252.152
 21
514.0
 31
0.0
  0
LINE
  5
5B
330
1E
100
AcDbEntity
  8
0
100
AcDbLine
 10
250.0
 20
514.0
 30
0.0
 11
250.0
 21
494.0
 31
0.0
  0
LINE
  5
5C
330
1E
100
AcDbEntity
  8
0
100
AcDbLine
 10
252.152
 20
514.0
 30
0.0
 11
253.496
 21
514.0
 31
0.0
  0
LINE
  5
5D
330
1E
100
AcDbEntity
  8
0
100
AcDbLine
 10
254.0
 20
514.0
 30
0.0
 11
254.0
 21
524.0
 31
0.0
  0
LINE
  5
5E
330
1E
100
AcDbEntity
  8
0
100
AcDbLine
 10
253.496
 20
514.0
 30
0.0
 11
254.0
 21
514.0
 31
0.0
  0
LINE
  5
5F
330
1E
100
AcDbEntity
  8
0
100
AcDbLine
 10
227.848
 20
514.0
 30
0.0
 11
230.0
 21
514.0
 31
0.0
  0
LINE
  5
60
330
1E
100
AcDbEntity
  8
0
100
AcDbLine
 10
227.848
 20
514.0
 30
0.0
 11
230.088
 21
514.0
 31
0.0
  0
LINE
  5
61
330
1E
100
AcDbEntity
  8
0
100
AcDbLine
 10
226.504
 20
514.0
 30
0.0
 11
227.848
 21
514.0
 31
0.0
  0
LINE
  5
62
330
1E
100
AcDbEntity
  8
0
100
AcDbLine
 10
215.0
 20
524.0
 30
0.0
 11
215.0
 21
524.324
 31
0.0
  0
LINE
  5
63
330
1E
100
AcDbEntity
  8
0
100
AcDbLine
 10
215.0
 20
524.0
 30
0.0
 11
226.06
 21
524.0
 31
0.0
  0
LINE
  5
64
330
1E
100
AcDbEntity
  8
0
100
AcDbLine
 10
215.0
 20
524.324
 30
0.0
 11
215.0
 21
524.0
 31
0.0
  0
LINE
  5
65
330
1E
100
AcDbEntity
  8
0
100
AcDbLine
 10
215.0
 20
524.324
 30
0.0
 11
215.0
 21
525.188
 31
0.0
  0
LINE
  5
66
330
1E
100
AcDbEntity
  8
0
100
AcDbLine
 10
226.0
 20
524.0
 30
0.0
 11
226.0
 21
514.0
 31
0.0
  0
LINE
  5
67
330
1E
100
AcDbEntity
  8
0
100
AcDbLine
 10
226.0
 20
514.0
 30
0.0
 11
226.0
 21
524.0
 31
0.0
  0
LINE
  5
68
330
1E
100
AcDbEntity
  8
0
100
AcDbLine
 10
226.0
 20
514.0
 30
0.0
 11
226.504
 21
514.0
 31
0.0
  0
LINE
  5
69
330
1E
100
AcDbEntity
  8
0
100
AcDbLine
 10
265.0
 20
524.324
 30
0.0
 11
265.0
 21
525.188
 31
0.0
  0
LINE
  5
6A
330
1E
100
AcDbEntity
  8
0
100
AcDbLine
 10
265.0
 20
524.324
 30
0.0
 11
265.0
 21
524.0
 31
0.0
  0
LINE
  5
6B
330
1E
100
AcDbEntity
  8
0
100
AcDbLine
 10
265.0
 20
524.0
 30
0.0
 11
265.0
 21
524.324
 31
0.0
  0
LINE
  5
6C
330
1E
100
AcDbEntity
  8
0
100
AcDbLine
 10
254.0
 20
524.0
 30
0.0
 11
265.0
 21
524.0
 31
0.0
  0
LINE
  5
6D
330
1E
100
AcDbEntity
  8
0
100
AcDbLine
 10
254.0
 20
524.0
 30
0.0
 11
254.0
 21
514.0
 31
0.0
  0
LINE
  5
6E
330
1E
100
AcDbEntity
  8
0
100
AcDbLine
 10
208.952
 20
525.0
 30
0.0
 11
209.0
 21
525.211
 31
0.0
  0
LINE
  5
6F
330
1E
100
AcDbEntity
  8
0
100
AcDbLine
 10
208.886
 20
525.0
 30
0.0
 11
208.952
 21
525.0
 31
0.0
  0
LINE
  5
70
330
1E
100
AcDbEntity
  8
0
100
AcDbLine
 10
199.048
 20
525.0
 30
0.0
 11
199.114
 21
525.0
 31
0.0
  0
LINE
  5
71
330
1E
100
AcDbEntity
  8
0
100
AcDbLine
 10
271.476
 20
525.0
 30
0.0
 11
271.952
 21
525.0
 31
0.0
  0
LINE
  5
72
330
1E
100
AcDbEntity
  8
0
100
AcDbLine
 10
271.476
 20
525.0
 30
0.0
 11
271.476
 21
525.168
 31
0.0
  0
LINE
  5
73
330
1E
100
AcDbEntity
  8
0
100
AcDbLine
 10
271.952
 20
525.0
 30
0.0
 11
280.048
 21
525.0
 31
0.0
  0
LINE
  5
74
330
1E
100
AcDbEntity
  8
0
100
AcDbLine
 10
280.048
 20
525.0
 30
0.0
 11
280.524
 21
525.0
 31
0.0
  0
LINE
  5
78
330
1E
100
AcDbEntity
  8
0
100
AcDbLine
 10
271.114
 20
525.0
 30
0.0
 11
271.476
 21
525.0
 31
0.0
  0
LINE
  5
79
330
1E
100
AcDbEntity
  8
0
100
AcDbLine
 10
280.524
 20
525.0
 30
0.0
 11
280.886
 21
525.0
 31
0.0
  0
LINE
  5
7B
330
1E
100
AcDbEntity
  8
0
100
AcDbLine
 10
199.0
 20
525.211
 30
0.0
 11
199.048
 21
525.0
 31
0.0
  0
LINE
  5
7C
330
1E
100
AcDbEntity
  8
0
100
AcDbLine
 10
199.0
 20
525.211
 30
0.0
 11
199.0
 21
525.505
 31
0.0
  0
LINE
  5
80
330
1E
100
AcDbEntity
  8
0
100
AcDbLine
 10
215.0
 20
525.188
 30
0.0
 11
215.0
 21
524.324
 31
0.0
  0
LINE
  5
81
330
1E
100
AcDbEntity
  8
0
100
AcDbLine
 10
215.0
 20
525.188
 30
0.0
 11
215.0
 21
526.0
 31
0.0
  0
LINE
  5
82
330
1E
100
AcDbEntity
  8
0
100
AcDbLine
 10
215.0
 20
525.188
 30
0.0
 11
215.0
 21
526.628
 31
0.0
  0
LINE
  5
83
330
1E
100
AcDbEntity
  8
0
100
AcDbLine
 10
265.0
 20
525.188
 30
0.0
 11
265.0
 21
526.628
 31
0.0
  0
LINE
  5
84
330
1E
100
AcDbEntity
  8
0
100
AcDbLine
 10
265.0
 20
525.188
 30
0.0
 11
265.0
 21
524.324
 31
0.0
  0
LINE
  5
8C
330
1E
100
AcDbEntity
  8
0
100
AcDbLine
 10
209.0
 20
526.0
 30
0.0
 11
215.0
 21
526.0
 31
0.0
  0
LINE
  5
92
330
1E
100
AcDbEntity
  8
0
100
AcDbLine
 10
215.0
 20
526.0
 30
0.0
 11
215.0
 21
526.252
 31
0.0
  0
LINE
  5
93
330
1E
100
AcDbEntity
  8
0
100
AcDbLine
 10
215.0
 20
526.0
 30
0.0
 11
215.0
 21
525.188
 31
0.0
  0
LINE
  5
94
330
1E
100
AcDbEntity
  8
0
100
AcDbLine
 10
265.0
 20
526.0
 30
0.0
 11
271.0
 21
526.0
 31
0.0
  0
LINE
  5
95
330
1E
100
AcDbEntity
  8
0
100
AcDbLine
 10
209.0
 20
525.505
 30
0.0
 11
209.0
 21
525.211
 31
0.0
  0
LINE
  5
96
330
1E
100
AcDbEntity
  8
0
100
AcDbLine
 10
209.0
 20
525.505
 30
0.0
 11
209.0
 21
526.263
 31
0.0
  0
LINE
  5
97
330
1E
100
AcDbEntity
  8
0
100
AcDbLine
 10
209.0
 20
525.211
 30
0.0
 11
209.0
 21
525.505
 31
0.0
  0
LINE
  5
99
330
1E
100
AcDbEntity
  8
0
100
AcDbLine
 10
199.0
 20
525.505
 30
0.0
 11
199.0
 21
525.211
 31
0.0
  0
LINE
  5
9A
330
1E
100
AcDbEntity
  8
0
100
AcDbLine
 10
199.0
 20
525.505
 30
0.0
 11
199.0
 21
526.263
 31
0.0
  0
LINE
  5
9B
330
1E
100
AcDbEntity
  8
0
100
AcDbLine
 10
199.0
 20
526.89
 30
0.0
 11
199.0
 21
527.42
 31
0.0
  0
LINE
  5
9C
330
1E
100
AcDbEntity
  8
0
100
AcDbLine
 10
199.0
 20
526.89
 30
0.0
 11
199.0
 21
526.741
 31
0.0
  0
LINE
  5
9F
330
1E
100
AcDbEntity
  8
0
100
AcDbLine
 10
199.0
 20
526.263
 30
0.0
 11
199.0
 21
525.505
 31
0.0
  0
LINE
  5
A0
330
1E
100
AcDbEntity
  8
0
100
AcDbLine
 10
199.0
 20
526.263
 30
0.0
 11
199.0
 21
527.484
 31
0.0
  0
LINE
  5
A1
330
1E
100
AcDbEntity
  8
0
100
AcDbLine
 10
199.0
 20
527.42
 30
0.0
 11
199.0
 21
528.398
 31
0.0
  0
LINE
  5
A2
330
1E
100
AcDbEntity
  8
0
100
AcDbLine
 10
199.0
 20
527.42
 30
0.0
 11
199.0
 21
526.89
 31
0.0
  0
LINE
  5
A3
330
1E
100
AcDbEntity
  8
0
100
AcDbLine
 10
199.0
 20
527.388
 30
0.0
 11
199.0
 21
528.414
 31
0.0
  0
LINE
  5
A4
330
1E
100
AcDbEntity
  8
0
100
AcDbLine
 10
199.0
 20
527.388
 30
0.0
 11
199.0
 21
526.907
 31
0.0
  0
LINE
  5
A5
330
1E
100
AcDbEntity
  8
0
100
AcDbLine
 10
199.0
 20
528.398
 30
0.0
 11
199.0
 21
527.42
 31
0.0
  0
LINE
  5
A6
330
1E
100
AcDbEntity
  8
0
100
AcDbLine
 10
199.0
 20
528.398
 30
0.0
 11
199.0
 21
529.738
 31
0.0
  0
LINE
  5
A7
330
1E
100
AcDbEntity
  8
0
100
AcDbLine
 10
199.0
 20
527.484
 30
0.0
 11
199.0
 21
529.126
 31
0.0
  0
LINE
  5
A8
330
1E
100
AcDbEntity
  8
0
100
AcDbLine
 10
199.0
 20
527.484
 30
0.0
 11
199.0
 21
526.263
 31
0.0
  0
LINE
  5
AB
330
1E
100
AcDbEntity
  8
0
100
AcDbLine
 10
199.0
 20
528.414
 30
0.0
 11
199.0
 21
529.805
 31
0.0
  0
LINE
  5
AC
330
1E
100
AcDbEntity
  8
0
100
AcDbLine
 10
199.0
 20
528.414
 30
0.0
 11
199.0
 21
527.388
 31
0.0
  0
LINE
  5
AD
330
1E
100
AcDbEntity
  8
0
100
AcDbLine
 10
199.0
 20
529.738
 30
0.0
 11
199.0
 21
531.327
 31
0.0
  0
LINE
  5
AE
330
1E
100
AcDbEntity
  8
0
100
AcDbLine
 10
199.0
 20
529.738
 30
0.0
 11
199.0
 21
528.398
 31
0.0
  0
LINE
  5
AF
330
1E
100
AcDbEntity
  8
0
100
AcDbLine
 10
199.0
 20
529.805
 30
0.0
 11
199.0
 21
528.414
 31
0.0
  0
LINE
  5
B0
330
1E
100
AcDbEntity
  8
0
100
AcDbLine
 10
199.0
 20
529.805
 30
0.0
 11
199.0
 21
531.259
 31
0.0
  0
LINE
  5
B3
330
1E
100
AcDbEntity
  8
0
100
AcDbLine
 10
199.0
 20
529.126
 30
0.0
 11
199.0
 21
530.979
 31
0.0
  0
LINE
  5
B4
330
1E
100
AcDbEntity
  8
0
100
AcDbLine
 10
199.0
 20
529.126
 30
0.0
 11
199.0
 21
527.484
 31
0.0
  0
LINE
  5
B6
330
1E
100
AcDbEntity
  8
0
100
AcDbLine
 10
199.0
 20
530.979
 30
0.0
 11
199.0
 21
529.126
 31
0.0
  0
LINE
  5
B7
330
1E
100
AcDbEntity
  8
0
100
AcDbLine
 10
199.0
 20
530.979
 30
0.0
 11
199.0
 21
533.0
 31
0.0
  0
LINE
  5
B8
330
1E
100
AcDbEntity
  8
0
100
AcDbLine
 10
199.0
 20
526.907
 30
0.0
 11
199.0
 21
526.741
 31
0.0
  0
LINE
  5
B9
330
1E
100
AcDbEntity
  8
0
100
AcDbLine
 10
199.0
 20
526.907
 30
0.0
 11
199.0
 21
527.388
 31
0.0
  0
LINE
  5
BD
330
1E
100
AcDbEntity
  8
0
100
AcDbLine
 10
215.0
 20
526.252
 30
0.0
 11
215.0
 21
526.924
 31
0.0
  0
LINE
  5
BE
330
1E
100
AcDbEntity
  8
0
100
AcDbLine
 10
271.0
 20
526.252
 30
0.0
 11
271.0
 21
526.924
 31
0.0
  0
LINE
  5
BF
330
1E
100
AcDbEntity
  8
0
100
AcDbLine
 10
271.0
 20
526.252
 30
0.0
 11
271.0
 21
526.0
 31
0.0
  0
LINE
  5
C0
330
1E
100
AcDbEntity
  8
0
100
AcDbLine
 10
209.0
 20
528.044
 30
0.0
 11
209.0
 21
529.528
 31
0.0
  0
LINE
  5
C1
330
1E
100
AcDbEntity
  8
0
100
AcDbLine
 10
209.0
 20
528.044
 30
0.0
 11
209.0
 21
526.924
 31
0.0
  0
LINE
  5
C2
330
1E
100
AcDbEntity
  8
0
100
AcDbLine
 10
209.0
 20
526.924
 30
0.0
 11
209.0
 21
528.044
 31
0.0
  0
LINE
  5
C3
330
1E
100
AcDbEntity
  8
0
100
AcDbLine
 10
215.0
 20
526.628
 30
0.0
 11
215.0
 21
528.536
 31
0.0
  0
LINE
  5
C4
330
1E
100
AcDbEntity
  8
0
100
AcDbLine
 10
215.0
 20
526.628
 30
0.0
 11
215.0
 21
525.188
 31
0.0
  0
LINE
  5
C5
330
1E
100
AcDbEntity
  8
0
100
AcDbLine
 10
215.0
 20
528.536
 30
0.0
 11
215.0
 21
530.696
 31
0.0
  0
LINE
  5
C6
330
1E
100
AcDbEntity
  8
0
100
AcDbLine
 10
215.0
 20
528.536
 30
0.0
 11
215.0
 21
526.628
 31
0.0
  0
LINE
  5
C7
330
1E
100
AcDbEntity
  8
0
100
AcDbLine
 10
215.0
 20
528.044
 30
0.0
 11
215.0
 21
529.528
 31
0.0
  0
LINE
  5
C8
330
1E
100
AcDbEntity
  8
0
100
AcDbLine
 10
215.0
 20
526.924
 30
0.0
 11
215.0
 21
528.044
 31
0.0
  0
LINE
  5
C9
330
1E
100
AcDbEntity
  8
0
100
AcDbLine
 10
271.0
 20
528.044
 30
0.0
 11
271.0
 21
529.528
 31
0.0
  0
LINE
  5
CA
330
1E
100
AcDbEntity
  8
0
100
AcDbLine
 10
271.0
 20
528.044
 30
0.0
 11
271.0
 21
526.924
 31
0.0
  0
LINE
  5
CB
330
1E
100
AcDbEntity
  8
0
100
AcDbLine
 10
271.0
 20
526.924
 30
0.0
 11
271.0
 21
528.044
 31
0.0
  0
LINE
  5
CC
330
1E
100
AcDbEntity
  8
0
100
AcDbLine
 10
271.0
 20
526.924
 30
0.0
 11
271.0
 21
526.252
 31
0.0
  0
LINE
  5
CD
330
1E
100
AcDbEntity
  8
0
100
AcDbLine
 10
265.0
 20
528.536
 30
0.0
 11
265.0
 21
530.696
 31
0.0
  0
LINE
  5
CE
330
1E
100
AcDbEntity
  8
0
100
AcDbLine
 10
265.0
 20
528.536
 30
0.0
 11
265.0
 21
526.628
 31
0.0
  0
LINE
  5
CF
330
1E
100
AcDbEntity
  8
0
100
AcDbLine
 10
265.0
 20
526.628
 30
0.0
 11
265.0
 21
528.536
 31
0.0
  0
LINE
  5
D0
330
1E
100
AcDbEntity
  8
0
100
AcDbLine
 10
265.0
 20
526.628
 30
0.0
 11
265.0
 21
525.188
 31
0.0
  0
LINE
  5
D1
330
1E
100
AcDbEntity
  8
0
100
AcDbLine
 10
209.0
 20
527.484
 30
0.0
 11
209.0
 21
529.126
 31
0.0
  0
LINE
  5
D2
330
1E
100
AcDbEntity
  8
0
100
AcDbLine
 10
209.0
 20
527.484
 30
0.0
 11
209.0
 21
526.263
 31
0.0
  0
LINE
  5
D3
330
1E
100
AcDbEntity
  8
0
100
AcDbLine
 10
209.0
 20
526.263
 30
0.0
 11
209.0
 21
527.484
 31
0.0
  0
LINE
  5
D4
330
1E
100
AcDbEntity
  8
0
100
AcDbLine
 10
209.0
 20
526.263
 30
0.0
 11
209.0
 21
525.505
 31
0.0
  0
LINE
  5
D8
330
1E
100
AcDbEntity
  8
0
100
AcDbLine
 10
209.0
 20
529.528
 30
0.0
 11
209.0
 21
531.208
 31
0.0
  0
LINE
  5
D9
330
1E
100
AcDbEntity
  8
0
100
AcDbLine
 10
209.0
 20
529.528
 30
0.0
 11
209.0
 21
528.044
 31
0.0
  0
LINE
  5
DA
330
1E
100
AcDbEntity
  8
0
100
AcDbLine
 10
215.0
 20
530.696
 30
0.0
 11
215.0
 21
533.0
 31
0.0
  0
LINE
  5
DB
330
1E
100
AcDbEntity
  8
0
100
AcDbLine
 10
215.0
 20
530.696
 30
0.0
 11
215.0
 21
528.536
 31
0.0
  0
LINE
  5
DC
330
1E
100
AcDbEntity
  8
0
100
AcDbLine
 10
215.0
 20
529.528
 30
0.0
 11
215.0
 21
531.208
 31
0.0
  0
LINE
  5
DD
330
1E
100
AcDbEntity
  8
0
100
AcDbLine
 10
271.0
 20
529.528
 30
0.0
 11
271.0
 21
531.208
 31
0.0
  0
LINE
  5
DE
330
1E
100
AcDbEntity
  8
0
100
AcDbLine
 10
271.0
 20
529.528
 30
0.0
 11
271.0
 21
528.044
 31
0.0
  0
LINE
  5
DF
330
1E
100
AcDbEntity
  8
0
100
AcDbLine
 10
265.0
 20
530.696
 30
0.0
 11
265.0
 21
533.0
 31
0.0
  0
LINE
  5
E0
330
1E
100
AcDbEntity
  8
0
100
AcDbLine
 10
265.0
 20
530.696
 30
0.0
 11
265.0
 21
528.536
 31
0.0
  0
LINE
  5
E1
330
1E
100
AcDbEntity
  8
0
100
AcDbLine
 10
209.0
 20
530.979
 30
0.0
 11
209.0
 21
529.126
 31
0.0
  0
LINE
  5
E2
330
1E
100
AcDbEntity
  8
0
100
AcDbLine
 10
209.0
 20
530.979
 30
0.0
 11
209.0
 21
533.0
 31
0.0
  0
LINE
  5
E3
330
1E
100
AcDbEntity
  8
0
100
AcDbLine
 10
209.0
 20
529.126
 30
0.0
 11
209.0
 21
530.979
 31
0.0
  0
LINE
  5
E4
330
1E
100
AcDbEntity
  8
0
100
AcDbLine
 10
209.0
 20
529.126
 30
0.0
 11
209.0
 21
527.484
 31
0.0
  0
LINE
  5
E9
330
1E
100
AcDbEntity
  8
0
100
AcDbLine
 10
199.0
 20
526.741
 30
0.0
 11
199.0
 21
526.907
 31
0.0
  0
LINE
  5
EA
330
1E
100
AcDbEntity
  8
0
100
AcDbLine
 10
199.0
 20
526.741
 30
0.0
 11
199.0
 21
526.89
 31
0.0
  0
LINE
  5
EB
330
1E
100
AcDbEntity
  8
0
100
AcDbLine
 10
271.0
 20
526.0
 30
0.0
 11
271.0
 21
525.505
 31
0.0
  0
LINE
  5
EC
330
1E
100
AcDbEntity
  8
0
100
AcDbLine
 10
271.0
 20
526.0
 30
0.0
 11
271.0
 21
526.252
 31
0.0
  0
LINE
  5
ED
330
1E
100
AcDbEntity
  8
0
100
AcDbLine
 10
271.0
 20
525.505
 30
0.0
 11
271.0
 21
526.0
 31
0.0
  0
LINE
  5
EE
330
1E
100
AcDbEntity
  8
0
100
AcDbLine
 10
271.0
 20
525.505
 30
0.0
 11
271.0
 21
525.211
 31
0.0
  0
LINE
  5
EF
330
1E
100
AcDbEntity
  8
0
100
AcDbLine
 10
215.0
 20
531.208
 30
0.0
 11
215.0
 21
533.0
 31
0.0
  0
LINE
  5
F0
330
1E
100
AcDbEntity
  8
0
100
AcDbLine
 10
209.0
 20
531.208
 30
0.0
 11
209.0
 21
533.0
 31
0.0
  0
LINE
  5
F1
330
1E
100
AcDbEntity
  8
0
100
AcDbLine
 10
209.0
 20
531.208
 30
0.0
 11
209.0
 21
529.528
 31
0.0
  0
LINE
  5
F2
330
1E
100
AcDbEntity
  8
0
100
AcDbLine
 10
271.0
 20
531.208
 30
0.0
 11
271.0
 21
533.0
 31
0.0
  0
LINE
  5
F3
330
1E
100
AcDbEntity
  8
0
100
AcDbLine
 10
271.0
 20
531.208
 30
0.0
 11
271.0
 21
529.528
 31
0.0
  0
LINE
  5
F4
330
1E
100
AcDbEntity
  8
0
100
AcDbLine
 10
199.0
 20
531.327
 30
0.0
 11
199.0
 21
533.114
 31
0.0
  0
LINE
  5
F5
330
1E
100
AcDbEntity
  8
0
100
AcDbLine
 10
199.0
 20
531.327
 30
0.0
 11
199.0
 21
529.738
 31
0.0
  0
LINE
  5
F6
330
1E
100
AcDbEntity
  8
0
100
AcDbLine
 10
199.0
 20
533.0
 30
0.0
 11
199.0
 21
530.979
 31
0.0
  0
LINE
  5
F8
330
1E
100
AcDbEntity
  8
0
100
AcDbLine
 10
199.0
 20
533.0
 30
0.0
 11
199.0
 21
535.021
 31
0.0
  0
LINE
  5
FF
330
1E
100
AcDbEntity
  8
0
100
AcDbLine
 10
199.0
 20
534.706
 30
0.0
 11
199.0
 21
536.245
 31
0.0
  0
LINE
  5
100
330
1E
100
AcDbEntity
  8
0
100
AcDbLine
 10
199.0
 20
536.257
 30
0.0
 11
199.0
 21
537.602
 31
0.0
  0
LINE
  5
101
330
1E
100
AcDbEntity
  8
0
100
AcDbLine
 10
199.0
 20
536.257
 30
0.0
 11
199.0
 21
534.701
 31
0.0
  0
LINE
  5
102
330
1E
100
AcDbEntity
  8
0
100
AcDbLine
 10
199.0
 20
537.602
 30
0.0
 11
199.0
 21
538.596
 31
0.0
  0
LINE
  5
103
330
1E
100
AcDbEntity
  8
0
100
AcDbLine
 10
199.0
 20
537.602
 30
0.0
 11
199.0
 21
536.257
 31
0.0
  0
LINE
  5
104
330
1E
100
AcDbEntity
  8
0
100
AcDbLine
 10
199.0
 20
536.874
 30
0.0
 11
199.0
 21
538.516
 31
0.0
  0
LINE
  5
105
330
1E
100
AcDbEntity
  8
0
100
AcDbLine
 10
199.0
 20
536.874
 30
0.0
 11
199.0
 21
535.021
 31
0.0
  0
LINE
  5
108
330
1E
100
AcDbEntity
  8
0
100
AcDbLine
 10
199.0
 20
538.516
 30
0.0
 11
199.0
 21
539.737
 31
0.0
  0
LINE
  5
109
330
1E
100
AcDbEntity
  8
0
100
AcDbLine
 10
199.0
 20
538.516
 30
0.0
 11
199.0
 21
536.874
 31
0.0
  0
LINE
  5
10C
330
1E
100
AcDbEntity
  8
0
100
AcDbLine
 10
199.0
 20
537.619
 30
0.0
 11
199.0
 21
536.245
 31
0.0
  0
LINE
  5
10D
330
1E
100
AcDbEntity
  8
0
100
AcDbLine
 10
199.0
 20
537.619
 30
0.0
 11
199.0
 21
538.562
 31
0.0
  0
LINE
  5
10E
330
1E
100
AcDbEntity
  8
0
100
AcDbLine
 10
199.0
 20
536.245
 30
0.0
 11
199.0
 21
537.619
 31
0.0
  0
LINE
  5
10F
330
1E
100
AcDbEntity
  8
0
100
AcDbLine
 10
199.0
 20
536.245
 30
0.0
 11
199.0
 21
534.706
 31
0.0
  0
LINE
  5
110
330
1E
100
AcDbEntity
  8
0
100
AcDbLine
 10
199.0
 20
535.021
 30
0.0
 11
199.0
 21
533.0
 31
0.0
  0
LINE
  5
112
330
1E
100
AcDbEntity
  8
0
100
AcDbLine
 10
199.0
 20
535.021
 30
0.0
 11
199.0
 21
536.874
 31
0.0
  0
LINE
  5
113
330
1E
100
AcDbEntity
  8
0
100
AcDbLine
 10
199.0
 20
534.701
 30
0.0
 11
199.0
 21
533.013
 31
0.0
  0
LINE
  5
114
330
1E
100
AcDbEntity
  8
0
100
AcDbLine
 10
199.0
 20
534.701
 30
0.0
 11
199.0
 21
536.257
 31
0.0
  0
LINE
  5
115
330
1E
100
AcDbEntity
  8
0
100
AcDbLine
 10
199.0
 20
533.114
 30
0.0
 11
199.0
 21
531.327
 31
0.0
  0
LINE
  5
116
330
1E
100
AcDbEntity
  8
0
100
AcDbLine
 10
199.0
 20
533.114
 30
0.0
 11
199.0
 21
534.706
 31
0.0
  0
LINE
  5
11F
330
1E
100
AcDbEntity
  8
0
100
AcDbLine
 10
199.0
 20
533.013
 30
0.0
 11
199.0
 21
531.259
 31
0.0
  0
LINE
  5
123
330
1E
100
AcDbEntity
  8
0
100
AcDbLine
 10
215.0
 20
533.0
 30
0.0
 11
215.0
 21
534.792
 31
0.0
  0
LINE
  5
124
330
1E
100
AcDbEntity
  8
0
100
AcDbLine
 10
215.0
 20
533.0
 30
0.0
 11
215.0
 21
535.304
 31
0.0
  0
LINE
  5
125
330
1E
100
AcDbEntity
  8
0
100
AcDbLine
 10
215.0
 20
533.0
 30
0.0
 11
215.0
 21
530.696
 31
0.0
  0
LINE
  5
126
330
1E
100
AcDbEntity
  8
0
100
AcDbLine
 10
271.0
 20
533.0
 30
0.0
 11
271.0
 21
534.792
 31
0.0
  0
LINE
  5
127
330
1E
100
AcDbEntity
  8
0
100
AcDbLine
 10
271.0
 20
533.0
 30
0.0
 11
271.0
 21
531.208
 31
0.0
  0
LINE
  5
128
330
1E
100
AcDbEntity
  8
0
100
AcDbLine
 10
265.0
 20
533.0
 30
0.0
 11
265.0
 21
535.304
 31
0.0
  0
LINE
  5
129
330
1E
100
AcDbEntity
  8
0
100
AcDbLine
 10
265.0
 20
533.0
 30
0.0
 11
265.0
 21
530.696
 31
0.0
  0
LINE
  5
12A
330
1E
100
AcDbEntity
  8
0
100
AcDbLine
 10
209.0
 20
534.792
 30
0.0
 11
209.0
 21
536.472
 31
0.0
  0
LINE
  5
12B
330
1E
100
AcDbEntity
  8
0
100
AcDbLine
 10
209.0
 20
534.792
 30
0.0
 11
209.0
 21
533.0
 31
0.0
  0
LINE
  5
12C
330
1E
100
AcDbEntity
  8
0
100
AcDbLine
 10
209.0
 20
536.472
 30
0.0
 11
209.0
 21
537.956
 31
0.0
  0
LINE
  5
12D
330
1E
100
AcDbEntity
  8
0
100
AcDbLine
 10
209.0
 20
536.472
 30
0.0
 11
209.0
 21
534.792
 31
0.0
  0
LINE
  5
12E
330
1E
100
AcDbEntity
  8
0
100
AcDbLine
 10
209.0
 20
537.956
 30
0.0
 11
209.0
 21
539.076
 31
0.0
  0
LINE
  5
12F
330
1E
100
AcDbEntity
  8
0
100
AcDbLine
 10
209.0
 20
537.956
 30
0.0
 11
209.0
 21
536.472
 31
0.0
  0
LINE
  5
133
330
1E
100
AcDbEntity
  8
0
100
AcDbLine
 10
209.0
 20
538.516
 30
0.0
 11
209.0
 21
536.874
 31
0.0
  0
LINE
  5
134
330
1E
100
AcDbEntity
  8
0
100
AcDbLine
 10
209.0
 20
538.516
 30
0.0
 11
209.0
 21
539.737
 31
0.0
  0
LINE
  5
135
330
1E
100
AcDbEntity
  8
0
100
AcDbLine
 10
209.0
 20
536.874
 30
0.0
 11
209.0
 21
535.021
 31
0.0
  0
LINE
  5
136
330
1E
100
AcDbEntity
  8
0
100
AcDbLine
 10
209.0
 20
536.874
 30
0.0
 11
209.0
 21
538.516
 31
0.0
  0
LINE
  5
139
330
1E
100
AcDbEntity
  8
0
100
AcDbLine
 10
215.0
 20
535.304
 30
0.0
 11
215.0
 21
537.464
 31
0.0
  0
LINE
  5
13A
330
1E
100
AcDbEntity
  8
0
100
AcDbLine
 10
215.0
 20
535.304
 30
0.0
 11
215.0
 21
533.0
 31
0.0
  0
LINE
  5
13B
330
1E
100
AcDbEntity
  8
0
100
AcDbLine
 10
215.0
 20
534.792
 30
0.0
 11
215.0
 21
536.472
 31
0.0
  0
LINE
  5
13C
330
1E
100
AcDbEntity
  8
0
100
AcDbLine
 10
215.0
 20
537.464
 30
0.0
 11
215.0
 21
539.372
 31
0.0
  0
LINE
  5
13D
330
1E
100
AcDbEntity
  8
0
100
AcDbLine
 10
215.0
 20
537.464
 30
0.0
 11
215.0
 21
535.304
 31
0.0
  0
LINE
  5
13E
330
1E
100
AcDbEntity
  8
0
100
AcDbLine
 10
215.0
 20
536.472
 30
0.0
 11
215.0
 21
537.956
 31
0.0
  0
LINE
  5
13F
330
1E
100
AcDbEntity
  8
0
100
AcDbLine
 10
271.0
 20
534.792
 30
0.0
 11
271.0
 21
536.472
 31
0.0
  0
LINE
  5
140
330
1E
100
AcDbEntity
  8
0
100
AcDbLine
 10
271.0
 20
534.792
 30
0.0
 11
271.0
 21
533.0
 31
0.0
  0
LINE
  5
141
330
1E
100
AcDbEntity
  8
0
100
AcDbLine
 10
271.0
 20
536.472
 30
0.0
 11
271.0
 21
537.956
 31
0.0
  0
LINE
  5
142
330
1E
100
AcDbEntity
  8
0
100
AcDbLine
 10
271.0
 20
536.472
 30
0.0
 11
271.0
 21
534.792
 31
0.0
  0
LINE
  5
143
330
1E
100
AcDbEntity
  8
0
100
AcDbLine
 10
265.0
 20
535.304
 30
0.0
 11
265.0
 21
537.464
 31
0.0
  0
LINE
  5
144
330
1E
100
AcDbEntity
  8
0
100
AcDbLine
 10
265.0
 20
535.304
 30
0.0
 11
265.0
 21
533.0
 31
0.0
  0
LINE
  5
145
330
1E
100
AcDbEntity
  8
0
100
AcDbLine
 10
215.0
 20
537.956
 30
0.0
 11
215.0
 21
539.076
 31
0.0
  0
LINE
  5
146
330
1E
100
AcDbEntity
  8
0
100
AcDbLine
 10
271.0
 20
537.956
 30
0.0
 11
271.0
 21
539.076
 31
0.0
  0
LINE
  5
147
330
1E
100
AcDbEntity
  8
0
100
AcDbLine
 10
271.0
 20
537.956
 30
0.0
 11
271.0
 21
536.472
 31
0.0
  0
LINE
  5
148
330
1E
100
AcDbEntity
  8
0
100
AcDbLine
 10
265.0
 20
537.464
 30
0.0
 11
265.0
 21
539.372
 31
0.0
  0
LINE
  5
149
330
1E
100
AcDbEntity
  8
0
100
AcDbLine
 10
265.0
 20
537.464
 30
0.0
 11
265.0
 21
535.304
 31
0.0
  0
LINE
  5
14A
330
1E
100
AcDbEntity
  8
0
100
AcDbLine
 10
209.0
 20
535.021
 30
0.0
 11
209.0
 21
533.0
 31
0.0
  0
LINE
  5
14B
330
1E
100
AcDbEntity
  8
0
100
AcDbLine
 10
209.0
 20
535.021
 30
0.0
 11
209.0
 21
536.874
 31
0.0
  0
LINE
  5
14C
330
1E
100
AcDbEntity
  8
0
100
AcDbLine
 10
209.0
 20
533.0
 30
0.0
 11
209.0
 21
530.979
 31
0.0
  0
LINE
  5
14D
330
1E
100
AcDbEntity
  8
0
100
AcDbLine
 10
209.0
 20
533.0
 30
0.0
 11
209.0
 21
535.021
 31
0.0
  0
LINE
  5
14E
330
1E
100
AcDbEntity
  8
0
100
AcDbLine
 10
209.0
 20
533.0
 30
0.0
 11
209.0
 21
534.792
 31
0.0
  0
LINE
  5
14F
330
1E
100
AcDbEntity
  8
0
100
AcDbLine
 10
209.0
 20
533.0
 30
0.0
 11
209.0
 21
531.208
 31
0.0
  0
LINE
  5
153
330
1E
100
AcDbEntity
  8
0
100
AcDbLine
 10
199.0
 20
531.259
 30
0.0
 11
199.0
 21
529.805
 31
0.0
  0
LINE
  5
154
330
1E
100
AcDbEntity
  8
0
100
AcDbLine
 10
199.0
 20
531.259
 30
0.0
 11
199.0
 21
533.013
 31
0.0
  0
LINE
  5
156
330
1E
100
AcDbEntity
  8
0
100
AcDbLine
 10
199.0
 20
538.596
 30
0.0
 11
199.0
 21
539.075
 31
0.0
  0
LINE
  5
157
330
1E
100
AcDbEntity
  8
0
100
AcDbLine
 10
199.0
 20
538.596
 30
0.0
 11
199.0
 21
537.602
 31
0.0
  0
LINE
  5
158
330
1E
100
AcDbEntity
  8
0
100
AcDbLine
 10
199.0
 20
538.562
 30
0.0
 11
199.0
 21
537.619
 31
0.0
  0
LINE
  5
159
330
1E
100
AcDbEntity
  8
0
100
AcDbLine
 10
199.0
 20
538.562
 30
0.0
 11
199.0
 21
539.109
 31
0.0
  0
LINE
  5
15A
330
1E
100
AcDbEntity
  8
0
100
AcDbLine
 10
199.0
 20
539.075
 30
0.0
 11
199.0
 21
539.291
 31
0.0
  0
LINE
  5
15B
330
1E
100
AcDbEntity
  8
0
100
AcDbLine
 10
199.0
 20
539.075
 30
0.0
 11
199.0
 21
538.596
 31
0.0
  0
LINE
  5
15C
330
1E
100
AcDbEntity
  8
0
100
AcDbLine
 10
199.0
 20
539.291
 30
0.0
 11
199.0
 21
539.109
 31
0.0
  0
LINE
  5
15D
330
1E
100
AcDbEntity
  8
0
100
AcDbLine
 10
199.0
 20
539.291
 30
0.0
 11
199.0
 21
539.075
 31
0.0
  0
LINE
  5
15E
330
1E
100
AcDbEntity
  8
0
100
AcDbLine
 10
199.0
 20
539.109
 30
0.0
 11
199.0
 21
539.291
 31
0.0
  0
LINE
  5
15F
330
1E
100
AcDbEntity
  8
0
100
AcDbLine
 10
199.0
 20
539.109
 30
0.0
 11
199.0
 21
538.562
 31
0.0
  0
LINE
  5
162
330
1E
100
AcDbEntity
  8
0
100
AcDbLine
 10
199.0
 20
539.737
 30
0.0
 11
199.0
 21
538.516
 31
0.0
  0
LINE
  5
165
330
1E
100
AcDbEntity
  8
0
100
AcDbLine
 10
199.0
 20
539.737
 30
0.0
 11
199.0
 21
540.495
 31
0.0
  0
LINE
  5
168
330
1E
100
AcDbEntity
  8
0
100
AcDbLine
 10
209.0
 20
539.076
 30
0.0
 11
209.0
 21
537.956
 31
0.0
  0
LINE
  5
169
330
1E
100
AcDbEntity
  8
0
100
AcDbLine
 10
209.0
 20
540.0
 30
0.0
 11
215.0
 21
540.0
 31
0.0
  0
LINE
  5
16A
330
1E
100
AcDbEntity
  8
0
100
AcDbLine
 10
215.0
 20
539.372
 30
0.0
 11
215.0
 21
540.812
 31
0.0
  0
LINE
  5
16B
330
1E
100
AcDbEntity
  8
0
100
AcDbLine
 10
215.0
 20
539.372
 30
0.0
 11
215.0
 21
537.464
 31
0.0
  0
LINE
  5
16C
330
1E
100
AcDbEntity
  8
0
100
AcDbLine
 10
215.0
 20
539.076
 30
0.0
 11
215.0
 21
539.748
 31
0.0
  0
LINE
  5
16D
330
1E
100
AcDbEntity
  8
0
100
AcDbLine
 10
271.0
 20
539.076
 30
0.0
 11
271.0
 21
539.748
 31
0.0
  0
LINE
  5
16E
330
1E
100
AcDbEntity
  8
0
100
AcDbLine
 10
271.0
 20
539.076
 30
0.0
 11
271.0
 21
537.956
 31
0.0
  0
LINE
  5
16F
330
1E
100
AcDbEntity
  8
0
100
AcDbLine
 10
215.0
 20
540.0
 30
0.0
 11
215.0
 21
540.812
 31
0.0
  0
LINE
  5
170
330
1E
100
AcDbEntity
  8
0
100
AcDbLine
 10
215.0
 20
539.748
 30
0.0
 11
215.0
 21
540.0
 31
0.0
  0
LINE
  5
171
330
1E
100
AcDbEntity
  8
0
100
AcDbLine
 10
271.0
 20
539.748
 30
0.0
 11
271.0
 21
540.0
 31
0.0
  0
LINE
  5
172
330
1E
100
AcDbEntity
  8
0
100
AcDbLine
 10
271.0
 20
539.748
 30
0.0
 11
271.0
 21
539.076
 31
0.0
  0
LINE
  5
173
330
1E
100
AcDbEntity
  8
0
100
AcDbLine
 10
265.0
 20
540.0
 30
0.0
 11
271.0
 21
540.0
 31
0.0
  0
LINE
  5
174
330
1E
100
AcDbEntity
  8
0
100
AcDbLine
 10
265.0
 20
539.372
 30
0.0
 11
265.0
 21
540.812
 31
0.0
  0
LINE
  5
175
330
1E
100
AcDbEntity
  8
0
100
AcDbLine
 10
265.0
 20
539.372
 30
0.0
 11
265.0
 21
537.464
 31
0.0
  0
LINE
  5
176
330
1E
100
AcDbEntity
  8
0
100
AcDbLine
 10
209.0
 20
539.737
 30
0.0
 11
209.0
 21
538.516
 31
0.0
  0
LINE
  5
177
330
1E
100
AcDbEntity
  8
0
100
AcDbLine
 10
209.0
 20
539.737
 30
0.0
 11
209.0
 21
540.495
 31
0.0
  0
LINE
  5
17C
330
1E
100
AcDbEntity
  8
0
100
AcDbLine
 10
209.0
 20
540.495
 30
0.0
 11
209.0
 21
539.737
 31
0.0
  0
LINE
  5
17D
330
1E
100
AcDbEntity
  8
0
100
AcDbLine
 10
209.0
 20
540.495
 30
0.0
 11
209.0
 21
540.789
 31
0.0
  0
LINE
  5
17E
330
1E
100
AcDbEntity
  8
0
100
AcDbLine
 10
199.0
 20
540.495
 30
0.0
 11
199.0
 21
539.737
 31
0.0
  0
LINE
  5
180
330
1E
100
AcDbEntity
  8
0
100
AcDbLine
 10
199.0
 20
540.495
 30
0.0
 11
199.0
 21
540.789
 31
0.0
  0
LINE
  5
183
330
1E
100
AcDbEntity
  8
0
100
AcDbLine
 10
271.0
 20
540.0
 30
0.0
 11
271.0
 21
540.495
 31
0.0
  0
LINE
  5
184
330
1E
100
AcDbEntity
  8
0
100
AcDbLine
 10
271.0
 20
540.0
 30
0.0
 11
271.0
 21
539.748
 31
0.0
  0
LINE
  5
185
330
1E
100
AcDbEntity
  8
0
100
AcDbLine
 10
199.0
 20
540.789
 30
0.0
 11
199.0
 21
540.495
 31
0.0
  0
LINE
  5
186
330
1E
100
AcDbEntity
  8
0
100
AcDbLine
 10
199.0
 20
540.789
 30
0.0
 11
199.048
 21
541.0
 31
0.0
  0
LINE
  5
18B
330
1E
100
AcDbEntity
  8
0
100
AcDbLine
 10
199.476
 20
541.0
 30
0.0
 11
199.952
 21
541.0
 31
0.0
  0
LINE
  5
18D
330
1E
100
AcDbEntity
  8
0
100
AcDbLine
 10
199.952
 20
541.0
 30
0.0
 11
208.048
 21
541.0
 31
0.0
  0
LINE
  5
192
330
1E
100
AcDbEntity
  8
0
100
AcDbLine
 10
208.048
 20
541.0
 30
0.0
 11
208.524
 21
541.0
 31
0.0
  0
LINE
  5
193
330
1E
100
AcDbEntity
  8
0
100
AcDbLine
 10
199.114
 20
541.0
 30
0.0
 11
199.476
 21
541.0
 31
0.0
  0
LINE
  5
195
330
1E
100
AcDbEntity
  8
0
100
AcDbLine
 10
208.524
 20
541.0
 30
0.0
 11
208.886
 21
541.0
 31
0.0
  0
LINE
  5
197
330
1E
100
AcDbEntity
  8
0
100
AcDbLine
 10
149.0
 20
550.0
 30
0.0
 11
226.0
 21
550.0
 31
0.0
  0
LINE
  5
198
330
1E
100
AcDbEntity
  8
0
100
AcDbLine
 10
149.0
 20
550.0
 30
0.0
 11
149.0
 21
250.0
 31
0.0
  0
LINE
  5
199
330
1E
100
AcDbEntity
  8
0
100
AcDbLine
 10
199.048
 20
541.0
 30
0.0
 11
199.114
 21
541.0
 31
0.0
  0
LINE
  5
19A
330
1E
100
AcDbEntity
  8
0
100
AcDbLine
 10
215.0
 20
540.812
 30
0.0
 11
215.0
 21
540.0
 31
0.0
  0
LINE
  5
19B
330
1E
100
AcDbEntity
  8
0
100
AcDbLine
 10
215.0
 20
540.812
 30
0.0
 11
215.0
 21
541.676
 31
0.0
  0
LINE
  5
19C
330
1E
100
AcDbEntity
  8
0
100
AcDbLine
 10
215.0
 20
540.812
 30
0.0
 11
215.0
 21
539.372
 31
0.0
  0
LINE
  5
19D
330
1E
100
AcDbEntity
  8
0
100
AcDbLine
 10
265.0
 20
540.812
 30
0.0
 11
265.0
 21
541.676
 31
0.0
  0
LINE
  5
19E
330
1E
100
AcDbEntity
  8
0
100
AcDbLine
 10
265.0
 20
540.812
 30
0.0
 11
265.0
 21
539.372
 31
0.0
  0
LINE
  5
19F
330
1E
100
AcDbEntity
  8
0
100
AcDbLine
 10
209.0
 20
540.789
 30
0.0
 11
209.0
 21
540.495
 31
0.0
  0
LINE
  5
1A0
330
1E
100
AcDbEntity
  8
0
100
AcDbLine
 10
215.0
 20
541.676
 30
0.0
 11
215.0
 21
540.812
 31
0.0
  0
LINE
  5
1A1
330
1E
100
AcDbEntity
  8
0
100
AcDbLine
 10
215.0
 20
541.676
 30
0.0
 11
215.0
 21
542.0
 31
0.0
  0
LINE
  5
1A2
330
1E
100
AcDbEntity
  8
0
100
AcDbLine
 10
215.0
 20
542.0
 30
0.0
 11
215.0
 21
541.676
 31
0.0
  0
LINE
  5
1A3
330
1E
100
AcDbEntity
  8
0
100
AcDbLine
 10
215.0
 20
542.0
 30
0.0
 11
226.0
 21
542.0
 31
0.0
  0
LINE
  5
1A4
330
1E
100
AcDbEntity
  8
0
100
AcDbLine
 10
219.0
 20
598.0
 30
0.0
 11
219.756
 21
598.0
 31
0.0
  0
LINE
  5
1A5
330
1E
100
AcDbEntity
  8
0
100
AcDbLine
 10
219.0
 20
598.0
 30
0.0
 11
219.0
 21
597.0
 31
0.0
  0
LINE
  5
1A6
330
1E
100
AcDbEntity
  8
0
100
AcDbLine
 10
219.756
 20
598.0
 30
0.0
 11
221.772
 21
598.0
 31
0.0
  0
LINE
  5
1A7
330
1E
100
AcDbEntity
  8
0
100
AcDbLine
 10
219.756
 20
597.0
 30
0.0
 11
221.772
 21
597.0
 31
0.0
  0
LINE
  5
1A8
330
1E
100
AcDbEntity
  8
0
100
AcDbLine
 10
219.0
 20
597.0
 30
0.0
 11
219.0
 21
598.0
 31
0.0
  0
LINE
  5
1A9
330
1E
100
AcDbEntity
  8
0
100
AcDbLine
 10
219.0
 20
597.0
 30
0.0
 11
219.756
 21
597.0
 31
0.0
  0
LINE
  5
1AA
330
1E
100
AcDbEntity
  8
0
100
AcDbLine
 10
220.0
 20
588.0
 30
0.0
 11
220.72
 21
588.0
 31
0.0
  0
LINE
  5
1AB
330
1E
100
AcDbEntity
  8
0
100
AcDbLine
 10
220.0
 20
588.0
 30
0.0
 11
220.0
 21
586.0
 31
0.0
  0
LINE
  5
1AC
330
1E
100
AcDbEntity
  8
0
100
AcDbLine
 10
220.0
 20
586.0
 30
0.0
 11
220.0
 21
588.0
 31
0.0
  0
LINE
  5
1AD
330
1E
100
AcDbEntity
  8
0
100
AcDbLine
 10
220.0
 20
586.0
 30
0.0
 11
220.72
 21
586.0
 31
0.0
  0
LINE
  5
1AE
330
1E
100
AcDbEntity
  8
0
100
AcDbLine
 10
220.0
 20
600.0
 30
0.0
 11
220.72
 21
600.0
 31
0.0
  0
LINE
  5
1AF
330
1E
100
AcDbEntity
  8
0
100
AcDbLine
 10
220.0
 20
600.0
 30
0.0
 11
220.0
 21
598.0
 31
0.0
  0
LINE
  5
1B0
330
1E
100
AcDbEntity
  8
0
100
AcDbLine
 10
220.0
 20
598.0
 30
0.0
 11
220.0
 21
600.0
 31
0.0
  0
LINE
  5
1B1
330
1E
100
AcDbEntity
  8
0
100
AcDbLine
 10
220.0
 20
582.147
 30
0.0
 11
220.0
 21
577.147
 31
0.0
  0
LINE
  5
1B2
330
1E
100
AcDbEntity
  8
0
100
AcDbLine
 10
220.0
 20
582.147
 30
0.0
 11
220.216
 21
582.147
 31
0.0
  0
LINE
  5
1B3
330
1E
100
AcDbEntity
  8
0
100
AcDbLine
 10
221.865
 20
573.0
 30
0.0
 11
222.179
 21
573.0
 31
0.0
  0
LINE
  5
1B4
330
1E
100
AcDbEntity
  8
0
100
AcDbLine
 10
221.633
 20
573.0
 30
0.0
 11
221.865
 21
573.0
 31
0.0
  0
LINE
  5
1B5
330
1E
100
AcDbEntity
  8
0
100
AcDbLine
 10
221.482
 20
573.0
 30
0.0
 11
221.633
 21
573.0
 31
0.0
  0
LINE
  5
1B6
330
1E
100
AcDbEntity
  8
0
100
AcDbLine
 10
222.549
 20
573.0
 30
0.0
 11
222.934
 21
573.0
 31
0.0
  0
LINE
  5
1B7
330
1E
100
AcDbEntity
  8
0
100
AcDbLine
 10
222.179
 20
573.0
 30
0.0
 11
222.549
 21
573.0
 31
0.0
  0
LINE
  5
1B8
330
1E
100
AcDbEntity
  8
0
100
AcDbLine
 10
222.542
 20
573.0
 30
0.0
 11
222.927
 21
573.0
 31
0.0
  0
LINE
  5
1B9
330
1E
100
AcDbEntity
  8
0
100
AcDbLine
 10
222.934
 20
573.0
 30
0.0
 11
223.319
 21
573.0
 31
0.0
  0
LINE
  5
1BA
330
1E
100
AcDbEntity
  8
0
100
AcDbLine
 10
222.927
 20
573.0
 30
0.0
 11
223.312
 21
573.0
 31
0.0
  0
LINE
  5
1BB
330
1E
100
AcDbEntity
  8
0
100
AcDbLine
 10
222.185
 20
573.0
 30
0.0
 11
222.542
 21
573.0
 31
0.0
  0
LINE
  5
1BC
330
1E
100
AcDbEntity
  8
0
100
AcDbLine
 10
221.875
 20
573.0
 30
0.0
 11
222.185
 21
573.0
 31
0.0
  0
LINE
  5
1BD
330
1E
100
AcDbEntity
  8
0
100
AcDbLine
 10
221.63
 20
573.0
 30
0.0
 11
221.875
 21
573.0
 31
0.0
  0
LINE
  5
1BE
330
1E
100
AcDbEntity
  8
0
100
AcDbLine
 10
221.48
 20
573.0
 30
0.0
 11
221.63
 21
573.0
 31
0.0
  0
LINE
  5
1BF
330
1E
100
AcDbEntity
  8
0
100
AcDbLine
 10
221.933
 20
577.0
 30
0.0
 11
221.933
 21
577.147
 31
0.0
  0
LINE
  5
1C0
330
1E
100
AcDbEntity
  8
0
100
AcDbLine
 10
222.542
 20
577.0
 30
0.0
 11
222.927
 21
577.0
 31
0.0
  0
LINE
  5
1C1
330
1E
100
AcDbEntity
  8
0
100
AcDbLine
 10
222.927
 20
577.0
 30
0.0
 11
223.312
 21
577.0
 31
0.0
  0
LINE
  5
1C2
330
1E
100
AcDbEntity
  8
0
100
AcDbLine
 10
222.185
 20
577.0
 30
0.0
 11
222.542
 21
577.0
 31
0.0
  0
LINE
  5
1C3
330
1E
100
AcDbEntity
  8
0
100
AcDbLine
 10
221.875
 20
577.0
 30
0.0
 11
222.185
 21
577.0
 31
0.0
  0
LINE
  5
1C4
330
1E
100
AcDbEntity
  8
0
100
AcDbLine
 10
221.63
 20
577.0
 30
0.0
 11
221.875
 21
577.0
 31
0.0
  0
LINE
  5
1C5
330
1E
100
AcDbEntity
  8
0
100
AcDbLine
 10
221.933
 20
577.147
 30
0.0
 11
221.933
 21
577.0
 31
0.0
  0
LINE
  5
1C6
330
1E
100
AcDbEntity
  8
0
100
AcDbLine
 10
221.48
 20
577.0
 30
0.0
 11
221.63
 21
577.0
 31
0.0
  0
LINE
  5
1C7
330
1E
100
AcDbEntity
  8
0
100
AcDbLine
 10
221.434
 20
577.0
 30
0.0
 11
221.434
 21
573.0
 31
0.0
  0
LINE
  5
1C8
330
1E
100
AcDbEntity
  8
0
100
AcDbLine
 10
221.434
 20
573.0
 30
0.0
 11
221.434
 21
577.0
 31
0.0
  0
LINE
  5
1C9
330
1E
100
AcDbEntity
  8
0
100
AcDbLine
 10
223.319
 20
573.0
 30
0.0
 11
223.676
 21
573.0
 31
0.0
  0
LINE
  5
1CA
330
1E
100
AcDbEntity
  8
0
100
AcDbLine
 10
223.676
 20
573.0
 30
0.0
 11
223.986
 21
573.0
 31
0.0
  0
LINE
  5
1CB
330
1E
100
AcDbEntity
  8
0
100
AcDbLine
 10
223.312
 20
573.0
 30
0.0
 11
223.681
 21
573.0
 31
0.0
  0
LINE
  5
1CC
330
1E
100
AcDbEntity
  8
0
100
AcDbLine
 10
223.986
 20
573.0
 30
0.0
 11
224.231
 21
573.0
 31
0.0
  0
LINE
  5
1CD
330
1E
100
AcDbEntity
  8
0
100
AcDbLine
 10
223.681
 20
573.0
 30
0.0
 11
223.995
 21
573.0
 31
0.0
  0
LINE
  5
1CE
330
1E
100
AcDbEntity
  8
0
100
AcDbLine
 10
223.312
 20
577.0
 30
0.0
 11
223.681
 21
577.0
 31
0.0
  0
LINE
  5
1CF
330
1E
100
AcDbEntity
  8
0
100
AcDbLine
 10
223.928
 20
577.0
 30
0.0
 11
223.928
 21
577.147
 31
0.0
  0
LINE
  5
1D0
330
1E
100
AcDbEntity
  8
0
100
AcDbLine
 10
223.681
 20
577.0
 30
0.0
 11
223.995
 21
577.0
 31
0.0
  0
LINE
  5
1D1
330
1E
100
AcDbEntity
  8
0
100
AcDbLine
 10
223.928
 20
577.147
 30
0.0
 11
223.928
 21
577.0
 31
0.0
  0
LINE
  5
1D2
330
1E
100
AcDbEntity
  8
0
100
AcDbLine
 10
223.928
 20
577.147
 30
0.0
 11
224.464
 21
577.147
 31
0.0
  0
LINE
  5
1D3
330
1E
100
AcDbEntity
  8
0
100
AcDbLine
 10
223.995
 20
577.0
 30
0.0
 11
224.228
 21
577.0
 31
0.0
  0
LINE
  5
1D4
330
1E
100
AcDbEntity
  8
0
100
AcDbLine
 10
224.228
 20
577.0
 30
0.0
 11
224.379
 21
577.0
 31
0.0
  0
LINE
  5
1D5
330
1E
100
AcDbEntity
  8
0
100
AcDbLine
 10
223.995
 20
573.0
 30
0.0
 11
224.228
 21
573.0
 31
0.0
  0
LINE
  5
1D6
330
1E
100
AcDbEntity
  8
0
100
AcDbLine
 10
224.231
 20
573.0
 30
0.0
 11
224.381
 21
573.0
 31
0.0
  0
LINE
  5
1D7
330
1E
100
AcDbEntity
  8
0
100
AcDbLine
 10
224.427
 20
573.0
 30
0.0
 11
224.427
 21
577.0
 31
0.0
  0
LINE
  5
1D8
330
1E
100
AcDbEntity
  8
0
100
AcDbLine
 10
224.427
 20
577.0
 30
0.0
 11
224.427
 21
573.0
 31
0.0
  0
LINE
  5
1D9
330
1E
100
AcDbEntity
  8
0
100
AcDbLine
 10
224.228
 20
573.0
 30
0.0
 11
224.379
 21
573.0
 31
0.0
  0
LINE
  5
1DA
330
1E
100
AcDbEntity
  8
0
100
AcDbLine
 10
224.464
 20
577.147
 30
0.0
 11
226.112
 21
577.147
 31
0.0
  0
LINE
  5
1DB
330
1E
100
AcDbEntity
  8
0
100
AcDbLine
 10
224.464
 20
577.147
 30
0.0
 11
226.0
 21
577.147
 31
0.0
  0
LINE
  5
1DC
330
1E
100
AcDbEntity
  8
0
100
AcDbLine
 10
223.024
 20
577.147
 30
0.0
 11
224.464
 21
577.147
 31
0.0
  0
LINE
  5
1DD
330
1E
100
AcDbEntity
  8
0
100
AcDbLine
 10
221.752
 20
577.147
 30
0.0
 11
223.024
 21
577.147
 31
0.0
  0
LINE
  5
1DE
330
1E
100
AcDbEntity
  8
0
100
AcDbLine
 10
221.752
 20
577.147
 30
0.0
 11
221.933
 21
577.147
 31
0.0
  0
LINE
  5
1DF
330
1E
100
AcDbEntity
  8
0
100
AcDbLine
 10
220.792
 20
577.147
 30
0.0
 11
221.752
 21
577.147
 31
0.0
  0
LINE
  5
1E0
330
1E
100
AcDbEntity
  8
0
100
AcDbLine
 10
223.928
 20
582.147
 30
0.0
 11
223.928
 21
586.0
 31
0.0
  0
LINE
  5
1E1
330
1E
100
AcDbEntity
  8
0
100
AcDbLine
 10
221.933
 20
582.147
 30
0.0
 11
221.933
 21
586.0
 31
0.0
  0
LINE
  5
1E2
330
1E
100
AcDbEntity
  8
0
100
AcDbLine
 10
224.464
 20
582.147
 30
0.0
 11
226.112
 21
582.147
 31
0.0
  0
LINE
  5
1E3
330
1E
100
AcDbEntity
  8
0
100
AcDbLine
 10
223.024
 20
582.147
 30
0.0
 11
224.464
 21
582.147
 31
0.0
  0
LINE
  5
1E4
330
1E
100
AcDbEntity
  8
0
100
AcDbLine
 10
221.752
 20
582.147
 30
0.0
 11
223.024
 21
582.147
 31
0.0
  0
LINE
  5
1E5
330
1E
100
AcDbEntity
  8
0
100
AcDbLine
 10
220.72
 20
588.0
 30
0.0
 11
222.64
 21
588.0
 31
0.0
  0
LINE
  5
1E6
330
1E
100
AcDbEntity
  8
0
100
AcDbLine
 10
221.772
 20
598.0
 30
0.0
 11
225.132
 21
598.0
 31
0.0
  0
LINE
  5
1E7
330
1E
100
AcDbEntity
  8
0
100
AcDbLine
 10
221.772
 20
597.0
 30
0.0
 11
225.132
 21
597.0
 31
0.0
  0
LINE
  5
1E8
330
1E
100
AcDbEntity
  8
0
100
AcDbLine
 10
220.72
 20
586.0
 30
0.0
 11
221.933
 21
586.0
 31
0.0
  0
LINE
  5
1E9
330
1E
100
AcDbEntity
  8
0
100
AcDbLine
 10
220.72
 20
586.0
 30
0.0
 11
222.64
 21
586.0
 31
0.0
  0
LINE
  5
1EA
330
1E
100
AcDbEntity
  8
0
100
AcDbLine
 10
220.72
 20
600.0
 30
0.0
 11
222.64
 21
600.0
 31
0.0
  0
LINE
  5
1EB
330
1E
100
AcDbEntity
  8
0
100
AcDbLine
 10
222.64
 20
586.0
 30
0.0
 11
225.84
 21
586.0
 31
0.0
  0
LINE
  5
1EC
330
1E
100
AcDbEntity
  8
0
100
AcDbLine
 10
222.64
 20
588.0
 30
0.0
 11
225.84
 21
588.0
 31
0.0
  0
LINE
  5
1ED
330
1E
100
AcDbEntity
  8
0
100
AcDbLine
 10
222.64
 20
600.0
 30
0.0
 11
225.84
 21
600.0
 31
0.0
  0
LINE
  5
1EE
330
1E
100
AcDbEntity
  8
0
100
AcDbLine
 10
223.928
 20
586.0
 30
0.0
 11
223.928
 21
582.147
 31
0.0
  0
LINE
  5
1EF
330
1E
100
AcDbEntity
  8
0
100
AcDbLine
 10
223.928
 20
586.0
 30
0.0
 11
225.84
 21
586.0
 31
0.0
  0
LINE
  5
1F0
330
1E
100
AcDbEntity
  8
0
100
AcDbLine
 10
221.933
 20
586.0
 30
0.0
 11
221.933
 21
582.147
 31
0.0
  0
LINE
  5
1F1
330
1E
100
AcDbEntity
  8
0
100
AcDbLine
 10
220.792
 20
582.147
 30
0.0
 11
221.752
 21
582.147
 31
0.0
  0
LINE
  5
1F2
330
1E
100
AcDbEntity
  8
0
100
AcDbLine
 10
220.216
 20
582.147
 30
0.0
 11
220.792
 21
582.147
 31
0.0
  0
LINE
  5
1F3
330
1E
100
AcDbEntity
  8
0
100
AcDbLine
 10
220.216
 20
577.147
 30
0.0
 11
220.792
 21
577.147
 31
0.0
  0
LINE
  5
1F4
330
1E
100
AcDbEntity
  8
0
100
AcDbLine
 10
220.0
 20
577.147
 30
0.0
 11
220.216
 21
577.147
 31
0.0
  0
LINE
  5
1F5
330
1E
100
AcDbEntity
  8
0
100
AcDbLine
 10
220.0
 20
577.147
 30
0.0
 11
220.0
 21
582.147
 31
0.0
  0
LINE
  5
1F6
330
1E
100
AcDbEntity
  8
0
100
AcDbLine
 10
225.0
 20
600.0
 30
0.0
 11
225.0
 21
602.0
 31
0.0
  0
LINE
  5
1F7
330
1E
100
AcDbEntity
  8
0
100
AcDbLine
 10
226.0
 20
577.147
 30
0.0
 11
226.0
 21
541.89875
 31
0.0
  0
LINE
  5
1F8
330
1E
100
AcDbEntity
  8
0
100
AcDbLine
 10
226.0
 20
541.89875
 30
0.0
 11
226.0
 21
577.147
 31
0.0
  0
LINE
  5
1F9
330
1E
100
AcDbEntity
  8
0
100
AcDbLine
 10
235.904
 20
577.147
 30
0.0
 11
240.0
 21
577.147
 31
0.0
  0
LINE
  5
1FA
330
1E
100
AcDbEntity
  8
0
100
AcDbLine
 10
232.064
 20
577.147
 30
0.0
 11
235.904
 21
577.147
 31
0.0
  0
LINE
  5
1FB
330
1E
100
AcDbEntity
  8
0
100
AcDbLine
 10
228.672
 20
577.147
 30
0.0
 11
232.064
 21
577.147
 31
0.0
  0
LINE
  5
1FC
330
1E
100
AcDbEntity
  8
0
100
AcDbLine
 10
226.112
 20
577.147
 30
0.0
 11
228.672
 21
577.147
 31
0.0
  0
LINE
  5
1FD
330
1E
100
AcDbEntity
  8
0
100
AcDbLine
 10
240.0
 20
577.147
 30
0.0
 11
244.096
 21
577.147
 31
0.0
  0
LINE
  5
1FE
330
1E
100
AcDbEntity
  8
0
100
AcDbLine
 10
244.096
 20
577.147
 30
0.0
 11
247.936
 21
577.147
 31
0.0
  0
LINE
  5
1FF
330
1E
100
AcDbEntity
  8
0
100
AcDbLine
 10
247.936
 20
577.147
 30
0.0
 11
251.328
 21
577.147
 31
0.0
  0
LINE
  5
200
330
1E
100
AcDbEntity
  8
0
100
AcDbLine
 10
251.328
 20
577.147
 30
0.0
 11
253.888
 21
577.147
 31
0.0
  0
LINE
  5
201
330
1E
100
AcDbEntity
  8
0
100
AcDbLine
 10
254.0
 20
541.89875
 30
0.0
 11
254.0
 21
577.147
 31
0.0
  0
LINE
  5
202
330
1E
100
AcDbEntity
  8
0
100
AcDbLine
 10
254.0
 20
550.0
 30
0.0
 11
327.04
 21
550.0
 31
0.0
  0
LINE
  5
203
330
1E
100
AcDbEntity
  8
0
100
AcDbLine
 10
254.0
 20
542.0
 30
0.0
 11
265.0
 21
542.0
 31
0.0
  0
LINE
  5
204
330
1E
100
AcDbEntity
  8
0
100
AcDbLine
 10
253.888
 20
577.147
 30
0.0
 11
255.536
 21
577.147
 31
0.0
  0
LINE
  5
205
330
1E
100
AcDbEntity
  8
0
100
AcDbLine
 10
226.0
 20
582.147
 30
0.0
 11
226.0
 21
586.0
 31
0.0
  0
LINE
  5
206
330
1E
100
AcDbEntity
  8
0
100
AcDbLine
 10
235.904
 20
582.147
 30
0.0
 11
240.0
 21
582.147
 31
0.0
  0
LINE
  5
207
330
1E
100
AcDbEntity
  8
0
100
AcDbLine
 10
232.064
 20
582.147
 30
0.0
 11
235.904
 21
582.147
 31
0.0
  0
LINE
  5
208
330
1E
100
AcDbEntity
  8
0
100
AcDbLine
 10
228.672
 20
582.147
 30
0.0
 11
232.064
 21
582.147
 31
0.0
  0
LINE
  5
209
330
1E
100
AcDbEntity
  8
0
100
AcDbLine
 10
226.112
 20
582.147
 30
0.0
 11
228.672
 21
582.147
 31
0.0
  0
LINE
  5
20A
330
1E
100
AcDbEntity
  8
0
100
AcDbLine
 10
240.0
 20
582.147
 30
0.0
 11
244.096
 21
582.147
 31
0.0
  0
LINE
  5
20B
330
1E
100
AcDbEntity
  8
0
100
AcDbLine
 10
244.096
 20
582.147
 30
0.0
 11
247.936
 21
582.147
 31
0.0
  0
LINE
  5
20C
330
1E
100
AcDbEntity
  8
0
100
AcDbLine
 10
247.936
 20
582.147
 30
0.0
 11
251.328
 21
582.147
 31
0.0
  0
LINE
  5
20D
330
1E
100
AcDbEntity
  8
0
100
AcDbLine
 10
225.84
 20
586.0
 30
0.0
 11
226.0
 21
586.0
 31
0.0
  0
LINE
  5
20E
330
1E
100
AcDbEntity
  8
0
100
AcDbLine
 10
225.84
 20
586.0
 30
0.0
 11
230.08
 21
586.0
 31
0.0
  0
LINE
  5
20F
330
1E
100
AcDbEntity
  8
0
100
AcDbLine
 10
225.132
 20
598.0
 30
0.0
 11
229.584
 21
598.0
 31
0.0
  0
LINE
  5
210
330
1E
100
AcDbEntity
  8
0
100
AcDbLine
 10
225.132
 20
597.0
 30
0.0
 11
226.0
 21
597.0
 31
0.0
  0
LINE
  5
211
330
1E
100
AcDbEntity
  8
0
100
AcDbLine
 10
225.132
 20
597.0
 30
0.0
 11
229.584
 21
597.0
 31
0.0
  0
LINE
  5
212
330
1E
100
AcDbEntity
  8
0
100
AcDbLine
 10
225.84
 20
588.0
 30
0.0
 11
230.08
 21
588.0
 31
0.0
  0
LINE
  5
213
330
1E
100
AcDbEntity
  8
0
100
AcDbLine
 10
225.84
 20
600.0
 30
0.0
 11
230.08
 21
600.0
 31
0.0
  0
LINE
  5
214
330
1E
100
AcDbEntity
  8
0
100
AcDbLine
 10
226.0
 20
597.0
 30
0.0
 11
226.0
 21
588.0
 31
0.0
  0
LINE
  5
215
330
1E
100
AcDbEntity
  8
0
100
AcDbLine
 10
226.0
 20
586.0
 30
0.0
 11
226.0
 21
582.147
 31
0.0
  0
LINE
  5
216
330
1E
100
AcDbEntity
  8
0
100
AcDbLine
 10
230.08
 20
586.0
 30
0.0
 11
234.88
 21
586.0
 31
0.0
  0
LINE
  5
217
330
1E
100
AcDbEntity
  8
0
100
AcDbLine
 10
229.584
 20
597.0
 30
0.0
 11
234.624
 21
597.0
 31
0.0
  0
LINE
  5
218
330
1E
100
AcDbEntity
  8
0
100
AcDbLine
 10
229.584
 20
598.0
 30
0.0
 11
234.624
 21
598.0
 31
0.0
  0
LINE
  5
219
330
1E
100
AcDbEntity
  8
0
100
AcDbLine
 10
230.08
 20
588.0
 30
0.0
 11
234.88
 21
588.0
 31
0.0
  0
LINE
  5
21A
330
1E
100
AcDbEntity
  8
0
100
AcDbLine
 10
234.88
 20
586.0
 30
0.0
 11
240.0
 21
586.0
 31
0.0
  0
LINE
  5
21B
330
1E
100
AcDbEntity
  8
0
100
AcDbLine
 10
234.88
 20
588.0
 30
0.0
 11
240.0
 21
588.0
 31
0.0
  0
LINE
  5
21C
330
1E
100
AcDbEntity
  8
0
100
AcDbLine
 10
240.0
 20
586.0
 30
0.0
 11
245.12
 21
586.0
 31
0.0
  0
LINE
  5
21D
330
1E
100
AcDbEntity
  8
0
100
AcDbLine
 10
245.12
 20
586.0
 30
0.0
 11
249.92
 21
586.0
 31
0.0
  0
LINE
  5
21E
330
1E
100
AcDbEntity
  8
0
100
AcDbLine
 10
234.624
 20
597.0
 30
0.0
 11
240.0
 21
597.0
 31
0.0
  0
LINE
  5
21F
330
1E
100
AcDbEntity
  8
0
100
AcDbLine
 10
234.624
 20
598.0
 30
0.0
 11
240.0
 21
598.0
 31
0.0
  0
LINE
  5
220
330
1E
100
AcDbEntity
  8
0
100
AcDbLine
 10
240.0
 20
597.0
 30
0.0
 11
245.376
 21
597.0
 31
0.0
  0
LINE
  5
221
330
1E
100
AcDbEntity
  8
0
100
AcDbLine
 10
240.0
 20
598.0
 30
0.0
 11
245.376
 21
598.0
 31
0.0
  0
LINE
  5
222
330
1E
100
AcDbEntity
  8
0
100
AcDbLine
 10
240.0
 20
588.0
 30
0.0
 11
245.12
 21
588.0
 31
0.0
  0
LINE
  5
223
330
1E
100
AcDbEntity
  8
0
100
AcDbLine
 10
245.12
 20
588.0
 30
0.0
 11
249.92
 21
588.0
 31
0.0
  0
LINE
  5
224
330
1E
100
AcDbEntity
  8
0
100
AcDbLine
 10
234.88
 20
600.0
 30
0.0
 11
240.0
 21
600.0
 31
0.0
  0
LINE
  5
225
330
1E
100
AcDbEntity
  8
0
100
AcDbLine
 10
230.08
 20
600.0
 30
0.0
 11
234.88
 21
600.0
 31
0.0
  0
LINE
  5
226
330
1E
100
AcDbEntity
  8
0
100
AcDbLine
 10
240.0
 20
600.0
 30
0.0
 11
245.12
 21
600.0
 31
0.0
  0
LINE
  5
227
330
1E
100
AcDbEntity
  8
0
100
AcDbLine
 10
249.92
 20
586.0
 30
0.0
 11
254.16
 21
586.0
 31
0.0
  0
LINE
  5
228
330
1E
100
AcDbEntity
  8
0
100
AcDbLine
 10
245.376
 20
597.0
 30
0.0
 11
250.416
 21
597.0
 31
0.0
  0
LINE
  5
229
330
1E
100
AcDbEntity
  8
0
100
AcDbLine
 10
250.416
 20
597.0
 30
0.0
 11
254.868
 21
597.0
 31
0.0
  0
LINE
  5
22A
330
1E
100
AcDbEntity
  8
0
100
AcDbLine
 10
245.376
 20
598.0
 30
0.0
 11
250.416
 21
598.0
 31
0.0
  0
LINE
  5
22B
330
1E
100
AcDbEntity
  8
0
100
AcDbLine
 10
250.416
 20
598.0
 30
0.0
 11
254.868
 21
598.0
 31
0.0
  0
LINE
  5
22C
330
1E
100
AcDbEntity
  8
0
100
AcDbLine
 10
249.92
 20
588.0
 30
0.0
 11
254.16
 21
588.0
 31
0.0
  0
LINE
  5
22D
330
1E
100
AcDbEntity
  8
0
100
AcDbLine
 10
245.12
 20
600.0
 30
0.0
 11
249.92
 21
600.0
 31
0.0
  0
LINE
  5
22E
330
1E
100
AcDbEntity
  8
0
100
AcDbLine
 10
249.92
 20
600.0
 30
0.0
 11
254.16
 21
600.0
 31
0.0
  0
LINE
  5
22F
330
1E
100
AcDbEntity
  8
0
100
AcDbLine
 10
226.0
 20
588.0
 30
0.0
 11
226.0
 21
597.0
 31
0.0
  0
LINE
  5
230
330
1E
100
AcDbEntity
  8
0
100
AcDbLine
 10
251.328
 20
582.147
 30
0.0
 11
253.888
 21
582.147
 31
0.0
  0
LINE
  5
231
330
1E
100
AcDbEntity
  8
0
100
AcDbLine
 10
254.16
 20
586.0
 30
0.0
 11
256.072
 21
586.0
 31
0.0
  0
LINE
  5
232
330
1E
100
AcDbEntity
  8
0
100
AcDbLine
 10
254.16
 20
586.0
 30
0.0
 11
257.36
 21
586.0
 31
0.0
  0
LINE
  5
233
330
1E
100
AcDbEntity
  8
0
100
AcDbLine
 10
254.0
 20
582.147
 30
0.0
 11
254.0
 21
586.0
 31
0.0
  0
LINE
  5
234
330
1E
100
AcDbEntity
  8
0
100
AcDbLine
 10
254.0
 20
588.0
 30
0.0
 11
254.0
 21
597.0
 31
0.0
  0
LINE
  5
235
330
1E
100
AcDbEntity
  8
0
100
AcDbLine
 10
254.16
 20
588.0
 30
0.0
 11
257.36
 21
588.0
 31
0.0
  0
LINE
  5
236
330
1E
100
AcDbEntity
  8
0
100
AcDbLine
 10
254.0
 20
597.0
 30
0.0
 11
254.0
 21
588.0
 31
0.0
  0
LINE
  5
237
330
1E
100
AcDbEntity
  8
0
100
AcDbLine
 10
254.0
 20
597.0
 30
0.0
 11
254.868
 21
597.0
 31
0.0
  0
LINE
  5
238
330
1E
100
AcDbEntity
  8
0
100
AcDbLine
 10
254.0
 20
586.0
 30
0.0
 11
254.0
 21
582.147
 31
0.0
  0
LINE
  5
239
330
1E
100
AcDbEntity
  8
0
100
AcDbLine
 10
254.0
 20
586.0
 30
0.0
 11
254.16
 21
586.0
 31
0.0
  0
LINE
  5
23A
330
1E
100
AcDbEntity
  8
0
100
AcDbLine
 10
253.888
 20
582.147
 30
0.0
 11
255.536
 21
582.147
 31
0.0
  0
LINE
  5
23B
330
1E
100
AcDbEntity
  8
0
100
AcDbLine
 10
254.0
 20
577.147
 30
0.0
 11
255.536
 21
577.147
 31
0.0
  0
LINE
  5
23C
330
1E
100
AcDbEntity
  8
0
100
AcDbLine
 10
254.0
 20
577.147
 30
0.0
 11
254.0
 21
541.89875
 31
0.0
  0
LINE
  5
23D
330
1E
100
AcDbEntity
  8
0
100
AcDbLine
 10
255.769
 20
573.0
 30
0.0
 11
256.014
 21
573.0
 31
0.0
  0
LINE
  5
23E
330
1E
100
AcDbEntity
  8
0
100
AcDbLine
 10
255.619
 20
573.0
 30
0.0
 11
255.769
 21
573.0
 31
0.0
  0
LINE
  5
23F
330
1E
100
AcDbEntity
  8
0
100
AcDbLine
 10
255.573
 20
573.0
 30
0.0
 11
255.573
 21
577.0
 31
0.0
  0
LINE
  5
240
330
1E
100
AcDbEntity
  8
0
100
AcDbLine
 10
256.014
 20
573.0
 30
0.0
 11
256.324
 21
573.0
 31
0.0
  0
LINE
  5
241
330
1E
100
AcDbEntity
  8
0
100
AcDbLine
 10
256.681
 20
573.0
 30
0.0
 11
257.066
 21
573.0
 31
0.0
  0
LINE
  5
242
330
1E
100
AcDbEntity
  8
0
100
AcDbLine
 10
257.066
 20
573.0
 30
0.0
 11
257.451
 21
573.0
 31
0.0
  0
LINE
  5
243
330
1E
100
AcDbEntity
  8
0
100
AcDbLine
 10
256.324
 20
573.0
 30
0.0
 11
256.681
 21
573.0
 31
0.0
  0
LINE
  5
244
330
1E
100
AcDbEntity
  8
0
100
AcDbLine
 10
257.451
 20
573.0
 30
0.0
 11
257.821
 21
573.0
 31
0.0
  0
LINE
  5
245
330
1E
100
AcDbEntity
  8
0
100
AcDbLine
 10
257.073
 20
573.0
 30
0.0
 11
257.458
 21
573.0
 31
0.0
  0
LINE
  5
246
330
1E
100
AcDbEntity
  8
0
100
AcDbLine
 10
256.688
 20
573.0
 30
0.0
 11
257.073
 21
573.0
 31
0.0
  0
LINE
  5
247
330
1E
100
AcDbEntity
  8
0
100
AcDbLine
 10
256.319
 20
573.0
 30
0.0
 11
256.688
 21
573.0
 31
0.0
  0
LINE
  5
248
330
1E
100
AcDbEntity
  8
0
100
AcDbLine
 10
256.005
 20
573.0
 30
0.0
 11
256.319
 21
573.0
 31
0.0
  0
LINE
  5
249
330
1E
100
AcDbEntity
  8
0
100
AcDbLine
 10
255.772
 20
573.0
 30
0.0
 11
256.005
 21
573.0
 31
0.0
  0
LINE
  5
24A
330
1E
100
AcDbEntity
  8
0
100
AcDbLine
 10
255.621
 20
573.0
 30
0.0
 11
255.772
 21
573.0
 31
0.0
  0
LINE
  5
24B
330
1E
100
AcDbEntity
  8
0
100
AcDbLine
 10
257.821
 20
573.0
 30
0.0
 11
258.135
 21
573.0
 31
0.0
  0
LINE
  5
24C
330
1E
100
AcDbEntity
  8
0
100
AcDbLine
 10
257.458
 20
573.0
 30
0.0
 11
257.815
 21
573.0
 31
0.0
  0
LINE
  5
24D
330
1E
100
AcDbEntity
  8
0
100
AcDbLine
 10
257.815
 20
573.0
 30
0.0
 11
258.125
 21
573.0
 31
0.0
  0
LINE
  5
24E
330
1E
100
AcDbEntity
  8
0
100
AcDbLine
 10
258.135
 20
573.0
 30
0.0
 11
258.367
 21
573.0
 31
0.0
  0
LINE
  5
24F
330
1E
100
AcDbEntity
  8
0
100
AcDbLine
 10
258.367
 20
573.0
 30
0.0
 11
258.518
 21
573.0
 31
0.0
  0
LINE
  5
250
330
1E
100
AcDbEntity
  8
0
100
AcDbLine
 10
258.125
 20
573.0
 30
0.0
 11
258.37
 21
573.0
 31
0.0
  0
LINE
  5
251
330
1E
100
AcDbEntity
  8
0
100
AcDbLine
 10
258.37
 20
573.0
 30
0.0
 11
258.52
 21
573.0
 31
0.0
  0
LINE
  5
252
330
1E
100
AcDbEntity
  8
0
100
AcDbLine
 10
265.0
 20
542.0
 30
0.0
 11
265.0
 21
541.676
 31
0.0
  0
LINE
  5
253
330
1E
100
AcDbEntity
  8
0
100
AcDbLine
 10
265.0
 20
541.676
 30
0.0
 11
265.0
 21
542.0
 31
0.0
  0
LINE
  5
254
330
1E
100
AcDbEntity
  8
0
100
AcDbLine
 10
265.0
 20
541.676
 30
0.0
 11
265.0
 21
540.812
 31
0.0
  0
LINE
  5
255
330
1E
100
AcDbEntity
  8
0
100
AcDbLine
 10
258.566
 20
573.0
 30
0.0
 11
258.566
 21
577.0
 31
0.0
  0
LINE
  5
256
330
1E
100
AcDbEntity
  8
0
100
AcDbLine
 10
255.573
 20
577.0
 30
0.0
 11
255.573
 21
573.0
 31
0.0
  0
LINE
  5
257
330
1E
100
AcDbEntity
  8
0
100
AcDbLine
 10
256.072
 20
577.0
 30
0.0
 11
256.072
 21
577.147
 31
0.0
  0
LINE
  5
258
330
1E
100
AcDbEntity
  8
0
100
AcDbLine
 10
257.073
 20
577.0
 30
0.0
 11
257.458
 21
577.0
 31
0.0
  0
LINE
  5
259
330
1E
100
AcDbEntity
  8
0
100
AcDbLine
 10
256.688
 20
577.0
 30
0.0
 11
257.073
 21
577.0
 31
0.0
  0
LINE
  5
25A
330
1E
100
AcDbEntity
  8
0
100
AcDbLine
 10
256.319
 20
577.0
 30
0.0
 11
256.688
 21
577.0
 31
0.0
  0
LINE
  5
25B
330
1E
100
AcDbEntity
  8
0
100
AcDbLine
 10
256.005
 20
577.0
 30
0.0
 11
256.319
 21
577.0
 31
0.0
  0
LINE
  5
25C
330
1E
100
AcDbEntity
  8
0
100
AcDbLine
 10
255.772
 20
577.0
 30
0.0
 11
256.005
 21
577.0
 31
0.0
  0
LINE
  5
25D
330
1E
100
AcDbEntity
  8
0
100
AcDbLine
 10
255.621
 20
577.0
 30
0.0
 11
255.772
 21
577.0
 31
0.0
  0
LINE
  5
25E
330
1E
100
AcDbEntity
  8
0
100
AcDbLine
 10
257.458
 20
577.0
 30
0.0
 11
257.815
 21
577.0
 31
0.0
  0
LINE
  5
25F
330
1E
100
AcDbEntity
  8
0
100
AcDbLine
 10
258.067
 20
577.0
 30
0.0
 11
258.067
 21
577.147
 31
0.0
  0
LINE
  5
260
330
1E
100
AcDbEntity
  8
0
100
AcDbLine
 10
257.815
 20
577.0
 30
0.0
 11
258.125
 21
577.0
 31
0.0
  0
LINE
  5
261
330
1E
100
AcDbEntity
  8
0
100
AcDbLine
 10
258.125
 20
577.0
 30
0.0
 11
258.37
 21
577.0
 31
0.0
  0
LINE
  5
262
330
1E
100
AcDbEntity
  8
0
100
AcDbLine
 10
258.37
 20
577.0
 30
0.0
 11
258.52
 21
577.0
 31
0.0
  0
LINE
  5
263
330
1E
100
AcDbEntity
  8
0
100
AcDbLine
 10
255.536
 20
582.147
 30
0.0
 11
256.976
 21
582.147
 31
0.0
  0
LINE
  5
264
330
1E
100
AcDbEntity
  8
0
100
AcDbLine
 10
255.536
 20
577.147
 30
0.0
 11
256.072
 21
577.147
 31
0.0
  0
LINE
  5
265
330
1E
100
AcDbEntity
  8
0
100
AcDbLine
 10
255.536
 20
577.147
 30
0.0
 11
256.976
 21
577.147
 31
0.0
  0
LINE
  5
266
330
1E
100
AcDbEntity
  8
0
100
AcDbLine
 10
256.072
 20
582.147
 30
0.0
 11
256.072
 21
586.0
 31
0.0
  0
LINE
  5
267
330
1E
100
AcDbEntity
  8
0
100
AcDbLine
 10
257.36
 20
586.0
 30
0.0
 11
259.28
 21
586.0
 31
0.0
  0
LINE
  5
268
330
1E
100
AcDbEntity
  8
0
100
AcDbLine
 10
256.976
 20
582.147
 30
0.0
 11
258.248
 21
582.147
 31
0.0
  0
LINE
  5
269
330
1E
100
AcDbEntity
  8
0
100
AcDbLine
 10
256.976
 20
577.147
 30
0.0
 11
258.248
 21
577.147
 31
0.0
  0
LINE
  5
26A
330
1E
100
AcDbEntity
  8
0
100
AcDbLine
 10
256.072
 20
577.147
 30
0.0
 11
256.072
 21
577.0
 31
0.0
  0
LINE
  5
26B
330
1E
100
AcDbEntity
  8
0
100
AcDbLine
 10
256.072
 20
586.0
 30
0.0
 11
256.072
 21
582.147
 31
0.0
  0
LINE
  5
26C
330
1E
100
AcDbEntity
  8
0
100
AcDbLine
 10
258.067
 20
582.147
 30
0.0
 11
258.067
 21
586.0
 31
0.0
  0
LINE
  5
26D
330
1E
100
AcDbEntity
  8
0
100
AcDbLine
 10
254.868
 20
598.0
 30
0.0
 11
258.228
 21
598.0
 31
0.0
  0
LINE
  5
26E
330
1E
100
AcDbEntity
  8
0
100
AcDbLine
 10
254.868
 20
597.0
 30
0.0
 11
258.228
 21
597.0
 31
0.0
  0
LINE
  5
26F
330
1E
100
AcDbEntity
  8
0
100
AcDbLine
 10
257.36
 20
588.0
 30
0.0
 11
259.28
 21
588.0
 31
0.0
  0
LINE
  5
270
330
1E
100
AcDbEntity
  8
0
100
AcDbLine
 10
257.36
 20
600.0
 30
0.0
 11
259.28
 21
600.0
 31
0.0
  0
LINE
  5
271
330
1E
100
AcDbEntity
  8
0
100
AcDbLine
 10
258.067
 20
586.0
 30
0.0
 11
258.067
 21
582.147
 31
0.0
  0
LINE
  5
272
330
1E
100
AcDbEntity
  8
0
100
AcDbLine
 10
258.067
 20
586.0
 30
0.0
 11
259.28
 21
586.0
 31
0.0
  0
LINE
  5
273
330
1E
100
AcDbEntity
  8
0
100
AcDbLine
 10
258.228
 20
598.0
 30
0.0
 11
260.244
 21
598.0
 31
0.0
  0
LINE
  5
274
330
1E
100
AcDbEntity
  8
0
100
AcDbLine
 10
258.228
 20
597.0
 30
0.0
 11
260.244
 21
597.0
 31
0.0
  0
LINE
  5
275
330
1E
100
AcDbEntity
  8
0
100
AcDbLine
 10
258.248
 20
582.147
 30
0.0
 11
259.208
 21
582.147
 31
0.0
  0
LINE
  5
276
330
1E
100
AcDbEntity
  8
0
100
AcDbLine
 10
258.248
 20
577.147
 30
0.0
 11
259.208
 21
577.147
 31
0.0
  0
LINE
  5
277
330
1E
100
AcDbEntity
  8
0
100
AcDbLine
 10
258.067
 20
577.147
 30
0.0
 11
258.067
 21
577.0
 31
0.0
  0
LINE
  5
278
330
1E
100
AcDbEntity
  8
0
100
AcDbLine
 10
258.067
 20
577.147
 30
0.0
 11
258.248
 21
577.147
 31
0.0
  0
LINE
  5
279
330
1E
100
AcDbEntity
  8
0
100
AcDbLine
 10
260.0
 20
577.147
 30
0.0
 11
260.0
 21
582.147
 31
0.0
  0
LINE
  5
27A
330
1E
100
AcDbEntity
  8
0
100
AcDbLine
 10
259.208
 20
577.147
 30
0.0
 11
259.784
 21
577.147
 31
0.0
  0
LINE
  5
27B
330
1E
100
AcDbEntity
  8
0
100
AcDbLine
 10
259.208
 20
582.147
 30
0.0
 11
259.784
 21
582.147
 31
0.0
  0
LINE
  5
27C
330
1E
100
AcDbEntity
  8
0
100
AcDbLine
 10
260.0
 20
586.0
 30
0.0
 11
260.0
 21
588.0
 31
0.0
  0
LINE
  5
27D
330
1E
100
AcDbEntity
  8
0
100
AcDbLine
 10
259.28
 20
588.0
 30
0.0
 11
260.0
 21
588.0
 31
0.0
  0
LINE
  5
27E
330
1E
100
AcDbEntity
  8
0
100
AcDbLine
 10
260.0
 20
588.0
 30
0.0
 11
260.0
 21
586.0
 31
0.0
  0
LINE
  5
27F
330
1E
100
AcDbEntity
  8
0
100
AcDbLine
 10
259.28
 20
586.0
 30
0.0
 11
260.0
 21
586.0
 31
0.0
  0
LINE
  5
280
330
1E
100
AcDbEntity
  8
0
100
AcDbLine
 10
260.0
 20
598.0
 30
0.0
 11
260.0
 21
600.0
 31
0.0
  0
LINE
  5
281
330
1E
100
AcDbEntity
  8
0
100
AcDbLine
 10
259.28
 20
600.0
 30
0.0
 11
260.0
 21
600.0
 31
0.0
  0
LINE
  5
282
330
1E
100
AcDbEntity
  8
0
100
AcDbLine
 10
260.0
 20
600.0
 30
0.0
 11
260.0
 21
598.0
 31
0.0
  0
LINE
  5
283
330
1E
100
AcDbEntity
  8
0
100
AcDbLine
 10
259.784
 20
582.147
 30
0.0
 11
260.0
 21
582.147
 31
0.0
  0
LINE
  5
284
330
1E
100
AcDbEntity
  8
0
100
AcDbLine
 10
261.0
 20
597.0
 30
0.0
 11
261.0
 21
598.0
 31
0.0
  0
LINE
  5
285
330
1E
100
AcDbEntity
  8
0
100
AcDbLine
 10
260.244
 20
598.0
 30
0.0
 11
261.0
 21
598.0
 31
0.0
  0
LINE
  5
286
330
1E
100
AcDbEntity
  8
0
100
AcDbLine
 10
261.0
 20
598.0
 30
0.0
 11
261.0
 21
597.0
 31
0.0
  0
LINE
  5
287
330
1E
100
AcDbEntity
  8
0
100
AcDbLine
 10
260.244
 20
597.0
 30
0.0
 11
261.0
 21
597.0
 31
0.0
  0
LINE
  5
288
330
1E
100
AcDbEntity
  8
0
100
AcDbLine
 10
260.0
 20
582.147
 30
0.0
 11
260.0
 21
577.147
 31
0.0
  0
LINE
  5
289
330
1E
100
AcDbEntity
  8
0
100
AcDbLine
 10
259.784
 20
577.147
 30
0.0
 11
260.0
 21
577.147
 31
0.0
  0
LINE
  5
28A
330
1E
100
AcDbEntity
  8
0
100
AcDbLine
 10
258.566
 20
577.0
 30
0.0
 11
258.566
 21
573.0
 31
0.0
  0
LINE
  5
28B
330
1E
100
AcDbEntity
  8
0
100
AcDbLine
 10
254.16
 20
600.0
 30
0.0
 11
257.36
 21
600.0
 31
0.0
  0
LINE
  5
28C
330
1E
100
AcDbEntity
  8
0
100
AcDbLine
 10
229.0
 20
602.0
 30
0.0
 11
229.0
 21
605.0
 31
0.0
  0
LINE
  5
28D
330
1E
100
AcDbEntity
  8
0
100
AcDbLine
 10
236.16
 20
602.0
 30
0.0
 11
240.0
 21
602.0
 31
0.0
  0
LINE
  5
28E
330
1E
100
AcDbEntity
  8
0
100
AcDbLine
 10
232.56
 20
602.0
 30
0.0
 11
236.16
 21
602.0
 31
0.0
  0
LINE
  5
28F
330
1E
100
AcDbEntity
  8
0
100
AcDbLine
 10
229.38
 20
602.0
 30
0.0
 11
232.56
 21
602.0
 31
0.0
  0
LINE
  5
290
330
1E
100
AcDbEntity
  8
0
100
AcDbLine
 10
226.98
 20
602.0
 30
0.0
 11
229.38
 21
602.0
 31
0.0
  0
LINE
  5
291
330
1E
100
AcDbEntity
  8
0
100
AcDbLine
 10
225.54
 20
602.0
 30
0.0
 11
226.98
 21
602.0
 31
0.0
  0
LINE
  5
292
330
1E
100
AcDbEntity
  8
0
100
AcDbLine
 10
240.0
 20
602.0
 30
0.0
 11
243.84
 21
602.0
 31
0.0
  0
LINE
  5
293
330
1E
100
AcDbEntity
  8
0
100
AcDbLine
 10
243.84
 20
602.0
 30
0.0
 11
247.44
 21
602.0
 31
0.0
  0
LINE
  5
294
330
1E
100
AcDbEntity
  8
0
100
AcDbLine
 10
247.44
 20
602.0
 30
0.0
 11
250.62
 21
602.0
 31
0.0
  0
LINE
  5
295
330
1E
100
AcDbEntity
  8
0
100
AcDbLine
 10
251.0
 20
602.0
 30
0.0
 11
251.0
 21
605.0
 31
0.0
  0
LINE
  5
296
330
1E
100
AcDbEntity
  8
0
100
AcDbLine
 10
250.62
 20
602.0
 30
0.0
 11
253.02
 21
602.0
 31
0.0
  0
LINE
  5
297
330
1E
100
AcDbEntity
  8
0
100
AcDbLine
 10
229.0
 20
611.0
 30
0.0
 11
229.0
 21
608.0
 31
0.0
  0
LINE
  5
298
330
1E
100
AcDbEntity
  8
0
100
AcDbLine
 10
229.0
 20
611.0
 30
0.0
 11
229.396
 21
611.0
 31
0.0
  0
LINE
  5
299
330
1E
100
AcDbEntity
  8
0
100
AcDbLine
 10
229.0
 20
608.0
 30
0.0
 11
229.396
 21
608.0
 31
0.0
  0
LINE
  5
29A
330
1E
100
AcDbEntity
  8
0
100
AcDbLine
 10
229.0
 20
608.0
 30
0.0
 11
229.0
 21
611.0
 31
0.0
  0
LINE
  5
29B
330
1E
100
AcDbEntity
  8
0
100
AcDbLine
 10
230.0
 20
605.0
 30
0.0
 11
230.0
 21
608.0
 31
0.0
  0
LINE
  5
29C
330
1E
100
AcDbEntity
  8
0
100
AcDbLine
 10
237.184
 20
605.0
 30
0.0
 11
240.0
 21
605.0
 31
0.0
  0
LINE
  5
29D
330
1E
100
AcDbEntity
  8
0
100
AcDbLine
 10
234.544
 20
605.0
 30
0.0
 11
237.184
 21
605.0
 31
0.0
  0
LINE
  5
29E
330
1E
100
AcDbEntity
  8
0
100
AcDbLine
 10
232.212
 20
605.0
 30
0.0
 11
234.544
 21
605.0
 31
0.0
  0
LINE
  5
29F
330
1E
100
AcDbEntity
  8
0
100
AcDbLine
 10
230.452
 20
605.0
 30
0.0
 11
232.212
 21
605.0
 31
0.0
  0
LINE
  5
2A0
330
1E
100
AcDbEntity
  8
0
100
AcDbLine
 10
229.396
 20
605.0
 30
0.0
 11
230.452
 21
605.0
 31
0.0
  0
LINE
  5
2A1
330
1E
100
AcDbEntity
  8
0
100
AcDbLine
 10
240.0
 20
605.0
 30
0.0
 11
242.816
 21
605.0
 31
0.0
  0
LINE
  5
2A2
330
1E
100
AcDbEntity
  8
0
100
AcDbLine
 10
242.816
 20
605.0
 30
0.0
 11
245.456
 21
605.0
 31
0.0
  0
LINE
  5
2A3
330
1E
100
AcDbEntity
  8
0
100
AcDbLine
 10
245.456
 20
605.0
 30
0.0
 11
247.788
 21
605.0
 31
0.0
  0
LINE
  5
2A4
330
1E
100
AcDbEntity
  8
0
100
AcDbLine
 10
247.788
 20
605.0
 30
0.0
 11
249.548
 21
605.0
 31
0.0
  0
LINE
  5
2A5
330
1E
100
AcDbEntity
  8
0
100
AcDbLine
 10
250.0
 20
605.0
 30
0.0
 11
250.0
 21
608.0
 31
0.0
  0
LINE
  5
2A6
330
1E
100
AcDbEntity
  8
0
100
AcDbLine
 10
251.0
 20
605.0
 30
0.0
 11
251.0
 21
602.0
 31
0.0
  0
LINE
  5
2A7
330
1E
100
AcDbEntity
  8
0
100
AcDbLine
 10
249.548
 20
605.0
 30
0.0
 11
250.604
 21
605.0
 31
0.0
  0
LINE
  5
2A8
330
1E
100
AcDbEntity
  8
0
100
AcDbLine
 10
229.396
 20
611.0
 30
0.0
 11
230.452
 21
611.0
 31
0.0
  0
LINE
  5
2A9
330
1E
100
AcDbEntity
  8
0
100
AcDbLine
 10
231.32
 20
608.0
 30
0.0
 11
232.92
 21
608.0
 31
0.0
  0
LINE
  5
2AA
330
1E
100
AcDbEntity
  8
0
100
AcDbLine
 10
230.36
 20
608.0
 30
0.0
 11
231.32
 21
608.0
 31
0.0
  0
LINE
  5
2AB
330
1E
100
AcDbEntity
  8
0
100
AcDbLine
 10
230.0
 20
608.0
 30
0.0
 11
230.0
 21
605.0
 31
0.0
  0
LINE
  5
2AC
330
1E
100
AcDbEntity
  8
0
100
AcDbLine
 10
230.0
 20
608.0
 30
0.0
 11
230.36
 21
608.0
 31
0.0
  0
LINE
  5
2AD
330
1E
100
AcDbEntity
  8
0
100
AcDbLine
 10
235.04
 20
608.0
 30
0.0
 11
237.44
 21
608.0
 31
0.0
  0
LINE
  5
2AE
330
1E
100
AcDbEntity
  8
0
100
AcDbLine
 10
232.92
 20
608.0
 30
0.0
 11
235.04
 21
608.0
 31
0.0
  0
LINE
  5
2AF
330
1E
100
AcDbEntity
  8
0
100
AcDbLine
 10
237.44
 20
608.0
 30
0.0
 11
240.0
 21
608.0
 31
0.0
  0
LINE
  5
2B0
330
1E
100
AcDbEntity
  8
0
100
AcDbLine
 10
237.184
 20
608.0
 30
0.0
 11
240.0
 21
608.0
 31
0.0
  0
LINE
  5
2B1
330
1E
100
AcDbEntity
  8
0
100
AcDbLine
 10
234.544
 20
608.0
 30
0.0
 11
237.184
 21
608.0
 31
0.0
  0
LINE
  5
2B2
330
1E
100
AcDbEntity
  8
0
100
AcDbLine
 10
232.212
 20
608.0
 30
0.0
 11
234.544
 21
608.0
 31
0.0
  0
LINE
  5
2B3
330
1E
100
AcDbEntity
  8
0
100
AcDbLine
 10
230.452
 20
608.0
 30
0.0
 11
232.212
 21
608.0
 31
0.0
  0
LINE
  5
2B4
330
1E
100
AcDbEntity
  8
0
100
AcDbLine
 10
242.56
 20
608.0
 30
0.0
 11
244.96
 21
608.0
 31
0.0
  0
LINE
  5
2B5
330
1E
100
AcDbEntity
  8
0
100
AcDbLine
 10
244.96
 20
608.0
 30
0.0
 11
247.08
 21
608.0
 31
0.0
  0
LINE
  5
2B6
330
1E
100
AcDbEntity
  8
0
100
AcDbLine
 10
240.0
 20
608.0
 30
0.0
 11
242.816
 21
608.0
 31
0.0
  0
LINE
  5
2B7
330
1E
100
AcDbEntity
  8
0
100
AcDbLine
 10
240.0
 20
608.0
 30
0.0
 11
242.56
 21
608.0
 31
0.0
  0
LINE
  5
2B8
330
1E
100
AcDbEntity
  8
0
100
AcDbLine
 10
242.816
 20
608.0
 30
0.0
 11
245.456
 21
608.0
 31
0.0
  0
LINE
  5
2B9
330
1E
100
AcDbEntity
  8
0
100
AcDbLine
 10
247.08
 20
608.0
 30
0.0
 11
248.68
 21
608.0
 31
0.0
  0
LINE
  5
2BA
330
1E
100
AcDbEntity
  8
0
100
AcDbLine
 10
248.68
 20
608.0
 30
0.0
 11
249.64
 21
608.0
 31
0.0
  0
LINE
  5
2BB
330
1E
100
AcDbEntity
  8
0
100
AcDbLine
 10
245.456
 20
608.0
 30
0.0
 11
247.788
 21
608.0
 31
0.0
  0
LINE
  5
2BC
330
1E
100
AcDbEntity
  8
0
100
AcDbLine
 10
247.788
 20
608.0
 30
0.0
 11
249.548
 21
608.0
 31
0.0
  0
LINE
  5
2BD
330
1E
100
AcDbEntity
  8
0
100
AcDbLine
 10
249.64
 20
608.0
 30
0.0
 11
250.0
 21
608.0
 31
0.0
  0
LINE
  5
2BE
330
1E
100
AcDbEntity
  8
0
100
AcDbLine
 10
249.548
 20
608.0
 30
0.0
 11
250.604
 21
608.0
 31
0.0
  0
LINE
  5
2BF
330
1E
100
AcDbEntity
  8
0
100
AcDbLine
 10
250.0
 20
608.0
 30
0.0
 11
250.604
 21
608.0
 31
0.0
  0
LINE
  5
2C0
330
1E
100
AcDbEntity
  8
0
100
AcDbLine
 10
250.0
 20
608.0
 30
0.0
 11
250.0
 21
605.0
 31
0.0
  0
LINE
  5
2C1
330
1E
100
AcDbEntity
  8
0
100
AcDbLine
 10
250.604
 20
608.0
 30
0.0
 11
251.0
 21
608.0
 31
0.0
  0
LINE
  5
2C4
330
1E
100
AcDbEntity
  8
0
100
AcDbLine
 10
237.184
 20
611.0
 30
0.0
 11
240.0
 21
611.0
 31
0.0
  0
LINE
  5
2C5
330
1E
100
AcDbEntity
  8
0
100
AcDbLine
 10
234.544
 20
611.0
 30
0.0
 11
237.184
 21
611.0
 31
0.0
  0
LINE
  5
2C6
330
1E
100
AcDbEntity
  8
0
100
AcDbLine
 10
232.212
 20
611.0
 30
0.0
 11
234.544
 21
611.0
 31
0.0
  0
LINE
  5
2C7
330
1E
100
AcDbEntity
  8
0
100
AcDbLine
 10
230.452
 20
611.0
 30
0.0
 11
232.212
 21
611.0
 31
0.0
  0
LINE
  5
2C8
330
1E
100
AcDbEntity
  8
0
100
AcDbLine
 10
240.0
 20
611.0
 30
0.0
 11
242.816
 21
611.0
 31
0.0
  0
LINE
  5
2CA
330
1E
100
AcDbEntity
  8
0
100
AcDbLine
 10
242.816
 20
611.0
 30
0.0
 11
245.456
 21
611.0
 31
0.0
  0
LINE
  5
2CB
330
1E
100
AcDbEntity
  8
0
100
AcDbLine
 10
245.456
 20
611.0
 30
0.0
 11
247.788
 21
611.0
 31
0.0
  0
LINE
  5
2CC
330
1E
100
AcDbEntity
  8
0
100
AcDbLine
 10
247.789
 20
611.0
 30
0.0
 11
248.0
 21
611.036
 31
0.0
  0
LINE
  5
2CD
330
1E
100
AcDbEntity
  8
0
100
AcDbLine
 10
247.788
 20
611.0
 30
0.0
 11
249.548
 21
611.0
 31
0.0
  0
LINE
  5
2CE
330
1E
100
AcDbEntity
  8
0
100
AcDbLine
 10
232.0
 20
611.714
 30
0.0
 11
232.0
 21
615.286
 31
0.0
  0
LINE
  5
2CF
330
1E
100
AcDbEntity
  8
0
100
AcDbLine
 10
232.0
 20
611.714
 30
0.0
 11
232.0
 21
611.357
 31
0.0
  0
LINE
  5
2D0
330
1E
100
AcDbEntity
  8
0
100
AcDbLine
 10
232.0
 20
615.286
 30
0.0
 11
232.0
 21
615.643
 31
0.0
  0
LINE
  5
2D1
330
1E
100
AcDbEntity
  8
0
100
AcDbLine
 10
232.0
 20
615.286
 30
0.0
 11
232.0
 21
611.714
 31
0.0
  0
LINE
  5
2D4
330
1E
100
AcDbEntity
  8
0
100
AcDbLine
 10
232.0
 20
615.286
 30
0.0
 11
232.686
 21
615.643
 31
0.0
  0
LINE
  5
2D5
330
1E
100
AcDbEntity
  8
0
100
AcDbLine
 10
232.0
 20
611.357
 30
0.0
 11
232.0
 21
611.714
 31
0.0
  0
LINE
  5
2D6
330
1E
100
AcDbEntity
  8
0
100
AcDbLine
 10
232.0
 20
611.357
 30
0.0
 11
232.168
 21
611.357
 31
0.0
  0
LINE
  5
2D7
330
1E
100
AcDbEntity
  8
0
100
AcDbLine
 10
232.0
 20
611.357
 30
0.0
 11
232.0
 21
611.086
 31
0.0
  0
LINE
  5
2D8
330
1E
100
AcDbEntity
  8
0
100
AcDbLine
 10
232.0
 20
615.643
 30
0.0
 11
232.0
 21
615.914
 31
0.0
  0
LINE
  5
2DA
330
1E
100
AcDbEntity
  8
0
100
AcDbLine
 10
232.0
 20
615.643
 30
0.0
 11
232.0
 21
615.286
 31
0.0
  0
LINE
  5
2DB
330
1E
100
AcDbEntity
  8
0
100
AcDbLine
 10
232.0
 20
611.086
 30
0.0
 11
232.0
 21
611.357
 31
0.0
  0
LINE
  5
2DC
330
1E
100
AcDbEntity
  8
0
100
AcDbLine
 10
232.0
 20
611.086
 30
0.0
 11
232.0
 21
611.036
 31
0.0
  0
LINE
  5
2DD
330
1E
100
AcDbEntity
  8
0
100
AcDbLine
 10
232.0
 20
615.914
 30
0.0
 11
232.21
 21
616.0
 31
0.0
  0
LINE
  5
2E1
330
1E
100
AcDbEntity
  8
0
100
AcDbLine
 10
232.0
 20
615.914
 30
0.0
 11
232.0
 21
615.643
 31
0.0
  0
LINE
  5
2E3
330
1E
100
AcDbEntity
  8
0
100
AcDbLine
 10
232.168
 20
611.357
 30
0.0
 11
232.686
 21
611.357
 31
0.0
  0
LINE
  5
2E4
330
1E
100
AcDbEntity
  8
0
100
AcDbLine
 10
234.021
 20
611.13
 30
0.0
 11
235.928
 21
611.072
 31
0.0
  0
LINE
  5
2E5
330
1E
100
AcDbEntity
  8
0
100
AcDbLine
 10
232.686
 20
611.357
 30
0.0
 11
234.021
 21
611.13
 31
0.0
  0
LINE
  5
2EC
330
1E
100
AcDbEntity
  8
0
100
AcDbLine
 10
234.021
 20
615.87
 30
0.0
 11
235.928
 21
615.928
 31
0.0
  0
LINE
  5
2EE
330
1E
100
AcDbEntity
  8
0
100
AcDbLine
 10
232.686
 20
615.643
 30
0.0
 11
234.021
 21
615.87
 31
0.0
  0
LINE
  5
2F1
330
1E
100
AcDbEntity
  8
0
100
AcDbLine
 10
235.928
 20
611.072
 30
0.0
 11
237.824
 21
611.15
 31
0.0
  0
LINE
  5
2F3
330
1E
100
AcDbEntity
  8
0
100
AcDbLine
 10
232.505
 20
616.0
 30
0.0
 11
233.263
 21
616.0
 31
0.0
  0
LINE
  5
2F4
330
1E
100
AcDbEntity
  8
0
100
AcDbLine
 10
233.263
 20
616.0
 30
0.0
 11
234.484
 21
616.0
 31
0.0
  0
LINE
  5
2F5
330
1E
100
AcDbEntity
  8
0
100
AcDbLine
 10
234.484
 20
616.0
 30
0.0
 11
236.126
 21
616.0
 31
0.0
  0
LINE
  5
2F8
330
1E
100
AcDbEntity
  8
0
100
AcDbLine
 10
235.928
 20
615.928
 30
0.0
 11
237.824
 21
615.851
 31
0.0
  0
LINE
  5
2FA
330
1E
100
AcDbEntity
  8
0
100
AcDbLine
 10
240.0
 20
611.357
 30
0.0
 11
240.989
 21
611.357
 31
0.0
  0
LINE
  5
2FB
330
1E
100
AcDbEntity
  8
0
100
AcDbLine
 10
240.989
 20
611.357
 30
0.0
 11
242.176
 21
611.15
 31
0.0
  0
LINE
  5
2FC
330
1E
100
AcDbEntity
  8
0
100
AcDbLine
 10
242.176
 20
611.15
 30
0.0
 11
244.072
 21
611.072
 31
0.0
  0
LINE
  5
2FD
330
1E
100
AcDbEntity
  8
0
100
AcDbLine
 10
244.072
 20
611.072
 30
0.0
 11
245.979
 21
611.13
 31
0.0
  0
LINE
  5
2FF
330
1E
100
AcDbEntity
  8
0
100
AcDbLine
 10
247.832
 20
611.357
 30
0.0
 11
248.0
 21
611.357
 31
0.0
  0
LINE
  5
302
330
1E
100
AcDbEntity
  8
0
100
AcDbLine
 10
248.0
 20
611.357
 30
0.0
 11
248.0
 21
611.086
 31
0.0
  0
LINE
  5
303
330
1E
100
AcDbEntity
  8
0
100
AcDbLine
 10
248.0
 20
611.357
 30
0.0
 11
248.0
 21
611.714
 31
0.0
  0
LINE
  5
304
330
1E
100
AcDbEntity
  8
0
100
AcDbLine
 10
248.0
 20
611.086
 30
0.0
 11
248.0
 21
611.036
 31
0.0
  0
LINE
  5
305
330
1E
100
AcDbEntity
  8
0
100
AcDbLine
 10
248.0
 20
611.086
 30
0.0
 11
248.0
 21
611.357
 31
0.0
  0
LINE
  5
306
330
1E
100
AcDbEntity
  8
0
100
AcDbLine
 10
248.0
 20
611.036
 30
0.0
 11
248.0
 21
611.086
 31
0.0
  0
LINE
  5
307
330
1E
100
AcDbEntity
  8
0
100
AcDbLine
 10
245.979
 20
611.13
 30
0.0
 11
247.314
 21
611.357
 31
0.0
  0
LINE
  5
309
330
1E
100
AcDbEntity
  8
0
100
AcDbLine
 10
247.314
 20
611.357
 30
0.0
 11
247.832
 21
611.357
 31
0.0
  0
LINE
  5
30E
330
1E
100
AcDbEntity
  8
0
100
AcDbLine
 10
240.989
 20
615.643
 30
0.0
 11
242.176
 21
615.851
 31
0.0
  0
LINE
  5
312
330
1E
100
AcDbEntity
  8
0
100
AcDbLine
 10
248.0
 20
615.643
 30
0.0
 11
248.0
 21
615.286
 31
0.0
  0
LINE
  5
313
330
1E
100
AcDbEntity
  8
0
100
AcDbLine
 10
248.0
 20
615.643
 30
0.0
 11
248.0
 21
615.914
 31
0.0
  0
LINE
  5
314
330
1E
100
AcDbEntity
  8
0
100
AcDbLine
 10
248.0
 20
615.286
 30
0.0
 11
248.0
 21
611.714
 31
0.0
  0
LINE
  5
315
330
1E
100
AcDbEntity
  8
0
100
AcDbLine
 10
248.0
 20
615.286
 30
0.0
 11
248.0
 21
615.643
 31
0.0
  0
LINE
  5
316
330
1E
100
AcDbEntity
  8
0
100
AcDbLine
 10
248.0
 20
611.714
 30
0.0
 11
248.0
 21
611.357
 31
0.0
  0
LINE
  5
317
330
1E
100
AcDbEntity
  8
0
100
AcDbLine
 10
248.0
 20
611.714
 30
0.0
 11
248.0
 21
615.286
 31
0.0
  0
LINE
  5
31A
330
1E
100
AcDbEntity
  8
0
100
AcDbLine
 10
247.314
 20
615.643
 30
0.0
 11
248.0
 21
615.286
 31
0.0
  0
LINE
  5
31B
330
1E
100
AcDbEntity
  8
0
100
AcDbLine
 10
242.176
 20
615.851
 30
0.0
 11
244.072
 21
615.928
 31
0.0
  0
LINE
  5
31F
330
1E
100
AcDbEntity
  8
0
100
AcDbLine
 10
240.0
 20
615.643
 30
0.0
 11
240.989
 21
615.643
 31
0.0
  0
LINE
  5
321
330
1E
100
AcDbEntity
  8
0
100
AcDbLine
 10
239.011
 20
615.643
 30
0.0
 11
240.0
 21
615.643
 31
0.0
  0
LINE
  5
324
330
1E
100
AcDbEntity
  8
0
100
AcDbLine
 10
239.011
 20
611.357
 30
0.0
 11
240.0
 21
611.357
 31
0.0
  0
LINE
  5
326
330
1E
100
AcDbEntity
  8
0
100
AcDbLine
 10
237.824
 20
611.15
 30
0.0
 11
239.011
 21
611.357
 31
0.0
  0
LINE
  5
329
330
1E
100
AcDbEntity
  8
0
100
AcDbLine
 10
245.979
 20
615.87
 30
0.0
 11
247.314
 21
615.643
 31
0.0
  0
LINE
  5
32C
330
1E
100
AcDbEntity
  8
0
100
AcDbLine
 10
238.0
 20
616.0
 30
0.0
 11
238.0
 21
619.0
 31
0.0
  0
LINE
  5
32D
330
1E
100
AcDbEntity
  8
0
100
AcDbLine
 10
248.0
 20
615.914
 30
0.0
 11
248.0
 21
615.643
 31
0.0
  0
LINE
  5
32E
330
1E
100
AcDbEntity
  8
0
100
AcDbLine
 10
242.0
 20
616.0
 30
0.0
 11
242.0
 21
619.0
 31
0.0
  0
LINE
  5
32F
330
1E
100
AcDbEntity
  8
0
100
AcDbLine
 10
243.874
 20
616.0
 30
0.0
 11
245.516
 21
616.0
 31
0.0
  0
LINE
  5
331
330
1E
100
AcDbEntity
  8
0
100
AcDbLine
 10
247.789
 20
616.0
 30
0.0
 11
248.0
 21
615.914
 31
0.0
  0
LINE
  5
333
330
1E
100
AcDbEntity
  8
0
100
AcDbLine
 10
247.495
 20
616.0
 30
0.0
 11
247.789
 21
616.0
 31
0.0
  0
LINE
  5
334
330
1E
100
AcDbEntity
  8
0
100
AcDbLine
 10
245.516
 20
616.0
 30
0.0
 11
246.737
 21
616.0
 31
0.0
  0
LINE
  5
336
330
1E
100
AcDbEntity
  8
0
100
AcDbLine
 10
246.737
 20
616.0
 30
0.0
 11
247.495
 21
616.0
 31
0.0
  0
LINE
  5
33A
330
1E
100
AcDbEntity
  8
0
100
AcDbLine
 10
242.021
 20
616.0
 30
0.0
 11
243.874
 21
616.0
 31
0.0
  0
LINE
  5
33B
330
1E
100
AcDbEntity
  8
0
100
AcDbLine
 10
244.072
 20
615.928
 30
0.0
 11
245.979
 21
615.87
 31
0.0
  0
LINE
  5
33D
330
1E
100
AcDbEntity
  8
0
100
AcDbLine
 10
240.0
 20
616.0
 30
0.0
 11
242.021
 21
616.0
 31
0.0
  0
LINE
  5
342
330
1E
100
AcDbEntity
  8
0
100
AcDbLine
 10
237.979
 20
616.0
 30
0.0
 11
240.0
 21
616.0
 31
0.0
  0
LINE
  5
344
330
1E
100
AcDbEntity
  8
0
100
AcDbLine
 10
237.824
 20
615.851
 30
0.0
 11
239.011
 21
615.643
 31
0.0
  0
LINE
  5
347
330
1E
100
AcDbEntity
  8
0
100
AcDbLine
 10
236.126
 20
616.0
 30
0.0
 11
237.979
 21
616.0
 31
0.0
  0
LINE
  5
349
330
1E
100
AcDbEntity
  8
0
100
AcDbLine
 10
237.0
 20
629.0
 30
0.0
 11
237.0
 21
619.0
 31
0.0
  0
LINE
  5
34A
330
1E
100
AcDbEntity
  8
0
100
AcDbLine
 10
237.0
 20
629.0
 30
0.0
 11
237.108
 21
629.0
 31
0.0
  0
LINE
  5
34B
330
1E
100
AcDbEntity
  8
0
100
AcDbLine
 10
238.264
 20
619.0
 30
0.0
 11
238.584
 21
619.0
 31
0.0
  0
LINE
  5
34C
330
1E
100
AcDbEntity
  8
0
100
AcDbLine
 10
238.072
 20
619.0
 30
0.0
 11
238.264
 21
619.0
 31
0.0
  0
LINE
  5
34D
330
1E
100
AcDbEntity
  8
0
100
AcDbLine
 10
238.0
 20
619.0
 30
0.0
 11
238.0
 21
616.0
 31
0.0
  0
LINE
  5
34E
330
1E
100
AcDbEntity
  8
0
100
AcDbLine
 10
238.0
 20
619.0
 30
0.0
 11
238.072
 21
619.0
 31
0.0
  0
LINE
  5
34F
330
1E
100
AcDbEntity
  8
0
100
AcDbLine
 10
239.488
 20
619.0
 30
0.0
 11
240.0
 21
619.0
 31
0.0
  0
LINE
  5
350
330
1E
100
AcDbEntity
  8
0
100
AcDbLine
 10
239.008
 20
619.0
 30
0.0
 11
239.488
 21
619.0
 31
0.0
  0
LINE
  5
351
330
1E
100
AcDbEntity
  8
0
100
AcDbLine
 10
238.584
 20
619.0
 30
0.0
 11
239.008
 21
619.0
 31
0.0
  0
LINE
  5
352
330
1E
100
AcDbEntity
  8
0
100
AcDbLine
 10
240.512
 20
619.0
 30
0.0
 11
240.992
 21
619.0
 31
0.0
  0
LINE
  5
353
330
1E
100
AcDbEntity
  8
0
100
AcDbLine
 10
239.232
 20
619.0
 30
0.0
 11
240.0
 21
619.0
 31
0.0
  0
LINE
  5
354
330
1E
100
AcDbEntity
  8
0
100
AcDbLine
 10
238.512
 20
619.0
 30
0.0
 11
239.232
 21
619.0
 31
0.0
  0
LINE
  5
355
330
1E
100
AcDbEntity
  8
0
100
AcDbLine
 10
240.0
 20
619.0
 30
0.0
 11
240.768
 21
619.0
 31
0.0
  0
LINE
  5
356
330
1E
100
AcDbEntity
  8
0
100
AcDbLine
 10
240.0
 20
619.0
 30
0.0
 11
240.512
 21
619.0
 31
0.0
  0
LINE
  5
357
330
1E
100
AcDbEntity
  8
0
100
AcDbLine
 10
240.992
 20
619.0
 30
0.0
 11
241.416
 21
619.0
 31
0.0
  0
LINE
  5
358
330
1E
100
AcDbEntity
  8
0
100
AcDbLine
 10
241.416
 20
619.0
 30
0.0
 11
241.736
 21
619.0
 31
0.0
  0
LINE
  5
359
330
1E
100
AcDbEntity
  8
0
100
AcDbLine
 10
241.736
 20
619.0
 30
0.0
 11
241.928
 21
619.0
 31
0.0
  0
LINE
  5
35A
330
1E
100
AcDbEntity
  8
0
100
AcDbLine
 10
241.928
 20
619.0
 30
0.0
 11
242.0
 21
619.0
 31
0.0
  0
LINE
  5
35B
330
1E
100
AcDbEntity
  8
0
100
AcDbLine
 10
240.768
 20
619.0
 30
0.0
 11
241.488
 21
619.0
 31
0.0
  0
LINE
  5
35C
330
1E
100
AcDbEntity
  8
0
100
AcDbLine
 10
241.488
 20
619.0
 30
0.0
 11
242.124
 21
619.0
 31
0.0
  0
LINE
  5
35D
330
1E
100
AcDbEntity
  8
0
100
AcDbLine
 10
242.0
 20
619.0
 30
0.0
 11
242.124
 21
619.0
 31
0.0
  0
LINE
  5
35E
330
1E
100
AcDbEntity
  8
0
100
AcDbLine
 10
242.0
 20
619.0
 30
0.0
 11
242.0
 21
616.0
 31
0.0
  0
LINE
  5
35F
330
1E
100
AcDbEntity
  8
0
100
AcDbLine
 10
242.124
 20
619.0
 30
0.0
 11
242.604
 21
619.0
 31
0.0
  0
LINE
  5
360
330
1E
100
AcDbEntity
  8
0
100
AcDbLine
 10
242.604
 20
619.0
 30
0.0
 11
242.892
 21
619.0
 31
0.0
  0
LINE
  5
361
330
1E
100
AcDbEntity
  8
0
100
AcDbLine
 10
242.892
 20
619.0
 30
0.0
 11
243.0
 21
619.0
 31
0.0
  0
LINE
  5
362
330
1E
100
AcDbEntity
  8
0
100
AcDbLine
 10
243.0
 20
619.0
 30
0.0
 11
243.0
 21
629.0
 31
0.0
  0
LINE
  5
363
330
1E
100
AcDbEntity
  8
0
100
AcDbLine
 10
237.876
 20
619.0
 30
0.0
 11
238.0
 21
619.0
 31
0.0
  0
LINE
  5
364
330
1E
100
AcDbEntity
  8
0
100
AcDbLine
 10
237.876
 20
619.0
 30
0.0
 11
238.512
 21
619.0
 31
0.0
  0
LINE
  5
365
330
1E
100
AcDbEntity
  8
0
100
AcDbLine
 10
237.396
 20
619.0
 30
0.0
 11
237.876
 21
619.0
 31
0.0
  0
LINE
  5
366
330
1E
100
AcDbEntity
  8
0
100
AcDbLine
 10
239.232
 20
629.0
 30
0.0
 11
240.0
 21
629.0
 31
0.0
  0
LINE
  5
367
330
1E
100
AcDbEntity
  8
0
100
AcDbLine
 10
238.512
 20
629.0
 30
0.0
 11
239.232
 21
629.0
 31
0.0
  0
LINE
  5
368
330
1E
100
AcDbEntity
  8
0
100
AcDbLine
 10
237.876
 20
629.0
 30
0.0
 11
238.512
 21
629.0
 31
0.0
  0
LINE
  5
369
330
1E
100
AcDbEntity
  8
0
100
AcDbLine
 10
237.396
 20
629.0
 30
0.0
 11
237.876
 21
629.0
 31
0.0
  0
LINE
  5
36A
330
1E
100
AcDbEntity
  8
0
100
AcDbLine
 10
237.108
 20
629.0
 30
0.0
 11
237.396
 21
629.0
 31
0.0
  0
LINE
  5
36B
330
1E
100
AcDbEntity
  8
0
100
AcDbLine
 10
240.0
 20
629.0
 30
0.0
 11
240.768
 21
629.0
 31
0.0
  0
LINE
  5
36C
330
1E
100
AcDbEntity
  8
0
100
AcDbLine
 10
240.768
 20
629.0
 30
0.0
 11
241.488
 21
629.0
 31
0.0
  0
LINE
  5
36D
330
1E
100
AcDbEntity
  8
0
100
AcDbLine
 10
241.488
 20
629.0
 30
0.0
 11
242.124
 21
629.0
 31
0.0
  0
LINE
  5
36E
330
1E
100
AcDbEntity
  8
0
100
AcDbLine
 10
242.124
 20
629.0
 30
0.0
 11
242.604
 21
629.0
 31
0.0
  0
LINE
  5
36F
330
1E
100
AcDbEntity
  8
0
100
AcDbLine
 10
242.604
 20
629.0
 30
0.0
 11
242.892
 21
629.0
 31
0.0
  0
LINE
  5
370
330
1E
100
AcDbEntity
  8
0
100
AcDbLine
 10
243.0
 20
629.0
 30
0.0
 11
243.0
 21
619.0
 31
0.0
  0
LINE
  5
371
330
1E
100
AcDbEntity
  8
0
100
AcDbLine
 10
242.892
 20
629.0
 30
0.0
 11
243.0
 21
629.0
 31
0.0
  0
LINE
  5
372
330
1E
100
AcDbEntity
  8
0
100
AcDbLine
 10
237.108
 20
619.0
 30
0.0
 11
237.396
 21
619.0
 31
0.0
  0
LINE
  5
373
330
1E
100
AcDbEntity
  8
0
100
AcDbLine
 10
237.0
 20
619.0
 30
0.0
 11
237.108
 21
619.0
 31
0.0
  0
LINE
  5
374
330
1E
100
AcDbEntity
  8
0
100
AcDbLine
 10
237.0
 20
619.0
 30
0.0
 11
237.0
 21
629.0
 31
0.0
  0
LINE
  5
375
330
1E
100
AcDbEntity
  8
0
100
AcDbLine
 10
232.21
 20
616.0
 30
0.0
 11
232.505
 21
616.0
 31
0.0
  0
LINE
  5
376
330
1E
100
AcDbEntity
  8
0
100
AcDbLine
 10
232.0
 20
611.036
 30
0.0
 11
232.0
 21
611.086
 31
0.0
  0
LINE
  5
377
330
1E
100
AcDbEntity
  8
0
100
AcDbLine
 10
232.0
 20
611.036
 30
0.0
 11
232.21
 21
611.0
 31
0.0
  0
LINE
  5
378
330
1E
100
AcDbEntity
  8
0
100
AcDbLine
 10
249.548
 20
611.0
 30
0.0
 11
250.604
 21
611.0
 31
0.0
  0
LINE
  5
379
330
1E
100
AcDbEntity
  8
0
100
AcDbLine
 10
251.0
 20
611.0
 30
0.0
 11
251.0
 21
608.0
 31
0.0
  0
LINE
  5
37A
330
1E
100
AcDbEntity
  8
0
100
AcDbLine
 10
250.604
 20
611.0
 30
0.0
 11
251.0
 21
611.0
 31
0.0
  0
LINE
  5
37B
330
1E
100
AcDbEntity
  8
0
100
AcDbLine
 10
251.0
 20
608.0
 30
0.0
 11
251.0
 21
611.0
 31
0.0
  0
LINE
  5
37C
330
1E
100
AcDbEntity
  8
0
100
AcDbLine
 10
229.396
 20
608.0
 30
0.0
 11
230.0
 21
608.0
 31
0.0
  0
LINE
  5
37D
330
1E
100
AcDbEntity
  8
0
100
AcDbLine
 10
229.396
 20
608.0
 30
0.0
 11
230.452
 21
608.0
 31
0.0
  0
LINE
  5
37E
330
1E
100
AcDbEntity
  8
0
100
AcDbLine
 10
250.604
 20
605.0
 30
0.0
 11
251.0
 21
605.0
 31
0.0
  0
LINE
  5
37F
330
1E
100
AcDbEntity
  8
0
100
AcDbLine
 10
229.0
 20
605.0
 30
0.0
 11
229.0
 21
602.0
 31
0.0
  0
LINE
  5
380
330
1E
100
AcDbEntity
  8
0
100
AcDbLine
 10
229.0
 20
605.0
 30
0.0
 11
229.396
 21
605.0
 31
0.0
  0
LINE
  5
381
330
1E
100
AcDbEntity
  8
0
100
AcDbLine
 10
253.02
 20
602.0
 30
0.0
 11
254.46
 21
602.0
 31
0.0
  0
LINE
  5
382
330
1E
100
AcDbEntity
  8
0
100
AcDbLine
 10
255.0
 20
602.0
 30
0.0
 11
255.0
 21
600.0
 31
0.0
  0
LINE
  5
383
330
1E
100
AcDbEntity
  8
0
100
AcDbLine
 10
254.46
 20
602.0
 30
0.0
 11
255.0
 21
602.0
 31
0.0
  0
LINE
  5
384
330
1E
100
AcDbEntity
  8
0
100
AcDbLine
 10
255.0
 20
600.0
 30
0.0
 11
255.0
 21
602.0
 31
0.0
  0
LINE
  5
385
330
1E
100
AcDbEntity
  8
0
100
AcDbLine
 10
225.0
 20
602.0
 30
0.0
 11
225.0
 21
600.0
 31
0.0
  0
LINE
  5
386
330
1E
100
AcDbEntity
  8
0
100
AcDbLine
 10
225.0
 20
602.0
 30
0.0
 11
225.54
 21
602.0
 31
0.0
  0
LINE
  5
387
330
1E
100
AcDbEntity
  8
0
100
AcDbLine
 10
208.952
 20
541.0
 30
0.0
 11
209.0
 21
540.789
 31
0.0
  0
LINE
  5
388
330
1E
100
AcDbEntity
  8
0
100
AcDbLine
 10
208.886
 20
541.0
 30
0.0
 11
208.952
 21
541.0
 31
0.0
  0
LINE
  5
389
330
1E
100
AcDbEntity
  8
0
100
AcDbLine
 10
271.0
 20
540.495
 30
0.0
 11
271.0
 21
540.789
 31
0.0
  0
LINE
  5
38A
330
1E
100
AcDbEntity
  8
0
100
AcDbLine
 10
271.0
 20
540.495
 30
0.0
 11
271.0
 21
540.0
 31
0.0
  0
LINE
  5
38B
330
1E
100
AcDbEntity
  8
0
100
AcDbLine
 10
271.0
 20
540.789
 30
0.0
 11
271.0
 21
540.495
 31
0.0
  0
LINE
  5
38C
330
1E
100
AcDbEntity
  8
0
100
AcDbLine
 10
271.0
 20
540.789
 30
0.0
 11
271.048
 21
541.0
 31
0.0
  0
LINE
  5
396
330
1E
100
AcDbEntity
  8
0
100
AcDbLine
 10
271.476
 20
525.168
 30
0.0
 11
271.476
 21
525.0
 31
0.0
  0
LINE
  5
3B9
330
1E
100
AcDbEntity
  8
0
100
AcDbLine
 10
280.048
 20
541.0
 30
0.0
 11
280.524
 21
541.0
 31
0.0
  0
LINE
  5
3BD
330
1E
100
AcDbEntity
  8
0
100
AcDbLine
 10
271.952
 20
541.0
 30
0.0
 11
280.048
 21
541.0
 31
0.0
  0
LINE
  5
3BE
330
1E
100
AcDbEntity
  8
0
100
AcDbLine
 10
271.476
 20
541.0
 30
0.0
 11
271.952
 21
541.0
 31
0.0
  0
LINE
  5
3C0
330
1E
100
AcDbEntity
  8
0
100
AcDbLine
 10
271.114
 20
541.0
 30
0.0
 11
271.476
 21
541.0
 31
0.0
  0
LINE
  5
3C1
330
1E
100
AcDbEntity
  8
0
100
AcDbLine
 10
271.048
 20
541.0
 30
0.0
 11
271.114
 21
541.0
 31
0.0
  0
LINE
  5
3C9
330
1E
100
AcDbEntity
  8
0
100
AcDbLine
 10
280.524
 20
541.0
 30
0.0
 11
280.886
 21
541.0
 31
0.0
  0
LINE
  5
3D7
330
1E
100
AcDbEntity
  8
0
100
AcDbLine
 10
280.886
 20
541.0
 30
0.0
 11
280.952
 21
541.0
 31
0.0
  0
LINE
  5
3E4
330
1E
100
AcDbEntity
  8
0
100
AcDbLine
 10
271.0
 20
525.211
 30
0.0
 11
271.048
 21
525.0
 31
0.0
  0
LINE
  5
3E5
330
1E
100
AcDbEntity
  8
0
100
AcDbLine
 10
271.0
 20
525.211
 30
0.0
 11
271.0
 21
525.505
 31
0.0
  0
LINE
  5
3E6
330
1E
100
AcDbEntity
  8
0
100
AcDbLine
 10
271.048
 20
525.0
 30
0.0
 11
271.114
 21
525.0
 31
0.0
  0
LINE
  5
3E7
330
1E
100
AcDbEntity
  8
0
100
AcDbLine
 10
325.047
 20
475.495
 30
0.0
 11
327.611
 21
475.135
 31
0.0
  0
LINE
  5
3E8
330
1E
100
AcDbEntity
  8
0
100
AcDbLine
 10
327.611
 20
475.135
 30
0.0
 11
329.863
 21
475.0
 31
0.0
  0
LINE
  5
3E9
330
1E
100
AcDbEntity
  8
0
100
AcDbLine
 10
312.257
 20
480.615
 30
0.0
 11
313.252
 21
479.714
 31
0.0
  0
LINE
  5
3EA
330
1E
100
AcDbEntity
  8
0
100
AcDbLine
 10
311.963
 20
481.411
 30
0.0
 11
316.765
 21
500.16
 31
0.0
  0
LINE
  5
3EB
330
1E
100
AcDbEntity
  8
0
100
AcDbLine
 10
311.963
 20
481.411
 30
0.0
 11
312.452
 21
482.011
 31
0.0
  0
LINE
  5
3EC
330
1E
100
AcDbEntity
  8
0
100
AcDbLine
 10
311.963
 20
481.411
 30
0.0
 11
312.257
 21
480.615
 31
0.0
  0
LINE
  5
3ED
330
1E
100
AcDbEntity
  8
0
100
AcDbLine
 10
314.829
 20
478.753
 30
0.0
 11
316.967
 21
477.793
 31
0.0
  0
LINE
  5
3EE
330
1E
100
AcDbEntity
  8
0
100
AcDbLine
 10
315.94
 20
478.753
 30
0.0
 11
317.773
 21
477.93
 31
0.0
  0
LINE
  5
3EF
330
1E
100
AcDbEntity
  8
0
100
AcDbLine
 10
314.588
 20
479.577
 30
0.0
 11
315.94
 21
478.753
 31
0.0
  0
LINE
  5
3F0
330
1E
100
AcDbEntity
  8
0
100
AcDbLine
 10
313.736
 20
480.349
 30
0.0
 11
314.588
 21
479.577
 31
0.0
  0
LINE
  5
3F1
330
1E
100
AcDbEntity
  8
0
100
AcDbLine
 10
313.484
 20
481.031
 30
0.0
 11
313.902
 21
481.546
 31
0.0
  0
LINE
  5
3F2
330
1E
100
AcDbEntity
  8
0
100
AcDbLine
 10
313.484
 20
481.031
 30
0.0
 11
313.736
 21
480.349
 31
0.0
  0
LINE
  5
3F3
330
1E
100
AcDbEntity
  8
0
100
AcDbLine
 10
313.902
 20
481.546
 30
0.0
 11
314.905
 21
481.855
 31
0.0
  0
LINE
  5
3F4
330
1E
100
AcDbEntity
  8
0
100
AcDbLine
 10
314.905
 20
481.855
 30
0.0
 11
316.388
 21
481.971
 31
0.0
  0
LINE
  5
3F5
330
1E
100
AcDbEntity
  8
0
100
AcDbLine
 10
313.252
 20
479.714
 30
0.0
 11
314.829
 21
478.753
 31
0.0
  0
LINE
  5
3F6
330
1E
100
AcDbEntity
  8
0
100
AcDbLine
 10
312.452
 20
482.011
 30
0.0
 11
313.622
 21
482.372
 31
0.0
  0
LINE
  5
3F7
330
1E
100
AcDbEntity
  8
0
100
AcDbLine
 10
313.622
 20
482.372
 30
0.0
 11
315.352
 21
482.507
 31
0.0
  0
LINE
  5
3F8
330
1E
100
AcDbEntity
  8
0
100
AcDbLine
 10
316.967
 20
477.793
 30
0.0
 11
319.455
 21
476.892
 31
0.0
  0
LINE
  5
3F9
330
1E
100
AcDbEntity
  8
0
100
AcDbLine
 10
317.773
 20
477.93
 30
0.0
 11
319.905
 21
477.158
 31
0.0
  0
LINE
  5
3FA
330
1E
100
AcDbEntity
  8
0
100
AcDbLine
 10
319.455
 20
476.892
 30
0.0
 11
322.237
 21
476.096
 31
0.0
  0
LINE
  5
3FB
330
1E
100
AcDbEntity
  8
0
100
AcDbLine
 10
319.905
 20
477.158
 30
0.0
 11
322.29
 21
476.476
 31
0.0
  0
LINE
  5
3FC
330
1E
100
AcDbEntity
  8
0
100
AcDbLine
 10
322.237
 20
476.096
 30
0.0
 11
325.047
 21
475.495
 31
0.0
  0
LINE
  5
3FD
330
1E
100
AcDbEntity
  8
0
100
AcDbLine
 10
322.29
 20
476.476
 30
0.0
 11
324.699
 21
475.961
 31
0.0
  0
LINE
  5
3FE
330
1E
100
AcDbEntity
  8
0
100
AcDbLine
 10
324.699
 20
475.961
 30
0.0
 11
326.896
 21
475.652
 31
0.0
  0
LINE
  5
3FF
330
1E
100
AcDbEntity
  8
0
100
AcDbLine
 10
326.896
 20
475.652
 30
0.0
 11
328.827
 21
475.536
 31
0.0
  0
LINE
  5
400
330
1E
100
AcDbEntity
  8
0
100
AcDbLine
 10
327.442
 20
479.577
 30
0.0
 11
329.274
 21
478.753
 31
0.0
  0
LINE
  5
401
330
1E
100
AcDbEntity
  8
0
100
AcDbLine
 10
328.248
 20
479.714
 30
0.0
 11
330.386
 21
478.753
 31
0.0
  0
LINE
  5
402
330
1E
100
AcDbEntity
  8
0
100
AcDbLine
 10
325.31
 20
480.349
 30
0.0
 11
327.442
 21
479.577
 31
0.0
  0
LINE
  5
403
330
1E
100
AcDbEntity
  8
0
100
AcDbLine
 10
325.76
 20
480.615
 30
0.0
 11
328.248
 21
479.714
 31
0.0
  0
LINE
  5
404
330
1E
100
AcDbEntity
  8
0
100
AcDbLine
 10
322.924
 20
481.031
 30
0.0
 11
325.31
 21
480.349
 31
0.0
  0
LINE
  5
405
330
1E
100
AcDbEntity
  8
0
100
AcDbLine
 10
322.977
 20
481.411
 30
0.0
 11
325.76
 21
480.615
 31
0.0
  0
LINE
  5
406
330
1E
100
AcDbEntity
  8
0
100
AcDbLine
 10
320.516
 20
481.546
 30
0.0
 11
322.924
 21
481.031
 31
0.0
  0
LINE
  5
407
330
1E
100
AcDbEntity
  8
0
100
AcDbLine
 10
320.168
 20
482.011
 30
0.0
 11
322.977
 21
481.411
 31
0.0
  0
LINE
  5
408
330
1E
100
AcDbEntity
  8
0
100
AcDbLine
 10
318.319
 20
481.855
 30
0.0
 11
320.516
 21
481.546
 31
0.0
  0
LINE
  5
409
330
1E
100
AcDbEntity
  8
0
100
AcDbLine
 10
317.604
 20
482.372
 30
0.0
 11
320.168
 21
482.011
 31
0.0
  0
LINE
  5
40A
330
1E
100
AcDbEntity
  8
0
100
AcDbLine
 10
316.388
 20
481.971
 30
0.0
 11
318.319
 21
481.855
 31
0.0
  0
LINE
  5
40B
330
1E
100
AcDbEntity
  8
0
100
AcDbLine
 10
315.352
 20
482.507
 30
0.0
 11
317.604
 21
482.372
 31
0.0
  0
LINE
  5
40C
330
1E
100
AcDbEntity
  8
0
100
AcDbLine
 10
329.274
 20
478.753
 30
0.0
 11
330.626
 21
477.93
 31
0.0
  0
LINE
  5
40D
330
1E
100
AcDbEntity
  8
0
100
AcDbLine
 10
328.827
 20
475.536
 30
0.0
 11
330.309
 21
475.652
 31
0.0
  0
LINE
  5
40E
330
1E
100
AcDbEntity
  8
0
100
AcDbLine
 10
340.625
 20
474.0
 30
0.0
 11
340.87
 21
474.0
 31
0.0
  0
LINE
  5
40F
330
1E
100
AcDbEntity
  8
0
100
AcDbLine
 10
341.701
 20
474.0
 30
0.0
 11
342.98
 21
474.0
 31
0.0
  0
LINE
  5
410
330
1E
100
AcDbEntity
  8
0
100
AcDbLine
 10
341.942
 20
474.0
 30
0.0
 11
342.129
 21
474.0
 31
0.0
  0
LINE
  5
411
330
1E
100
AcDbEntity
  8
0
100
AcDbLine
 10
341.942
 20
474.0
 30
0.0
 11
342.368
 21
474.0
 31
0.0
  0
LINE
  5
412
330
1E
100
AcDbEntity
  8
0
100
AcDbLine
 10
343.558
 20
462.358
 30
0.0
 11
345.29
 21
451.541
 31
0.0
  0
LINE
  5
413
330
1E
100
AcDbEntity
  8
0
100
AcDbLine
 10
345.29
 20
451.541
 30
0.0
 11
345.694742870285
 21
450.0
 31
0.0
  0
LINE
  5
414
330
1E
100
AcDbEntity
  8
0
100
AcDbLine
 10
342.98
 20
472.0
 30
0.0
 11
342.98
 21
474.0
 31
0.0
  0
LINE
  5
415
330
1E
100
AcDbEntity
  8
0
100
AcDbLine
 10
342.98
 20
472.0
 30
0.0
 11
343.558
 21
462.358
 31
0.0
  0
LINE
  5
416
330
1E
100
AcDbEntity
  8
0
100
AcDbLine
 10
342.98
 20
474.0
 30
0.0
 11
342.98
 21
472.0
 31
0.0
  0
LINE
  5
417
330
1E
100
AcDbEntity
  8
0
100
AcDbLine
 10
342.791
 20
474.0
 30
0.0
 11
342.98
 21
474.0
 31
0.0
  0
LINE
  5
418
330
1E
100
AcDbEntity
  8
0
100
AcDbLine
 10
344.756
 20
474.0
 30
0.0
 11
346.283
 21
474.0
 31
0.0
  0
LINE
  5
419
330
1E
100
AcDbEntity
  8
0
100
AcDbLine
 10
342.368
 20
474.0
 30
0.0
 11
343.436
 21
474.0
 31
0.0
  0
LINE
  5
41A
330
1E
100
AcDbEntity
  8
0
100
AcDbLine
 10
343.436
 20
474.0
 30
0.0
 11
344.756
 21
474.0
 31
0.0
  0
LINE
  5
41B
330
1E
100
AcDbEntity
  8
0
100
AcDbLine
 10
340.87
 20
474.0
 30
0.0
 11
341.701
 21
474.0
 31
0.0
  0
LINE
  5
41C
330
1E
100
AcDbEntity
  8
0
100
AcDbLine
 10
339.956
 20
474.714
 30
0.0
 11
340.008
 21
474.299
 31
0.0
  0
LINE
  5
41F
330
1E
100
AcDbEntity
  8
0
100
AcDbLine
 10
340.008
 20
474.299
 30
0.0
 11
340.122
 21
474.144
 31
0.0
  0
LINE
  5
422
330
1E
100
AcDbEntity
  8
0
100
AcDbLine
 10
340.122
 20
474.144
 30
0.0
 11
340.238
 21
474.26
 31
0.0
  0
LINE
  5
423
330
1E
100
AcDbEntity
  8
0
100
AcDbLine
 10
340.122
 20
474.144
 30
0.0
 11
340.625
 21
474.0
 31
0.0
  0
LINE
  5
425
330
1E
100
AcDbEntity
  8
0
100
AcDbLine
 10
343.179
 20
474.171
 30
0.0
 11
345.427
 21
474.071
 31
0.0
  0
LINE
  5
427
330
1E
100
AcDbEntity
  8
0
100
AcDbLine
 10
340.318
 20
474.714
 30
0.0
 11
340.751
 21
474.714
 31
0.0
  0
LINE
  5
429
330
1E
100
AcDbEntity
  8
0
100
AcDbLine
 10
340.751
 20
474.714
 30
0.0
 11
341.097
 21
474.714
 31
0.0
  0
LINE
  5
42A
330
1E
100
AcDbEntity
  8
0
100
AcDbLine
 10
341.097
 20
474.714
 30
0.0
 11
343.179
 21
474.171
 31
0.0
  0
LINE
  5
42B
330
1E
100
AcDbEntity
  8
0
100
AcDbLine
 10
340.238
 20
474.26
 30
0.0
 11
340.318
 21
474.714
 31
0.0
  0
LINE
  5
42C
330
1E
100
AcDbEntity
  8
0
100
AcDbLine
 10
342.129
 20
474.0
 30
0.0
 11
342.791
 21
474.0
 31
0.0
  0
LINE
  5
42D
330
1E
100
AcDbEntity
  8
0
100
AcDbLine
 10
348.064
 20
474.0
 30
0.0
 11
349.956
 21
474.0
 31
0.0
  0
LINE
  5
42E
330
1E
100
AcDbEntity
  8
0
100
AcDbLine
 10
349.956
 20
474.0
 30
0.0
 11
352.157
 21
474.0
 31
0.0
  0
LINE
  5
42F
330
1E
100
AcDbEntity
  8
0
100
AcDbLine
 10
346.283
 20
474.0
 30
0.0
 11
348.064
 21
474.0
 31
0.0
  0
LINE
  5
430
330
1E
100
AcDbEntity
  8
0
100
AcDbLine
 10
349.756
 20
474.714
 30
0.0
 11
350.293
 21
474.714
 31
0.0
  0
LINE
  5
431
330
1E
100
AcDbEntity
  8
0
100
AcDbLine
 10
347.674
 20
474.171
 30
0.0
 11
349.756
 21
474.714
 31
0.0
  0
LINE
  5
432
330
1E
100
AcDbEntity
  8
0
100
AcDbLine
 10
345.427
 20
474.071
 30
0.0
 11
347.674
 21
474.171
 31
0.0
  0
LINE
  5
433
330
1E
100
AcDbEntity
  8
0
100
AcDbLine
 10
331.479
 20
477.158
 30
0.0
 11
331.731
 21
476.476
 31
0.0
  0
LINE
  5
434
330
1E
100
AcDbEntity
  8
0
100
AcDbLine
 10
331.312
 20
475.961
 30
0.0
 11
331.731
 21
476.476
 31
0.0
  0
LINE
  5
435
330
1E
100
AcDbEntity
  8
0
100
AcDbLine
 10
330.309
 20
475.652
 30
0.0
 11
331.312
 21
475.961
 31
0.0
  0
LINE
  5
436
330
1E
100
AcDbEntity
  8
0
100
AcDbLine
 10
330.626
 20
477.93
 30
0.0
 11
331.479
 21
477.158
 31
0.0
  0
LINE
  5
437
330
1E
100
AcDbEntity
  8
0
100
AcDbLine
 10
330.386
 20
478.753
 30
0.0
 11
331.963
 21
477.793
 31
0.0
  0
LINE
  5
438
330
1E
100
AcDbEntity
  8
0
100
AcDbLine
 10
331.963
 20
477.793
 30
0.0
 11
332.958
 21
476.892
 31
0.0
  0
LINE
  5
43A
330
1E
100
AcDbEntity
  8
0
100
AcDbLine
 10
339.948
 20
475.429
 30
0.0
 11
339.956
 21
474.714
 31
0.0
  0
LINE
  5
43B
330
1E
100
AcDbEntity
  8
0
100
AcDbLine
 10
339.948
 20
475.429
 30
0.0
 11
339.948
 21
484.571
 31
0.0
  0
LINE
  5
43C
330
1E
100
AcDbEntity
  8
0
100
AcDbLine
 10
337.697707196309
 20
493.458715520781
 30
0.0
 11
338.876
 21
493.837
 31
0.0
  0
LINE
  5
43D
330
1E
100
AcDbEntity
  8
0
100
AcDbLine
 10
338.876
 20
493.837
 30
0.0
 11
339.329
 21
494.074
 31
0.0
  0
LINE
  5
43E
330
1E
100
AcDbEntity
  8
0
100
AcDbLine
 10
338.876
 20
493.837
 30
0.0
 11
339.428
 21
494.502
 31
0.0
  0
LINE
  5
43F
330
1E
100
AcDbEntity
  8
0
100
AcDbLine
 10
339.948
 20
484.571
 30
0.0
 11
339.948
 21
475.429
 31
0.0
  0
LINE
  5
440
330
1E
100
AcDbEntity
  8
0
100
AcDbLine
 10
339.948
 20
484.571
 30
0.0
 11
339.956
 21
485.286
 31
0.0
  0
LINE
  5
442
330
1E
100
AcDbEntity
  8
0
100
AcDbLine
 10
340.751
 20
485.286
 30
0.0
 11
341.097
 21
485.286
 31
0.0
  0
LINE
  5
447
330
1E
100
AcDbEntity
  8
0
100
AcDbLine
 10
339.956
 20
485.286
 30
0.0
 11
340.008
 21
485.701
 31
0.0
  0
LINE
  5
449
330
1E
100
AcDbEntity
  8
0
100
AcDbLine
 10
340.008
 20
485.701
 30
0.0
 11
340.122
 21
485.856
 31
0.0
  0
LINE
  5
44D
330
1E
100
AcDbEntity
  8
0
100
AcDbLine
 10
340.122
 20
485.856
 30
0.0
 11
340.238
 21
485.74
 31
0.0
  0
LINE
  5
44E
330
1E
100
AcDbEntity
  8
0
100
AcDbLine
 10
340.122
 20
485.856
 30
0.0
 11
340.625
 21
486.0
 31
0.0
  0
LINE
  5
451
330
1E
100
AcDbEntity
  8
0
100
AcDbLine
 10
340.625
 20
486.0
 30
0.0
 11
340.99
 21
486.0
 31
0.0
  0
LINE
  5
452
330
1E
100
AcDbEntity
  8
0
100
AcDbLine
 10
340.238
 20
485.74
 30
0.0
 11
340.318
 21
485.286
 31
0.0
  0
LINE
  5
457
330
1E
100
AcDbEntity
  8
0
100
AcDbLine
 10
340.318
 20
485.286
 30
0.0
 11
340.751
 21
485.286
 31
0.0
  0
LINE
  5
45B
330
1E
100
AcDbEntity
  8
0
100
AcDbLine
 10
341.097
 20
485.286
 30
0.0
 11
343.179
 21
485.829
 31
0.0
  0
LINE
  5
45C
330
1E
100
AcDbEntity
  8
0
100
AcDbLine
 10
343.179
 20
485.829
 30
0.0
 11
345.427
 21
485.929
 31
0.0
  0
LINE
  5
45F
330
1E
100
AcDbEntity
  8
0
100
AcDbLine
 10
349.756
 20
485.286
 30
0.0
 11
350.293
 21
485.286
 31
0.0
  0
LINE
  5
460
330
1E
100
AcDbEntity
  8
0
100
AcDbLine
 10
347.674
 20
485.829
 30
0.0
 11
349.756
 21
485.286
 31
0.0
  0
LINE
  5
464
330
1E
100
AcDbEntity
  8
0
100
AcDbLine
 10
343.571
 20
486.0
 30
0.0
 11
345.546
 21
486.0
 31
0.0
  0
LINE
  5
465
330
1E
100
AcDbEntity
  8
0
100
AcDbLine
 10
342.039
 20
486.0
 30
0.0
 11
343.571
 21
486.0
 31
0.0
  0
LINE
  5
467
330
1E
100
AcDbEntity
  8
0
100
AcDbLine
 10
347.853
 20
486.0
 30
0.0
 11
350.243
 21
486.0
 31
0.0
  0
LINE
  5
468
330
1E
100
AcDbEntity
  8
0
100
AcDbLine
 10
345.546
 20
486.0
 30
0.0
 11
347.853
 21
486.0
 31
0.0
  0
LINE
  5
469
330
1E
100
AcDbEntity
  8
0
100
AcDbLine
 10
345.427
 20
485.929
 30
0.0
 11
347.674
 21
485.829
 31
0.0
  0
LINE
  5
46A
330
1E
100
AcDbEntity
  8
0
100
AcDbLine
 10
340.965
 20
486.0
 30
0.0
 11
340.965
 21
495.0
 31
0.0
  0
LINE
  5
46B
330
1E
100
AcDbEntity
  8
0
100
AcDbLine
 10
340.99
 20
486.0
 30
0.0
 11
342.039
 21
486.0
 31
0.0
  0
LINE
  5
46C
330
1E
100
AcDbEntity
  8
0
100
AcDbLine
 10
339.329
 20
494.074
 30
0.0
 11
339.884
 21
494.766
 31
0.0
  0
LINE
  5
46D
330
1E
100
AcDbEntity
  8
0
100
AcDbLine
 10
340.965
 20
495.0
 30
0.0
 11
340.965
 21
486.0
 31
0.0
  0
LINE
  5
46E
330
1E
100
AcDbEntity
  8
0
100
AcDbLine
 10
339.884
 20
494.766
 30
0.0
 11
340.223
 21
495.435
 31
0.0
  0
LINE
  5
46F
330
1E
100
AcDbEntity
  8
0
100
AcDbLine
 10
332.958
 20
476.892
 30
0.0
 11
333.251
 21
476.096
 31
0.0
  0
LINE
  5
470
330
1E
100
AcDbEntity
  8
0
100
AcDbLine
 10
333.251
 20
476.096
 30
0.0
 11
338.053
 21
494.846
 31
0.0
  0
LINE
  5
471
330
1E
100
AcDbEntity
  8
0
100
AcDbLine
 10
332.763
 20
475.495
 30
0.0
 11
333.251
 21
476.096
 31
0.0
  0
LINE
  5
472
330
1E
100
AcDbEntity
  8
0
100
AcDbLine
 10
331.593
 20
475.135
 30
0.0
 11
332.763
 21
475.495
 31
0.0
  0
LINE
  5
473
330
1E
100
AcDbEntity
  8
0
100
AcDbLine
 10
329.863
 20
475.0
 30
0.0
 11
331.593
 21
475.135
 31
0.0
  0
LINE
  5
474
330
1E
100
AcDbEntity
  8
0
100
AcDbLine
 10
344.308
 20
495.0
 30
0.0
 11
350.0
 21
495.0
 31
0.0
  0
LINE
  5
475
330
1E
100
AcDbEntity
  8
0
100
AcDbLine
 10
350.293
 20
474.714
 30
0.0
 11
351.311
 21
474.714
 31
0.0
  0
LINE
  5
479
330
1E
100
AcDbEntity
  8
0
100
AcDbLine
 10
350.243
 20
486.0
 30
0.0
 11
352.673
 21
486.0
 31
0.0
  0
LINE
  5
47B
330
1E
100
AcDbEntity
  8
0
100
AcDbLine
 10
350.293
 20
485.286
 30
0.0
 11
351.311
 21
485.286
 31
0.0
  0
LINE
  5
482
330
1E
100
AcDbEntity
  8
0
100
AcDbLine
 10
352.157
 20
474.0
 30
0.0
 11
354.232
 21
474.0
 31
0.0
  0
LINE
  5
483
330
1E
100
AcDbEntity
  8
0
100
AcDbLine
 10
352.902
 20
474.26
 30
0.0
 11
355.173
 21
474.144
 31
0.0
  0
LINE
  5
484
330
1E
100
AcDbEntity
  8
0
100
AcDbLine
 10
352.673
 20
486.0
 30
0.0
 11
354.895
 21
486.0
 31
0.0
  0
LINE
  5
487
330
1E
100
AcDbEntity
  8
0
100
AcDbLine
 10
352.902
 20
485.74
 30
0.0
 11
355.173
 21
485.856
 31
0.0
  0
LINE
  5
488
330
1E
100
AcDbEntity
  8
0
100
AcDbLine
 10
351.311
 20
485.286
 30
0.0
 11
352.902
 21
485.74
 31
0.0
  0
LINE
  5
489
330
1E
100
AcDbEntity
  8
0
100
AcDbLine
 10
351.311
 20
474.714
 30
0.0
 11
352.902
 21
474.26
 31
0.0
  0
LINE
  5
48B
330
1E
100
AcDbEntity
  8
0
100
AcDbLine
 10
354.232
 20
474.0
 30
0.0
 11
355.784
 21
474.0
 31
0.0
  0
LINE
  5
48C
330
1E
100
AcDbEntity
  8
0
100
AcDbLine
 10
356.921
 20
472.0
 30
0.0
 11
356.921
 21
474.0
 31
0.0
  0
LINE
  5
48D
330
1E
100
AcDbEntity
  8
0
100
AcDbLine
 10
356.921
 20
472.0
 30
0.0
 11
357.49
 21
462.875
 31
0.0
  0
LINE
  5
48E
330
1E
100
AcDbEntity
  8
0
100
AcDbLine
 10
357.49
 20
462.875
 30
0.0
 11
359.117
 21
453.342
 31
0.0
  0
LINE
  5
48F
330
1E
100
AcDbEntity
  8
0
100
AcDbLine
 10
357.361
 20
474.0
 30
0.0
 11
357.956
 21
474.0
 31
0.0
  0
LINE
  5
490
330
1E
100
AcDbEntity
  8
0
100
AcDbLine
 10
357.788
 20
474.0
 30
0.0
 11
357.956
 21
474.0
 31
0.0
  0
LINE
  5
491
330
1E
100
AcDbEntity
  8
0
100
AcDbLine
 10
357.862
 20
474.0
 30
0.0
 11
358.911
 21
474.0
 31
0.0
  0
LINE
  5
492
330
1E
100
AcDbEntity
  8
0
100
AcDbLine
 10
356.921
 20
474.0
 30
0.0
 11
357.862
 21
474.0
 31
0.0
  0
LINE
  5
493
330
1E
100
AcDbEntity
  8
0
100
AcDbLine
 10
356.921
 20
474.0
 30
0.0
 11
357.361
 21
474.0
 31
0.0
  0
LINE
  5
494
330
1E
100
AcDbEntity
  8
0
100
AcDbLine
 10
356.921
 20
474.0
 30
0.0
 11
356.921
 21
472.0
 31
0.0
  0
LINE
  5
495
330
1E
100
AcDbEntity
  8
0
100
AcDbLine
 10
359.117
 20
453.342
 30
0.0
 11
360.03676106383
 21
450.0
 31
0.0
  0
LINE
  5
496
330
1E
100
AcDbEntity
  8
0
100
AcDbLine
 10
359.276
 20
474.0
 30
0.0
 11
359.779
 21
474.144
 31
0.0
  0
LINE
  5
497
330
1E
100
AcDbEntity
  8
0
100
AcDbLine
 10
358.911
 20
474.0
 30
0.0
 11
359.276
 21
474.0
 31
0.0
  0
LINE
  5
499
330
1E
100
AcDbEntity
  8
0
100
AcDbLine
 10
359.031
 20
474.0
 30
0.0
 11
359.276
 21
474.0
 31
0.0
  0
LINE
  5
49B
330
1E
100
AcDbEntity
  8
0
100
AcDbLine
 10
358.2
 20
474.0
 30
0.0
 11
359.031
 21
474.0
 31
0.0
  0
LINE
  5
49C
330
1E
100
AcDbEntity
  8
0
100
AcDbLine
 10
357.127
 20
474.0
 30
0.0
 11
357.788
 21
474.0
 31
0.0
  0
LINE
  5
49D
330
1E
100
AcDbEntity
  8
0
100
AcDbLine
 10
355.784
 20
474.0
 30
0.0
 11
357.127
 21
474.0
 31
0.0
  0
LINE
  5
49E
330
1E
100
AcDbEntity
  8
0
100
AcDbLine
 10
357.432
 20
485.701
 30
0.0
 11
358.826
 21
485.286
 31
0.0
  0
LINE
  5
4A1
330
1E
100
AcDbEntity
  8
0
100
AcDbLine
 10
359.537
 20
474.714
 30
0.0
 11
359.945
 21
474.714
 31
0.0
  0
LINE
  5
4A2
330
1E
100
AcDbEntity
  8
0
100
AcDbLine
 10
359.945
 20
474.714
 30
0.0
 11
359.953
 21
475.429
 31
0.0
  0
LINE
  5
4A3
330
1E
100
AcDbEntity
  8
0
100
AcDbLine
 10
359.893
 20
474.299
 30
0.0
 11
359.945
 21
474.714
 31
0.0
  0
LINE
  5
4A4
330
1E
100
AcDbEntity
  8
0
100
AcDbLine
 10
359.779
 20
474.144
 30
0.0
 11
359.893
 21
474.299
 31
0.0
  0
LINE
  5
4A7
330
1E
100
AcDbEntity
  8
0
100
AcDbLine
 10
358.826
 20
485.286
 30
0.0
 11
359.537
 21
485.286
 31
0.0
  0
LINE
  5
4A9
330
1E
100
AcDbEntity
  8
0
100
AcDbLine
 10
359.537
 20
485.286
 30
0.0
 11
359.945
 21
485.286
 31
0.0
  0
LINE
  5
4AA
330
1E
100
AcDbEntity
  8
0
100
AcDbLine
 10
359.953
 20
475.429
 30
0.0
 11
359.953
 21
484.571
 31
0.0
  0
LINE
  5
4AB
330
1E
100
AcDbEntity
  8
0
100
AcDbLine
 10
359.945
 20
485.286
 30
0.0
 11
359.953
 21
484.571
 31
0.0
  0
LINE
  5
4AC
330
1E
100
AcDbEntity
  8
0
100
AcDbLine
 10
359.953
 20
484.571
 30
0.0
 11
359.953
 21
475.429
 31
0.0
  0
LINE
  5
4AD
330
1E
100
AcDbEntity
  8
0
100
AcDbLine
 10
359.893
 20
485.701
 30
0.0
 11
359.945
 21
485.286
 31
0.0
  0
LINE
  5
4AE
330
1E
100
AcDbEntity
  8
0
100
AcDbLine
 10
359.779
 20
485.856
 30
0.0
 11
359.893
 21
485.701
 31
0.0
  0
LINE
  5
4B2
330
1E
100
AcDbEntity
  8
0
100
AcDbLine
 10
358.826
 20
474.714
 30
0.0
 11
359.537
 21
474.714
 31
0.0
  0
LINE
  5
4B3
330
1E
100
AcDbEntity
  8
0
100
AcDbLine
 10
357.432
 20
474.299
 30
0.0
 11
358.826
 21
474.714
 31
0.0
  0
LINE
  5
4B6
330
1E
100
AcDbEntity
  8
0
100
AcDbLine
 10
355.173
 20
474.144
 30
0.0
 11
357.432
 21
474.299
 31
0.0
  0
LINE
  5
4B7
330
1E
100
AcDbEntity
  8
0
100
AcDbLine
 10
359.276
 20
486.0
 30
0.0
 11
359.779
 21
485.856
 31
0.0
  0
LINE
  5
4BB
330
1E
100
AcDbEntity
  8
0
100
AcDbLine
 10
359.031
 20
486.0
 30
0.0
 11
359.276
 21
486.0
 31
0.0
  0
LINE
  5
4BD
330
1E
100
AcDbEntity
  8
0
100
AcDbLine
 10
358.2
 20
486.0
 30
0.0
 11
359.031
 21
486.0
 31
0.0
  0
LINE
  5
4BE
330
1E
100
AcDbEntity
  8
0
100
AcDbLine
 10
355.173
 20
485.856
 30
0.0
 11
357.432
 21
485.701
 31
0.0
  0
LINE
  5
4BF
330
1E
100
AcDbEntity
  8
0
100
AcDbLine
 10
354.895
 20
486.0
 30
0.0
 11
356.745
 21
486.0
 31
0.0
  0
LINE
  5
4C3
330
1E
100
AcDbEntity
  8
0
100
AcDbLine
 10
356.745
 20
486.0
 30
0.0
 11
358.2
 21
486.0
 31
0.0
  0
LINE
  5
4C5
330
1E
100
AcDbEntity
  8
0
100
AcDbLine
 10
358.936
 20
486.0
 30
0.0
 11
358.936
 21
495.0
 31
0.0
  0
LINE
  5
4C6
330
1E
100
AcDbEntity
  8
0
100
AcDbLine
 10
360.671
 20
494.074
 30
0.0
 11
361.124
 21
493.837
 31
0.0
  0
LINE
  5
4C7
330
1E
100
AcDbEntity
  8
0
100
AcDbLine
 10
359.997426008969
 20
495.0
 30
0.0
 11
360.116
 21
494.766
 31
0.0
  0
LINE
  5
4C8
330
1E
100
AcDbEntity
  8
0
100
AcDbLine
 10
360.116
 20
494.766
 30
0.0
 11
360.671
 21
494.074
 31
0.0
  0
LINE
  5
4C9
330
1E
100
AcDbEntity
  8
0
100
AcDbLine
 10
350.0
 20
495.0
 30
0.0
 11
355.692
 21
495.0
 31
0.0
  0
LINE
  5
4CA
330
1E
100
AcDbEntity
  8
0
100
AcDbLine
 10
355.692
 20
495.0
 30
0.0
 11
360.954
 21
495.0
 31
0.0
  0
LINE
  5
4CB
330
1E
100
AcDbEntity
  8
0
100
AcDbLine
 10
362.426
 20
493.419
 30
0.0
 11
364.395
 21
493.263
 31
0.0
  0
LINE
  5
4CC
330
1E
100
AcDbEntity
  8
0
100
AcDbLine
 10
361.042301409657
 20
493.935423120612
 30
0.0
 11
361.124
 21
493.837
 31
0.0
  0
LINE
  5
4CD
330
1E
100
AcDbEntity
  8
0
100
AcDbLine
 10
361.124
 20
493.837
 30
0.0
 11
362.426
 21
493.419
 31
0.0
  0
LINE
  5
4CE
330
1E
100
AcDbEntity
  8
0
100
AcDbLine
 10
362.302292803691
 20
493.458715520781
 30
0.0
 11
366.749
 21
476.096
 31
0.0
  0
LINE
  5
4CF
330
1E
100
AcDbEntity
  8
0
100
AcDbLine
 10
360.954
 20
495.0
 30
0.0
 11
365.546
 21
495.0
 31
0.0
  0
LINE
  5
4D0
330
1E
100
AcDbEntity
  8
0
100
AcDbLine
 10
358.936
 20
495.0
 30
0.0
 11
360.271767821289
 21
495.0
 31
0.0
  0
LINE
  5
4D1
330
1E
100
AcDbEntity
  8
0
100
AcDbLine
 10
358.936
 20
495.0
 30
0.0
 11
358.936
 21
486.0
 31
0.0
  0
LINE
  5
4D2
330
1E
100
AcDbEntity
  8
0
100
AcDbLine
 10
364.395
 20
493.263
 30
0.0
 11
366.968
 21
493.419
 31
0.0
  0
LINE
  5
4D3
330
1E
100
AcDbEntity
  8
0
100
AcDbLine
 10
366.968
 20
493.419
 30
0.0
 11
369.884
 21
493.837
 31
0.0
  0
LINE
  5
4D4
330
1E
100
AcDbEntity
  8
0
100
AcDbLine
 10
366.749
 20
476.096
 30
0.0
 11
367.237
 21
475.495
 31
0.0
  0
LINE
  5
4D5
330
1E
100
AcDbEntity
  8
0
100
AcDbLine
 10
367.237
 20
475.495
 30
0.0
 11
368.407
 21
475.135
 31
0.0
  0
LINE
  5
4D6
330
1E
100
AcDbEntity
  8
0
100
AcDbLine
 10
368.407
 20
475.135
 30
0.0
 11
370.137
 21
475.0
 31
0.0
  0
LINE
  5
4D7
330
1E
100
AcDbEntity
  8
0
100
AcDbLine
 10
369.884
 20
493.837
 30
0.0
 11
373.009
 21
494.502
 31
0.0
  0
LINE
  5
4D8
330
1E
100
AcDbEntity
  8
0
100
AcDbLine
 10
370.137
 20
475.0
 30
0.0
 11
372.389
 21
475.135
 31
0.0
  0
LINE
  5
4D9
330
1E
100
AcDbEntity
  8
0
100
AcDbLine
 10
369.389643540468
 20
495.0
 30
0.0
 11
371.19
 21
495.0
 31
0.0
  0
LINE
  5
4DA
330
1E
100
AcDbEntity
  8
0
100
AcDbLine
 10
373.009
 20
494.502
 30
0.0
 11
376.103
 21
495.389
 31
0.0
  0
LINE
  5
4DB
330
1E
100
AcDbEntity
  8
0
100
AcDbLine
 10
385.171
 20
478.753
 30
0.0
 11
386.748
 21
479.714
 31
0.0
  0
LINE
  5
4DC
330
1E
100
AcDbEntity
  8
0
100
AcDbLine
 10
386.748
 20
479.714
 30
0.0
 11
387.743
 21
480.615
 31
0.0
  0
LINE
  5
4DD
330
1E
100
AcDbEntity
  8
0
100
AcDbLine
 10
387.743
 20
480.615
 30
0.0
 11
388.037
 21
481.411
 31
0.0
  0
LINE
  5
4DE
330
1E
100
AcDbEntity
  8
0
100
AcDbLine
 10
383.033
 20
477.793
 30
0.0
 11
385.171
 21
478.753
 31
0.0
  0
LINE
  5
4DF
330
1E
100
AcDbEntity
  8
0
100
AcDbLine
 10
380.545
 20
476.892
 30
0.0
 11
383.033
 21
477.793
 31
0.0
  0
LINE
  5
4E0
330
1E
100
AcDbEntity
  8
0
100
AcDbLine
 10
377.763
 20
476.096
 30
0.0
 11
380.545
 21
476.892
 31
0.0
  0
LINE
  5
4E1
330
1E
100
AcDbEntity
  8
0
100
AcDbLine
 10
374.953
 20
475.495
 30
0.0
 11
377.763
 21
476.096
 31
0.0
  0
LINE
  5
4E2
330
1E
100
AcDbEntity
  8
0
100
AcDbLine
 10
372.389
 20
475.135
 30
0.0
 11
374.953
 21
475.495
 31
0.0
  0
LINE
  5
4E3
330
1E
100
AcDbEntity
  8
0
100
AcDbLine
 10
371.19
 20
495.0
 30
0.0
 11
372.003
 21
495.0
 31
0.0
  0
LINE
  5
4E4
330
1E
100
AcDbEntity
  8
0
100
AcDbLine
 10
372.003
 20
495.0
 30
0.0
 11
372.673
 21
495.769
 31
0.0
  0
LINE
  5
4E5
330
1E
100
AcDbEntity
  8
0
100
AcDbLine
 10
368.99
 20
495.0
 30
0.0
 11
371.19
 21
495.0
 31
0.0
  0
LINE
  5
4E6
330
1E
100
AcDbEntity
  8
0
100
AcDbLine
 10
365.546
 20
495.0
 30
0.0
 11
368.99
 21
495.0
 31
0.0
  0
LINE
  5
4E7
330
1E
100
AcDbEntity
  8
0
100
AcDbLine
 10
339.092
 20
495.389
 30
0.0
 11
339.428
 21
494.502
 31
0.0
  0
LINE
  5
4E8
330
1E
100
AcDbEntity
  8
0
100
AcDbLine
 10
340.223
 20
495.435
 30
0.0
 11
340.702627439597
 21
497.308
 31
0.0
  0
LINE
  5
4E9
330
1E
100
AcDbEntity
  8
0
100
AcDbLine
 10
337.759
 20
495.641
 30
0.0
 11
338.053
 21
494.846
 31
0.0
  0
LINE
  5
4EA
330
1E
100
AcDbEntity
  8
0
100
AcDbLine
 10
336.196
 20
497.503
 30
0.0
 11
337.99
 21
496.407
 31
0.0
  0
LINE
  5
4EB
330
1E
100
AcDbEntity
  8
0
100
AcDbLine
 10
315.447
 20
500.036
 30
0.0
 11
315.726
 21
499.617
 31
0.0
  0
LINE
  5
4EC
330
1E
100
AcDbEntity
  8
0
100
AcDbLine
 10
315.726
 20
499.617
 30
0.0
 11
316.453744178299
 21
498.944728154711
 31
0.0
  0
LINE
  5
4ED
330
1E
100
AcDbEntity
  8
0
100
AcDbLine
 10
315.39
 20
500.504
 30
0.0
 11
315.726
 21
499.617
 31
0.0
  0
LINE
  5
4EE
330
1E
100
AcDbEntity
  8
0
100
AcDbLine
 10
315.39
 20
500.504
 30
0.0
 11
315.942
 21
501.169
 31
0.0
  0
LINE
  5
4EF
330
1E
100
AcDbEntity
  8
0
100
AcDbLine
 10
315.115
 20
500.949
 30
0.0
 11
315.447
 21
500.036
 31
0.0
  0
LINE
  5
4F0
330
1E
100
AcDbEntity
  8
0
100
AcDbLine
 10
315.115
 20
500.949
 30
0.0
 11
315.14
 21
501.698
 31
0.0
  0
LINE
  5
4F1
330
1E
100
AcDbEntity
  8
0
100
AcDbLine
 10
316.765
 20
500.16
 30
0.0
 11
317.253
 21
500.761
 31
0.0
  0
LINE
  5
4F2
330
1E
100
AcDbEntity
  8
0
100
AcDbLine
 10
317.253
 20
500.761
 30
0.0
 11
318.423
 21
501.121
 31
0.0
  0
LINE
  5
4F3
330
1E
100
AcDbEntity
  8
0
100
AcDbLine
 10
315.942
 20
501.169
 30
0.0
 11
317.244
 21
501.587
 31
0.0
  0
LINE
  5
4F4
330
1E
100
AcDbEntity
  8
0
100
AcDbLine
 10
319.212
 20
501.743
 30
0.0
 11
321.786
 21
501.587
 31
0.0
  0
LINE
  5
4F5
330
1E
100
AcDbEntity
  8
0
100
AcDbLine
 10
317.244
 20
501.587
 30
0.0
 11
319.212
 21
501.743
 31
0.0
  0
LINE
  5
4F6
330
1E
100
AcDbEntity
  8
0
100
AcDbLine
 10
315.14
 20
501.698
 30
0.0
 11
328.534
 21
554.0
 31
0.0
  0
LINE
  5
4F7
330
1E
100
AcDbEntity
  8
0
100
AcDbLine
 10
318.423
 20
501.121
 30
0.0
 11
320.153
 21
501.256
 31
0.0
  0
LINE
  5
4F8
330
1E
100
AcDbEntity
  8
0
100
AcDbLine
 10
330.92
 20
499.617
 30
0.0
 11
333.753
 21
498.599
 31
0.0
  0
LINE
  5
4F9
330
1E
100
AcDbEntity
  8
0
100
AcDbLine
 10
333.753
 20
498.599
 30
0.0
 11
336.196
 21
497.503
 31
0.0
  0
LINE
  5
4FA
330
1E
100
AcDbEntity
  8
0
100
AcDbLine
 10
333.05
 20
498.464
 30
0.0
 11
335.187
 21
497.503
 31
0.0
  0
LINE
  5
4FB
330
1E
100
AcDbEntity
  8
0
100
AcDbLine
 10
330.562
 20
499.365
 30
0.0
 11
333.05
 21
498.464
 31
0.0
  0
LINE
  5
4FC
330
1E
100
AcDbEntity
  8
0
100
AcDbLine
 10
327.827
 20
500.504
 30
0.0
 11
330.92
 21
499.617
 31
0.0
  0
LINE
  5
4FD
330
1E
100
AcDbEntity
  8
0
100
AcDbLine
 10
327.779
 20
500.16
 30
0.0
 11
330.562
 21
499.365
 31
0.0
  0
LINE
  5
4FE
330
1E
100
AcDbEntity
  8
0
100
AcDbLine
 10
324.969
 20
500.761
 30
0.0
 11
327.779
 21
500.16
 31
0.0
  0
LINE
  5
4FF
330
1E
100
AcDbEntity
  8
0
100
AcDbLine
 10
324.702
 20
501.169
 30
0.0
 11
327.827
 21
500.504
 31
0.0
  0
LINE
  5
500
330
1E
100
AcDbEntity
  8
0
100
AcDbLine
 10
321.786
 20
501.587
 30
0.0
 11
324.702
 21
501.169
 31
0.0
  0
LINE
  5
501
330
1E
100
AcDbEntity
  8
0
100
AcDbLine
 10
322.406
 20
501.121
 30
0.0
 11
324.969
 21
500.761
 31
0.0
  0
LINE
  5
502
330
1E
100
AcDbEntity
  8
0
100
AcDbLine
 10
320.153
 20
501.256
 30
0.0
 11
322.406
 21
501.121
 31
0.0
  0
LINE
  5
503
330
1E
100
AcDbEntity
  8
0
100
AcDbLine
 10
335.187
 20
497.503
 30
0.0
 11
336.765
 21
496.542
 31
0.0
  0
LINE
  5
504
330
1E
100
AcDbEntity
  8
0
100
AcDbLine
 10
337.99
 20
496.407
 30
0.0
 11
339.092
 21
495.389
 31
0.0
  0
LINE
  5
505
330
1E
100
AcDbEntity
  8
0
100
AcDbLine
 10
336.765
 20
496.542
 30
0.0
 11
337.759
 21
495.641
 31
0.0
  0
LINE
  5
506
330
1E
100
AcDbEntity
  8
0
100
AcDbLine
 10
372.673
 20
495.769
 30
0.0
 11
372.96
 21
497.308
 31
0.0
  0
LINE
  5
507
330
1E
100
AcDbEntity
  8
0
100
AcDbLine
 10
376.103
 20
495.389
 30
0.0
 11
378.935
 21
496.407
 31
0.0
  0
LINE
  5
508
330
1E
100
AcDbEntity
  8
0
100
AcDbLine
 10
378.935
 20
496.407
 30
0.0
 11
381.378
 21
497.503
 31
0.0
  0
LINE
  5
509
330
1E
100
AcDbEntity
  8
0
100
AcDbLine
 10
383.172
 20
498.599
 30
0.0
 11
384.274
 21
499.617
 31
0.0
  0
LINE
  5
50A
330
1E
100
AcDbEntity
  8
0
100
AcDbLine
 10
381.378
 20
497.503
 30
0.0
 11
383.172
 21
498.599
 31
0.0
  0
LINE
  5
50B
330
1E
100
AcDbEntity
  8
0
100
AcDbLine
 10
384.274
 20
499.617
 30
0.0
 11
384.553
 21
500.036
 31
0.0
  0
LINE
  5
50C
330
1E
100
AcDbEntity
  8
0
100
AcDbLine
 10
384.553
 20
500.036
 30
0.0
 11
384.885
 21
500.949
 31
0.0
  0
LINE
  5
50D
330
1E
100
AcDbEntity
  8
0
100
AcDbLine
 10
383.546255821701
 20
498.944728154711
 30
0.0
 11
388.037
 21
481.411
 31
0.0
  0
LINE
  5
50E
330
1E
100
AcDbEntity
  8
0
100
AcDbLine
 10
384.86
 20
501.698
 30
0.0
 11
384.885
 21
500.949
 31
0.0
  0
LINE
  5
50F
330
1E
100
AcDbEntity
  8
0
100
AcDbLine
 10
372.96
 20
497.308
 30
0.0
 11
372.96
 21
554.0
 31
0.0
  0
LINE
  5
510
330
1E
100
AcDbEntity
  8
0
100
AcDbLine
 10
340.002573991031
 20
495.0
 30
0.0
 11
340.965
 21
495.0
 31
0.0
  0
LINE
  5
511
330
1E
100
AcDbEntity
  8
0
100
AcDbLine
 10
340.002573991031
 20
495.0
 30
0.0
 11
344.308
 21
495.0
 31
0.0
  0
LINE
  5
512
330
1E
100
AcDbEntity
  8
0
100
AcDbLine
 10
454.7
 20
511.348
 30
0.0
 11
456.3
 21
511.348
 31
0.0
  0
LINE
  5
513
330
1E
100
AcDbEntity
  8
0
100
AcDbLine
 10
454.776
 20
451.824
 30
0.0
 11
456.277
 21
452.499
 31
0.0
  0
LINE
  5
514
330
1E
100
AcDbEntity
  8
0
100
AcDbLine
 10
453.5
 20
511.348
 30
0.0
 11
454.7
 21
511.348
 31
0.0
  0
LINE
  5
515
330
1E
100
AcDbEntity
  8
0
100
AcDbLine
 10
453.538
 20
451.449
 30
0.0
 11
454.776
 21
451.824
 31
0.0
  0
LINE
  5
516
330
1E
100
AcDbEntity
  8
0
100
AcDbLine
 10
452.8
 20
511.348
 30
0.0
 11
453.5
 21
511.348
 31
0.0
  0
LINE
  5
517
330
1E
100
AcDbEntity
  8
0
100
AcDbLine
 10
452.863
 20
451.374
 30
0.0
 11
453.538
 21
451.449
 31
0.0
  0
LINE
  5
518
330
1E
100
AcDbEntity
  8
0
100
AcDbLine
 10
452.5
 20
511.348
 30
0.0
 11
452.5
 21
451.348
 31
0.0
  0
LINE
  5
519
330
1E
100
AcDbEntity
  8
0
100
AcDbLine
 10
452.5
 20
511.348
 30
0.0
 11
452.8
 21
511.348
 31
0.0
  0
LINE
  5
51A
330
1E
100
AcDbEntity
  8
0
100
AcDbLine
 10
452.5
 20
451.348
 30
0.0
 11
452.863
 21
451.374
 31
0.0
  0
LINE
  5
51B
330
1E
100
AcDbEntity
  8
0
100
AcDbLine
 10
452.5
 20
451.348
 30
0.0
 11
452.5
 21
511.348
 31
0.0
  0
LINE
  5
51C
330
1E
100
AcDbEntity
  8
0
100
AcDbLine
 10
460.028
 20
455.61
 30
0.0
 11
461.791
 21
456.959
 31
0.0
  0
LINE
  5
51D
330
1E
100
AcDbEntity
  8
0
100
AcDbLine
 10
460.0
 20
511.348
 30
0.0
 11
461.9
 21
511.348
 31
0.0
  0
LINE
  5
51E
330
1E
100
AcDbEntity
  8
0
100
AcDbLine
 10
460.0
 20
511.348
 30
0.0
 11
462.7
 21
511.348
 31
0.0
  0
LINE
  5
51F
330
1E
100
AcDbEntity
  8
0
100
AcDbLine
 10
462.7
 20
511.348
 30
0.0
 11
465.2
 21
511.348
 31
0.0
  0
LINE
  5
520
330
1E
100
AcDbEntity
  8
0
100
AcDbLine
 10
461.9
 20
511.348
 30
0.0
 11
463.7
 21
511.348
 31
0.0
  0
LINE
  5
521
330
1E
100
AcDbEntity
  8
0
100
AcDbLine
 10
461.791
 20
456.959
 30
0.0
 11
463.629
 21
458.159
 31
0.0
  0
LINE
  5
522
330
1E
100
AcDbEntity
  8
0
100
AcDbLine
 10
465.2
 20
511.348
 30
0.0
 11
467.4
 21
511.348
 31
0.0
  0
LINE
  5
523
330
1E
100
AcDbEntity
  8
0
100
AcDbLine
 10
463.7
 20
511.348
 30
0.0
 11
465.3
 21
511.348
 31
0.0
  0
LINE
  5
524
330
1E
100
AcDbEntity
  8
0
100
AcDbLine
 10
463.629
 20
458.159
 30
0.0
 11
465.43
 21
459.358
 31
0.0
  0
LINE
  5
525
330
1E
100
AcDbEntity
  8
0
100
AcDbLine
 10
465.3
 20
511.348
 30
0.0
 11
466.5
 21
511.348
 31
0.0
  0
LINE
  5
526
330
1E
100
AcDbEntity
  8
0
100
AcDbLine
 10
465.43
 20
459.358
 30
0.0
 11
466.518
 21
460.408
 31
0.0
  0
LINE
  5
527
330
1E
100
AcDbEntity
  8
0
100
AcDbLine
 10
466.5
 20
511.348
 30
0.0
 11
467.2
 21
511.348
 31
0.0
  0
LINE
  5
528
330
1E
100
AcDbEntity
  8
0
100
AcDbLine
 10
466.518
 20
460.408
 30
0.0
 11
467.231
 21
461.12
 31
0.0
  0
LINE
  5
529
330
1E
100
AcDbEntity
  8
0
100
AcDbLine
 10
467.2
 20
511.348
 30
0.0
 11
467.5
 21
511.348
 31
0.0
  0
LINE
  5
52A
330
1E
100
AcDbEntity
  8
0
100
AcDbLine
 10
551.0
 20
250.0
 30
0.0
 11
551.0
 21
450.0
 31
0.0
  0
LINE
  5
52B
330
1E
100
AcDbEntity
  8
0
100
AcDbLine
 10
551.0
 20
250.0
 30
0.0
 11
700.0
 21
50.0
 31
0.0
  0
LINE
  5
52C
330
1E
100
AcDbEntity
  8
0
100
AcDbLine
 10
551.0
 20
250.0
 30
0.0
 11
700.0
 21
50.0
 31
0.0
  0
LINE
  5
52D
330
1E
100
AcDbEntity
  8
0
100
AcDbLine
 10
700.0
 20
50.0
 30
0.0
 11
700.0
 21
0.0
 31
0.0
  0
LINE
  5
52E
330
1E
100
AcDbEntity
  8
0
100
AcDbLine
 10
700.0
 20
0.0
 30
0.0
 11
700.0
 21
50.0
 31
0.0
  0
LINE
  5
52F
330
1E
100
AcDbEntity
  8
0
100
AcDbLine
 10
551.0
 20
450.0
 30
0.0
 11
551.0
 21
550.0
 31
0.0
  0
LINE
  5
530
330
1E
100
AcDbEntity
  8
0
100
AcDbLine
 10
467.5
 20
511.348
 30
0.0
 11
469.1
 21
511.348
 31
0.0
  0
LINE
  5
531
330
1E
100
AcDbEntity
  8
0
100
AcDbLine
 10
467.5
 20
511.348
 30
0.0
 11
467.5
 21
461.348
 31
0.0
  0
LINE
  5
532
330
1E
100
AcDbEntity
  8
0
100
AcDbLine
 10
467.4
 20
511.348
 30
0.0
 11
469.1
 21
511.348
 31
0.0
  0
LINE
  5
533
330
1E
100
AcDbEntity
  8
0
100
AcDbLine
 10
469.1
 20
511.348
 30
0.0
 11
470.1
 21
511.348
 31
0.0
  0
LINE
  5
534
330
1E
100
AcDbEntity
  8
0
100
AcDbLine
 10
470.5
 20
511.348
 30
0.0
 11
471.5
 21
541.348
 31
0.0
  0
LINE
  5
535
330
1E
100
AcDbEntity
  8
0
100
AcDbLine
 10
470.1
 20
511.348
 30
0.0
 11
470.5
 21
511.348
 31
0.0
  0
LINE
  5
536
330
1E
100
AcDbEntity
  8
0
100
AcDbLine
 10
467.5
 20
461.348
 30
0.0
 11
467.5
 21
511.348
 31
0.0
  0
LINE
  5
537
330
1E
100
AcDbEntity
  8
0
100
AcDbLine
 10
467.231
 20
461.12
 30
0.0
 11
467.5
 21
461.348
 31
0.0
  0
LINE
  5
538
330
1E
100
AcDbEntity
  8
0
100
AcDbLine
 10
458.1
 20
511.348
 30
0.0
 11
460.0
 21
511.348
 31
0.0
  0
LINE
  5
539
330
1E
100
AcDbEntity
  8
0
100
AcDbLine
 10
458.077
 20
453.623
 30
0.0
 11
460.028
 21
455.61
 31
0.0
  0
LINE
  5
53A
330
1E
100
AcDbEntity
  8
0
100
AcDbLine
 10
456.3
 20
511.348
 30
0.0
 11
458.1
 21
511.348
 31
0.0
  0
LINE
  5
53B
330
1E
100
AcDbEntity
  8
0
100
AcDbLine
 10
456.277
 20
452.499
 30
0.0
 11
458.077
 21
453.623
 31
0.0
  0
LINE
  5
53C
330
1E
100
AcDbEntity
  8
0
100
AcDbLine
 10
457.3
 20
511.348
 30
0.0
 11
460.0
 21
511.348
 31
0.0
  0
LINE
  5
53D
330
1E
100
AcDbEntity
  8
0
100
AcDbLine
 10
454.8
 20
511.348
 30
0.0
 11
457.3
 21
511.348
 31
0.0
  0
LINE
  5
53E
330
1E
100
AcDbEntity
  8
0
100
AcDbLine
 10
452.6
 20
511.348
 30
0.0
 11
454.8
 21
511.348
 31
0.0
  0
LINE
  5
53F
330
1E
100
AcDbEntity
  8
0
100
AcDbLine
 10
450.9
 20
511.348
 30
0.0
 11
452.6
 21
511.348
 31
0.0
  0
LINE
  5
540
330
1E
100
AcDbEntity
  8
0
100
AcDbLine
 10
450.9
 20
511.348
 30
0.0
 11
452.5
 21
511.348
 31
0.0
  0
LINE
  5
541
330
1E
100
AcDbEntity
  8
0
100
AcDbLine
 10
449.9
 20
511.348
 30
0.0
 11
450.9
 21
511.348
 31
0.0
  0
LINE
  5
542
330
1E
100
AcDbEntity
  8
0
100
AcDbLine
 10
449.5
 20
511.348
 30
0.0
 11
449.9
 21
511.348
 31
0.0
  0
LINE
  5
549
330
1E
100
AcDbEntity
  8
0
100
AcDbLine
 10
281.0
 20
525.211
 30
0.0
 11
281.0
 21
539.737
 31
0.0
  0
LINE
  5
54C
330
1E
100
AcDbEntity
  8
0
100
AcDbLine
 10
281.0
 20
539.737
 30
0.0
 11
281.0
 21
525.211
 31
0.0
  0
LINE
  5
54D
330
1E
100
AcDbEntity
  8
0
100
AcDbLine
 10
281.0
 20
539.737
 30
0.0
 11
281.0
 21
540.495
 31
0.0
  0
LINE
  5
54E
330
1E
100
AcDbEntity
  8
0
100
AcDbLine
 10
281.0
 20
540.789
 30
0.0
 11
281.0
 21
540.495
 31
0.0
  0
LINE
  5
54F
330
1E
100
AcDbEntity
  8
0
100
AcDbLine
 10
280.952
 20
541.0
 30
0.0
 11
281.0
 21
540.789
 31
0.0
  0
LINE
  5
550
330
1E
100
AcDbEntity
  8
0
100
AcDbLine
 10
281.0
 20
540.495
 30
0.0
 11
281.0
 21
539.737
 31
0.0
  0
LINE
  5
551
330
1E
100
AcDbEntity
  8
0
100
AcDbLine
 10
281.0
 20
540.495
 30
0.0
 11
281.0
 21
540.789
 31
0.0
  0
LINE
  5
558
330
1E
100
AcDbEntity
  8
0
100
AcDbLine
 10
448.9
 20
541.348
 30
0.0
 11
450.0
 21
541.348
 31
0.0
  0
LINE
  5
559
330
1E
100
AcDbEntity
  8
0
100
AcDbLine
 10
448.672
 20
547.0
 30
0.0
 11
449.0
 21
547.0
 31
0.0
  0
LINE
  5
55A
330
1E
100
AcDbEntity
  8
0
100
AcDbLine
 10
448.672
 20
547.0
 30
0.0
 11
452.064
 21
547.0
 31
0.0
  0
LINE
  5
55B
330
1E
100
AcDbEntity
  8
0
100
AcDbLine
 10
446.112
 20
547.0
 30
0.0
 11
448.672
 21
547.0
 31
0.0
  0
LINE
  5
55C
330
1E
100
AcDbEntity
  8
0
100
AcDbLine
 10
444.576
 20
547.0
 30
0.0
 11
446.112
 21
547.0
 31
0.0
  0
LINE
  5
55D
330
1E
100
AcDbEntity
  8
0
100
AcDbLine
 10
444.0
 20
547.0
 30
0.0
 11
444.576
 21
547.0
 31
0.0
  0
LINE
  5
55E
330
1E
100
AcDbEntity
  8
0
100
AcDbLine
 10
444.0
 20
547.0
 30
0.0
 11
444.0
 21
577.147
 31
0.0
  0
LINE
  5
55F
330
1E
100
AcDbEntity
  8
0
100
AcDbLine
 10
448.5
 20
541.348
 30
0.0
 11
449.5
 21
511.348
 31
0.0
  0
LINE
  5
560
330
1E
100
AcDbEntity
  8
0
100
AcDbLine
 10
448.5
 20
541.348
 30
0.0
 11
448.9
 21
541.348
 31
0.0
  0
LINE
  5
561
330
1E
100
AcDbEntity
  8
0
100
AcDbLine
 10
460.0
 20
541.348
 30
0.0
 11
463.0
 21
541.348
 31
0.0
  0
LINE
  5
562
330
1E
100
AcDbEntity
  8
0
100
AcDbLine
 10
463.0
 20
541.348
 30
0.0
 11
465.7
 21
541.348
 31
0.0
  0
LINE
  5
563
330
1E
100
AcDbEntity
  8
0
100
AcDbLine
 10
465.7
 20
541.348
 30
0.0
 11
468.1
 21
541.348
 31
0.0
  0
LINE
  5
564
330
1E
100
AcDbEntity
  8
0
100
AcDbLine
 10
468.1
 20
541.348
 30
0.0
 11
470.0
 21
541.348
 31
0.0
  0
LINE
  5
565
330
1E
100
AcDbEntity
  8
0
100
AcDbLine
 10
470.0
 20
541.348
 30
0.0
 11
471.1
 21
541.348
 31
0.0
  0
LINE
  5
566
330
1E
100
AcDbEntity
  8
0
100
AcDbLine
 10
457.0
 20
541.348
 30
0.0
 11
460.0
 21
541.348
 31
0.0
  0
LINE
  5
567
330
1E
100
AcDbEntity
  8
0
100
AcDbLine
 10
454.3
 20
541.348
 30
0.0
 11
457.0
 21
541.348
 31
0.0
  0
LINE
  5
568
330
1E
100
AcDbEntity
  8
0
100
AcDbLine
 10
451.9
 20
541.348
 30
0.0
 11
454.3
 21
541.348
 31
0.0
  0
LINE
  5
569
330
1E
100
AcDbEntity
  8
0
100
AcDbLine
 10
471.1
 20
541.348
 30
0.0
 11
471.5
 21
541.348
 31
0.0
  0
LINE
  5
56A
330
1E
100
AcDbEntity
  8
0
100
AcDbLine
 10
470.736
 20
541.348
 30
0.0
 11
471.0
 21
541.708
 31
0.0
  0
LINE
  5
56B
330
1E
100
AcDbEntity
  8
0
100
AcDbLine
 10
457.184
 20
541.708
 30
0.0
 11
460.0
 21
541.708
 31
0.0
  0
LINE
  5
56C
330
1E
100
AcDbEntity
  8
0
100
AcDbLine
 10
454.544
 20
541.708
 30
0.0
 11
457.184
 21
541.708
 31
0.0
  0
LINE
  5
56D
330
1E
100
AcDbEntity
  8
0
100
AcDbLine
 10
452.212
 20
541.708
 30
0.0
 11
454.544
 21
541.708
 31
0.0
  0
LINE
  5
56E
330
1E
100
AcDbEntity
  8
0
100
AcDbLine
 10
450.452
 20
541.708
 30
0.0
 11
452.212
 21
541.708
 31
0.0
  0
LINE
  5
56F
330
1E
100
AcDbEntity
  8
0
100
AcDbLine
 10
449.396
 20
541.708
 30
0.0
 11
450.452
 21
541.708
 31
0.0
  0
LINE
  5
570
330
1E
100
AcDbEntity
  8
0
100
AcDbLine
 10
460.0
 20
541.708
 30
0.0
 11
462.816
 21
541.708
 31
0.0
  0
LINE
  5
571
330
1E
100
AcDbEntity
  8
0
100
AcDbLine
 10
462.816
 20
541.708
 30
0.0
 11
465.456
 21
541.708
 31
0.0
  0
LINE
  5
572
330
1E
100
AcDbEntity
  8
0
100
AcDbLine
 10
465.456
 20
541.708
 30
0.0
 11
467.788
 21
541.708
 31
0.0
  0
LINE
  5
573
330
1E
100
AcDbEntity
  8
0
100
AcDbLine
 10
467.788
 20
541.708
 30
0.0
 11
469.548
 21
541.708
 31
0.0
  0
LINE
  5
574
330
1E
100
AcDbEntity
  8
0
100
AcDbLine
 10
469.548
 20
541.708
 30
0.0
 11
470.604
 21
541.708
 31
0.0
  0
LINE
  5
575
330
1E
100
AcDbEntity
  8
0
100
AcDbLine
 10
455.904
 20
547.0
 30
0.0
 11
460.0
 21
547.0
 31
0.0
  0
LINE
  5
576
330
1E
100
AcDbEntity
  8
0
100
AcDbLine
 10
452.064
 20
547.0
 30
0.0
 11
455.904
 21
547.0
 31
0.0
  0
LINE
  5
577
330
1E
100
AcDbEntity
  8
0
100
AcDbLine
 10
460.0
 20
547.0
 30
0.0
 11
464.096
 21
547.0
 31
0.0
  0
LINE
  5
578
330
1E
100
AcDbEntity
  8
0
100
AcDbLine
 10
464.096
 20
547.0
 30
0.0
 11
467.936
 21
547.0
 31
0.0
  0
LINE
  5
579
330
1E
100
AcDbEntity
  8
0
100
AcDbLine
 10
467.936
 20
547.0
 30
0.0
 11
471.328
 21
547.0
 31
0.0
  0
LINE
  5
57A
330
1E
100
AcDbEntity
  8
0
100
AcDbLine
 10
471.0
 20
547.0
 30
0.0
 11
471.0
 21
541.708
 31
0.0
  0
LINE
  5
57B
330
1E
100
AcDbEntity
  8
0
100
AcDbLine
 10
471.0
 20
547.0
 30
0.0
 11
471.328
 21
547.0
 31
0.0
  0
LINE
  5
57C
330
1E
100
AcDbEntity
  8
0
100
AcDbLine
 10
470.604
 20
541.708
 30
0.0
 11
471.0
 21
541.708
 31
0.0
  0
LINE
  5
57D
330
1E
100
AcDbEntity
  8
0
100
AcDbLine
 10
471.328
 20
547.0
 30
0.0
 11
473.888
 21
547.0
 31
0.0
  0
LINE
  5
57E
330
1E
100
AcDbEntity
  8
0
100
AcDbLine
 10
473.888
 20
547.0
 30
0.0
 11
475.424
 21
547.0
 31
0.0
  0
LINE
  5
57F
330
1E
100
AcDbEntity
  8
0
100
AcDbLine
 10
475.424
 20
547.0
 30
0.0
 11
476.0
 21
547.0
 31
0.0
  0
LINE
  5
580
330
1E
100
AcDbEntity
  8
0
100
AcDbLine
 10
476.0
 20
547.0
 30
0.0
 11
476.0
 21
577.147
 31
0.0
  0
LINE
  5
581
330
1E
100
AcDbEntity
  8
0
100
AcDbLine
 10
471.0
 20
541.708
 30
0.0
 11
471.0
 21
547.0
 31
0.0
  0
LINE
  5
582
330
1E
100
AcDbEntity
  8
0
100
AcDbLine
 10
450.0
 20
541.348
 30
0.0
 11
451.9
 21
541.348
 31
0.0
  0
LINE
  5
583
330
1E
100
AcDbEntity
  8
0
100
AcDbLine
 10
449.0
 20
541.708
 30
0.0
 11
449.264
 21
541.348
 31
0.0
  0
LINE
  5
584
330
1E
100
AcDbEntity
  8
0
100
AcDbLine
 10
449.0
 20
541.708
 30
0.0
 11
449.0
 21
547.0
 31
0.0
  0
LINE
  5
585
330
1E
100
AcDbEntity
  8
0
100
AcDbLine
 10
449.0
 20
541.708
 30
0.0
 11
449.396
 21
541.708
 31
0.0
  0
LINE
  5
586
330
1E
100
AcDbEntity
  8
0
100
AcDbLine
 10
318.961
 20
594.462
 30
0.0
 11
318.961
 21
595.538
 31
0.0
  0
LINE
  5
587
330
1E
100
AcDbEntity
  8
0
100
AcDbLine
 10
318.961
 20
594.462
 30
0.0
 11
320.101
 21
594.462
 31
0.0
  0
LINE
  5
588
330
1E
100
AcDbEntity
  8
0
100
AcDbLine
 10
318.961
 20
594.462
 30
0.0
 11
319.838
 21
594.0
 31
0.0
  0
LINE
  5
589
330
1E
100
AcDbEntity
  8
0
100
AcDbLine
 10
318.961
 20
595.538
 30
0.0
 11
319.838
 21
596.0
 31
0.0
  0
LINE
  5
58A
330
1E
100
AcDbEntity
  8
0
100
AcDbLine
 10
318.961
 20
595.538
 30
0.0
 11
320.101
 21
595.538
 31
0.0
  0
LINE
  5
58B
330
1E
100
AcDbEntity
  8
0
100
AcDbLine
 10
318.961
 20
595.538
 30
0.0
 11
318.961
 21
594.462
 31
0.0
  0
LINE
  5
58C
330
1E
100
AcDbEntity
  8
0
100
AcDbLine
 10
318.961
 20
598.462
 30
0.0
 11
318.961
 21
599.538
 31
0.0
  0
LINE
  5
58D
330
1E
100
AcDbEntity
  8
0
100
AcDbLine
 10
318.961
 20
598.462
 30
0.0
 11
320.101
 21
598.462
 31
0.0
  0
LINE
  5
58E
330
1E
100
AcDbEntity
  8
0
100
AcDbLine
 10
318.961
 20
598.462
 30
0.0
 11
319.838
 21
598.0
 31
0.0
  0
LINE
  5
58F
330
1E
100
AcDbEntity
  8
0
100
AcDbLine
 10
318.961
 20
599.538
 30
0.0
 11
319.838
 21
600.0
 31
0.0
  0
LINE
  5
590
330
1E
100
AcDbEntity
  8
0
100
AcDbLine
 10
318.961
 20
599.538
 30
0.0
 11
320.101
 21
599.538
 31
0.0
  0
LINE
  5
591
330
1E
100
AcDbEntity
  8
0
100
AcDbLine
 10
318.961
 20
599.538
 30
0.0
 11
318.961
 21
598.462
 31
0.0
  0
LINE
  5
592
330
1E
100
AcDbEntity
  8
0
100
AcDbLine
 10
318.961
 20
596.462
 30
0.0
 11
318.961
 21
597.538
 31
0.0
  0
LINE
  5
593
330
1E
100
AcDbEntity
  8
0
100
AcDbLine
 10
318.961
 20
596.462
 30
0.0
 11
320.101
 21
596.462
 31
0.0
  0
LINE
  5
594
330
1E
100
AcDbEntity
  8
0
100
AcDbLine
 10
318.961
 20
596.462
 30
0.0
 11
319.838
 21
596.0
 31
0.0
  0
LINE
  5
595
330
1E
100
AcDbEntity
  8
0
100
AcDbLine
 10
319.894
 20
577.0
 30
0.0
 11
319.894
 21
571.0
 31
0.0
  0
LINE
  5
596
330
1E
100
AcDbEntity
  8
0
100
AcDbLine
 10
319.894
 20
577.0
 30
0.0
 11
320.299
 21
577.0
 31
0.0
  0
LINE
  5
597
330
1E
100
AcDbEntity
  8
0
100
AcDbLine
 10
319.894
 20
571.0
 30
0.0
 11
320.299
 21
571.0
 31
0.0
  0
LINE
  5
598
330
1E
100
AcDbEntity
  8
0
100
AcDbLine
 10
319.894
 20
571.0
 30
0.0
 11
319.894
 21
577.0
 31
0.0
  0
LINE
  5
599
330
1E
100
AcDbEntity
  8
0
100
AcDbLine
 10
319.838
 20
594.0
 30
0.0
 11
320.89
 21
594.0
 31
0.0
  0
LINE
  5
59A
330
1E
100
AcDbEntity
  8
0
100
AcDbLine
 10
320.299
 20
577.0
 30
0.0
 11
321.419
 21
577.0
 31
0.0
  0
LINE
  5
59B
330
1E
100
AcDbEntity
  8
0
100
AcDbLine
 10
320.299
 20
571.0
 30
0.0
 11
321.419
 21
571.0
 31
0.0
  0
LINE
  5
59C
330
1E
100
AcDbEntity
  8
0
100
AcDbLine
 10
320.89
 20
594.0
 30
0.0
 11
323.047
 21
594.0
 31
0.0
  0
LINE
  5
59D
330
1E
100
AcDbEntity
  8
0
100
AcDbLine
 10
320.101
 20
594.462
 30
0.0
 11
323.257
 21
594.462
 31
0.0
  0
LINE
  5
59E
330
1E
100
AcDbEntity
  8
0
100
AcDbLine
 10
320.101
 20
595.538
 30
0.0
 11
323.257
 21
595.538
 31
0.0
  0
LINE
  5
59F
330
1E
100
AcDbEntity
  8
0
100
AcDbLine
 10
322.513
 20
566.0
 30
0.0
 11
322.679
 21
566.0
 31
0.0
  0
LINE
  5
5A0
330
1E
100
AcDbEntity
  8
0
100
AcDbLine
 10
322.513
 20
566.0
 30
0.0
 11
322.513
 21
571.0
 31
0.0
  0
LINE
  5
5A1
330
1E
100
AcDbEntity
  8
0
100
AcDbLine
 10
323.047
 20
556.308
 30
0.0
 11
323.384
 21
554.769
 31
0.0
  0
LINE
  5
5A2
330
1E
100
AcDbEntity
  8
0
100
AcDbLine
 10
323.047
 20
556.308
 30
0.0
 11
323.047
 21
566.0
 31
0.0
  0
LINE
  5
5A3
330
1E
100
AcDbEntity
  8
0
100
AcDbLine
 10
323.047
 20
566.0
 30
0.0
 11
323.047
 21
556.308
 31
0.0
  0
LINE
  5
5A4
330
1E
100
AcDbEntity
  8
0
100
AcDbLine
 10
322.679
 20
566.0
 30
0.0
 11
323.137
 21
566.0
 31
0.0
  0
LINE
  5
5A5
330
1E
100
AcDbEntity
  8
0
100
AcDbLine
 10
320.963
 20
571.0
 30
0.0
 11
322.03
 21
571.0
 31
0.0
  0
LINE
  5
5A6
330
1E
100
AcDbEntity
  8
0
100
AcDbLine
 10
322.03
 20
571.0
 30
0.0
 11
322.286
 21
571.0
 31
0.0
  0
LINE
  5
5A7
330
1E
100
AcDbEntity
  8
0
100
AcDbLine
 10
322.03
 20
571.0
 30
0.0
 11
322.513
 21
571.0
 31
0.0
  0
LINE
  5
5A8
330
1E
100
AcDbEntity
  8
0
100
AcDbLine
 10
321.419
 20
571.0
 30
0.0
 11
323.13
 21
571.0
 31
0.0
  0
LINE
  5
5A9
330
1E
100
AcDbEntity
  8
0
100
AcDbLine
 10
321.419
 20
571.0
 30
0.0
 11
322.286
 21
571.0
 31
0.0
  0
LINE
  5
5AA
330
1E
100
AcDbEntity
  8
0
100
AcDbLine
 10
323.13
 20
571.0
 30
0.0
 11
325.401
 21
571.0
 31
0.0
  0
LINE
  5
5AB
330
1E
100
AcDbEntity
  8
0
100
AcDbLine
 10
322.513
 20
571.0
 30
0.0
 11
322.513
 21
566.0
 31
0.0
  0
LINE
  5
5AC
330
1E
100
AcDbEntity
  8
0
100
AcDbLine
 10
322.513
 20
571.0
 30
0.0
 11
322.679
 21
571.0
 31
0.0
  0
LINE
  5
5AD
330
1E
100
AcDbEntity
  8
0
100
AcDbLine
 10
321.419
 20
577.0
 30
0.0
 11
323.13
 21
577.0
 31
0.0
  0
LINE
  5
5AE
330
1E
100
AcDbEntity
  8
0
100
AcDbLine
 10
323.047
 20
577.0
 30
0.0
 11
323.047
 21
583.0
 31
0.0
  0
LINE
  5
5AF
330
1E
100
AcDbEntity
  8
0
100
AcDbLine
 10
323.047
 20
583.0
 30
0.0
 11
323.047
 21
577.0
 31
0.0
  0
LINE
  5
5B0
330
1E
100
AcDbEntity
  8
0
100
AcDbLine
 10
323.13
 20
577.0
 30
0.0
 11
325.401
 21
577.0
 31
0.0
  0
LINE
  5
5B1
330
1E
100
AcDbEntity
  8
0
100
AcDbLine
 10
322.513
 20
583.0
 30
0.0
 11
322.679
 21
583.0
 31
0.0
  0
LINE
  5
5B2
330
1E
100
AcDbEntity
  8
0
100
AcDbLine
 10
322.513
 20
583.0
 30
0.0
 11
322.513
 21
588.0
 31
0.0
  0
LINE
  5
5B3
330
1E
100
AcDbEntity
  8
0
100
AcDbLine
 10
323.047
 20
588.0
 30
0.0
 11
323.047
 21
594.0
 31
0.0
  0
LINE
  5
5B4
330
1E
100
AcDbEntity
  8
0
100
AcDbLine
 10
322.513
 20
588.0
 30
0.0
 11
322.513
 21
583.0
 31
0.0
  0
LINE
  5
5B5
330
1E
100
AcDbEntity
  8
0
100
AcDbLine
 10
322.513
 20
588.0
 30
0.0
 11
322.679
 21
588.0
 31
0.0
  0
LINE
  5
5B6
330
1E
100
AcDbEntity
  8
0
100
AcDbLine
 10
323.047
 20
594.0
 30
0.0
 11
324.001
 21
594.0
 31
0.0
  0
LINE
  5
5B7
330
1E
100
AcDbEntity
  8
0
100
AcDbLine
 10
323.047
 20
594.0
 30
0.0
 11
323.047
 21
588.0
 31
0.0
  0
LINE
  5
5B8
330
1E
100
AcDbEntity
  8
0
100
AcDbLine
 10
322.679
 20
588.0
 30
0.0
 11
323.137
 21
588.0
 31
0.0
  0
LINE
  5
5B9
330
1E
100
AcDbEntity
  8
0
100
AcDbLine
 10
323.137
 20
588.0
 30
0.0
 11
323.837
 21
588.0
 31
0.0
  0
LINE
  5
5BA
330
1E
100
AcDbEntity
  8
0
100
AcDbLine
 10
322.679
 20
583.0
 30
0.0
 11
323.137
 21
583.0
 31
0.0
  0
LINE
  5
5BB
330
1E
100
AcDbEntity
  8
0
100
AcDbLine
 10
323.137
 20
583.0
 30
0.0
 11
323.837
 21
583.0
 31
0.0
  0
LINE
  5
5BC
330
1E
100
AcDbEntity
  8
0
100
AcDbLine
 10
322.679
 20
571.0
 30
0.0
 11
323.137
 21
571.0
 31
0.0
  0
LINE
  5
5BD
330
1E
100
AcDbEntity
  8
0
100
AcDbLine
 10
323.137
 20
571.0
 30
0.0
 11
323.837
 21
571.0
 31
0.0
  0
LINE
  5
5BE
330
1E
100
AcDbEntity
  8
0
100
AcDbLine
 10
323.137
 20
566.0
 30
0.0
 11
323.837
 21
566.0
 31
0.0
  0
LINE
  5
5BF
330
1E
100
AcDbEntity
  8
0
100
AcDbLine
 10
323.257
 20
594.462
 30
0.0
 11
328.08
 21
594.462
 31
0.0
  0
LINE
  5
5C0
330
1E
100
AcDbEntity
  8
0
100
AcDbLine
 10
323.257
 20
595.538
 30
0.0
 11
328.08
 21
595.538
 31
0.0
  0
LINE
  5
5C1
330
1E
100
AcDbEntity
  8
0
100
AcDbLine
 10
320.89
 20
596.0
 30
0.0
 11
323.871
 21
596.0
 31
0.0
  0
LINE
  5
5C2
330
1E
100
AcDbEntity
  8
0
100
AcDbLine
 10
319.838
 20
596.0
 30
0.0
 11
320.89
 21
596.0
 31
0.0
  0
LINE
  5
5C3
330
1E
100
AcDbEntity
  8
0
100
AcDbLine
 10
323.257
 20
596.462
 30
0.0
 11
328.08
 21
596.462
 31
0.0
  0
LINE
  5
5C4
330
1E
100
AcDbEntity
  8
0
100
AcDbLine
 10
323.257
 20
596.462
 30
0.0
 11
323.871
 21
596.0
 31
0.0
  0
LINE
  5
5C5
330
1E
100
AcDbEntity
  8
0
100
AcDbLine
 10
320.101
 20
596.462
 30
0.0
 11
323.257
 21
596.462
 31
0.0
  0
LINE
  5
5C6
330
1E
100
AcDbEntity
  8
0
100
AcDbLine
 10
320.101
 20
596.462
 30
0.0
 11
320.89
 21
596.0
 31
0.0
  0
LINE
  5
5C7
330
1E
100
AcDbEntity
  8
0
100
AcDbLine
 10
323.384
 20
554.769
 30
0.0
 11
324.17
 21
554.0
 31
0.0
  0
LINE
  5
5C8
330
1E
100
AcDbEntity
  8
0
100
AcDbLine
 10
323.837
 20
588.0
 30
0.0
 11
324.766
 21
588.0
 31
0.0
  0
LINE
  5
5C9
330
1E
100
AcDbEntity
  8
0
100
AcDbLine
 10
323.837
 20
583.0
 30
0.0
 11
324.766
 21
583.0
 31
0.0
  0
LINE
  5
5CA
330
1E
100
AcDbEntity
  8
0
100
AcDbLine
 10
323.837
 20
583.0
 30
0.0
 11
324.015
 21
583.0
 31
0.0
  0
LINE
  5
5CB
330
1E
100
AcDbEntity
  8
0
100
AcDbLine
 10
323.837
 20
571.0
 30
0.0
 11
324.766
 21
571.0
 31
0.0
  0
LINE
  5
5CC
330
1E
100
AcDbEntity
  8
0
100
AcDbLine
 10
324.17
 20
554.0
 30
0.0
 11
325.124
 21
554.0
 31
0.0
  0
LINE
  5
5CD
330
1E
100
AcDbEntity
  8
0
100
AcDbLine
 10
325.124
 20
554.0
 30
0.0
 11
327.707
 21
554.0
 31
0.0
  0
LINE
  5
5CE
330
1E
100
AcDbEntity
  8
0
100
AcDbLine
 10
325.124
 20
554.0
 30
0.0
 11
327.04
 21
554.0
 31
0.0
  0
LINE
  5
5CF
330
1E
100
AcDbEntity
  8
0
100
AcDbLine
 10
327.707
 20
554.0
 30
0.0
 11
331.75
 21
554.0
 31
0.0
  0
LINE
  5
5D0
330
1E
100
AcDbEntity
  8
0
100
AcDbLine
 10
327.04
 20
548.166105121696
 30
0.0
 11
327.04
 21
554.0
 31
0.0
  0
LINE
  5
5D1
330
1E
100
AcDbEntity
  8
0
100
AcDbLine
 10
327.04
 20
554.0
 30
0.0
 11
327.04
 21
548.166105121696
 31
0.0
  0
LINE
  5
5D2
330
1E
100
AcDbEntity
  8
0
100
AcDbLine
 10
327.04
 20
554.0
 30
0.0
 11
327.853
 21
554.0
 31
0.0
  0
LINE
  5
5D3
330
1E
100
AcDbEntity
  8
0
100
AcDbLine
 10
327.853
 20
554.0
 30
0.0
 11
328.534
 21
554.0
 31
0.0
  0
LINE
  5
5D4
330
1E
100
AcDbEntity
  8
0
100
AcDbLine
 10
327.019
 20
566.0
 30
0.0
 11
328.203
 21
566.0
 31
0.0
  0
LINE
  5
5D5
330
1E
100
AcDbEntity
  8
0
100
AcDbLine
 10
325.835
 20
566.0
 30
0.0
 11
327.019
 21
566.0
 31
0.0
  0
LINE
  5
5D6
330
1E
100
AcDbEntity
  8
0
100
AcDbLine
 10
324.015
 20
577.0
 30
0.0
 11
324.015
 21
583.0
 31
0.0
  0
LINE
  5
5D7
330
1E
100
AcDbEntity
  8
0
100
AcDbLine
 10
324.015
 20
583.0
 30
0.0
 11
324.015
 21
577.0
 31
0.0
  0
LINE
  5
5D8
330
1E
100
AcDbEntity
  8
0
100
AcDbLine
 10
324.015
 20
583.0
 30
0.0
 11
324.126
 21
583.0
 31
0.0
  0
LINE
  5
5D9
330
1E
100
AcDbEntity
  8
0
100
AcDbLine
 10
324.766
 20
583.0
 30
0.0
 11
325.835
 21
583.0
 31
0.0
  0
LINE
  5
5DA
330
1E
100
AcDbEntity
  8
0
100
AcDbLine
 10
324.126
 20
583.0
 30
0.0
 11
324.431
 21
583.0
 31
0.0
  0
LINE
  5
5DB
330
1E
100
AcDbEntity
  8
0
100
AcDbLine
 10
324.001
 20
594.0
 30
0.0
 11
326.697
 21
594.0
 31
0.0
  0
LINE
  5
5DC
330
1E
100
AcDbEntity
  8
0
100
AcDbLine
 10
324.766
 20
588.0
 30
0.0
 11
325.835
 21
588.0
 31
0.0
  0
LINE
  5
5DD
330
1E
100
AcDbEntity
  8
0
100
AcDbLine
 10
324.431
 20
583.0
 30
0.0
 11
324.898
 21
583.0
 31
0.0
  0
LINE
  5
5DE
330
1E
100
AcDbEntity
  8
0
100
AcDbLine
 10
325.401
 20
571.0
 30
0.0
 11
328.015
 21
571.0
 31
0.0
  0
LINE
  5
5DF
330
1E
100
AcDbEntity
  8
0
100
AcDbLine
 10
328.015
 20
571.0
 30
0.0
 11
330.908
 21
571.0
 31
0.0
  0
LINE
  5
5E0
330
1E
100
AcDbEntity
  8
0
100
AcDbLine
 10
327.019
 20
571.0
 30
0.0
 11
328.203
 21
571.0
 31
0.0
  0
LINE
  5
5E1
330
1E
100
AcDbEntity
  8
0
100
AcDbLine
 10
325.401
 20
577.0
 30
0.0
 11
328.015
 21
577.0
 31
0.0
  0
LINE
  5
5E2
330
1E
100
AcDbEntity
  8
0
100
AcDbLine
 10
325.835
 20
583.0
 30
0.0
 11
327.019
 21
583.0
 31
0.0
  0
LINE
  5
5E3
330
1E
100
AcDbEntity
  8
0
100
AcDbLine
 10
328.015
 20
577.0
 30
0.0
 11
330.908
 21
577.0
 31
0.0
  0
LINE
  5
5E4
330
1E
100
AcDbEntity
  8
0
100
AcDbLine
 10
327.808
 20
583.0
 30
0.0
 11
328.521
 21
583.0
 31
0.0
  0
LINE
  5
5E5
330
1E
100
AcDbEntity
  8
0
100
AcDbLine
 10
327.019
 20
583.0
 30
0.0
 11
327.808
 21
583.0
 31
0.0
  0
LINE
  5
5E6
330
1E
100
AcDbEntity
  8
0
100
AcDbLine
 10
327.019
 20
583.0
 30
0.0
 11
328.203
 21
583.0
 31
0.0
  0
LINE
  5
5E7
330
1E
100
AcDbEntity
  8
0
100
AcDbLine
 10
326.23
 20
583.0
 30
0.0
 11
327.019
 21
583.0
 31
0.0
  0
LINE
  5
5E8
330
1E
100
AcDbEntity
  8
0
100
AcDbLine
 10
326.697
 20
594.0
 30
0.0
 11
330.908
 21
594.0
 31
0.0
  0
LINE
  5
5E9
330
1E
100
AcDbEntity
  8
0
100
AcDbLine
 10
327.019
 20
588.0
 30
0.0
 11
328.203
 21
588.0
 31
0.0
  0
LINE
  5
5EA
330
1E
100
AcDbEntity
  8
0
100
AcDbLine
 10
325.835
 20
588.0
 30
0.0
 11
327.019
 21
588.0
 31
0.0
  0
LINE
  5
5EB
330
1E
100
AcDbEntity
  8
0
100
AcDbLine
 10
325.517
 20
583.0
 30
0.0
 11
326.23
 21
583.0
 31
0.0
  0
LINE
  5
5EC
330
1E
100
AcDbEntity
  8
0
100
AcDbLine
 10
324.898
 20
583.0
 30
0.0
 11
325.517
 21
583.0
 31
0.0
  0
LINE
  5
5ED
330
1E
100
AcDbEntity
  8
0
100
AcDbLine
 10
325.835
 20
571.0
 30
0.0
 11
327.019
 21
571.0
 31
0.0
  0
LINE
  5
5EE
330
1E
100
AcDbEntity
  8
0
100
AcDbLine
 10
324.766
 20
571.0
 30
0.0
 11
325.835
 21
571.0
 31
0.0
  0
LINE
  5
5EF
330
1E
100
AcDbEntity
  8
0
100
AcDbLine
 10
324.766
 20
566.0
 30
0.0
 11
325.835
 21
566.0
 31
0.0
  0
LINE
  5
5F0
330
1E
100
AcDbEntity
  8
0
100
AcDbLine
 10
323.837
 20
566.0
 30
0.0
 11
324.766
 21
566.0
 31
0.0
  0
LINE
  5
5F1
330
1E
100
AcDbEntity
  8
0
100
AcDbLine
 10
328.08
 20
595.538
 30
0.0
 11
334.48
 21
595.538
 31
0.0
  0
LINE
  5
5F2
330
1E
100
AcDbEntity
  8
0
100
AcDbLine
 10
328.08
 20
594.462
 30
0.0
 11
334.48
 21
594.462
 31
0.0
  0
LINE
  5
5F3
330
1E
100
AcDbEntity
  8
0
100
AcDbLine
 10
323.871
 20
596.0
 30
0.0
 11
328.606
 21
596.0
 31
0.0
  0
LINE
  5
5F4
330
1E
100
AcDbEntity
  8
0
100
AcDbLine
 10
328.203
 20
588.0
 30
0.0
 11
329.272
 21
588.0
 31
0.0
  0
LINE
  5
5F5
330
1E
100
AcDbEntity
  8
0
100
AcDbLine
 10
328.203
 20
583.0
 30
0.0
 11
329.272
 21
583.0
 31
0.0
  0
LINE
  5
5F6
330
1E
100
AcDbEntity
  8
0
100
AcDbLine
 10
328.203
 20
571.0
 30
0.0
 11
329.272
 21
571.0
 31
0.0
  0
LINE
  5
5F7
330
1E
100
AcDbEntity
  8
0
100
AcDbLine
 10
328.534
 20
554.0
 30
0.0
 11
328.911
 21
554.0
 31
0.0
  0
LINE
  5
5F8
330
1E
100
AcDbEntity
  8
0
100
AcDbLine
 10
328.911
 20
554.0
 30
0.0
 11
330.157
 21
554.0
 31
0.0
  0
LINE
  5
5F9
330
1E
100
AcDbEntity
  8
0
100
AcDbLine
 10
329.272
 20
583.0
 30
0.0
 11
330.201
 21
583.0
 31
0.0
  0
LINE
  5
5FA
330
1E
100
AcDbEntity
  8
0
100
AcDbLine
 10
329.14
 20
583.0
 30
0.0
 11
329.607
 21
583.0
 31
0.0
  0
LINE
  5
5FB
330
1E
100
AcDbEntity
  8
0
100
AcDbLine
 10
329.272
 20
588.0
 30
0.0
 11
330.201
 21
588.0
 31
0.0
  0
LINE
  5
5FC
330
1E
100
AcDbEntity
  8
0
100
AcDbLine
 10
328.521
 20
583.0
 30
0.0
 11
329.14
 21
583.0
 31
0.0
  0
LINE
  5
5FD
330
1E
100
AcDbEntity
  8
0
100
AcDbLine
 10
329.607
 20
583.0
 30
0.0
 11
329.913
 21
583.0
 31
0.0
  0
LINE
  5
5FE
330
1E
100
AcDbEntity
  8
0
100
AcDbLine
 10
329.913
 20
583.0
 30
0.0
 11
330.023
 21
583.0
 31
0.0
  0
LINE
  5
5FF
330
1E
100
AcDbEntity
  8
0
100
AcDbLine
 10
329.272
 20
571.0
 30
0.0
 11
330.201
 21
571.0
 31
0.0
  0
LINE
  5
600
330
1E
100
AcDbEntity
  8
0
100
AcDbLine
 10
329.272
 20
566.0
 30
0.0
 11
330.201
 21
566.0
 31
0.0
  0
LINE
  5
601
330
1E
100
AcDbEntity
  8
0
100
AcDbLine
 10
328.203
 20
566.0
 30
0.0
 11
329.272
 21
566.0
 31
0.0
  0
LINE
  5
602
330
1E
100
AcDbEntity
  8
0
100
AcDbLine
 10
328.606
 20
596.0
 30
0.0
 11
334.919
 21
596.0
 31
0.0
  0
LINE
  5
603
330
1E
100
AcDbEntity
  8
0
100
AcDbLine
 10
328.08
 20
596.462
 30
0.0
 11
328.606
 21
596.0
 31
0.0
  0
LINE
  5
604
330
1E
100
AcDbEntity
  8
0
100
AcDbLine
 10
328.08
 20
596.462
 30
0.0
 11
334.48
 21
596.462
 31
0.0
  0
LINE
  5
605
330
1E
100
AcDbEntity
  8
0
100
AcDbLine
 10
328.08
 20
597.538
 30
0.0
 11
328.606
 21
598.0
 31
0.0
  0
LINE
  5
606
330
1E
100
AcDbEntity
  8
0
100
AcDbLine
 10
328.08
 20
597.538
 30
0.0
 11
334.48
 21
597.538
 31
0.0
  0
LINE
  5
607
330
1E
100
AcDbEntity
  8
0
100
AcDbLine
 10
323.257
 20
597.538
 30
0.0
 11
323.871
 21
598.0
 31
0.0
  0
LINE
  5
608
330
1E
100
AcDbEntity
  8
0
100
AcDbLine
 10
323.257
 20
597.538
 30
0.0
 11
328.08
 21
597.538
 31
0.0
  0
LINE
  5
609
330
1E
100
AcDbEntity
  8
0
100
AcDbLine
 10
319.838
 20
600.0
 30
0.0
 11
320.89
 21
600.0
 31
0.0
  0
LINE
  5
60A
330
1E
100
AcDbEntity
  8
0
100
AcDbLine
 10
328.606
 20
598.0
 30
0.0
 11
334.919
 21
598.0
 31
0.0
  0
LINE
  5
60B
330
1E
100
AcDbEntity
  8
0
100
AcDbLine
 10
323.871
 20
598.0
 30
0.0
 11
328.606
 21
598.0
 31
0.0
  0
LINE
  5
60C
330
1E
100
AcDbEntity
  8
0
100
AcDbLine
 10
320.101
 20
598.462
 30
0.0
 11
323.257
 21
598.462
 31
0.0
  0
LINE
  5
60D
330
1E
100
AcDbEntity
  8
0
100
AcDbLine
 10
323.257
 20
598.462
 30
0.0
 11
328.08
 21
598.462
 31
0.0
  0
LINE
  5
60E
330
1E
100
AcDbEntity
  8
0
100
AcDbLine
 10
328.08
 20
599.538
 30
0.0
 11
334.48
 21
599.538
 31
0.0
  0
LINE
  5
60F
330
1E
100
AcDbEntity
  8
0
100
AcDbLine
 10
328.08
 20
598.462
 30
0.0
 11
334.48
 21
598.462
 31
0.0
  0
LINE
  5
610
330
1E
100
AcDbEntity
  8
0
100
AcDbLine
 10
323.871
 20
600.0
 30
0.0
 11
328.606
 21
600.0
 31
0.0
  0
LINE
  5
611
330
1E
100
AcDbEntity
  8
0
100
AcDbLine
 10
323.257
 20
599.538
 30
0.0
 11
328.08
 21
599.538
 31
0.0
  0
LINE
  5
612
330
1E
100
AcDbEntity
  8
0
100
AcDbLine
 10
320.89
 20
600.0
 30
0.0
 11
323.871
 21
600.0
 31
0.0
  0
LINE
  5
613
330
1E
100
AcDbEntity
  8
0
100
AcDbLine
 10
320.101
 20
599.538
 30
0.0
 11
323.257
 21
599.538
 31
0.0
  0
LINE
  5
614
330
1E
100
AcDbEntity
  8
0
100
AcDbLine
 10
320.89
 20
598.0
 30
0.0
 11
323.871
 21
598.0
 31
0.0
  0
LINE
  5
615
330
1E
100
AcDbEntity
  8
0
100
AcDbLine
 10
319.838
 20
598.0
 30
0.0
 11
320.89
 21
598.0
 31
0.0
  0
LINE
  5
616
330
1E
100
AcDbEntity
  8
0
100
AcDbLine
 10
320.101
 20
597.538
 30
0.0
 11
320.89
 21
598.0
 31
0.0
  0
LINE
  5
617
330
1E
100
AcDbEntity
  8
0
100
AcDbLine
 10
320.101
 20
597.538
 30
0.0
 11
323.257
 21
597.538
 31
0.0
  0
LINE
  5
618
330
1E
100
AcDbEntity
  8
0
100
AcDbLine
 10
318.961
 20
597.538
 30
0.0
 11
319.838
 21
598.0
 31
0.0
  0
LINE
  5
619
330
1E
100
AcDbEntity
  8
0
100
AcDbLine
 10
318.961
 20
597.538
 30
0.0
 11
320.101
 21
597.538
 31
0.0
  0
LINE
  5
61A
330
1E
100
AcDbEntity
  8
0
100
AcDbLine
 10
318.961
 20
597.538
 30
0.0
 11
318.961
 21
596.462
 31
0.0
  0
LINE
  5
61B
330
1E
100
AcDbEntity
  8
0
100
AcDbLine
 10
329.975
 20
600.0
 30
0.0
 11
329.975
 21
604.76
 31
0.0
  0
LINE
  5
61C
330
1E
100
AcDbEntity
  8
0
100
AcDbLine
 10
330.157
 20
554.0
 30
0.0
 11
332.166
 21
554.0
 31
0.0
  0
LINE
  5
61D
330
1E
100
AcDbEntity
  8
0
100
AcDbLine
 10
331.75
 20
554.0
 30
0.0
 11
337.141
 21
554.0
 31
0.0
  0
LINE
  5
61E
330
1E
100
AcDbEntity
  8
0
100
AcDbLine
 10
332.166
 20
554.0
 30
0.0
 11
334.861
 21
554.0
 31
0.0
  0
LINE
  5
61F
330
1E
100
AcDbEntity
  8
0
100
AcDbLine
 10
331.525
 20
566.0
 30
0.0
 11
331.525
 21
571.0
 31
0.0
  0
LINE
  5
620
330
1E
100
AcDbEntity
  8
0
100
AcDbLine
 10
331.359
 20
566.0
 30
0.0
 11
331.525
 21
566.0
 31
0.0
  0
LINE
  5
621
330
1E
100
AcDbEntity
  8
0
100
AcDbLine
 10
330.901
 20
566.0
 30
0.0
 11
331.359
 21
566.0
 31
0.0
  0
LINE
  5
622
330
1E
100
AcDbEntity
  8
0
100
AcDbLine
 10
330.201
 20
571.0
 30
0.0
 11
330.901
 21
571.0
 31
0.0
  0
LINE
  5
623
330
1E
100
AcDbEntity
  8
0
100
AcDbLine
 10
330.908
 20
571.0
 30
0.0
 11
333.802
 21
571.0
 31
0.0
  0
LINE
  5
624
330
1E
100
AcDbEntity
  8
0
100
AcDbLine
 10
330.901
 20
571.0
 30
0.0
 11
331.359
 21
571.0
 31
0.0
  0
LINE
  5
625
330
1E
100
AcDbEntity
  8
0
100
AcDbLine
 10
330.023
 20
577.0
 30
0.0
 11
330.023
 21
583.0
 31
0.0
  0
LINE
  5
626
330
1E
100
AcDbEntity
  8
0
100
AcDbLine
 10
330.908
 20
577.0
 30
0.0
 11
333.802
 21
577.0
 31
0.0
  0
LINE
  5
627
330
1E
100
AcDbEntity
  8
0
100
AcDbLine
 10
331.525
 20
583.0
 30
0.0
 11
331.525
 21
588.0
 31
0.0
  0
LINE
  5
628
330
1E
100
AcDbEntity
  8
0
100
AcDbLine
 10
331.359
 20
583.0
 30
0.0
 11
331.525
 21
583.0
 31
0.0
  0
LINE
  5
629
330
1E
100
AcDbEntity
  8
0
100
AcDbLine
 10
330.901
 20
583.0
 30
0.0
 11
331.359
 21
583.0
 31
0.0
  0
LINE
  5
62A
330
1E
100
AcDbEntity
  8
0
100
AcDbLine
 10
330.201
 20
588.0
 30
0.0
 11
330.901
 21
588.0
 31
0.0
  0
LINE
  5
62B
330
1E
100
AcDbEntity
  8
0
100
AcDbLine
 10
330.901
 20
588.0
 30
0.0
 11
331.359
 21
588.0
 31
0.0
  0
LINE
  5
62C
330
1E
100
AcDbEntity
  8
0
100
AcDbLine
 10
330.908
 20
594.0
 30
0.0
 11
336.467
 21
594.0
 31
0.0
  0
LINE
  5
62D
330
1E
100
AcDbEntity
  8
0
100
AcDbLine
 10
331.359
 20
588.0
 30
0.0
 11
331.525
 21
588.0
 31
0.0
  0
LINE
  5
62E
330
1E
100
AcDbEntity
  8
0
100
AcDbLine
 10
331.525
 20
588.0
 30
0.0
 11
331.525
 21
583.0
 31
0.0
  0
LINE
  5
62F
330
1E
100
AcDbEntity
  8
0
100
AcDbLine
 10
330.201
 20
583.0
 30
0.0
 11
330.901
 21
583.0
 31
0.0
  0
LINE
  5
630
330
1E
100
AcDbEntity
  8
0
100
AcDbLine
 10
330.023
 20
583.0
 30
0.0
 11
330.023
 21
577.0
 31
0.0
  0
LINE
  5
631
330
1E
100
AcDbEntity
  8
0
100
AcDbLine
 10
330.023
 20
583.0
 30
0.0
 11
330.201
 21
583.0
 31
0.0
  0
LINE
  5
632
330
1E
100
AcDbEntity
  8
0
100
AcDbLine
 10
331.359
 20
571.0
 30
0.0
 11
331.525
 21
571.0
 31
0.0
  0
LINE
  5
633
330
1E
100
AcDbEntity
  8
0
100
AcDbLine
 10
331.525
 20
571.0
 30
0.0
 11
331.525
 21
566.0
 31
0.0
  0
LINE
  5
634
330
1E
100
AcDbEntity
  8
0
100
AcDbLine
 10
330.201
 20
566.0
 30
0.0
 11
330.901
 21
566.0
 31
0.0
  0
LINE
  5
635
330
1E
100
AcDbEntity
  8
0
100
AcDbLine
 10
333.802
 20
577.0
 30
0.0
 11
336.415
 21
577.0
 31
0.0
  0
LINE
  5
636
330
1E
100
AcDbEntity
  8
0
100
AcDbLine
 10
334.861
 20
554.0
 30
0.0
 11
338.049
 21
554.0
 31
0.0
  0
LINE
  5
637
330
1E
100
AcDbEntity
  8
0
100
AcDbLine
 10
333.802
 20
571.0
 30
0.0
 11
336.415
 21
571.0
 31
0.0
  0
LINE
  5
638
330
1E
100
AcDbEntity
  8
0
100
AcDbLine
 10
334.48
 20
595.538
 30
0.0
 11
341.846
 21
595.538
 31
0.0
  0
LINE
  5
639
330
1E
100
AcDbEntity
  8
0
100
AcDbLine
 10
334.48
 20
594.462
 30
0.0
 11
341.846
 21
594.462
 31
0.0
  0
LINE
  5
63A
330
1E
100
AcDbEntity
  8
0
100
AcDbLine
 10
334.919
 20
596.0
 30
0.0
 11
342.109
 21
596.0
 31
0.0
  0
LINE
  5
63B
330
1E
100
AcDbEntity
  8
0
100
AcDbLine
 10
334.48
 20
599.538
 30
0.0
 11
341.846
 21
599.538
 31
0.0
  0
LINE
  5
63C
330
1E
100
AcDbEntity
  8
0
100
AcDbLine
 10
334.48
 20
598.462
 30
0.0
 11
341.846
 21
598.462
 31
0.0
  0
LINE
  5
63D
330
1E
100
AcDbEntity
  8
0
100
AcDbLine
 10
334.919
 20
600.0
 30
0.0
 11
342.109
 21
600.0
 31
0.0
  0
LINE
  5
63E
330
1E
100
AcDbEntity
  8
0
100
AcDbLine
 10
334.919
 20
598.0
 30
0.0
 11
342.109
 21
598.0
 31
0.0
  0
LINE
  5
63F
330
1E
100
AcDbEntity
  8
0
100
AcDbLine
 10
334.48
 20
597.538
 30
0.0
 11
341.846
 21
597.538
 31
0.0
  0
LINE
  5
640
330
1E
100
AcDbEntity
  8
0
100
AcDbLine
 10
334.48
 20
597.538
 30
0.0
 11
334.919
 21
598.0
 31
0.0
  0
LINE
  5
641
330
1E
100
AcDbEntity
  8
0
100
AcDbLine
 10
334.48
 20
596.462
 30
0.0
 11
341.846
 21
596.462
 31
0.0
  0
LINE
  5
642
330
1E
100
AcDbEntity
  8
0
100
AcDbLine
 10
334.48
 20
596.462
 30
0.0
 11
334.919
 21
596.0
 31
0.0
  0
LINE
  5
643
330
1E
100
AcDbEntity
  8
0
100
AcDbLine
 10
336.415
 20
577.0
 30
0.0
 11
339.344
 21
577.0
 31
0.0
  0
LINE
  5
644
330
1E
100
AcDbEntity
  8
0
100
AcDbLine
 10
338.049
 20
554.0
 30
0.0
 11
341.511
 21
554.0
 31
0.0
  0
LINE
  5
645
330
1E
100
AcDbEntity
  8
0
100
AcDbLine
 10
337.141
 20
554.0
 30
0.0
 11
343.318
 21
554.0
 31
0.0
  0
LINE
  5
646
330
1E
100
AcDbEntity
  8
0
100
AcDbLine
 10
341.511
 20
554.0
 30
0.0
 11
344.021
 21
554.0
 31
0.0
  0
LINE
  5
647
330
1E
100
AcDbEntity
  8
0
100
AcDbLine
 10
336.467
 20
594.0
 30
0.0
 11
342.981
 21
594.0
 31
0.0
  0
LINE
  5
648
330
1E
100
AcDbEntity
  8
0
100
AcDbLine
 10
339.344
 20
577.0
 30
0.0
 11
342.372
 21
577.0
 31
0.0
  0
LINE
  5
649
330
1E
100
AcDbEntity
  8
0
100
AcDbLine
 10
339.491
 20
571.0
 30
0.0
 11
342.372
 21
571.0
 31
0.0
  0
LINE
  5
64A
330
1E
100
AcDbEntity
  8
0
100
AcDbLine
 10
336.415
 20
571.0
 30
0.0
 11
339.491
 21
571.0
 31
0.0
  0
LINE
  5
64B
330
1E
100
AcDbEntity
  8
0
100
AcDbLine
 10
341.846
 20
595.538
 30
0.0
 11
350.0
 21
595.538
 31
0.0
  0
LINE
  5
64C
330
1E
100
AcDbEntity
  8
0
100
AcDbLine
 10
341.846
 20
594.462
 30
0.0
 11
350.0
 21
594.462
 31
0.0
  0
LINE
  5
64D
330
1E
100
AcDbEntity
  8
0
100
AcDbLine
 10
343.318
 20
554.0
 30
0.0
 11
350.0
 21
554.0
 31
0.0
  0
LINE
  5
64E
330
1E
100
AcDbEntity
  8
0
100
AcDbLine
 10
342.981
 20
594.0
 30
0.0
 11
350.0
 21
594.0
 31
0.0
  0
LINE
  5
64F
330
1E
100
AcDbEntity
  8
0
100
AcDbLine
 10
342.372
 20
577.0
 30
0.0
 11
350.0
 21
577.0
 31
0.0
  0
LINE
  5
650
330
1E
100
AcDbEntity
  8
0
100
AcDbLine
 10
342.372
 20
571.0
 30
0.0
 11
350.0
 21
571.0
 31
0.0
  0
LINE
  5
651
330
1E
100
AcDbEntity
  8
0
100
AcDbLine
 10
342.109
 20
596.0
 30
0.0
 11
350.0
 21
596.0
 31
0.0
  0
LINE
  5
652
330
1E
100
AcDbEntity
  8
0
100
AcDbLine
 10
341.846
 20
599.538
 30
0.0
 11
350.0
 21
599.538
 31
0.0
  0
LINE
  5
653
330
1E
100
AcDbEntity
  8
0
100
AcDbLine
 10
341.846
 20
598.462
 30
0.0
 11
350.0
 21
598.462
 31
0.0
  0
LINE
  5
654
330
1E
100
AcDbEntity
  8
0
100
AcDbLine
 10
342.109
 20
600.0
 30
0.0
 11
350.0
 21
600.0
 31
0.0
  0
LINE
  5
655
330
1E
100
AcDbEntity
  8
0
100
AcDbLine
 10
342.109
 20
598.0
 30
0.0
 11
350.0
 21
598.0
 31
0.0
  0
LINE
  5
656
330
1E
100
AcDbEntity
  8
0
100
AcDbLine
 10
341.846
 20
597.538
 30
0.0
 11
350.0
 21
597.538
 31
0.0
  0
LINE
  5
657
330
1E
100
AcDbEntity
  8
0
100
AcDbLine
 10
341.846
 20
597.538
 30
0.0
 11
342.109
 21
598.0
 31
0.0
  0
LINE
  5
658
330
1E
100
AcDbEntity
  8
0
100
AcDbLine
 10
341.846
 20
596.462
 30
0.0
 11
350.0
 21
596.462
 31
0.0
  0
LINE
  5
659
330
1E
100
AcDbEntity
  8
0
100
AcDbLine
 10
341.846
 20
596.462
 30
0.0
 11
342.109
 21
596.0
 31
0.0
  0
LINE
  5
65A
330
1E
100
AcDbEntity
  8
0
100
AcDbLine
 10
335.858
 20
604.76
 30
0.0
 11
339.987
 21
604.76
 31
0.0
  0
LINE
  5
65B
330
1E
100
AcDbEntity
  8
0
100
AcDbLine
 10
339.987
 20
604.76
 30
0.0
 11
344.739
 21
604.76
 31
0.0
  0
LINE
  5
65C
330
1E
100
AcDbEntity
  8
0
100
AcDbLine
 10
332.747
 20
604.76
 30
0.0
 11
335.858
 21
604.76
 31
0.0
  0
LINE
  5
65D
330
1E
100
AcDbEntity
  8
0
100
AcDbLine
 10
340.27
 20
605.0
 30
0.0
 11
344.909
 21
605.0
 31
0.0
  0
LINE
  5
65E
330
1E
100
AcDbEntity
  8
0
100
AcDbLine
 10
333.143
 20
605.0
 30
0.0
 11
336.197
 21
605.0
 31
0.0
  0
LINE
  5
65F
330
1E
100
AcDbEntity
  8
0
100
AcDbLine
 10
331.219
 20
605.0
 30
0.0
 11
333.143
 21
605.0
 31
0.0
  0
LINE
  5
660
330
1E
100
AcDbEntity
  8
0
100
AcDbLine
 10
330.71
 20
604.76
 30
0.0
 11
332.747
 21
604.76
 31
0.0
  0
LINE
  5
661
330
1E
100
AcDbEntity
  8
0
100
AcDbLine
 10
329.975
 20
604.76
 30
0.0
 11
330.54
 21
605.0
 31
0.0
  0
LINE
  5
662
330
1E
100
AcDbEntity
  8
0
100
AcDbLine
 10
329.975
 20
604.76
 30
0.0
 11
330.71
 21
604.76
 31
0.0
  0
LINE
  5
663
330
1E
100
AcDbEntity
  8
0
100
AcDbLine
 10
329.975
 20
604.76
 30
0.0
 11
329.975
 21
600.0
 31
0.0
  0
LINE
  5
664
330
1E
100
AcDbEntity
  8
0
100
AcDbLine
 10
343.992
 20
605.0
 30
0.0
 11
343.992
 21
618.327
 31
0.0
  0
LINE
  5
665
330
1E
100
AcDbEntity
  8
0
100
AcDbLine
 10
344.021
 20
554.0
 30
0.0
 11
350.0
 21
554.0
 31
0.0
  0
LINE
  5
666
330
1E
100
AcDbEntity
  8
0
100
AcDbLine
 10
344.909
 20
605.0
 30
0.0
 11
350.0
 21
605.0
 31
0.0
  0
LINE
  5
667
330
1E
100
AcDbEntity
  8
0
100
AcDbLine
 10
344.739
 20
604.76
 30
0.0
 11
350.0
 21
604.76
 31
0.0
  0
LINE
  5
668
330
1E
100
AcDbEntity
  8
0
100
AcDbLine
 10
345.859
 20
619.0
 30
0.0
 11
347.081
 21
619.0
 31
0.0
  0
LINE
  5
669
330
1E
100
AcDbEntity
  8
0
100
AcDbLine
 10
344.943
 20
619.0
 30
0.0
 11
345.859
 21
619.0
 31
0.0
  0
LINE
  5
66A
330
1E
100
AcDbEntity
  8
0
100
AcDbLine
 10
344.366
 20
619.0
 30
0.0
 11
344.943
 21
619.0
 31
0.0
  0
LINE
  5
66B
330
1E
100
AcDbEntity
  8
0
100
AcDbLine
 10
344.162
 20
619.0
 30
0.0
 11
344.366
 21
619.0
 31
0.0
  0
LINE
  5
66C
330
1E
100
AcDbEntity
  8
0
100
AcDbLine
 10
343.992
 20
618.327
 30
0.0
 11
344.162
 21
619.0
 31
0.0
  0
LINE
  5
66D
330
1E
100
AcDbEntity
  8
0
100
AcDbLine
 10
343.992
 20
618.327
 30
0.0
 11
343.992
 21
605.0
 31
0.0
  0
LINE
  5
66E
330
1E
100
AcDbEntity
  8
0
100
AcDbLine
 10
343.992
 20
632.58
 30
0.0
 11
343.992
 21
641.42
 31
0.0
  0
LINE
  5
66F
330
1E
100
AcDbEntity
  8
0
100
AcDbLine
 10
343.992
 20
632.58
 30
0.0
 11
344.162
 21
632.0
 31
0.0
  0
LINE
  5
670
330
1E
100
AcDbEntity
  8
0
100
AcDbLine
 10
344.162
 20
632.0
 30
0.0
 11
344.366
 21
632.0
 31
0.0
  0
LINE
  5
671
330
1E
100
AcDbEntity
  8
0
100
AcDbLine
 10
344.366
 20
632.0
 30
0.0
 11
344.943
 21
632.0
 31
0.0
  0
LINE
  5
672
330
1E
100
AcDbEntity
  8
0
100
AcDbLine
 10
345.859
 20
642.0
 30
0.0
 11
347.081
 21
642.0
 31
0.0
  0
LINE
  5
673
330
1E
100
AcDbEntity
  8
0
100
AcDbLine
 10
344.943
 20
632.0
 30
0.0
 11
345.859
 21
632.0
 31
0.0
  0
LINE
  5
674
330
1E
100
AcDbEntity
  8
0
100
AcDbLine
 10
345.859
 20
632.0
 30
0.0
 11
345.995
 21
632.0
 31
0.0
  0
LINE
  5
675
330
1E
100
AcDbEntity
  8
0
100
AcDbLine
 10
345.859
 20
632.0
 30
0.0
 11
347.081
 21
632.0
 31
0.0
  0
LINE
  5
676
330
1E
100
AcDbEntity
  8
0
100
AcDbLine
 10
344.943
 20
642.0
 30
0.0
 11
345.859
 21
642.0
 31
0.0
  0
LINE
  5
677
330
1E
100
AcDbEntity
  8
0
100
AcDbLine
 10
344.366
 20
642.0
 30
0.0
 11
344.943
 21
642.0
 31
0.0
  0
LINE
  5
678
330
1E
100
AcDbEntity
  8
0
100
AcDbLine
 10
344.162
 20
642.0
 30
0.0
 11
344.366
 21
642.0
 31
0.0
  0
LINE
  5
679
330
1E
100
AcDbEntity
  8
0
100
AcDbLine
 10
343.992
 20
641.42
 30
0.0
 11
344.162
 21
642.0
 31
0.0
  0
LINE
  5
67A
330
1E
100
AcDbEntity
  8
0
100
AcDbLine
 10
343.992
 20
641.42
 30
0.0
 11
343.992
 21
632.58
 31
0.0
  0
LINE
  5
67B
330
1E
100
AcDbEntity
  8
0
100
AcDbLine
 10
345.995
 20
619.0
 30
0.0
 11
345.995
 21
632.0
 31
0.0
  0
LINE
  5
67C
330
1E
100
AcDbEntity
  8
0
100
AcDbLine
 10
347.081
 20
619.0
 30
0.0
 11
348.473
 21
619.0
 31
0.0
  0
LINE
  5
67D
330
1E
100
AcDbEntity
  8
0
100
AcDbLine
 10
347.081
 20
632.0
 30
0.0
 11
348.473
 21
632.0
 31
0.0
  0
LINE
  5
67E
330
1E
100
AcDbEntity
  8
0
100
AcDbLine
 10
348.473
 20
619.0
 30
0.0
 11
350.0
 21
619.0
 31
0.0
  0
LINE
  5
67F
330
1E
100
AcDbEntity
  8
0
100
AcDbLine
 10
348.473
 20
632.0
 30
0.0
 11
350.0
 21
632.0
 31
0.0
  0
LINE
  5
680
330
1E
100
AcDbEntity
  8
0
100
AcDbLine
 10
347.172
 20
632.0
 30
0.0
 11
347.997
 21
632.0
 31
0.0
  0
LINE
  5
681
330
1E
100
AcDbEntity
  8
0
100
AcDbLine
 10
347.997
 20
632.0
 30
0.0
 11
348.948
 21
632.0
 31
0.0
  0
LINE
  5
682
330
1E
100
AcDbEntity
  8
0
100
AcDbLine
 10
350.0
 20
554.0
 30
0.0
 11
355.979
 21
554.0
 31
0.0
  0
LINE
  5
683
330
1E
100
AcDbEntity
  8
0
100
AcDbLine
 10
350.0
 20
554.0
 30
0.0
 11
356.682
 21
554.0
 31
0.0
  0
LINE
  5
684
330
1E
100
AcDbEntity
  8
0
100
AcDbLine
 10
350.0
 20
594.0
 30
0.0
 11
357.019
 21
594.0
 31
0.0
  0
LINE
  5
685
330
1E
100
AcDbEntity
  8
0
100
AcDbLine
 10
350.0
 20
577.0
 30
0.0
 11
357.628
 21
577.0
 31
0.0
  0
LINE
  5
686
330
1E
100
AcDbEntity
  8
0
100
AcDbLine
 10
350.0
 20
571.0
 30
0.0
 11
357.628
 21
571.0
 31
0.0
  0
LINE
  5
687
330
1E
100
AcDbEntity
  8
0
100
AcDbLine
 10
350.0
 20
595.538
 30
0.0
 11
358.154
 21
595.538
 31
0.0
  0
LINE
  5
688
330
1E
100
AcDbEntity
  8
0
100
AcDbLine
 10
350.0
 20
594.462
 30
0.0
 11
358.154
 21
594.462
 31
0.0
  0
LINE
  5
689
330
1E
100
AcDbEntity
  8
0
100
AcDbLine
 10
350.0
 20
596.0
 30
0.0
 11
357.891
 21
596.0
 31
0.0
  0
LINE
  5
68A
330
1E
100
AcDbEntity
  8
0
100
AcDbLine
 10
350.0
 20
596.0
 30
0.0
 11
350.0
 21
596.462
 31
0.0
  0
LINE
  5
68B
330
1E
100
AcDbEntity
  8
0
100
AcDbLine
 10
350.0
 20
600.0
 30
0.0
 11
357.891
 21
600.0
 31
0.0
  0
LINE
  5
68C
330
1E
100
AcDbEntity
  8
0
100
AcDbLine
 10
350.0
 20
599.538
 30
0.0
 11
358.154
 21
599.538
 31
0.0
  0
LINE
  5
68D
330
1E
100
AcDbEntity
  8
0
100
AcDbLine
 10
350.0
 20
598.462
 30
0.0
 11
358.154
 21
598.462
 31
0.0
  0
LINE
  5
68E
330
1E
100
AcDbEntity
  8
0
100
AcDbLine
 10
350.0
 20
598.0
 30
0.0
 11
350.0
 21
597.538
 31
0.0
  0
LINE
  5
68F
330
1E
100
AcDbEntity
  8
0
100
AcDbLine
 10
350.0
 20
598.0
 30
0.0
 11
357.891
 21
598.0
 31
0.0
  0
LINE
  5
690
330
1E
100
AcDbEntity
  8
0
100
AcDbLine
 10
350.0
 20
597.538
 30
0.0
 11
358.154
 21
597.538
 31
0.0
  0
LINE
  5
691
330
1E
100
AcDbEntity
  8
0
100
AcDbLine
 10
350.0
 20
597.538
 30
0.0
 11
350.0
 21
598.0
 31
0.0
  0
LINE
  5
692
330
1E
100
AcDbEntity
  8
0
100
AcDbLine
 10
350.0
 20
596.462
 30
0.0
 11
358.154
 21
596.462
 31
0.0
  0
LINE
  5
693
330
1E
100
AcDbEntity
  8
0
100
AcDbLine
 10
350.0
 20
596.462
 30
0.0
 11
350.0
 21
596.0
 31
0.0
  0
LINE
  5
694
330
1E
100
AcDbEntity
  8
0
100
AcDbLine
 10
350.0
 20
605.0
 30
0.0
 11
355.091
 21
605.0
 31
0.0
  0
LINE
  5
695
330
1E
100
AcDbEntity
  8
0
100
AcDbLine
 10
350.0
 20
604.76
 30
0.0
 11
355.261
 21
604.76
 31
0.0
  0
LINE
  5
696
330
1E
100
AcDbEntity
  8
0
100
AcDbLine
 10
350.0
 20
619.0
 30
0.0
 11
351.527
 21
619.0
 31
0.0
  0
LINE
  5
697
330
1E
100
AcDbEntity
  8
0
100
AcDbLine
 10
348.948
 20
632.0
 30
0.0
 11
350.0
 21
632.0
 31
0.0
  0
LINE
  5
698
330
1E
100
AcDbEntity
  8
0
100
AcDbLine
 10
350.0
 20
632.0
 30
0.0
 11
351.052
 21
632.0
 31
0.0
  0
LINE
  5
699
330
1E
100
AcDbEntity
  8
0
100
AcDbLine
 10
350.0
 20
632.0
 30
0.0
 11
351.527
 21
632.0
 31
0.0
  0
LINE
  5
69A
330
1E
100
AcDbEntity
  8
0
100
AcDbLine
 10
351.527
 20
619.0
 30
0.0
 11
352.919
 21
619.0
 31
0.0
  0
LINE
  5
69B
330
1E
100
AcDbEntity
  8
0
100
AcDbLine
 10
352.919
 20
619.0
 30
0.0
 11
354.141
 21
619.0
 31
0.0
  0
LINE
  5
69C
330
1E
100
AcDbEntity
  8
0
100
AcDbLine
 10
351.527
 20
632.0
 30
0.0
 11
352.919
 21
632.0
 31
0.0
  0
LINE
  5
69D
330
1E
100
AcDbEntity
  8
0
100
AcDbLine
 10
352.919
 20
632.0
 30
0.0
 11
354.141
 21
632.0
 31
0.0
  0
LINE
  5
69E
330
1E
100
AcDbEntity
  8
0
100
AcDbLine
 10
351.052
 20
632.0
 30
0.0
 11
352.003
 21
632.0
 31
0.0
  0
LINE
  5
69F
330
1E
100
AcDbEntity
  8
0
100
AcDbLine
 10
352.003
 20
632.0
 30
0.0
 11
352.828
 21
632.0
 31
0.0
  0
LINE
  5
6A0
330
1E
100
AcDbEntity
  8
0
100
AcDbLine
 10
355.091
 20
605.0
 30
0.0
 11
359.73
 21
605.0
 31
0.0
  0
LINE
  5
6A1
330
1E
100
AcDbEntity
  8
0
100
AcDbLine
 10
355.979
 20
554.0
 30
0.0
 11
361.528
 21
554.0
 31
0.0
  0
LINE
  5
6A2
330
1E
100
AcDbEntity
  8
0
100
AcDbLine
 10
355.261
 20
604.76
 30
0.0
 11
360.013
 21
604.76
 31
0.0
  0
LINE
  5
6A3
330
1E
100
AcDbEntity
  8
0
100
AcDbLine
 10
355.634
 20
619.0
 30
0.0
 11
355.838
 21
619.0
 31
0.0
  0
LINE
  5
6A4
330
1E
100
AcDbEntity
  8
0
100
AcDbLine
 10
355.838
 20
619.0
 30
0.0
 11
356.008
 21
618.327
 31
0.0
  0
LINE
  5
6A5
330
1E
100
AcDbEntity
  8
0
100
AcDbLine
 10
355.057
 20
619.0
 30
0.0
 11
355.634
 21
619.0
 31
0.0
  0
LINE
  5
6A6
330
1E
100
AcDbEntity
  8
0
100
AcDbLine
 10
354.141
 20
619.0
 30
0.0
 11
355.057
 21
619.0
 31
0.0
  0
LINE
  5
6A7
330
1E
100
AcDbEntity
  8
0
100
AcDbLine
 10
356.008
 20
618.327
 30
0.0
 11
356.008
 21
605.0
 31
0.0
  0
LINE
  5
6A8
330
1E
100
AcDbEntity
  8
0
100
AcDbLine
 10
356.682
 20
554.0
 30
0.0
 11
362.859
 21
554.0
 31
0.0
  0
LINE
  5
6A9
330
1E
100
AcDbEntity
  8
0
100
AcDbLine
 10
357.019
 20
594.0
 30
0.0
 11
363.533
 21
594.0
 31
0.0
  0
LINE
  5
6AA
330
1E
100
AcDbEntity
  8
0
100
AcDbLine
 10
357.628
 20
577.0
 30
0.0
 11
364.518
 21
577.0
 31
0.0
  0
LINE
  5
6AB
330
1E
100
AcDbEntity
  8
0
100
AcDbLine
 10
357.628
 20
571.0
 30
0.0
 11
364.518
 21
571.0
 31
0.0
  0
LINE
  5
6AC
330
1E
100
AcDbEntity
  8
0
100
AcDbLine
 10
358.154
 20
595.538
 30
0.0
 11
365.52
 21
595.538
 31
0.0
  0
LINE
  5
6AD
330
1E
100
AcDbEntity
  8
0
100
AcDbLine
 10
358.154
 20
594.462
 30
0.0
 11
365.52
 21
594.462
 31
0.0
  0
LINE
  5
6AE
330
1E
100
AcDbEntity
  8
0
100
AcDbLine
 10
357.891
 20
596.0
 30
0.0
 11
358.154
 21
596.462
 31
0.0
  0
LINE
  5
6AF
330
1E
100
AcDbEntity
  8
0
100
AcDbLine
 10
357.891
 20
596.0
 30
0.0
 11
365.081
 21
596.0
 31
0.0
  0
LINE
  5
6B0
330
1E
100
AcDbEntity
  8
0
100
AcDbLine
 10
358.154
 20
597.538
 30
0.0
 11
365.52
 21
597.538
 31
0.0
  0
LINE
  5
6B1
330
1E
100
AcDbEntity
  8
0
100
AcDbLine
 10
362.859
 20
554.0
 30
0.0
 11
368.25
 21
554.0
 31
0.0
  0
LINE
  5
6B2
330
1E
100
AcDbEntity
  8
0
100
AcDbLine
 10
361.528
 20
554.0
 30
0.0
 11
366.263
 21
554.0
 31
0.0
  0
LINE
  5
6B3
330
1E
100
AcDbEntity
  8
0
100
AcDbLine
 10
363.533
 20
594.0
 30
0.0
 11
369.092
 21
594.0
 31
0.0
  0
LINE
  5
6B4
330
1E
100
AcDbEntity
  8
0
100
AcDbLine
 10
364.518
 20
577.0
 30
0.0
 11
370.506
 21
577.0
 31
0.0
  0
LINE
  5
6B5
330
1E
100
AcDbEntity
  8
0
100
AcDbLine
 10
364.518
 20
571.0
 30
0.0
 11
370.506
 21
571.0
 31
0.0
  0
LINE
  5
6B6
330
1E
100
AcDbEntity
  8
0
100
AcDbLine
 10
365.081
 20
594.0
 30
0.0
 11
371.394
 21
594.0
 31
0.0
  0
LINE
  5
6B7
330
1E
100
AcDbEntity
  8
0
100
AcDbLine
 10
365.52
 20
595.538
 30
0.0
 11
371.92
 21
595.538
 31
0.0
  0
LINE
  5
6B8
330
1E
100
AcDbEntity
  8
0
100
AcDbLine
 10
365.52
 20
594.462
 30
0.0
 11
371.92
 21
594.462
 31
0.0
  0
LINE
  5
6B9
330
1E
100
AcDbEntity
  8
0
100
AcDbLine
 10
365.081
 20
596.0
 30
0.0
 11
365.52
 21
596.462
 31
0.0
  0
LINE
  5
6BA
330
1E
100
AcDbEntity
  8
0
100
AcDbLine
 10
365.081
 20
596.0
 30
0.0
 11
371.394
 21
596.0
 31
0.0
  0
LINE
  5
6BB
330
1E
100
AcDbEntity
  8
0
100
AcDbLine
 10
358.154
 20
596.462
 30
0.0
 11
365.52
 21
596.462
 31
0.0
  0
LINE
  5
6BC
330
1E
100
AcDbEntity
  8
0
100
AcDbLine
 10
358.154
 20
599.538
 30
0.0
 11
365.52
 21
599.538
 31
0.0
  0
LINE
  5
6BD
330
1E
100
AcDbEntity
  8
0
100
AcDbLine
 10
365.081
 20
600.0
 30
0.0
 11
371.394
 21
600.0
 31
0.0
  0
LINE
  5
6BE
330
1E
100
AcDbEntity
  8
0
100
AcDbLine
 10
358.154
 20
598.462
 30
0.0
 11
365.52
 21
598.462
 31
0.0
  0
LINE
  5
6BF
330
1E
100
AcDbEntity
  8
0
100
AcDbLine
 10
357.891
 20
598.0
 30
0.0
 11
358.154
 21
597.538
 31
0.0
  0
LINE
  5
6C0
330
1E
100
AcDbEntity
  8
0
100
AcDbLine
 10
357.891
 20
598.0
 30
0.0
 11
365.081
 21
598.0
 31
0.0
  0
LINE
  5
6C1
330
1E
100
AcDbEntity
  8
0
100
AcDbLine
 10
365.52
 20
599.538
 30
0.0
 11
371.92
 21
599.538
 31
0.0
  0
LINE
  5
6C2
330
1E
100
AcDbEntity
  8
0
100
AcDbLine
 10
365.52
 20
598.462
 30
0.0
 11
371.92
 21
598.462
 31
0.0
  0
LINE
  5
6C3
330
1E
100
AcDbEntity
  8
0
100
AcDbLine
 10
365.081
 20
598.0
 30
0.0
 11
365.52
 21
597.538
 31
0.0
  0
LINE
  5
6C4
330
1E
100
AcDbEntity
  8
0
100
AcDbLine
 10
365.081
 20
598.0
 30
0.0
 11
371.394
 21
598.0
 31
0.0
  0
LINE
  5
6C5
330
1E
100
AcDbEntity
  8
0
100
AcDbLine
 10
365.52
 20
597.538
 30
0.0
 11
371.92
 21
597.538
 31
0.0
  0
LINE
  5
6C6
330
1E
100
AcDbEntity
  8
0
100
AcDbLine
 10
366.263
 20
554.0
 30
0.0
 11
369.851
 21
554.0
 31
0.0
  0
LINE
  5
6C7
330
1E
100
AcDbEntity
  8
0
100
AcDbLine
 10
365.52
 20
596.462
 30
0.0
 11
371.92
 21
596.462
 31
0.0
  0
LINE
  5
6C8
330
1E
100
AcDbEntity
  8
0
100
AcDbLine
 10
360.013
 20
604.76
 30
0.0
 11
364.142
 21
604.76
 31
0.0
  0
LINE
  5
6C9
330
1E
100
AcDbEntity
  8
0
100
AcDbLine
 10
368.25
 20
554.0
 30
0.0
 11
372.293
 21
554.0
 31
0.0
  0
LINE
  5
6CA
330
1E
100
AcDbEntity
  8
0
100
AcDbLine
 10
369.851
 20
554.0
 30
0.0
 11
372.147
 21
554.0
 31
0.0
  0
LINE
  5
6CB
330
1E
100
AcDbEntity
  8
0
100
AcDbLine
 10
369.092
 20
594.0
 30
0.0
 11
373.303
 21
594.0
 31
0.0
  0
LINE
  5
6CC
330
1E
100
AcDbEntity
  8
0
100
AcDbLine
 10
370.506
 20
577.0
 30
0.0
 11
375.017
 21
577.0
 31
0.0
  0
LINE
  5
6CD
330
1E
100
AcDbEntity
  8
0
100
AcDbLine
 10
370.506
 20
571.0
 30
0.0
 11
375.017
 21
571.0
 31
0.0
  0
LINE
  5
6CE
330
1E
100
AcDbEntity
  8
0
100
AcDbLine
 10
371.92
 20
595.538
 30
0.0
 11
376.743
 21
595.538
 31
0.0
  0
LINE
  5
6CF
330
1E
100
AcDbEntity
  8
0
100
AcDbLine
 10
371.92
 20
594.462
 30
0.0
 11
376.743
 21
594.462
 31
0.0
  0
LINE
  5
6D0
330
1E
100
AcDbEntity
  8
0
100
AcDbLine
 10
371.394
 20
596.0
 30
0.0
 11
371.92
 21
596.462
 31
0.0
  0
LINE
  5
6D1
330
1E
100
AcDbEntity
  8
0
100
AcDbLine
 10
371.394
 20
596.0
 30
0.0
 11
376.129
 21
596.0
 31
0.0
  0
LINE
  5
6D2
330
1E
100
AcDbEntity
  8
0
100
AcDbLine
 10
371.92
 20
599.538
 30
0.0
 11
376.743
 21
599.538
 31
0.0
  0
LINE
  5
6D3
330
1E
100
AcDbEntity
  8
0
100
AcDbLine
 10
371.92
 20
598.462
 30
0.0
 11
376.743
 21
598.462
 31
0.0
  0
LINE
  5
6D4
330
1E
100
AcDbEntity
  8
0
100
AcDbLine
 10
371.394
 20
598.0
 30
0.0
 11
371.92
 21
597.538
 31
0.0
  0
LINE
  5
6D5
330
1E
100
AcDbEntity
  8
0
100
AcDbLine
 10
371.394
 20
598.0
 30
0.0
 11
376.129
 21
598.0
 31
0.0
  0
LINE
  5
6D6
330
1E
100
AcDbEntity
  8
0
100
AcDbLine
 10
371.92
 20
597.538
 30
0.0
 11
376.743
 21
597.538
 31
0.0
  0
LINE
  5
6D7
330
1E
100
AcDbEntity
  8
0
100
AcDbLine
 10
372.96
 20
550.0
 30
0.0
 11
444.0
 21
550.0
 31
0.0
  0
LINE
  5
6D8
330
1E
100
AcDbEntity
  8
0
100
AcDbLine
 10
372.96
 20
548.166105121696
 30
0.0
 11
384.86
 21
501.698
 31
0.0
  0
LINE
  5
6D9
330
1E
100
AcDbEntity
  8
0
100
AcDbLine
 10
374.876
 20
554.0
 30
0.0
 11
375.83
 21
554.0
 31
0.0
  0
LINE
  5
6DA
330
1E
100
AcDbEntity
  8
0
100
AcDbLine
 10
375.83
 20
554.0
 30
0.0
 11
376.616
 21
554.769
 31
0.0
  0
LINE
  5
6DB
330
1E
100
AcDbEntity
  8
0
100
AcDbLine
 10
372.293
 20
554.0
 30
0.0
 11
374.876
 21
554.0
 31
0.0
  0
LINE
  5
6DC
330
1E
100
AcDbEntity
  8
0
100
AcDbLine
 10
372.96
 20
554.0
 30
0.0
 11
372.96
 21
497.308
 31
0.0
  0
LINE
  5
6DD
330
1E
100
AcDbEntity
  8
0
100
AcDbLine
 10
372.96
 20
554.0
 30
0.0
 11
374.876
 21
554.0
 31
0.0
  0
LINE
  5
6DE
330
1E
100
AcDbEntity
  8
0
100
AcDbLine
 10
372.147
 20
554.0
 30
0.0
 11
372.96
 21
554.0
 31
0.0
  0
LINE
  5
6DF
330
1E
100
AcDbEntity
  8
0
100
AcDbLine
 10
373.303
 20
594.0
 30
0.0
 11
375.999
 21
594.0
 31
0.0
  0
LINE
  5
6E0
330
1E
100
AcDbEntity
  8
0
100
AcDbLine
 10
375.999
 20
594.0
 30
0.0
 11
376.953
 21
594.0
 31
0.0
  0
LINE
  5
6E1
330
1E
100
AcDbEntity
  8
0
100
AcDbLine
 10
375.017
 20
577.0
 30
0.0
 11
377.97
 21
577.0
 31
0.0
  0
LINE
  5
6E2
330
1E
100
AcDbEntity
  8
0
100
AcDbLine
 10
375.017
 20
571.0
 30
0.0
 11
377.97
 21
571.0
 31
0.0
  0
LINE
  5
6E3
330
1E
100
AcDbEntity
  8
0
100
AcDbLine
 10
376.616
 20
554.769
 30
0.0
 11
376.953
 21
556.308
 31
0.0
  0
LINE
  5
6E4
330
1E
100
AcDbEntity
  8
0
100
AcDbLine
 10
376.953
 20
556.308
 30
0.0
 11
376.953
 21
571.0
 31
0.0
  0
LINE
  5
6E5
330
1E
100
AcDbEntity
  8
0
100
AcDbLine
 10
376.953
 20
577.0
 30
0.0
 11
376.953
 21
594.0
 31
0.0
  0
LINE
  5
6E6
330
1E
100
AcDbEntity
  8
0
100
AcDbLine
 10
376.953
 20
588.0
 30
0.0
 11
377.321
 21
588.0
 31
0.0
  0
LINE
  5
6E7
330
1E
100
AcDbEntity
  8
0
100
AcDbLine
 10
376.953
 20
583.0
 30
0.0
 11
377.321
 21
583.0
 31
0.0
  0
LINE
  5
6E8
330
1E
100
AcDbEntity
  8
0
100
AcDbLine
 10
376.953
 20
571.0
 30
0.0
 11
377.321
 21
571.0
 31
0.0
  0
LINE
  5
6E9
330
1E
100
AcDbEntity
  8
0
100
AcDbLine
 10
376.953
 20
571.0
 30
0.0
 11
376.953
 21
556.308
 31
0.0
  0
LINE
  5
6EA
330
1E
100
AcDbEntity
  8
0
100
AcDbLine
 10
376.953
 20
566.0
 30
0.0
 11
377.321
 21
566.0
 31
0.0
  0
LINE
  5
6EB
330
1E
100
AcDbEntity
  8
0
100
AcDbLine
 10
377.487
 20
566.0
 30
0.0
 11
377.487
 21
571.0
 31
0.0
  0
LINE
  5
6EC
330
1E
100
AcDbEntity
  8
0
100
AcDbLine
 10
377.321
 20
588.0
 30
0.0
 11
377.487
 21
588.0
 31
0.0
  0
LINE
  5
6ED
330
1E
100
AcDbEntity
  8
0
100
AcDbLine
 10
377.487
 20
588.0
 30
0.0
 11
377.487
 21
583.0
 31
0.0
  0
LINE
  5
6EE
330
1E
100
AcDbEntity
  8
0
100
AcDbLine
 10
377.487
 20
583.0
 30
0.0
 11
377.487
 21
588.0
 31
0.0
  0
LINE
  5
6EF
330
1E
100
AcDbEntity
  8
0
100
AcDbLine
 10
377.321
 20
583.0
 30
0.0
 11
377.487
 21
583.0
 31
0.0
  0
LINE
  5
6F0
330
1E
100
AcDbEntity
  8
0
100
AcDbLine
 10
377.321
 20
571.0
 30
0.0
 11
377.487
 21
571.0
 31
0.0
  0
LINE
  5
6F1
330
1E
100
AcDbEntity
  8
0
100
AcDbLine
 10
379.037
 20
571.0
 30
0.0
 11
379.037
 21
577.0
 31
0.0
  0
LINE
  5
6F2
330
1E
100
AcDbEntity
  8
0
100
AcDbLine
 10
377.97
 20
571.0
 30
0.0
 11
379.037
 21
571.0
 31
0.0
  0
LINE
  5
6F3
330
1E
100
AcDbEntity
  8
0
100
AcDbLine
 10
377.714
 20
571.0
 30
0.0
 11
378.581
 21
571.0
 31
0.0
  0
LINE
  5
6F4
330
1E
100
AcDbEntity
  8
0
100
AcDbLine
 10
377.714
 20
571.0
 30
0.0
 11
377.97
 21
571.0
 31
0.0
  0
LINE
  5
6F5
330
1E
100
AcDbEntity
  8
0
100
AcDbLine
 10
379.701
 20
571.0
 30
0.0
 11
380.106
 21
571.0
 31
0.0
  0
LINE
  5
6F6
330
1E
100
AcDbEntity
  8
0
100
AcDbLine
 10
377.97
 20
577.0
 30
0.0
 11
379.037
 21
577.0
 31
0.0
  0
LINE
  5
6F7
330
1E
100
AcDbEntity
  8
0
100
AcDbLine
 10
379.037
 20
577.0
 30
0.0
 11
379.701
 21
577.0
 31
0.0
  0
LINE
  5
6F8
330
1E
100
AcDbEntity
  8
0
100
AcDbLine
 10
379.037
 20
577.0
 30
0.0
 11
379.037
 21
571.0
 31
0.0
  0
LINE
  5
6F9
330
1E
100
AcDbEntity
  8
0
100
AcDbLine
 10
379.701
 20
577.0
 30
0.0
 11
380.106
 21
577.0
 31
0.0
  0
LINE
  5
6FA
330
1E
100
AcDbEntity
  8
0
100
AcDbLine
 10
378.581
 20
571.0
 30
0.0
 11
379.701
 21
571.0
 31
0.0
  0
LINE
  5
6FB
330
1E
100
AcDbEntity
  8
0
100
AcDbLine
 10
377.487
 20
571.0
 30
0.0
 11
377.487
 21
566.0
 31
0.0
  0
LINE
  5
6FC
330
1E
100
AcDbEntity
  8
0
100
AcDbLine
 10
377.487
 20
571.0
 30
0.0
 11
378.581
 21
571.0
 31
0.0
  0
LINE
  5
6FD
330
1E
100
AcDbEntity
  8
0
100
AcDbLine
 10
377.321
 20
566.0
 30
0.0
 11
377.487
 21
566.0
 31
0.0
  0
LINE
  5
6FE
330
1E
100
AcDbEntity
  8
0
100
AcDbLine
 10
376.953
 20
594.0
 30
0.0
 11
379.11
 21
594.0
 31
0.0
  0
LINE
  5
6FF
330
1E
100
AcDbEntity
  8
0
100
AcDbLine
 10
376.953
 20
594.0
 30
0.0
 11
376.953
 21
577.0
 31
0.0
  0
LINE
  5
700
330
1E
100
AcDbEntity
  8
0
100
AcDbLine
 10
379.11
 20
594.0
 30
0.0
 11
380.162
 21
594.0
 31
0.0
  0
LINE
  5
701
330
1E
100
AcDbEntity
  8
0
100
AcDbLine
 10
380.106
 20
571.0
 30
0.0
 11
380.106
 21
577.0
 31
0.0
  0
LINE
  5
702
330
1E
100
AcDbEntity
  8
0
100
AcDbLine
 10
380.106
 20
577.0
 30
0.0
 11
380.106
 21
571.0
 31
0.0
  0
LINE
  5
703
330
1E
100
AcDbEntity
  8
0
100
AcDbLine
 10
380.162
 20
594.0
 30
0.0
 11
381.039
 21
594.462
 31
0.0
  0
LINE
  5
704
330
1E
100
AcDbEntity
  8
0
100
AcDbLine
 10
379.899
 20
594.462
 30
0.0
 11
381.039
 21
594.462
 31
0.0
  0
LINE
  5
705
330
1E
100
AcDbEntity
  8
0
100
AcDbLine
 10
379.899
 20
595.538
 30
0.0
 11
381.039
 21
595.538
 31
0.0
  0
LINE
  5
706
330
1E
100
AcDbEntity
  8
0
100
AcDbLine
 10
376.743
 20
595.538
 30
0.0
 11
379.899
 21
595.538
 31
0.0
  0
LINE
  5
707
330
1E
100
AcDbEntity
  8
0
100
AcDbLine
 10
376.743
 20
594.462
 30
0.0
 11
379.899
 21
594.462
 31
0.0
  0
LINE
  5
708
330
1E
100
AcDbEntity
  8
0
100
AcDbLine
 10
381.039
 20
595.538
 30
0.0
 11
381.039
 21
594.462
 31
0.0
  0
LINE
  5
709
330
1E
100
AcDbEntity
  8
0
100
AcDbLine
 10
381.039
 20
594.462
 30
0.0
 11
381.039
 21
595.538
 31
0.0
  0
LINE
  5
70A
330
1E
100
AcDbEntity
  8
0
100
AcDbLine
 10
380.162
 20
596.0
 30
0.0
 11
381.039
 21
596.462
 31
0.0
  0
LINE
  5
70B
330
1E
100
AcDbEntity
  8
0
100
AcDbLine
 10
380.162
 20
596.0
 30
0.0
 11
381.039
 21
595.538
 31
0.0
  0
LINE
  5
70C
330
1E
100
AcDbEntity
  8
0
100
AcDbLine
 10
379.11
 20
596.0
 30
0.0
 11
379.899
 21
596.462
 31
0.0
  0
LINE
  5
70D
330
1E
100
AcDbEntity
  8
0
100
AcDbLine
 10
379.11
 20
596.0
 30
0.0
 11
380.162
 21
596.0
 31
0.0
  0
LINE
  5
70E
330
1E
100
AcDbEntity
  8
0
100
AcDbLine
 10
376.129
 20
596.0
 30
0.0
 11
376.743
 21
596.462
 31
0.0
  0
LINE
  5
70F
330
1E
100
AcDbEntity
  8
0
100
AcDbLine
 10
376.129
 20
596.0
 30
0.0
 11
379.11
 21
596.0
 31
0.0
  0
LINE
  5
710
330
1E
100
AcDbEntity
  8
0
100
AcDbLine
 10
379.899
 20
596.462
 30
0.0
 11
381.039
 21
596.462
 31
0.0
  0
LINE
  5
711
330
1E
100
AcDbEntity
  8
0
100
AcDbLine
 10
437.331
 20
573.0
 30
0.0
 11
437.724
 21
573.0
 31
0.0
  0
LINE
  5
712
330
1E
100
AcDbEntity
  8
0
100
AcDbLine
 10
437.041
 20
573.0
 30
0.0
 11
437.331
 21
573.0
 31
0.0
  0
LINE
  5
713
330
1E
100
AcDbEntity
  8
0
100
AcDbLine
 10
436.852
 20
573.0
 30
0.0
 11
437.041
 21
573.0
 31
0.0
  0
LINE
  5
714
330
1E
100
AcDbEntity
  8
0
100
AcDbLine
 10
438.186
 20
573.0
 30
0.0
 11
438.667
 21
573.0
 31
0.0
  0
LINE
  5
715
330
1E
100
AcDbEntity
  8
0
100
AcDbLine
 10
437.724
 20
573.0
 30
0.0
 11
438.186
 21
573.0
 31
0.0
  0
LINE
  5
716
330
1E
100
AcDbEntity
  8
0
100
AcDbLine
 10
438.178
 20
573.0
 30
0.0
 11
438.659
 21
573.0
 31
0.0
  0
LINE
  5
717
330
1E
100
AcDbEntity
  8
0
100
AcDbLine
 10
438.667
 20
573.0
 30
0.0
 11
439.148
 21
573.0
 31
0.0
  0
LINE
  5
718
330
1E
100
AcDbEntity
  8
0
100
AcDbLine
 10
439.148
 20
573.0
 30
0.0
 11
439.595
 21
573.0
 31
0.0
  0
LINE
  5
719
330
1E
100
AcDbEntity
  8
0
100
AcDbLine
 10
439.595
 20
573.0
 30
0.0
 11
439.983
 21
573.0
 31
0.0
  0
LINE
  5
71A
330
1E
100
AcDbEntity
  8
0
100
AcDbLine
 10
438.659
 20
573.0
 30
0.0
 11
439.14
 21
573.0
 31
0.0
  0
LINE
  5
71B
330
1E
100
AcDbEntity
  8
0
100
AcDbLine
 10
439.14
 20
573.0
 30
0.0
 11
439.601
 21
573.0
 31
0.0
  0
LINE
  5
71C
330
1E
100
AcDbEntity
  8
0
100
AcDbLine
 10
439.983
 20
573.0
 30
0.0
 11
440.289
 21
573.0
 31
0.0
  0
LINE
  5
71D
330
1E
100
AcDbEntity
  8
0
100
AcDbLine
 10
439.601
 20
573.0
 30
0.0
 11
439.994
 21
573.0
 31
0.0
  0
LINE
  5
71E
330
1E
100
AcDbEntity
  8
0
100
AcDbLine
 10
439.994
 20
573.0
 30
0.0
 11
440.285
 21
573.0
 31
0.0
  0
LINE
  5
71F
330
1E
100
AcDbEntity
  8
0
100
AcDbLine
 10
440.289
 20
573.0
 30
0.0
 11
440.476
 21
573.0
 31
0.0
  0
LINE
  5
720
330
1E
100
AcDbEntity
  8
0
100
AcDbLine
 10
476.0
 20
550.0
 30
0.0
 11
551.0
 21
550.0
 31
0.0
  0
LINE
  5
721
330
1E
100
AcDbEntity
  8
0
100
AcDbLine
 10
440.533
 20
573.0
 30
0.0
 11
440.533
 21
577.0
 31
0.0
  0
LINE
  5
722
330
1E
100
AcDbEntity
  8
0
100
AcDbLine
 10
440.476
 20
573.0
 30
0.0
 11
440.533
 21
573.0
 31
0.0
  0
LINE
  5
723
330
1E
100
AcDbEntity
  8
0
100
AcDbLine
 10
440.474
 20
573.0
 30
0.0
 11
440.533
 21
573.0
 31
0.0
  0
LINE
  5
724
330
1E
100
AcDbEntity
  8
0
100
AcDbLine
 10
440.285
 20
573.0
 30
0.0
 11
440.474
 21
573.0
 31
0.0
  0
LINE
  5
725
330
1E
100
AcDbEntity
  8
0
100
AcDbLine
 10
437.731
 20
573.0
 30
0.0
 11
438.178
 21
573.0
 31
0.0
  0
LINE
  5
726
330
1E
100
AcDbEntity
  8
0
100
AcDbLine
 10
437.343
 20
573.0
 30
0.0
 11
437.731
 21
573.0
 31
0.0
  0
LINE
  5
727
330
1E
100
AcDbEntity
  8
0
100
AcDbLine
 10
437.037
 20
573.0
 30
0.0
 11
437.343
 21
573.0
 31
0.0
  0
LINE
  5
728
330
1E
100
AcDbEntity
  8
0
100
AcDbLine
 10
436.85
 20
573.0
 30
0.0
 11
437.037
 21
573.0
 31
0.0
  0
LINE
  5
729
330
1E
100
AcDbEntity
  8
0
100
AcDbLine
 10
436.793
 20
573.0
 30
0.0
 11
436.852
 21
573.0
 31
0.0
  0
LINE
  5
72A
330
1E
100
AcDbEntity
  8
0
100
AcDbLine
 10
436.793
 20
573.0
 30
0.0
 11
436.85
 21
573.0
 31
0.0
  0
LINE
  5
72B
330
1E
100
AcDbEntity
  8
0
100
AcDbLine
 10
436.793
 20
573.0
 30
0.0
 11
436.793
 21
577.0
 31
0.0
  0
LINE
  5
72C
330
1E
100
AcDbEntity
  8
0
100
AcDbLine
 10
479.711
 20
573.0
 30
0.0
 11
480.017
 21
573.0
 31
0.0
  0
LINE
  5
72D
330
1E
100
AcDbEntity
  8
0
100
AcDbLine
 10
479.524
 20
573.0
 30
0.0
 11
479.711
 21
573.0
 31
0.0
  0
LINE
  5
72E
330
1E
100
AcDbEntity
  8
0
100
AcDbLine
 10
479.467
 20
573.0
 30
0.0
 11
479.526
 21
573.0
 31
0.0
  0
LINE
  5
72F
330
1E
100
AcDbEntity
  8
0
100
AcDbLine
 10
479.467
 20
573.0
 30
0.0
 11
479.524
 21
573.0
 31
0.0
  0
LINE
  5
730
330
1E
100
AcDbEntity
  8
0
100
AcDbLine
 10
479.467
 20
573.0
 30
0.0
 11
479.467
 21
577.0
 31
0.0
  0
LINE
  5
731
330
1E
100
AcDbEntity
  8
0
100
AcDbLine
 10
480.017
 20
573.0
 30
0.0
 11
480.405
 21
573.0
 31
0.0
  0
LINE
  5
732
330
1E
100
AcDbEntity
  8
0
100
AcDbLine
 10
480.852
 20
573.0
 30
0.0
 11
481.333
 21
573.0
 31
0.0
  0
LINE
  5
733
330
1E
100
AcDbEntity
  8
0
100
AcDbLine
 10
481.333
 20
573.0
 30
0.0
 11
481.814
 21
573.0
 31
0.0
  0
LINE
  5
734
330
1E
100
AcDbEntity
  8
0
100
AcDbLine
 10
480.405
 20
573.0
 30
0.0
 11
480.852
 21
573.0
 31
0.0
  0
LINE
  5
735
330
1E
100
AcDbEntity
  8
0
100
AcDbLine
 10
481.814
 20
573.0
 30
0.0
 11
482.276
 21
573.0
 31
0.0
  0
LINE
  5
736
330
1E
100
AcDbEntity
  8
0
100
AcDbLine
 10
481.341
 20
573.0
 30
0.0
 11
481.822
 21
573.0
 31
0.0
  0
LINE
  5
737
330
1E
100
AcDbEntity
  8
0
100
AcDbLine
 10
480.86
 20
573.0
 30
0.0
 11
481.341
 21
573.0
 31
0.0
  0
LINE
  5
738
330
1E
100
AcDbEntity
  8
0
100
AcDbLine
 10
480.399
 20
573.0
 30
0.0
 11
480.86
 21
573.0
 31
0.0
  0
LINE
  5
739
330
1E
100
AcDbEntity
  8
0
100
AcDbLine
 10
480.006
 20
573.0
 30
0.0
 11
480.399
 21
573.0
 31
0.0
  0
LINE
  5
73A
330
1E
100
AcDbEntity
  8
0
100
AcDbLine
 10
479.715
 20
573.0
 30
0.0
 11
480.006
 21
573.0
 31
0.0
  0
LINE
  5
73B
330
1E
100
AcDbEntity
  8
0
100
AcDbLine
 10
479.526
 20
573.0
 30
0.0
 11
479.715
 21
573.0
 31
0.0
  0
LINE
  5
73C
330
1E
100
AcDbEntity
  8
0
100
AcDbLine
 10
482.276
 20
573.0
 30
0.0
 11
482.669
 21
573.0
 31
0.0
  0
LINE
  5
73D
330
1E
100
AcDbEntity
  8
0
100
AcDbLine
 10
481.822
 20
573.0
 30
0.0
 11
482.269
 21
573.0
 31
0.0
  0
LINE
  5
73E
330
1E
100
AcDbEntity
  8
0
100
AcDbLine
 10
482.269
 20
573.0
 30
0.0
 11
482.657
 21
573.0
 31
0.0
  0
LINE
  5
73F
330
1E
100
AcDbEntity
  8
0
100
AcDbLine
 10
482.669
 20
573.0
 30
0.0
 11
482.959
 21
573.0
 31
0.0
  0
LINE
  5
740
330
1E
100
AcDbEntity
  8
0
100
AcDbLine
 10
482.959
 20
573.0
 30
0.0
 11
483.148
 21
573.0
 31
0.0
  0
LINE
  5
741
330
1E
100
AcDbEntity
  8
0
100
AcDbLine
 10
482.657
 20
573.0
 30
0.0
 11
482.963
 21
573.0
 31
0.0
  0
LINE
  5
742
330
1E
100
AcDbEntity
  8
0
100
AcDbLine
 10
482.963
 20
573.0
 30
0.0
 11
483.15
 21
573.0
 31
0.0
  0
LINE
  5
743
330
1E
100
AcDbEntity
  8
0
100
AcDbLine
 10
551.0
 20
550.0
 30
0.0
 11
551.0
 21
250.0
 31
0.0
  0
LINE
  5
744
330
1E
100
AcDbEntity
  8
0
100
AcDbLine
 10
551.0
 20
550.0
 30
0.0
 11
551.0
 21
450.0
 31
0.0
  0
LINE
  5
745
330
1E
100
AcDbEntity
  8
0
100
AcDbLine
 10
483.207
 20
573.0
 30
0.0
 11
483.207
 21
577.0
 31
0.0
  0
LINE
  5
746
330
1E
100
AcDbEntity
  8
0
100
AcDbLine
 10
483.15
 20
573.0
 30
0.0
 11
483.207
 21
573.0
 31
0.0
  0
LINE
  5
747
330
1E
100
AcDbEntity
  8
0
100
AcDbLine
 10
437.416
 20
577.0
 30
0.0
 11
437.416
 21
577.147
 31
0.0
  0
LINE
  5
748
330
1E
100
AcDbEntity
  8
0
100
AcDbLine
 10
438.178
 20
577.0
 30
0.0
 11
438.659
 21
577.0
 31
0.0
  0
LINE
  5
749
330
1E
100
AcDbEntity
  8
0
100
AcDbLine
 10
438.659
 20
577.0
 30
0.0
 11
439.14
 21
577.0
 31
0.0
  0
LINE
  5
74A
330
1E
100
AcDbEntity
  8
0
100
AcDbLine
 10
439.91
 20
577.0
 30
0.0
 11
439.91
 21
577.147
 31
0.0
  0
LINE
  5
74B
330
1E
100
AcDbEntity
  8
0
100
AcDbLine
 10
439.14
 20
577.0
 30
0.0
 11
439.601
 21
577.0
 31
0.0
  0
LINE
  5
74C
330
1E
100
AcDbEntity
  8
0
100
AcDbLine
 10
439.601
 20
577.0
 30
0.0
 11
439.994
 21
577.0
 31
0.0
  0
LINE
  5
74D
330
1E
100
AcDbEntity
  8
0
100
AcDbLine
 10
440.476
 20
577.0
 30
0.0
 11
440.533
 21
577.0
 31
0.0
  0
LINE
  5
74E
330
1E
100
AcDbEntity
  8
0
100
AcDbLine
 10
440.533
 20
577.0
 30
0.0
 11
440.533
 21
573.0
 31
0.0
  0
LINE
  5
74F
330
1E
100
AcDbEntity
  8
0
100
AcDbLine
 10
440.474
 20
577.0
 30
0.0
 11
440.533
 21
577.0
 31
0.0
  0
LINE
  5
750
330
1E
100
AcDbEntity
  8
0
100
AcDbLine
 10
439.994
 20
577.0
 30
0.0
 11
440.285
 21
577.0
 31
0.0
  0
LINE
  5
751
330
1E
100
AcDbEntity
  8
0
100
AcDbLine
 10
440.285
 20
577.0
 30
0.0
 11
440.474
 21
577.0
 31
0.0
  0
LINE
  5
752
330
1E
100
AcDbEntity
  8
0
100
AcDbLine
 10
437.731
 20
577.0
 30
0.0
 11
438.178
 21
577.0
 31
0.0
  0
LINE
  5
753
330
1E
100
AcDbEntity
  8
0
100
AcDbLine
 10
437.343
 20
577.0
 30
0.0
 11
437.731
 21
577.0
 31
0.0
  0
LINE
  5
754
330
1E
100
AcDbEntity
  8
0
100
AcDbLine
 10
437.037
 20
577.0
 30
0.0
 11
437.343
 21
577.0
 31
0.0
  0
LINE
  5
755
330
1E
100
AcDbEntity
  8
0
100
AcDbLine
 10
436.85
 20
577.0
 30
0.0
 11
437.037
 21
577.0
 31
0.0
  0
LINE
  5
756
330
1E
100
AcDbEntity
  8
0
100
AcDbLine
 10
436.793
 20
577.0
 30
0.0
 11
436.85
 21
577.0
 31
0.0
  0
LINE
  5
757
330
1E
100
AcDbEntity
  8
0
100
AcDbLine
 10
436.793
 20
577.0
 30
0.0
 11
436.793
 21
573.0
 31
0.0
  0
LINE
  5
758
330
1E
100
AcDbEntity
  8
0
100
AcDbLine
 10
479.467
 20
577.0
 30
0.0
 11
479.526
 21
577.0
 31
0.0
  0
LINE
  5
759
330
1E
100
AcDbEntity
  8
0
100
AcDbLine
 10
479.467
 20
577.0
 30
0.0
 11
479.467
 21
573.0
 31
0.0
  0
LINE
  5
75A
330
1E
100
AcDbEntity
  8
0
100
AcDbLine
 10
479.467
 20
577.0
 30
0.0
 11
479.524
 21
577.0
 31
0.0
  0
LINE
  5
75B
330
1E
100
AcDbEntity
  8
0
100
AcDbLine
 10
480.09
 20
577.0
 30
0.0
 11
480.09
 21
577.147
 31
0.0
  0
LINE
  5
75C
330
1E
100
AcDbEntity
  8
0
100
AcDbLine
 10
481.341
 20
577.0
 30
0.0
 11
481.822
 21
577.0
 31
0.0
  0
LINE
  5
75D
330
1E
100
AcDbEntity
  8
0
100
AcDbLine
 10
480.86
 20
577.0
 30
0.0
 11
481.341
 21
577.0
 31
0.0
  0
LINE
  5
75E
330
1E
100
AcDbEntity
  8
0
100
AcDbLine
 10
480.399
 20
577.0
 30
0.0
 11
480.86
 21
577.0
 31
0.0
  0
LINE
  5
75F
330
1E
100
AcDbEntity
  8
0
100
AcDbLine
 10
480.006
 20
577.0
 30
0.0
 11
480.399
 21
577.0
 31
0.0
  0
LINE
  5
760
330
1E
100
AcDbEntity
  8
0
100
AcDbLine
 10
479.715
 20
577.0
 30
0.0
 11
480.006
 21
577.0
 31
0.0
  0
LINE
  5
761
330
1E
100
AcDbEntity
  8
0
100
AcDbLine
 10
479.526
 20
577.0
 30
0.0
 11
479.715
 21
577.0
 31
0.0
  0
LINE
  5
762
330
1E
100
AcDbEntity
  8
0
100
AcDbLine
 10
482.584
 20
577.0
 30
0.0
 11
482.584
 21
577.147
 31
0.0
  0
LINE
  5
763
330
1E
100
AcDbEntity
  8
0
100
AcDbLine
 10
481.822
 20
577.0
 30
0.0
 11
482.269
 21
577.0
 31
0.0
  0
LINE
  5
764
330
1E
100
AcDbEntity
  8
0
100
AcDbLine
 10
482.269
 20
577.0
 30
0.0
 11
482.657
 21
577.0
 31
0.0
  0
LINE
  5
765
330
1E
100
AcDbEntity
  8
0
100
AcDbLine
 10
482.657
 20
577.0
 30
0.0
 11
482.963
 21
577.0
 31
0.0
  0
LINE
  5
766
330
1E
100
AcDbEntity
  8
0
100
AcDbLine
 10
437.416
 20
577.147
 30
0.0
 11
437.416
 21
577.0
 31
0.0
  0
LINE
  5
767
330
1E
100
AcDbEntity
  8
0
100
AcDbLine
 10
439.91
 20
577.147
 30
0.0
 11
439.91
 21
577.0
 31
0.0
  0
LINE
  5
768
330
1E
100
AcDbEntity
  8
0
100
AcDbLine
 10
439.91
 20
577.147
 30
0.0
 11
440.58
 21
577.147
 31
0.0
  0
LINE
  5
769
330
1E
100
AcDbEntity
  8
0
100
AcDbLine
 10
444.0
 20
577.147
 30
0.0
 11
444.0
 21
547.0
 31
0.0
  0
LINE
  5
76A
330
1E
100
AcDbEntity
  8
0
100
AcDbLine
 10
454.88
 20
577.147
 30
0.0
 11
460.0
 21
577.147
 31
0.0
  0
LINE
  5
76B
330
1E
100
AcDbEntity
  8
0
100
AcDbLine
 10
450.08
 20
577.147
 30
0.0
 11
454.88
 21
577.147
 31
0.0
  0
LINE
  5
76C
330
1E
100
AcDbEntity
  8
0
100
AcDbLine
 10
445.84
 20
577.147
 30
0.0
 11
450.08
 21
577.147
 31
0.0
  0
LINE
  5
76D
330
1E
100
AcDbEntity
  8
0
100
AcDbLine
 10
442.64
 20
577.147
 30
0.0
 11
445.84
 21
577.147
 31
0.0
  0
LINE
  5
76E
330
1E
100
AcDbEntity
  8
0
100
AcDbLine
 10
442.64
 20
577.147
 30
0.0
 11
444.0
 21
577.147
 31
0.0
  0
LINE
  5
76F
330
1E
100
AcDbEntity
  8
0
100
AcDbLine
 10
440.58
 20
577.147
 30
0.0
 11
442.64
 21
577.147
 31
0.0
  0
LINE
  5
770
330
1E
100
AcDbEntity
  8
0
100
AcDbLine
 10
438.78
 20
577.147
 30
0.0
 11
440.58
 21
577.147
 31
0.0
  0
LINE
  5
771
330
1E
100
AcDbEntity
  8
0
100
AcDbLine
 10
437.19
 20
577.147
 30
0.0
 11
438.78
 21
577.147
 31
0.0
  0
LINE
  5
772
330
1E
100
AcDbEntity
  8
0
100
AcDbLine
 10
437.19
 20
577.147
 30
0.0
 11
437.416
 21
577.147
 31
0.0
  0
LINE
  5
773
330
1E
100
AcDbEntity
  8
0
100
AcDbLine
 10
435.99
 20
577.147
 30
0.0
 11
437.19
 21
577.147
 31
0.0
  0
LINE
  5
774
330
1E
100
AcDbEntity
  8
0
100
AcDbLine
 10
435.27
 20
577.147
 30
0.0
 11
435.99
 21
577.147
 31
0.0
  0
LINE
  5
775
330
1E
100
AcDbEntity
  8
0
100
AcDbLine
 10
435.0
 20
577.147
 30
0.0
 11
435.27
 21
577.147
 31
0.0
  0
LINE
  5
776
330
1E
100
AcDbEntity
  8
0
100
AcDbLine
 10
435.0
 20
577.147
 30
0.0
 11
435.0
 21
582.147
 31
0.0
  0
LINE
  5
777
330
1E
100
AcDbEntity
  8
0
100
AcDbLine
 10
460.0
 20
577.147
 30
0.0
 11
465.12
 21
577.147
 31
0.0
  0
LINE
  5
778
330
1E
100
AcDbEntity
  8
0
100
AcDbLine
 10
465.12
 20
577.147
 30
0.0
 11
469.92
 21
577.147
 31
0.0
  0
LINE
  5
779
330
1E
100
AcDbEntity
  8
0
100
AcDbLine
 10
469.92
 20
577.147
 30
0.0
 11
474.16
 21
577.147
 31
0.0
  0
LINE
  5
77A
330
1E
100
AcDbEntity
  8
0
100
AcDbLine
 10
474.16
 20
577.147
 30
0.0
 11
477.36
 21
577.147
 31
0.0
  0
LINE
  5
77B
330
1E
100
AcDbEntity
  8
0
100
AcDbLine
 10
476.0
 20
577.147
 30
0.0
 11
477.36
 21
577.147
 31
0.0
  0
LINE
  5
77C
330
1E
100
AcDbEntity
  8
0
100
AcDbLine
 10
476.0
 20
577.147
 30
0.0
 11
476.0
 21
547.0
 31
0.0
  0
LINE
  5
77D
330
1E
100
AcDbEntity
  8
0
100
AcDbLine
 10
477.36
 20
577.147
 30
0.0
 11
479.42
 21
577.147
 31
0.0
  0
LINE
  5
77E
330
1E
100
AcDbEntity
  8
0
100
AcDbLine
 10
437.416
 20
582.147
 30
0.0
 11
437.416
 21
586.0
 31
0.0
  0
LINE
  5
77F
330
1E
100
AcDbEntity
  8
0
100
AcDbLine
 10
439.91
 20
582.147
 30
0.0
 11
439.91
 21
586.0
 31
0.0
  0
LINE
  5
780
330
1E
100
AcDbEntity
  8
0
100
AcDbLine
 10
444.0
 20
582.147
 30
0.0
 11
444.0
 21
586.0
 31
0.0
  0
LINE
  5
781
330
1E
100
AcDbEntity
  8
0
100
AcDbLine
 10
454.88
 20
582.147
 30
0.0
 11
460.0
 21
582.147
 31
0.0
  0
LINE
  5
782
330
1E
100
AcDbEntity
  8
0
100
AcDbLine
 10
450.08
 20
582.147
 30
0.0
 11
454.88
 21
582.147
 31
0.0
  0
LINE
  5
783
330
1E
100
AcDbEntity
  8
0
100
AcDbLine
 10
445.84
 20
582.147
 30
0.0
 11
450.08
 21
582.147
 31
0.0
  0
LINE
  5
784
330
1E
100
AcDbEntity
  8
0
100
AcDbLine
 10
442.64
 20
582.147
 30
0.0
 11
445.84
 21
582.147
 31
0.0
  0
LINE
  5
785
330
1E
100
AcDbEntity
  8
0
100
AcDbLine
 10
440.58
 20
582.147
 30
0.0
 11
442.64
 21
582.147
 31
0.0
  0
LINE
  5
786
330
1E
100
AcDbEntity
  8
0
100
AcDbLine
 10
438.78
 20
582.147
 30
0.0
 11
440.58
 21
582.147
 31
0.0
  0
LINE
  5
787
330
1E
100
AcDbEntity
  8
0
100
AcDbLine
 10
437.19
 20
582.147
 30
0.0
 11
438.78
 21
582.147
 31
0.0
  0
LINE
  5
788
330
1E
100
AcDbEntity
  8
0
100
AcDbLine
 10
435.99
 20
582.147
 30
0.0
 11
437.19
 21
582.147
 31
0.0
  0
LINE
  5
789
330
1E
100
AcDbEntity
  8
0
100
AcDbLine
 10
435.27
 20
582.147
 30
0.0
 11
435.99
 21
582.147
 31
0.0
  0
LINE
  5
78A
330
1E
100
AcDbEntity
  8
0
100
AcDbLine
 10
435.0
 20
582.147
 30
0.0
 11
435.27
 21
582.147
 31
0.0
  0
LINE
  5
78B
330
1E
100
AcDbEntity
  8
0
100
AcDbLine
 10
435.0
 20
582.147
 30
0.0
 11
435.0
 21
577.147
 31
0.0
  0
LINE
  5
78C
330
1E
100
AcDbEntity
  8
0
100
AcDbLine
 10
460.0
 20
582.147
 30
0.0
 11
465.12
 21
582.147
 31
0.0
  0
LINE
  5
78D
330
1E
100
AcDbEntity
  8
0
100
AcDbLine
 10
465.12
 20
582.147
 30
0.0
 11
469.92
 21
582.147
 31
0.0
  0
LINE
  5
78E
330
1E
100
AcDbEntity
  8
0
100
AcDbLine
 10
469.92
 20
582.147
 30
0.0
 11
474.16
 21
582.147
 31
0.0
  0
LINE
  5
78F
330
1E
100
AcDbEntity
  8
0
100
AcDbLine
 10
476.0
 20
582.147
 30
0.0
 11
476.0
 21
586.0
 31
0.0
  0
LINE
  5
790
330
1E
100
AcDbEntity
  8
0
100
AcDbLine
 10
474.16
 20
582.147
 30
0.0
 11
477.36
 21
582.147
 31
0.0
  0
LINE
  5
791
330
1E
100
AcDbEntity
  8
0
100
AcDbLine
 10
477.36
 20
582.147
 30
0.0
 11
479.42
 21
582.147
 31
0.0
  0
LINE
  5
792
330
1E
100
AcDbEntity
  8
0
100
AcDbLine
 10
479.42
 20
582.147
 30
0.0
 11
481.22
 21
582.147
 31
0.0
  0
LINE
  5
793
330
1E
100
AcDbEntity
  8
0
100
AcDbLine
 10
479.42
 20
577.147
 30
0.0
 11
480.09
 21
577.147
 31
0.0
  0
LINE
  5
794
330
1E
100
AcDbEntity
  8
0
100
AcDbLine
 10
479.42
 20
577.147
 30
0.0
 11
481.22
 21
577.147
 31
0.0
  0
LINE
  5
795
330
1E
100
AcDbEntity
  8
0
100
AcDbLine
 10
481.22
 20
582.147
 30
0.0
 11
482.81
 21
582.147
 31
0.0
  0
LINE
  5
796
330
1E
100
AcDbEntity
  8
0
100
AcDbLine
 10
481.22
 20
577.147
 30
0.0
 11
482.81
 21
577.147
 31
0.0
  0
LINE
  5
797
330
1E
100
AcDbEntity
  8
0
100
AcDbLine
 10
480.09
 20
577.147
 30
0.0
 11
480.09
 21
577.0
 31
0.0
  0
LINE
  5
798
330
1E
100
AcDbEntity
  8
0
100
AcDbLine
 10
438.3
 20
586.0
 30
0.0
 11
442.3
 21
586.0
 31
0.0
  0
LINE
  5
799
330
1E
100
AcDbEntity
  8
0
100
AcDbLine
 10
435.9
 20
586.0
 30
0.0
 11
437.416
 21
586.0
 31
0.0
  0
LINE
  5
79A
330
1E
100
AcDbEntity
  8
0
100
AcDbLine
 10
435.9
 20
586.0
 30
0.0
 11
438.3
 21
586.0
 31
0.0
  0
LINE
  5
79B
330
1E
100
AcDbEntity
  8
0
100
AcDbLine
 10
435.0
 20
586.0
 30
0.0
 11
435.9
 21
586.0
 31
0.0
  0
LINE
  5
79C
330
1E
100
AcDbEntity
  8
0
100
AcDbLine
 10
435.0
 20
586.0
 30
0.0
 11
435.0
 21
588.0
 31
0.0
  0
LINE
  5
79D
330
1E
100
AcDbEntity
  8
0
100
AcDbLine
 10
444.0
 20
586.0
 30
0.0
 11
444.0
 21
582.147
 31
0.0
  0
LINE
  5
79E
330
1E
100
AcDbEntity
  8
0
100
AcDbLine
 10
453.6
 20
586.0
 30
0.0
 11
460.0
 21
586.0
 31
0.0
  0
LINE
  5
79F
330
1E
100
AcDbEntity
  8
0
100
AcDbLine
 10
447.6
 20
586.0
 30
0.0
 11
453.6
 21
586.0
 31
0.0
  0
LINE
  5
7A0
330
1E
100
AcDbEntity
  8
0
100
AcDbLine
 10
460.0
 20
586.0
 30
0.0
 11
466.4
 21
586.0
 31
0.0
  0
LINE
  5
7A1
330
1E
100
AcDbEntity
  8
0
100
AcDbLine
 10
466.4
 20
586.0
 30
0.0
 11
472.4
 21
586.0
 31
0.0
  0
LINE
  5
7A2
330
1E
100
AcDbEntity
  8
0
100
AcDbLine
 10
472.4
 20
586.0
 30
0.0
 11
477.7
 21
586.0
 31
0.0
  0
LINE
  5
7A3
330
1E
100
AcDbEntity
  8
0
100
AcDbLine
 10
476.0
 20
586.0
 30
0.0
 11
477.7
 21
586.0
 31
0.0
  0
LINE
  5
7A4
330
1E
100
AcDbEntity
  8
0
100
AcDbLine
 10
476.0
 20
586.0
 30
0.0
 11
476.0
 21
582.147
 31
0.0
  0
LINE
  5
7A5
330
1E
100
AcDbEntity
  8
0
100
AcDbLine
 10
477.7
 20
586.0
 30
0.0
 11
480.09
 21
586.0
 31
0.0
  0
LINE
  5
7A6
330
1E
100
AcDbEntity
  8
0
100
AcDbLine
 10
477.7
 20
586.0
 30
0.0
 11
481.7
 21
586.0
 31
0.0
  0
LINE
  5
7A7
330
1E
100
AcDbEntity
  8
0
100
AcDbLine
 10
442.3
 20
586.0
 30
0.0
 11
444.0
 21
586.0
 31
0.0
  0
LINE
  5
7A8
330
1E
100
AcDbEntity
  8
0
100
AcDbLine
 10
442.3
 20
586.0
 30
0.0
 11
447.6
 21
586.0
 31
0.0
  0
LINE
  5
7A9
330
1E
100
AcDbEntity
  8
0
100
AcDbLine
 10
439.91
 20
586.0
 30
0.0
 11
439.91
 21
582.147
 31
0.0
  0
LINE
  5
7AA
330
1E
100
AcDbEntity
  8
0
100
AcDbLine
 10
439.91
 20
586.0
 30
0.0
 11
442.3
 21
586.0
 31
0.0
  0
LINE
  5
7AB
330
1E
100
AcDbEntity
  8
0
100
AcDbLine
 10
437.416
 20
586.0
 30
0.0
 11
437.416
 21
582.147
 31
0.0
  0
LINE
  5
7AC
330
1E
100
AcDbEntity
  8
0
100
AcDbLine
 10
481.7
 20
586.0
 30
0.0
 11
484.1
 21
586.0
 31
0.0
  0
LINE
  5
7AD
330
1E
100
AcDbEntity
  8
0
100
AcDbLine
 10
480.09
 20
586.0
 30
0.0
 11
480.09
 21
582.147
 31
0.0
  0
LINE
  5
7AE
330
1E
100
AcDbEntity
  8
0
100
AcDbLine
 10
480.09
 20
582.147
 30
0.0
 11
480.09
 21
586.0
 31
0.0
  0
LINE
  5
7AF
330
1E
100
AcDbEntity
  8
0
100
AcDbLine
 10
482.584
 20
577.147
 30
0.0
 11
482.584
 21
577.0
 31
0.0
  0
LINE
  5
7B0
330
1E
100
AcDbEntity
  8
0
100
AcDbLine
 10
482.584
 20
577.147
 30
0.0
 11
482.81
 21
577.147
 31
0.0
  0
LINE
  5
7B1
330
1E
100
AcDbEntity
  8
0
100
AcDbLine
 10
444.0
 20
588.0
 30
0.0
 11
444.0
 21
597.0
 31
0.0
  0
LINE
  5
7B2
330
1E
100
AcDbEntity
  8
0
100
AcDbLine
 10
453.6
 20
588.0
 30
0.0
 11
460.0
 21
588.0
 31
0.0
  0
LINE
  5
7B3
330
1E
100
AcDbEntity
  8
0
100
AcDbLine
 10
447.6
 20
588.0
 30
0.0
 11
453.6
 21
588.0
 31
0.0
  0
LINE
  5
7B4
330
1E
100
AcDbEntity
  8
0
100
AcDbLine
 10
442.3
 20
588.0
 30
0.0
 11
447.6
 21
588.0
 31
0.0
  0
LINE
  5
7B5
330
1E
100
AcDbEntity
  8
0
100
AcDbLine
 10
438.3
 20
588.0
 30
0.0
 11
442.3
 21
588.0
 31
0.0
  0
LINE
  5
7B6
330
1E
100
AcDbEntity
  8
0
100
AcDbLine
 10
435.9
 20
588.0
 30
0.0
 11
438.3
 21
588.0
 31
0.0
  0
LINE
  5
7B7
330
1E
100
AcDbEntity
  8
0
100
AcDbLine
 10
460.0
 20
588.0
 30
0.0
 11
466.4
 21
588.0
 31
0.0
  0
LINE
  5
7B8
330
1E
100
AcDbEntity
  8
0
100
AcDbLine
 10
476.0
 20
588.0
 30
0.0
 11
476.0
 21
597.0
 31
0.0
  0
LINE
  5
7B9
330
1E
100
AcDbEntity
  8
0
100
AcDbLine
 10
466.4
 20
588.0
 30
0.0
 11
472.4
 21
588.0
 31
0.0
  0
LINE
  5
7BA
330
1E
100
AcDbEntity
  8
0
100
AcDbLine
 10
472.4
 20
588.0
 30
0.0
 11
477.7
 21
588.0
 31
0.0
  0
LINE
  5
7BB
330
1E
100
AcDbEntity
  8
0
100
AcDbLine
 10
477.7
 20
588.0
 30
0.0
 11
481.7
 21
588.0
 31
0.0
  0
LINE
  5
7BC
330
1E
100
AcDbEntity
  8
0
100
AcDbLine
 10
481.7
 20
588.0
 30
0.0
 11
484.1
 21
588.0
 31
0.0
  0
LINE
  5
7BD
330
1E
100
AcDbEntity
  8
0
100
AcDbLine
 10
435.0
 20
588.0
 30
0.0
 11
435.0
 21
586.0
 31
0.0
  0
LINE
  5
7BE
330
1E
100
AcDbEntity
  8
0
100
AcDbLine
 10
435.0
 20
588.0
 30
0.0
 11
435.9
 21
588.0
 31
0.0
  0
LINE
  5
7BF
330
1E
100
AcDbEntity
  8
0
100
AcDbLine
 10
482.584
 20
586.0
 30
0.0
 11
482.584
 21
582.147
 31
0.0
  0
LINE
  5
7C0
330
1E
100
AcDbEntity
  8
0
100
AcDbLine
 10
482.584
 20
586.0
 30
0.0
 11
484.1
 21
586.0
 31
0.0
  0
LINE
  5
7C1
330
1E
100
AcDbEntity
  8
0
100
AcDbLine
 10
482.81
 20
582.147
 30
0.0
 11
484.01
 21
582.147
 31
0.0
  0
LINE
  5
7C2
330
1E
100
AcDbEntity
  8
0
100
AcDbLine
 10
482.81
 20
577.147
 30
0.0
 11
484.01
 21
577.147
 31
0.0
  0
LINE
  5
7C3
330
1E
100
AcDbEntity
  8
0
100
AcDbLine
 10
482.584
 20
582.147
 30
0.0
 11
482.584
 21
586.0
 31
0.0
  0
LINE
  5
7C4
330
1E
100
AcDbEntity
  8
0
100
AcDbLine
 10
482.963
 20
577.0
 30
0.0
 11
483.15
 21
577.0
 31
0.0
  0
LINE
  5
7C5
330
1E
100
AcDbEntity
  8
0
100
AcDbLine
 10
484.1
 20
588.0
 30
0.0
 11
485.0
 21
588.0
 31
0.0
  0
LINE
  5
7C6
330
1E
100
AcDbEntity
  8
0
100
AcDbLine
 10
484.1
 20
586.0
 30
0.0
 11
485.0
 21
586.0
 31
0.0
  0
LINE
  5
7C7
330
1E
100
AcDbEntity
  8
0
100
AcDbLine
 10
484.01
 20
582.147
 30
0.0
 11
484.73
 21
582.147
 31
0.0
  0
LINE
  5
7C8
330
1E
100
AcDbEntity
  8
0
100
AcDbLine
 10
484.73
 20
582.147
 30
0.0
 11
485.0
 21
582.147
 31
0.0
  0
LINE
  5
7C9
330
1E
100
AcDbEntity
  8
0
100
AcDbLine
 10
484.01
 20
577.147
 30
0.0
 11
484.73
 21
577.147
 31
0.0
  0
LINE
  5
7CA
330
1E
100
AcDbEntity
  8
0
100
AcDbLine
 10
485.0
 20
588.0
 30
0.0
 11
485.0
 21
586.0
 31
0.0
  0
LINE
  5
7CB
330
1E
100
AcDbEntity
  8
0
100
AcDbLine
 10
485.0
 20
586.0
 30
0.0
 11
485.0
 21
588.0
 31
0.0
  0
LINE
  5
7CC
330
1E
100
AcDbEntity
  8
0
100
AcDbLine
 10
485.0
 20
582.147
 30
0.0
 11
485.0
 21
577.147
 31
0.0
  0
LINE
  5
7CD
330
1E
100
AcDbEntity
  8
0
100
AcDbLine
 10
485.0
 20
577.147
 30
0.0
 11
485.0
 21
582.147
 31
0.0
  0
LINE
  5
7CE
330
1E
100
AcDbEntity
  8
0
100
AcDbLine
 10
484.73
 20
577.147
 30
0.0
 11
485.0
 21
577.147
 31
0.0
  0
LINE
  5
7CF
330
1E
100
AcDbEntity
  8
0
100
AcDbLine
 10
483.207
 20
577.0
 30
0.0
 11
483.207
 21
573.0
 31
0.0
  0
LINE
  5
7D0
330
1E
100
AcDbEntity
  8
0
100
AcDbLine
 10
483.15
 20
577.0
 30
0.0
 11
483.207
 21
577.0
 31
0.0
  0
LINE
  5
7D1
330
1E
100
AcDbEntity
  8
0
100
AcDbLine
 10
483.148
 20
573.0
 30
0.0
 11
483.207
 21
573.0
 31
0.0
  0
LINE
  5
7D2
330
1E
100
AcDbEntity
  8
0
100
AcDbLine
 10
381.039
 20
596.462
 30
0.0
 11
381.039
 21
597.538
 31
0.0
  0
LINE
  5
7D3
330
1E
100
AcDbEntity
  8
0
100
AcDbLine
 10
376.129
 20
600.0
 30
0.0
 11
379.11
 21
600.0
 31
0.0
  0
LINE
  5
7D4
330
1E
100
AcDbEntity
  8
0
100
AcDbLine
 10
376.743
 20
599.538
 30
0.0
 11
379.899
 21
599.538
 31
0.0
  0
LINE
  5
7D5
330
1E
100
AcDbEntity
  8
0
100
AcDbLine
 10
376.743
 20
598.462
 30
0.0
 11
379.899
 21
598.462
 31
0.0
  0
LINE
  5
7D6
330
1E
100
AcDbEntity
  8
0
100
AcDbLine
 10
376.129
 20
598.0
 30
0.0
 11
376.743
 21
597.538
 31
0.0
  0
LINE
  5
7D7
330
1E
100
AcDbEntity
  8
0
100
AcDbLine
 10
376.129
 20
598.0
 30
0.0
 11
379.11
 21
598.0
 31
0.0
  0
LINE
  5
7D8
330
1E
100
AcDbEntity
  8
0
100
AcDbLine
 10
441.592
 20
597.0
 30
0.0
 11
444.0
 21
597.0
 31
0.0
  0
LINE
  5
7D9
330
1E
100
AcDbEntity
  8
0
100
AcDbLine
 10
441.592
 20
597.0
 30
0.0
 11
447.104
 21
597.0
 31
0.0
  0
LINE
  5
7DA
330
1E
100
AcDbEntity
  8
0
100
AcDbLine
 10
437.432
 20
597.0
 30
0.0
 11
441.592
 21
597.0
 31
0.0
  0
LINE
  5
7DB
330
1E
100
AcDbEntity
  8
0
100
AcDbLine
 10
434.936
 20
597.0
 30
0.0
 11
437.432
 21
597.0
 31
0.0
  0
LINE
  5
7DC
330
1E
100
AcDbEntity
  8
0
100
AcDbLine
 10
434.0
 20
597.0
 30
0.0
 11
434.0
 21
598.0
 31
0.0
  0
LINE
  5
7DD
330
1E
100
AcDbEntity
  8
0
100
AcDbLine
 10
434.0
 20
597.0
 30
0.0
 11
434.936
 21
597.0
 31
0.0
  0
LINE
  5
7DE
330
1E
100
AcDbEntity
  8
0
100
AcDbLine
 10
447.104
 20
597.0
 30
0.0
 11
453.344
 21
597.0
 31
0.0
  0
LINE
  5
7DF
330
1E
100
AcDbEntity
  8
0
100
AcDbLine
 10
453.344
 20
597.0
 30
0.0
 11
460.0
 21
597.0
 31
0.0
  0
LINE
  5
7E0
330
1E
100
AcDbEntity
  8
0
100
AcDbLine
 10
455.904
 20
597.0
 30
0.0
 11
460.0
 21
597.0
 31
0.0
  0
LINE
  5
7E1
330
1E
100
AcDbEntity
  8
0
100
AcDbLine
 10
452.064
 20
597.0
 30
0.0
 11
455.904
 21
597.0
 31
0.0
  0
LINE
  5
7E2
330
1E
100
AcDbEntity
  8
0
100
AcDbLine
 10
448.672
 20
597.0
 30
0.0
 11
452.064
 21
597.0
 31
0.0
  0
LINE
  5
7E3
330
1E
100
AcDbEntity
  8
0
100
AcDbLine
 10
446.112
 20
597.0
 30
0.0
 11
448.672
 21
597.0
 31
0.0
  0
LINE
  5
7E4
330
1E
100
AcDbEntity
  8
0
100
AcDbLine
 10
444.576
 20
597.0
 30
0.0
 11
446.112
 21
597.0
 31
0.0
  0
LINE
  5
7E5
330
1E
100
AcDbEntity
  8
0
100
AcDbLine
 10
460.0
 20
597.0
 30
0.0
 11
464.096
 21
597.0
 31
0.0
  0
LINE
  5
7E6
330
1E
100
AcDbEntity
  8
0
100
AcDbLine
 10
460.0
 20
597.0
 30
0.0
 11
466.656
 21
597.0
 31
0.0
  0
LINE
  5
7E7
330
1E
100
AcDbEntity
  8
0
100
AcDbLine
 10
466.656
 20
597.0
 30
0.0
 11
472.896
 21
597.0
 31
0.0
  0
LINE
  5
7E8
330
1E
100
AcDbEntity
  8
0
100
AcDbLine
 10
464.096
 20
597.0
 30
0.0
 11
467.936
 21
597.0
 31
0.0
  0
LINE
  5
7E9
330
1E
100
AcDbEntity
  8
0
100
AcDbLine
 10
467.936
 20
597.0
 30
0.0
 11
471.328
 21
597.0
 31
0.0
  0
LINE
  5
7EA
330
1E
100
AcDbEntity
  8
0
100
AcDbLine
 10
472.896
 20
597.0
 30
0.0
 11
478.408
 21
597.0
 31
0.0
  0
LINE
  5
7EB
330
1E
100
AcDbEntity
  8
0
100
AcDbLine
 10
471.328
 20
597.0
 30
0.0
 11
473.888
 21
597.0
 31
0.0
  0
LINE
  5
7EC
330
1E
100
AcDbEntity
  8
0
100
AcDbLine
 10
473.888
 20
597.0
 30
0.0
 11
475.424
 21
597.0
 31
0.0
  0
LINE
  5
7ED
330
1E
100
AcDbEntity
  8
0
100
AcDbLine
 10
478.408
 20
597.0
 30
0.0
 11
482.568
 21
597.0
 31
0.0
  0
LINE
  5
7EE
330
1E
100
AcDbEntity
  8
0
100
AcDbLine
 10
482.568
 20
597.0
 30
0.0
 11
485.064
 21
597.0
 31
0.0
  0
LINE
  5
7EF
330
1E
100
AcDbEntity
  8
0
100
AcDbLine
 10
486.0
 20
597.0
 30
0.0
 11
486.0
 21
598.0
 31
0.0
  0
LINE
  5
7F0
330
1E
100
AcDbEntity
  8
0
100
AcDbLine
 10
485.064
 20
597.0
 30
0.0
 11
486.0
 21
597.0
 31
0.0
  0
LINE
  5
7F1
330
1E
100
AcDbEntity
  8
0
100
AcDbLine
 10
476.0
 20
597.0
 30
0.0
 11
476.0
 21
588.0
 31
0.0
  0
LINE
  5
7F2
330
1E
100
AcDbEntity
  8
0
100
AcDbLine
 10
476.0
 20
597.0
 30
0.0
 11
478.408
 21
597.0
 31
0.0
  0
LINE
  5
7F3
330
1E
100
AcDbEntity
  8
0
100
AcDbLine
 10
475.424
 20
597.0
 30
0.0
 11
476.0
 21
597.0
 31
0.0
  0
LINE
  5
7F4
330
1E
100
AcDbEntity
  8
0
100
AcDbLine
 10
444.0
 20
597.0
 30
0.0
 11
444.0
 21
588.0
 31
0.0
  0
LINE
  5
7F5
330
1E
100
AcDbEntity
  8
0
100
AcDbLine
 10
444.0
 20
597.0
 30
0.0
 11
444.576
 21
597.0
 31
0.0
  0
LINE
  5
7F6
330
1E
100
AcDbEntity
  8
0
100
AcDbLine
 10
381.039
 20
597.538
 30
0.0
 11
381.039
 21
596.462
 31
0.0
  0
LINE
  5
7F7
330
1E
100
AcDbEntity
  8
0
100
AcDbLine
 10
379.11
 20
600.0
 30
0.0
 11
380.162
 21
600.0
 31
0.0
  0
LINE
  5
7F8
330
1E
100
AcDbEntity
  8
0
100
AcDbLine
 10
453.344
 20
598.0
 30
0.0
 11
460.0
 21
598.0
 31
0.0
  0
LINE
  5
7F9
330
1E
100
AcDbEntity
  8
0
100
AcDbLine
 10
447.104
 20
598.0
 30
0.0
 11
453.344
 21
598.0
 31
0.0
  0
LINE
  5
7FA
330
1E
100
AcDbEntity
  8
0
100
AcDbLine
 10
441.592
 20
598.0
 30
0.0
 11
447.104
 21
598.0
 31
0.0
  0
LINE
  5
7FB
330
1E
100
AcDbEntity
  8
0
100
AcDbLine
 10
437.432
 20
598.0
 30
0.0
 11
441.592
 21
598.0
 31
0.0
  0
LINE
  5
7FC
330
1E
100
AcDbEntity
  8
0
100
AcDbLine
 10
434.936
 20
598.0
 30
0.0
 11
437.432
 21
598.0
 31
0.0
  0
LINE
  5
7FD
330
1E
100
AcDbEntity
  8
0
100
AcDbLine
 10
434.0
 20
598.0
 30
0.0
 11
434.936
 21
598.0
 31
0.0
  0
LINE
  5
7FE
330
1E
100
AcDbEntity
  8
0
100
AcDbLine
 10
434.0
 20
598.0
 30
0.0
 11
434.0
 21
597.0
 31
0.0
  0
LINE
  5
7FF
330
1E
100
AcDbEntity
  8
0
100
AcDbLine
 10
460.0
 20
598.0
 30
0.0
 11
466.656
 21
598.0
 31
0.0
  0
LINE
  5
800
330
1E
100
AcDbEntity
  8
0
100
AcDbLine
 10
466.656
 20
598.0
 30
0.0
 11
472.896
 21
598.0
 31
0.0
  0
LINE
  5
801
330
1E
100
AcDbEntity
  8
0
100
AcDbLine
 10
472.896
 20
598.0
 30
0.0
 11
478.408
 21
598.0
 31
0.0
  0
LINE
  5
802
330
1E
100
AcDbEntity
  8
0
100
AcDbLine
 10
478.408
 20
598.0
 30
0.0
 11
482.568
 21
598.0
 31
0.0
  0
LINE
  5
803
330
1E
100
AcDbEntity
  8
0
100
AcDbLine
 10
482.568
 20
598.0
 30
0.0
 11
485.064
 21
598.0
 31
0.0
  0
LINE
  5
804
330
1E
100
AcDbEntity
  8
0
100
AcDbLine
 10
435.0
 20
598.0
 30
0.0
 11
435.0
 21
600.0
 31
0.0
  0
LINE
  5
805
330
1E
100
AcDbEntity
  8
0
100
AcDbLine
 10
485.064
 20
598.0
 30
0.0
 11
486.0
 21
598.0
 31
0.0
  0
LINE
  5
806
330
1E
100
AcDbEntity
  8
0
100
AcDbLine
 10
486.0
 20
598.0
 30
0.0
 11
486.0
 21
597.0
 31
0.0
  0
LINE
  5
807
330
1E
100
AcDbEntity
  8
0
100
AcDbLine
 10
485.0
 20
598.0
 30
0.0
 11
485.0
 21
600.0
 31
0.0
  0
LINE
  5
808
330
1E
100
AcDbEntity
  8
0
100
AcDbLine
 10
380.162
 20
600.0
 30
0.0
 11
381.039
 21
599.538
 31
0.0
  0
LINE
  5
809
330
1E
100
AcDbEntity
  8
0
100
AcDbLine
 10
381.039
 20
599.538
 30
0.0
 11
381.039
 21
598.462
 31
0.0
  0
LINE
  5
80A
330
1E
100
AcDbEntity
  8
0
100
AcDbLine
 10
379.899
 20
599.538
 30
0.0
 11
381.039
 21
599.538
 31
0.0
  0
LINE
  5
80B
330
1E
100
AcDbEntity
  8
0
100
AcDbLine
 10
379.899
 20
598.462
 30
0.0
 11
381.039
 21
598.462
 31
0.0
  0
LINE
  5
80C
330
1E
100
AcDbEntity
  8
0
100
AcDbLine
 10
453.6
 20
600.0
 30
0.0
 11
460.0
 21
600.0
 31
0.0
  0
LINE
  5
80D
330
1E
100
AcDbEntity
  8
0
100
AcDbLine
 10
447.6
 20
600.0
 30
0.0
 11
453.6
 21
600.0
 31
0.0
  0
LINE
  5
80E
330
1E
100
AcDbEntity
  8
0
100
AcDbLine
 10
442.3
 20
600.0
 30
0.0
 11
447.6
 21
600.0
 31
0.0
  0
LINE
  5
80F
330
1E
100
AcDbEntity
  8
0
100
AcDbLine
 10
438.3
 20
600.0
 30
0.0
 11
442.3
 21
600.0
 31
0.0
  0
LINE
  5
810
330
1E
100
AcDbEntity
  8
0
100
AcDbLine
 10
435.9
 20
600.0
 30
0.0
 11
438.3
 21
600.0
 31
0.0
  0
LINE
  5
811
330
1E
100
AcDbEntity
  8
0
100
AcDbLine
 10
460.0
 20
600.0
 30
0.0
 11
466.4
 21
600.0
 31
0.0
  0
LINE
  5
812
330
1E
100
AcDbEntity
  8
0
100
AcDbLine
 10
466.4
 20
600.0
 30
0.0
 11
472.4
 21
600.0
 31
0.0
  0
LINE
  5
813
330
1E
100
AcDbEntity
  8
0
100
AcDbLine
 10
472.4
 20
600.0
 30
0.0
 11
477.7
 21
600.0
 31
0.0
  0
LINE
  5
814
330
1E
100
AcDbEntity
  8
0
100
AcDbLine
 10
477.7
 20
600.0
 30
0.0
 11
481.7
 21
600.0
 31
0.0
  0
LINE
  5
815
330
1E
100
AcDbEntity
  8
0
100
AcDbLine
 10
481.7
 20
600.0
 30
0.0
 11
484.1
 21
600.0
 31
0.0
  0
LINE
  5
816
330
1E
100
AcDbEntity
  8
0
100
AcDbLine
 10
485.0
 20
600.0
 30
0.0
 11
485.0
 21
598.0
 31
0.0
  0
LINE
  5
817
330
1E
100
AcDbEntity
  8
0
100
AcDbLine
 10
484.1
 20
600.0
 30
0.0
 11
485.0
 21
600.0
 31
0.0
  0
LINE
  5
818
330
1E
100
AcDbEntity
  8
0
100
AcDbLine
 10
435.0
 20
600.0
 30
0.0
 11
435.0
 21
598.0
 31
0.0
  0
LINE
  5
819
330
1E
100
AcDbEntity
  8
0
100
AcDbLine
 10
435.0
 20
600.0
 30
0.0
 11
435.9
 21
600.0
 31
0.0
  0
LINE
  5
81A
330
1E
100
AcDbEntity
  8
0
100
AcDbLine
 10
381.039
 20
598.462
 30
0.0
 11
381.039
 21
599.538
 31
0.0
  0
LINE
  5
81B
330
1E
100
AcDbEntity
  8
0
100
AcDbLine
 10
380.162
 20
598.0
 30
0.0
 11
381.039
 21
597.538
 31
0.0
  0
LINE
  5
81C
330
1E
100
AcDbEntity
  8
0
100
AcDbLine
 10
380.162
 20
598.0
 30
0.0
 11
381.039
 21
598.462
 31
0.0
  0
LINE
  5
81D
330
1E
100
AcDbEntity
  8
0
100
AcDbLine
 10
379.11
 20
598.0
 30
0.0
 11
379.899
 21
597.538
 31
0.0
  0
LINE
  5
81E
330
1E
100
AcDbEntity
  8
0
100
AcDbLine
 10
379.11
 20
598.0
 30
0.0
 11
380.162
 21
598.0
 31
0.0
  0
LINE
  5
81F
330
1E
100
AcDbEntity
  8
0
100
AcDbLine
 10
379.899
 20
597.538
 30
0.0
 11
381.039
 21
597.538
 31
0.0
  0
LINE
  5
820
330
1E
100
AcDbEntity
  8
0
100
AcDbLine
 10
376.743
 20
597.538
 30
0.0
 11
379.899
 21
597.538
 31
0.0
  0
LINE
  5
821
330
1E
100
AcDbEntity
  8
0
100
AcDbLine
 10
376.743
 20
596.462
 30
0.0
 11
379.899
 21
596.462
 31
0.0
  0
LINE
  5
822
330
1E
100
AcDbEntity
  8
0
100
AcDbLine
 10
371.92
 20
596.462
 30
0.0
 11
376.743
 21
596.462
 31
0.0
  0
LINE
  5
823
330
1E
100
AcDbEntity
  8
0
100
AcDbLine
 10
370.025
 20
604.76
 30
0.0
 11
370.025
 21
600.0
 31
0.0
  0
LINE
  5
824
330
1E
100
AcDbEntity
  8
0
100
AcDbLine
 10
369.29
 20
604.76
 30
0.0
 11
370.025
 21
604.76
 31
0.0
  0
LINE
  5
825
330
1E
100
AcDbEntity
  8
0
100
AcDbLine
 10
370.025
 20
600.0
 30
0.0
 11
370.025
 21
604.76
 31
0.0
  0
LINE
  5
826
330
1E
100
AcDbEntity
  8
0
100
AcDbLine
 10
367.253
 20
604.76
 30
0.0
 11
369.29
 21
604.76
 31
0.0
  0
LINE
  5
827
330
1E
100
AcDbEntity
  8
0
100
AcDbLine
 10
359.73
 20
605.0
 30
0.0
 11
363.803
 21
605.0
 31
0.0
  0
LINE
  5
828
330
1E
100
AcDbEntity
  8
0
100
AcDbLine
 10
369.46
 20
605.0
 30
0.0
 11
370.025
 21
604.76
 31
0.0
  0
LINE
  5
829
330
1E
100
AcDbEntity
  8
0
100
AcDbLine
 10
366.857
 20
605.0
 30
0.0
 11
368.781
 21
605.0
 31
0.0
  0
LINE
  5
82A
330
1E
100
AcDbEntity
  8
0
100
AcDbLine
 10
363.803
 20
605.0
 30
0.0
 11
366.857
 21
605.0
 31
0.0
  0
LINE
  5
82B
330
1E
100
AcDbEntity
  8
0
100
AcDbLine
 10
364.142
 20
604.76
 30
0.0
 11
367.253
 21
604.76
 31
0.0
  0
LINE
  5
82C
330
1E
100
AcDbEntity
  8
0
100
AcDbLine
 10
356.008
 20
605.0
 30
0.0
 11
356.008
 21
618.327
 31
0.0
  0
LINE
  5
82D
330
1E
100
AcDbEntity
  8
0
100
AcDbLine
 10
355.634
 20
632.0
 30
0.0
 11
355.838
 21
632.0
 31
0.0
  0
LINE
  5
82E
330
1E
100
AcDbEntity
  8
0
100
AcDbLine
 10
355.838
 20
632.0
 30
0.0
 11
356.008
 21
632.58
 31
0.0
  0
LINE
  5
82F
330
1E
100
AcDbEntity
  8
0
100
AcDbLine
 10
355.057
 20
632.0
 30
0.0
 11
355.634
 21
632.0
 31
0.0
  0
LINE
  5
830
330
1E
100
AcDbEntity
  8
0
100
AcDbLine
 10
354.141
 20
632.0
 30
0.0
 11
355.057
 21
632.0
 31
0.0
  0
LINE
  5
831
330
1E
100
AcDbEntity
  8
0
100
AcDbLine
 10
354.005
 20
619.0
 30
0.0
 11
354.005
 21
632.0
 31
0.0
  0
LINE
  5
832
330
1E
100
AcDbEntity
  8
0
100
AcDbLine
 10
353.858
 20
632.0
 30
0.0
 11
354.005
 21
632.0
 31
0.0
  0
LINE
  5
833
330
1E
100
AcDbEntity
  8
0
100
AcDbLine
 10
354.005
 20
632.0
 30
0.0
 11
354.005
 21
619.0
 31
0.0
  0
LINE
  5
834
330
1E
100
AcDbEntity
  8
0
100
AcDbLine
 10
354.005
 20
632.0
 30
0.0
 11
354.141
 21
632.0
 31
0.0
  0
LINE
  5
835
330
1E
100
AcDbEntity
  8
0
100
AcDbLine
 10
353.451
 20
632.0
 30
0.0
 11
353.858
 21
632.0
 31
0.0
  0
LINE
  5
836
330
1E
100
AcDbEntity
  8
0
100
AcDbLine
 10
352.828
 20
632.0
 30
0.0
 11
353.451
 21
632.0
 31
0.0
  0
LINE
  5
837
330
1E
100
AcDbEntity
  8
0
100
AcDbLine
 10
346.549
 20
632.0
 30
0.0
 11
347.172
 21
632.0
 31
0.0
  0
LINE
  5
838
330
1E
100
AcDbEntity
  8
0
100
AcDbLine
 10
347.081
 20
642.0
 30
0.0
 11
348.473
 21
642.0
 31
0.0
  0
LINE
  5
839
330
1E
100
AcDbEntity
  8
0
100
AcDbLine
 10
348.473
 20
642.0
 30
0.0
 11
350.0
 21
642.0
 31
0.0
  0
LINE
  5
83A
330
1E
100
AcDbEntity
  8
0
100
AcDbLine
 10
350.0
 20
642.0
 30
0.0
 11
351.527
 21
642.0
 31
0.0
  0
LINE
  5
83B
330
1E
100
AcDbEntity
  8
0
100
AcDbLine
 10
351.527
 20
642.0
 30
0.0
 11
352.919
 21
642.0
 31
0.0
  0
LINE
  5
83C
330
1E
100
AcDbEntity
  8
0
100
AcDbLine
 10
352.919
 20
642.0
 30
0.0
 11
354.141
 21
642.0
 31
0.0
  0
LINE
  5
83D
330
1E
100
AcDbEntity
  8
0
100
AcDbLine
 10
355.634
 20
642.0
 30
0.0
 11
355.838
 21
642.0
 31
0.0
  0
LINE
  5
83E
330
1E
100
AcDbEntity
  8
0
100
AcDbLine
 10
355.838
 20
642.0
 30
0.0
 11
356.008
 21
641.42
 31
0.0
  0
LINE
  5
83F
330
1E
100
AcDbEntity
  8
0
100
AcDbLine
 10
355.057
 20
642.0
 30
0.0
 11
355.634
 21
642.0
 31
0.0
  0
LINE
  5
840
330
1E
100
AcDbEntity
  8
0
100
AcDbLine
 10
354.141
 20
642.0
 30
0.0
 11
355.057
 21
642.0
 31
0.0
  0
LINE
  5
841
330
1E
100
AcDbEntity
  8
0
100
AcDbLine
 10
356.008
 20
641.42
 30
0.0
 11
356.008
 21
632.58
 31
0.0
  0
LINE
  5
842
330
1E
100
AcDbEntity
  8
0
100
AcDbLine
 10
356.008
 20
632.58
 30
0.0
 11
356.008
 21
641.42
 31
0.0
  0
LINE
  5
843
330
1E
100
AcDbEntity
  8
0
100
AcDbLine
 10
346.142
 20
632.0
 30
0.0
 11
346.549
 21
632.0
 31
0.0
  0
LINE
  5
844
330
1E
100
AcDbEntity
  8
0
100
AcDbLine
 10
345.995
 20
632.0
 30
0.0
 11
345.995
 21
619.0
 31
0.0
  0
LINE
  5
845
330
1E
100
AcDbEntity
  8
0
100
AcDbLine
 10
345.995
 20
632.0
 30
0.0
 11
346.142
 21
632.0
 31
0.0
  0
LINE
  5
846
330
1E
100
AcDbEntity
  8
0
100
AcDbLine
 10
449.0
 20
547.0
 30
0.0
 11
449.0
 21
541.708
 31
0.0
  0
LINE
  5
849
330
1E
100
AcDbEntity
  8
0
100
AcDbLine
 10
280.952
 20
525.0
 30
0.0
 11
281.0
 21
525.211
 31
0.0
  0
LINE
  5
84A
330
1E
100
AcDbEntity
  8
0
100
AcDbLine
 10
280.886
 20
525.0
 30
0.0
 11
280.952
 21
525.0
 31
0.0
  0
ENDSEC
  0
SECTION
  2
OBJECTS
  0
DICTIONARY
  5
C
330
0
100
AcDbDictionary
281
     1
  3
ACAD_GROUP
350
D
  3
ACAD_LAYOUT
350
19
  3
ACAD_MLEADERSTYLE
350
87A
  3
ACAD_MLINESTYLE
350
16
  3
ACAD_PLOTSETTINGS
350
18
  3
ACAD_PLOTSTYLENAME
350
E
  3
ACAD_SCALELIST
350
856
  3
AcDbVariableDictionary
350
852
  3
DWGPROPS
350
87D
  0
DICTIONARY
  5
D
102
{ACAD_REACTORS
330
C
102
}
330
C
100
AcDbDictionary
281
     1
  0
DICTIONARY
  5
19
102
{ACAD_REACTORS
330
C
102
}
330
C
100
AcDbDictionary
281
     1
  3
Layout1
350
1D
  3
Model
350
21
  0
DICTIONARY
  5
87A
102
{ACAD_REACTORS
330
C
102
}
330
C
100
AcDbDictionary
281
     1
  0
DICTIONARY
  5
16
102
{ACAD_REACTORS
330
C
102
}
330
C
100
AcDbDictionary
281
     1
  3
Standard
350
17
  0
DICTIONARY
  5
18
102
{ACAD_REACTORS
330
C
102
}
330
C
100
AcDbDictionary
281
     1
  0
ACDBDICTIONARYWDFLT
  5
E
102
{ACAD_REACTORS
330
C
102
}
330
C
100
AcDbDictionary
281
     1
  3
Normal
350
F
100
AcDbDictionaryWithDefault
340
F
  0
DICTIONARY
  5
856
102
{ACAD_REACTORS
330
C
102
}
330
C
100
AcDbDictionary
281
     1
  3
A0
350
857
  3
A1
350
858
  3
A2
350
859
  3
A3
350
85A
  3
A4
350
85B
  3
A5
350
85C
  3
A6
350
85D
  3
A7
350
85E
  3
A8
350
85F
  3
A9
350
860
  3
B0
350
861
  3
B1
350
862
  3
B2
350
863
  3
B3
350
864
  3
B4
350
865
  3
B5
350
866
  3
B6
350
867
  3
B7
350
868
  3
B8
350
869
  3
B9
350
86A
  3
C0
350
86B
  3
C1
350
86C
  3
C2
350
86D
  3
C3
350
86E
  3
C4
350
86F
  3
C5
350
870
  3
C6
350
871
  3
C7
350
872
  3
C8
350
873
  3
C9
350
874
  3
D0
350
875
  3
D1
350
876
  3
D2
350
877
  0
DICTIONARY
  5
852
102
{ACAD_REACTORS
330
C
102
}
330
C
100
AcDbDictionary
281
     1
  3
CANNOSCALE
350
87B
  3
DIMASSOC
350
853
  0
XRECORD
  5
87D
102
{ACAD_REACTORS
330
C
102
}
330
C
100
AcDbXrecord
280
     1
  1
DWGPROPS COOKIE
  2

  3

  4

  6

  7

  8
MARTIN
  9

300
=
301
=
302
=
303
=
304
=
305
=
306
=
307
=
308
=
309
=
 40
0.0
 41
2455655.470992477
 42
2455821.565035625
  1

 90
        0
  0
LAYOUT
  5
1D
102
{ACAD_REACTORS
330
19
102
}
330
19
100
AcDbPlotSettings
  1

  2
C:\Programme\AutoCAD LT 2002 Deu\plotters\DWF ePlot (optimized for plotting).pc3
  4

  6

 40
0.0
 41
0.0
 42
0.0
 43
0.0
 44
0.0
 45
0.0
 46
0.0
 47
0.0
 48
0.0
 49
0.0
140
0.0
141
0.0
142
1.0
143
1.0
 70
   688
 72
     0
 73
     0
 74
     5
  7

 75
    16
147
1.0
148
0.0
149
0.0
100
AcDbLayout
  1
Layout1
 70
     1
 71
     1
 10
0.0
 20
0.0
 11
12.0
 21
9.0
 12
0.0
 22
0.0
 32
0.0
 14
1.000000000000E+20
 24
1.000000000000E+20
 34
1.000000000000E+20
 15
-1.000000000000E+20
 25
-1.000000000000E+20
 35
-1.000000000000E+20
146
0.0
 13
0.0
 23
0.0
 33
0.0
 16
1.0
 26
0.0
 36
0.0
 17
0.0
 27
1.0
 37
0.0
 76
     0
330
1A
  0
LAYOUT
  5
21
102
{ACAD_REACTORS
330
19
102
}
330
19
100
AcDbPlotSettings
  1

  2
C:\Programme\AutoCAD LT 2002 Deu\plotters\DWF ePlot (optimized for plotting).pc3
  4

  6

 40
0.0
 41
0.0
 42
0.0
 43
0.0
 44
0.0
 45
0.0
 46
0.0
 47
0.0
 48
0.0
 49
0.0
140
0.0
141
0.0
142
1.0
143
1.0
 70
  1712
 72
     0
 73
     0
 74
     0
  7

 75
     0
147
1.0
148
0.0
149
0.0
100
AcDbLayout
  1
Model
 70
     1
 71
     0
 10
0.0
 20
0.0
 11
12.0
 21
9.0
 12
0.0
 22
0.0
 32
0.0
 14
0.0
 24
0.0
 34
0.0
 15
0.0
 25
0.0
 35
0.0
146
0.0
 13
0.0
 23
0.0
 33
0.0
 16
1.0
 26
0.0
 36
0.0
 17
0.0
 27
1.0
 37
0.0
 76
     0
330
1E
331
855
  0
MLINESTYLE
  5
17
102
{ACAD_REACTORS
330
16
102
}
330
16
100
AcDbMlineStyle
  2
STANDARD
 70
     0
  3

 62
   256
 51
90.0
 52
90.0
 71
     2
 49
0.5
 62
   256
  6
BYLAYER
 49
-0.5
 62
   256
  6
BYLAYER
  0
ACDBPLACEHOLDER
  5
F
102
{ACAD_REACTORS
330
E
102
}
330
E
  0
SCALE
  5
857
102
{ACAD_REACTORS
330
856
102
}
330
856
100
AcDbScale
 70
     0
300
1:1
140
1.0
141
1.0
290
     1
  0
SCALE
  5
858
102
{ACAD_REACTORS
330
856
102
}
330
856
100
AcDbScale
 70
     0
300
1:2
140
1.0
141
2.0
290
     0
  0
SCALE
  5
859
102
{ACAD_REACTORS
330
856
102
}
330
856
100
AcDbScale
 70
     0
300
1:4
140
1.0
141
4.0
290
     0
  0
SCALE
  5
85A
102
{ACAD_REACTORS
330
856
102
}
330
856
100
AcDbScale
 70
     0
300
1:5
140
1.0
141
5.0
290
     0
  0
SCALE
  5
85B
102
{ACAD_REACTORS
330
856
102
}
330
856
100
AcDbScale
 70
     0
300
1:8
140
1.0
141
8.0
290
     0
  0
SCALE
  5
85C
102
{ACAD_REACTORS
330
856
102
}
330
856
100
AcDbScale
 70
     0
300
1:10
140
1.0
141
10.0
290
     0
  0
SCALE
  5
85D
102
{ACAD_REACTORS
330
856
102
}
330
856
100
AcDbScale
 70
     0
300
1:16
140
1.0
141
16.0
290
     0
  0
SCALE
  5
85E
102
{ACAD_REACTORS
330
856
102
}
330
856
100
AcDbScale
 70
     0
300
1:20
140
1.0
141
20.0
290
     0
  0
SCALE
  5
85F
102
{ACAD_REACTORS
330
856
102
}
330
856
100
AcDbScale
 70
     0
300
1:30
140
1.0
141
30.0
290
     0
  0
SCALE
  5
860
102
{ACAD_REACTORS
330
856
102
}
330
856
100
AcDbScale
 70
     0
300
1:40
140
1.0
141
40.0
290
     0
  0
SCALE
  5
861
102
{ACAD_REACTORS
330
856
102
}
330
856
100
AcDbScale
 70
     0
300
1:50
140
1.0
141
50.0
290
     0
  0
SCALE
  5
862
102
{ACAD_REACTORS
330
856
102
}
330
856
100
AcDbScale
 70
     0
300
1:100
140
1.0
141
100.0
290
     0
  0
SCALE
  5
863
102
{ACAD_REACTORS
330
856
102
}
330
856
100
AcDbScale
 70
     0
300
2:1
140
2.0
141
1.0
290
     0
  0
SCALE
  5
864
102
{ACAD_REACTORS
330
856
102
}
330
856
100
AcDbScale
 70
     0
300
4:1
140
4.0
141
1.0
290
     0
  0
SCALE
  5
865
102
{ACAD_REACTORS
330
856
102
}
330
856
100
AcDbScale
 70
     0
300
8:1
140
8.0
141
1.0
290
     0
  0
SCALE
  5
866
102
{ACAD_REACTORS
330
856
102
}
330
856
100
AcDbScale
 70
     0
300
10:1
140
10.0
141
1.0
290
     0
  0
SCALE
  5
867
102
{ACAD_REACTORS
330
856
102
}
330
856
100
AcDbScale
 70
     0
300
100:1
140
100.0
141
1.0
290
     0
  0
SCALE
  5
868
102
{ACAD_REACTORS
330
856
102
}
330
856
100
AcDbScale
 70
     0
300
1/128" = 1'-0"
140
0.0078125
141
12.0
290
     0
  0
SCALE
  5
869
102
{ACAD_REACTORS
330
856
102
}
330
856
100
AcDbScale
 70
     0
300
1/64" = 1'-0"
140
0.015625
141
12.0
290
     0
  0
SCALE
  5
86A
102
{ACAD_REACTORS
330
856
102
}
330
856
100
AcDbScale
 70
     0
300
1/32" = 1'-0"
140
0.03125
141
12.0
290
     0
  0
SCALE
  5
86B
102
{ACAD_REACTORS
330
856
102
}
330
856
100
AcDbScale
 70
     0
300
1/16" = 1'-0"
140
0.0625
141
12.0
290
     0
  0
SCALE
  5
86C
102
{ACAD_REACTORS
330
856
102
}
330
856
100
AcDbScale
 70
     0
300
3/32" = 1'-0"
140
0.09375
141
12.0
290
     0
  0
SCALE
  5
86D
102
{ACAD_REACTORS
330
856
102
}
330
856
100
AcDbScale
 70
     0
300
1/8" = 1'-0"
140
0.125
141
12.0
290
     0
  0
SCALE
  5
86E
102
{ACAD_REACTORS
330
856
102
}
330
856
100
AcDbScale
 70
     0
300
3/16" = 1'-0"
140
0.1875
141
12.0
290
     0
  0
SCALE
  5
86F
102
{ACAD_REACTORS
330
856
102
}
330
856
100
AcDbScale
 70
     0
300
1/4" = 1'-0"
140
0.25
141
12.0
290
     0
  0
SCALE
  5
870
102
{ACAD_REACTORS
330
856
102
}
330
856
100
AcDbScale
 70
     0
300
3/8" = 1'-0"
140
0.375
141
12.0
290
     0
  0
SCALE
  5
871
102
{ACAD_REACTORS
330
856
102
}
330
856
100
AcDbScale
 70
     0
300
1/2" = 1'-0"
140
0.5
141
12.0
290
     0
  0
SCALE
  5
872
102
{ACAD_REACTORS
330
856
102
}
330
856
100
AcDbScale
 70
     0
300
3/4" = 1'-0"
140
0.75
141
12.0
290
     0
  0
SCALE
  5
873
102
{ACAD_REACTORS
330
856
102
}
330
856
100
AcDbScale
 70
     0
300
1" = 1'-0"
140
1.0
141
12.0
290
     0
  0
SCALE
  5
874
102
{ACAD_REACTORS
330
856
102
}
330
856
100
AcDbScale
 70
     0
300
1-1/2" = 1'-0"
140
1.5
141
12.0
290
     0
  0
SCALE
  5
875
102
{ACAD_REACTORS
330
856
102
}
330
856
100
AcDbScale
 70
     0
300
3" = 1'-0"
140
3.0
141
12.0
290
     0
  0
SCALE
  5
876
102
{ACAD_REACTORS
330
856
102
}
330
856
100
AcDbScale
 70
     0
300
6" = 1'-0"
140
6.0
141
12.0
290
     0
  0
SCALE
  5
877
102
{ACAD_REACTORS
330
856
102
}
330
856
100
AcDbScale
 70
     0
300
1'-0" = 1'-0"
140
12.0
141
12.0
290
     0
  0
DICTIONARYVAR
  5
87B
102
{ACAD_REACTORS
330
852
102
}
330
852
100
DictionaryVariables
280
     0
  1
1:1
  0
DICTIONARYVAR
  5
853
102
{ACAD_REACTORS
330
852
102
}
330
852
100
DictionaryVariables
280
     0
  1
1
  0
ENDSEC
  0
SECTION
  2
THUMBNAILIMAGE
 90
    16364
310
28000000B40000005500000001000800000000000000000000000000000000000000000000000000FFFFFF000000FF0000FFFF0000FF0000FFFF0000FF000000FF00FF000000000080808000C0C0C0000000FF007F7FFF000000A5005252A50000007F003F3F7F0000004C0026264C000000260013132600003FFF007F9FFF
310
000029A5005267A500001F7F003F4F7F0000134C00262F4C000009260013172600007FFF007FBFFF000052A500527CA500003F7F003F5F7F0000264C0026394C0000132600131C260000BFFF007FDFFF00007CA5005291A500005F7F003F6F7F0000394C0026424C00001C26001321260000FFFF007FFFFF0000A5A50052A5
310
A500007F7F003F7F7F00004C4C00264C4C00002626001326260000FFBF007FFFDF0000A57C0052A59100007F5F003F7F6F00004C3900264C420000261C001326210000FF7F007FFFBF0000A5520052A57C00007F3F003F7F5F00004C2600264C39000026130013261C0000FF3F007FFF9F0000A5290052A56700007F1F003F
310
7F4F00004C1300264C2F00002609001326170000FF00007FFF7F0000A5000052A55200007F00003F7F3F00004C0000264C260000260000132613003FFF00009FFF7F0029A5000067A552001F7F00004F7F3F00134C00002F4C260009260000172613007FFF0000BFFF7F0052A500007CA552003F7F00005F7F3F00264C0000
310
394C2600132600001C261300BFFF0000DFFF7F007CA5000091A552005F7F00006F7F3F00394C0000424C26001C26000021261300FFFF0000FFFF7F00A5A50000A5A552007F7F00007F7F3F004C4C00004C4C26002626000026261300FFBF0000FFDF7F00A57C0000A59152007F5F00007F6F3F004C3900004C422600261C00
310
0026211300FF7F0000FFBF7F00A5520000A57C52007F3F00007F5F3F004C2600004C39260026130000261C1300FF3F0000FF9F7F00A5290000A56752007F1F00007F4F3F004C1300004C2F26002609000026171300FF000000FF7F7F00A5000000A55252007F0000007F3F3F004C0000004C2626002600000026131300FF00
310
3F00FF7F9F00A5002900A55267007F001F007F3F4F004C0013004C262F002600090026131700FF007F00FF7FBF00A5005200A5527C007F003F007F3F5F004C0026004C2639002600130026131C00FF00BF00FF7FDF00A5007C00A55291007F005F007F3F6F004C0039004C26420026001C0026132100FF00FF00FF7FFF00A5
310
00A500A552A5007F007F007F3F7F004C004C004C264C002600260026132600BF00FF00DF7FFF007C00A5009152A5005F007F006F3F7F0039004C0042264C001C002600211326007F00FF00BF7FFF005200A5007C52A5003F007F005F3F7F0026004C0039264C00130026001C1326003F00FF009F7FFF002900A5006752A500
310
1F007F004F3F7F0013004C002F264C000900260017132600000000002D2D2D005B5B5B0089898900B7B7B700B3B3B30000000000000000000000000000000000000000000000000000000000000000000000000000000000000000000700000000000000000000000000000000000000000000000000000000000000000000
310
00000000000000000000000000000000000000000000000000000000000000000000000000000000000000000000000000000000000000000007000000000000000000000000000000000000000000000000000000000000000000000000000000000000000000000000000000000000000000000000000000000000000000
310
00000000000000000000000000000000000007000000000000000000000000000000000000000000000000000000000000000000000000000000000000000000000000000000000000000000000000000000000000000000000000000000000000000000000000000000000000000700000000000000000000000000000000
310
00000000000000000000000000000000000000000000000000000000000000000000000000000000000000000000000000000000000000000000000000000000000000000000000700000000000000000000000000000000000000000000000000000000000000000000000000000000000000000000000000000000000000
310
00000000000000000000000000000000000000000000000000000000000000000000000007000000000000000000000000000000000000000000000000000000000000000000000000000000000000000000000000000000000000000000000000000000000000000000000000000000000000000000000000000000070000
310
00000000000000000000000000000000000000000000000000000000000000000000000000000000000000000000000000000000000000000000000000000000000000000000000000000000000000000000000000000000000700000000000000000000000000000000000000000000000000000000000000000000000000
310
00000000000000000000000000000000000000000000000000000000000000000000000000000000000000000000000000000700000000000000000000000000000000000000000000000000000000000000000000000000000000000000000000000000000000000000000000000000000000000000000000000000000000
310
00000000000000000000000000000007000000000000000000000000000000000000000000000000000000000000000000000000000000000000000000000000000000000000000000000000000000000000000000000000000000000000000000000000000000070000000000000000000000000000000000000000000000
310
00000000000000000000000000000000000000000000000000000000000000000000000000000000000000000000000000000000000000000000000000000000000000000700000000000000000000000000000000000000000000000000000000000000000000000000000000000000000000000000000000000000000000
310
00000000000000000000000000000000000000000000000000000000000700000000000000000000000000000000000000000000000000000000000000000000000000000000000000000000000000000000000000000000000000000000000000000000000000000000000000000000000000000000000000070000000000
310
00000000000000000000000000000000000000000000000000000000000000000000000000000000000000000000000000000000000000000000000000000000000000000000000000000000000000000000000700000000000000000000000000000000000000000000000000000000000000000000000000000000000000
310
00000000000000000000000000000000000000000000000000000000000000000000000000000000000000000000070000000000000000000000000000000000000000000000000000000000000000000000000000000000000000000000000000000000000000000000000000000000000000000000000000000000000000
310
00000000000000000000070000000000000000000000000000000000000000000000000000000000000000000000000000000000000000000000000000000000000000000000000000000000000000000000000000000000000000000000000000000700000000000000000000000000000000000000000000000000000000
310
00000000000000000000000000000000000000000000000000000000000000000000000000000000000000000000000000000000000000000000000000000007000000000000000000000000000000000000000000000000000000000000000000000000000000000000000000000000000000000000000000000000000000
310
00000000000000000000000000000000000000000000000007000000000000000000000000000000000000000000000000000000000000000000000000000000000000000000000000000000000000000000000000000000000000000000000000000000000000000000000000000000000000000007000000000000000000
310
00000000000000000000000000000000000000000000000000000000000000000000000000000000000000000000000000000000000000000000000000000000000000000000000000000000070000000000000000000000000000000000000000000000000000000000000000000000000000000000000000000000000000
310
00000000000000000000000000000000000000000000000000000000000000000000000000000000000000000700000000000000000000000000000000000000000000000000000000000000000000000000000000000000000000000000000000000000000000000000000000000000000000000000000000000000000000
310
00070000000000000000000000000000000000000000000000000000000000000000000000000000000000000000000000000000000000000000000000000000000000000000000000000000000000000000000000000000000000000000000000000700000000000000000000000000000000000000000000000000000000
310
00000000000000000000000000000000000000000000000000000000000000000000000000000000000000000000000000000000000700000000000000000000000000000000000000000000000000000000000000000000000000000000000000000000000000000000000000000000000000000000000000000000000000
310
00000000000000000000000000000000000000000000000007000000000000000000000000000000000000000000000000000000000000000000000000000000000000000000000000000000000000000000000000000000000000000000000000000000000000000000070000000000000000000000000000000000000000
310
00000000000000000000000000000000000000000000000000000000000000000000000000000000000000000000000000000000000000000000000000000000000000000000000000000000000007000000000000000000000000000000000000000000000000000000000000000000000000000000000000000000000000
310
00000000000000000000000000000000000000000000000000000000000000070000000000000000000000000000000000000000000000000000000000000000000000000000000000000000000000000000000000000000000000000000000000000000000000000000000000000000000000000000000000000000000000
310
00000000000700000000000000000000000000000000000000000000000000000000000000000000000000000000000000000000000000000000000000000000000000000000000000000000000000000000000700000000000000000000000000000000000000000000000000000000000000000000000000000000000000
310
00000000000000000000000000000000000000000000000000000000000000000000000000000000000000000000000000000000000000000000000700000000000000000000000000000000000000000000000000000000000000000000000000000000000000000000000000000000000000000000000000000000000000
310
00000000000000000700000000000000000000000000000000000000000000000000000000000000000000000000000000000000000000000000000000000000000000000000000000000000000000000000000000000000000000000000000000000000000000000000000000000000070000000000000000000000000000
310
00000000000000000000000000000000000000000000000000000000000000000000000000000000000000000000000000000000000000000000000000070000000000000000000000000000000000000000000000000000000000000000000000000000000000000000000000000000000000000000000000000000000000
310
00000000000000000000000000000000000000000000000000000000000000000000000000000007000000000000000000000000000000000000000000000000000000000000000000000000000000000000000000000000000000000000000000000000000000000000000000000000000700000000000000000000000000
310
00000000000000000000000000000000000000000000000000000000000000000000000000000000000000000000000000000000000000000000000000000000000000000000000000000000000000000000000000000000000000000007000000000000000000000000000000000000000000000000000000000000000000
310
00000000000000000000000000000000000000000000000000000000000000000000000000000700000000000000000000000000000000000000000000000000000000000000000000000000000000000000000000000000000000000000000000000000000000000000000000000000000000000000000000000000000000
310
00000000000000000000000000000000000000000700000000000000000000000000000000000000000000000000000000000000000000000000000000000000000000000000000000000000000000000000000000000000000007000000000000000000000000000000000000000000000000000000000000000000000000
310
00000000000000000000000000000000000000000000000000000000000000000000000000000000000000000000000000000000000000000000000000000000000000000000000000000700000000000000000000000000000000000000000000000000000000000000000000000000000000000000000000000000000000
310
00000000000000000000000000000007000000000000000000000000000000000000000000000000000000000000000000000000000000000000000000000000000000000000000000000000000000000000000000000000000000000000000000000000000000000000000000000000000000000000000000000000000000
310
07000000000000000000000000000000000000000000000000000000000000000000000000000000000000000000000000000000000000000000000000000000000000000700000000000000000000000000000000000000000000000000000000000000000000000000000000000000000000000000000000000000000000
310
00000000000000000000000000000000000000000000000000000000000000000000000000000000000000000000000000000000000007000000000000000000000000000000000000000000000000000000000000000000000000000000000000000000000000000000000000000000000000000000000007000000000000
310
00000000000000000000000000000000000000000000000000000000000000000000000000000000000000000000000000000000000000000000000000000000000000000000000000000000000000000000000000000000000000000000000000000000000000000000000007000000000000000000000000000000000000
310
00000000000000000000000000000000000000000000000000000000000000000000000000000000000000000007000000000000000000000000000000000000000000000000000000000000000000000000000000000000000000000000000000000000000000000000000000000000000000000000000000000000000000
310
00000000000000000000000000000000000000000000000000000000000000000000000700000000000000000000000000000000000000000000000000000000000000000000000000000000000000000000000000000000000000000000000000070000000000000000000000000000000000000000000000000000000000
310
00000000000000000000000000000000000000000000000000000000000000000000000000000000000000000000000000000000000000000000000000000000000000000000000000000000000000000000000000000000070000000000000000000000000000000000000000000000000000000000000000000000000000
310
00000000000000000000000000000000000000000000000700000000000000000000000000000000000000000000000000000000000000000000000000000000000000000000000000000000000000000000000000000000000000000000000000000000000000000000000000000000000000000000000000000000000000
310
00000000000000000000000000000007000000000000000000000000000000000000000000000000000000000000000000000000000000000000000000000000000000000000000000000007000000000000000000000000000000000000000000000000000000000000000000000000000000000000000000000000000000
310
00000000000000000000000000000000000000000000000000000000000000000000000000000000000000000000000000000000000000000000000000000000000000000007000000000000000000000000000000000000000000000000000000000000000000000000000000000000000000000000000000000000000000
310
07000000000000000000000000000000000000000000000000000000000000000000000000000000000000000000000000000000000000000000000000000000000000000000000000000000000000000000000000000000000000000000000000000000000000000000000000000000000000000000000000000007000000
310
00000000000000000000000000000000000000000000000000000000000000000000000000000000000000000000000000000000070000000000000000000000000000000000000000000000000000000000000000000000000000000000000000000000000000000000000000000000000000000000000000000000000000
310
00000000000000000000000000000000000000000000000000000000000000000000000000000000000000000000000000070000000000000000000000000000000000000000000000000000000000000000000000000000000000000000000000000000000000000007000000000000000000000000000000000000000000
310
00000000000000000000000000000000000000000000000000000000000000000000000000000000000000000000000000000000000000000000000000000000000000000000000000000000000000000000000000000000000000000000000000000000000000070000000000000000000000000000000000000000000000
310
00000000000000000000000000000000000000000000000000000000000007000000000000000000000000000000000000000000000000000000000000000000000000000000000000000000000000000000000000000000000000000000000000000000000000000000000000000000000000000000000000000000000000
310
00000000000000000000000000000000000000000000000000000000000007000000000000000000000000000000000000000000000000000000000000000000000000000000000000000000000000000000070000000000000000000000000000000000000000000000000000000000000000000000000000000000000000
310
00000000000000000000000000000000000000000000000000000000000000000000000000000000000000000000000000000000000000000000000000000000000000000000000000000000000000000000000700000000000000000000000000000000000000000000000000000000000000000000000000000000000000
310
00000000000000000700000000000000000000000000000000000000000000000000000000000000000000000000000000000000000000000000000000000000000000000000000000000000000000000000000000000000000000000000000000000000000000000000000000000000000000000000000000000000000000
310
00000000000000000007000000000000000000000000000000000000000000000000000000000000000000000000000000000000000000000000000000070000000000000000000000000000000000000000000000000000000000000000000000000000000000000000000000000000000000000000000000000000000000
310
00000000000000000000000000000000000000000000000000000000000000000000000000000000000000000000000000000000000000000000000000000700000000000000000000000000000000000000000000000000000000000000000000000000000000000000000000000000000007000000000000000000000000
310
00000000000000000000000000000000000000000000000000000000000000000000000000000000000000000000000000000000000000000000000000000000000000000000000000000000000000000000000000000000000000000000000000000000000000000000000000000000000000070000000000000000000000
310
00000000000000000000000000000000000000000000000000000000000000000000000000000000070000000000000000000000000000000000000000000000000000000000000000000000000000000000000000000000000000000000000000000000000000000000000000000000000000000000000000000000000000
310
00000000000000000000000000000000000000000000000000000000000000000000000000000000000700000000000000000000000000000000000000000000000000000000000000000000000000000000000000000000000000000007000000000000000000000000000000000000000000000000000000000000000000
310
00000000000000000000000000000000000000000000000000000000000000000000000000000000000000000000000000000000000000000000000000000000000000000000000000000000000000000000000000000000000000000000070000000000000000000000000000000000000000000000000000000000000000
310
00000000000000000000000000000000000000070000000000000000000000000000000000000000000000000000000000000000000000000000000000000000000000000000000000000000000000000000000000000000000000000000000000000000000000000000000000000000000000000000000000000000000000
310
00000000000000000000000000000000000000000700000000000000000000000000000000000000000000000000000000000000000000000000000000000000000000000000000007000000000000000000000000000000000000000000000000000000000000000000000000000000000000000000000000000000000000
310
00000000000000000000000000000000000000000000000000000000000000000000000000000000000000000000000000000000000000000000000000000000000000000000000000070000000000000000000000000000000000000000000000000000000000000000000000000000000000000000000000000000000700
310
00000000000000000000000000000000000000000000000000000000000000000000000000000000000000000000000000000000000000000000000000000000000000000000000000000000000000000000000000000000000000000000000000000000000000000000000000000000000000000000000000000000000007
310
00000000000000000000000000000000000000000000000000000000000000000000000000000000000000000000000000000007000000000000000000000000000000000000000000000000000000000000000000000000000000000000000000000000000000000000000000000000000000000000000000000000000000
310
00000000000000000000000000000000000000000000000000000000000000000000000000000000000000000000000000000000070000000000000000000000000000000000000000000000000000000000000000000000000000000000000000000000000000000700000000000000000000000000000000000000000000
310
00000000000000000000000000000000000000000000000000000000000000000000000000000000000000000000000000000000000000000000000000000000000000000000000000000000000000000000000000000000000000000000000000000000000000000007000000000000000000000000000000000000000000
310
00000000000000000000000000000000000000000000000000000000000007000000000000000000000000000000000000000000000000000000000000000000000000000000000000000000000000000000000000000000000000000000000000000000000000000000000000000000000000000000000000000000000000
310
00000000000000000000000000000000000000000000000000000000000000070000000000000000000000000000000000000000000000000000000000000000000000000000000000000000000000000000000700000000000000000000000000000000000000000000000000000000000000000000000000000000000000
310
00000000000000000000000000000000000000000000000000000000000000000000000000000000000000000000000000000000000000000000000000000000000000000000000000000000000000000000000007000000000000000000000000000000000000000000000000000000000000000000000000000000000000
310
00000000000000000007000000000000000000000000000000000000000000000000000000000000000000000000000000000000000000000000000000000000000000000000000000000000000000000000000000000000000000000000000000000000000000000000000000000000000000000000000000000000000000
310
00000000000000000000070000000000000000000000000000000000000000000000000000000000000000000000000000000000000000000000000000000700000000000000000000000000000000000000000000000000000000000000000000000000000000000000000000000000000000000000000000000000000000
310
00000000000000000000000000000000000000000000000000000000000000000000000000000000000000000000000000000000000000000000000000000007000000000000000000000000000000000000000000000000000000000000000000000000000000000000000000000000000000070000000000000000000000
310
00000000000000000000000000000000000000000000000000000000000000000000000000000000000000000000000000000000000000000000000000000000000000000000000000000000000000000000000000000000000000000000000000000000000000000000000000000000000000000700000000000000000000
310
00000000000000000000000000000000000000000000000000000000000000000000000000000000000700000000000000000000000000000000000000000000000000000000000000000000000000000000000000000000000000000000000000000000000000000000000000000000000000000000000000000000000000
310
00000000000000000000000000000000000000000000000000000000000000000000000000000000000007000000000000000000000000000000000000000000000000000000000000000000000000000000000000000000000000000000070000000000000000000000000000000000000000000000000000000000000000
310
00000000000000000000000000000000000000000000000000000000000000000000000000000000000000000000000000000000000000000000000000000000000000000000000000000000000000000000000000000000000000000000000700000000000000000000000000000000000000000000000000000000000000
310
00000000000000000000000000000000000000000700000000000000000000000000000000000000000000000000000000000000000000000000000000000000000000000000000000000000000000000000000000000000000000000000000000000000000000000000000000000000000000000000000000000000000000
310
00000000000000000000000000000000000000000007000000000000000000000000000000000000000000000000000000000000000000000000000000000000000000000000000000070000000000000000000000000000000000000000000000000000000000000000000000000000000000000000000000000000000000
310
00000000000000000000000000000000000000000000000000000000000000000000000000000000000000000000000000000000000000000000000000000000000000000000000000000700000000000000000000000000000000000000000000000000000000000000000000000000000000000000000000000000000007
310
00000000000000000000000000000000000000000000000000000000000000000000000000000000000000000000000000000000000000000000000000000000000000000000000000000000000000000000000000000000000000000000000000000000000000000000000000000000000000000000000000000000000000
310
07000000000000000000000000000000000000000000000000000000000000000000000000000000000000000000000000000000070000000000000000000000000000000000000000000000000000000000000000000000000000000000000000000000000000000000000000000000000000000000000000000000000000
310
00000000000000000000000000000000000000000000000000000000000000000000000000000000000000000000000000000000000700000000000000000000000000000000000000000000000000000000000000000000000000000000000000000000000000000007000000000000000000000000000000000000000000
310
00000000000000000000000000000000000000000000000000000000000000000000000000000000000000000000000000000000000000000000000000000000000000000000000000000000000000000000000000000000000000000000000000000000000000000000070000000000000000000000000000000000000000
310
00000000000000000000000000000000000000000000000000000000000000070000000000000000000000000000000000000000000000000000000000000000000000000000000000000000000000000000000000000000000000000000000000000000000000000000000000000000000000000000000000000000000000
310
00000000000000000000000000000000000000000000000000000000000000000700000000000000000000000000000000000000000000000000000000000000000000000000000000000000000000000000000007000000000000000000000000000000000000000000000000000000000000000000000000000000000000
310
00000000000000000000000000000000000000000000000000000000000000000000000000000000000000000000000000000000000000000000000000000000000000000000000000000000000000000000000000070000000000000000000000000000000000000000000000000000000000000000000000000000000000
310
00000000000000000000070000000000000000000000000000000000000000000000000000000000000000000000000000000000000000000000000000000000000000000000000000000000000000000000000000000000000000000000000000000000000000000000000000000000000000000000000000000000000000
310
00000000000000000000000707070707070707070707070707070707070707070707070707070707070707070707070707070707070707070707070707070707000000000000000000000000000000000000000000000000000000000000000000000000000000000000000000000000000000000000000000000000000000
310
00000000000000000000000000000000000000000000000000000000000000000000000000000000000000000000000000000000000000000000000000000000070000000000000000000000000000000000000000000000000700070000000000000000000000070707000000000000000000000700000000000000000000
310
00000000000000000000000000000000000000000000000000000000000000000000000000000000000000000000000000000000000000000000000000000000000000000000000000000000000000000000000000000000000000000000000000000000000000000000000000000000000000000007000000000000000000
310
00000000000000000000000000000007000700000000000000000000000700070000000000000000000007000000000000000000000000000000000000000000000000000000000000000000000000000000000000000000000000000000000000000000000000000000000000000000000000000000000000000000000000
310
00000000000000000000000000000000000000000000000000000000000000000000000000000000000000070000000000000000000000000000000000000000000000000700070000000000000000000000070007000000000000000000000700000000000000000000000000000000000000000000000000000000000000
310
00000000000000000000000000000000000000000000000000000000000000000000000000000000000000000000000000000000000000000000000000000000000000000000000000000000000000000000000000000000000000000000000007000000000000000000000000000000000000000007070707070707070707
310
07000000000000000700070000000000000000000007000000000000000000000000000000000000000000000000000000000000000000000000000000000000000000000000000000000000000000000000000000000000000000000000000000000000000000000000000000000000000000000000000000000000000000
310
00000000000000000000000000000000000000000000070000000000000000000000000000000000000000070700070707070700000000000000000000070007000000000000000000000700000000000000000000000000000000000000000000000000000000000000000000000000000000000000000000000000000000
310
00000000000000000000000000000000000000000000000000000000000000000000000000000000000000000000000000000000000000000000000000000000000000000000000000000007000000000000000000070707070000000000000007000007070707070707000000000000000007000700000000000000000000
310
07000000000000000000000000000000000000000000000000000000000000000000000000000000000000000000000000000000000000000000000000000000000000000000000000000000000000000000000000000000000000000000000000000000000000000000000000000000000000000000000000000000000000
310
00070000000000000000000700000700000000000000070707070000000007070700000000000000070007000000000000000000000700000000000000000000000000000000000000000000000000000000000000000000000000000000000000000000000000000000000000000000000000000000000000000000000000
310
00000000000000000000000000000000000000000000000000000000000000000000000000000000000000000000000000000000000007000000000000000000070000070000000000000007000000000000000700070000000000000007000700000000000000000000070000000000000000000000000000000000000000
310
00000000000000000000000000000000000000000000000000000000000000000000000000000000000000000000000000000000000000000000000000000000000000000000000000000000000000000000000000000000000000000000000000000000000000000000000700000000000000000007070707000000000000
310
00000700000000000007070000000000000000070707070000000000000000000700000000000000000000000000000000000000000000000000000000000000000000000000000000000000000000000000000000000000000000000000000000000000000000000000000000000000000000000000000000000000000000
310
00000000000000000000000000000000000000000000000000000000000000000007000000000007070707070000070707070700000000070000000000000707000000000000000007000007000000000000000000070000000000000000000000000000000000000000000000000000000000000000000000000000000000
310
00000000000000000000000000000000000000000000000000000000000000000000000000000000000000000000000000000000000000000000000000000000000000000000000000000000000000000000000000000700000000000707070000000000000707070000000007000000000000070700000000000000000700
310
00070000000000000000000700000000000000000000000000000000000000000000000000000000000000000000000000000000000000000000000000000000000000000000000000000000000000000000000000000000000000000000000000000000000000000000000000000000000000000000000000000000000000
310
00000000000000000000000007000000000007070700000000000007070700000000070000000000000700000000000000000007070707000000000000000000070000000000000000000000000000000000000000000000000000000000000000000000000000000000000000000000000000000000000000000000000000
310
00000000000000000000000000000000000000000000000000000000000000000000000000000000000000000000000000000000000000000000000000000000000700000000000000070707000007070700000000000000070000000000070000000000000000070707070707000000000000000007000000000000000000
310
00000000000000000000000000000000000000000000000000000000000000000000000000000000000000000000000000000000000000000000000000000000000000000000000000000000000000000000000000000000000000000000000000000000000000000000000000000000000000000000070707070707070707
310
07070000070707070707070707070707070707070707070707070707070700000000070707070707070707070000000000000000000000000000000000000000000000000000000000000000000000000000000000000000000000000000000000000000000000000000000000000000000000000000000000000000000000
310
00000000000000000000000000000000000000000000000000000000000000000000000000000000000000000000000000000000000007000007000000000000000007000000000000000700000000000000070000000007000000000000000000000000000000000000000000000000000000000000000000000000000000
310
00000000000000000000000000000000000000000000000000000000000000000000000000000000000000000000000000000000000000000000000000000000000000000000000000000000000000000000000000000000000000000000000000000000000000000000000700000700000000000000000707070707070707
310
07000000000000000700000000070000000000000000000000000000000000000000000000000000000000000000000000000000000000000000000000000000000000000000000000000000000000000000000000000000000000000000000000000000000000000000000000000000000000000000000000000000000000
310
00000000000000000000000000000000000000000000000000000000000000000707070707070000000000000007070707070707070700000000000007070707070707070000000000000000000000000000000000000000000000000000000000000000000000000000000000000000000000000000000000000000000000
310
00000000000000000000000000000000000000000000000000000000000000000000000000000000000000000000000000000000000000000000000000000000000000000000000000000000000000000000000000070707070707000000000000000707070000000000070000000000000707070707070707000000000000
310
00000000000000000000000000000000000000000000000000000000000000000000000000000000000000000000000000000000000000000000000000000000000000000000000000000000000000000000000000000000000000000000000000000000000000000000000000000000000000000000000000000000000000
310
00000000000000000000000707070707070000000000000007070707070707070700000000000007070707070707070000000000000000000000000000000000000000000000000000000000000000000000000000000000000000000000000000000000000000000000000000000000000000000000000000000000000000
310
00000000000000000000000000000000000000000000000000000000000000000000000000000000000000000000000000000000000000000000000000000000070707070707000000000000000707070707070707070000000000000707070707070707000000000000000000000000000000000000000000000000000000
310
00000000000000000000000000000000000000000000000000000000000000000000000000000000000000000000000000000000000000000000000000000000000000000000000000000000000000000000000000000000000000000000000000000000000000000000000000000000000000000000070707070000000000
310
00000000070707070707070000000000000000000000000000000000000000000000000000000000000000000000000000000000000000000000000000000000000000000000000000000000000000000000000000000000000000000000000000000000000000000000000000000000000000000000000000000000000000
310
00000000000000000000000000000000000000000000000000000000000000000000000000000000000000000707070700000000000000000000000700070000000000000000000000000000000000000000000000000000000000000000000000000000000000000000000000000000000000000000000000000000000000
310
00000000000000000000000000000000000000000000000000000000000000000000000000000000000000000000000000000000000000000000000000000000000000000000000000000000000000000000000000000000000000000000000000000707000000000000000000000000070707000000000000000000000000
310
00000000000000000000000000000000000000000000000000000000000000000000000000000000000000000000000000000000000000000000000000000000000000000000000000000000000000000000000000000000000000000000000000000000000000000000000000000000000000000000000000000000000000
310
00000000000000000000000000000000000000000000000007070000000000000000000000000707070000000000000000000000000000000000000000000000000000000000000000000000000000000000000000000000000000000000000000000000000000000000000000000000000000000000000000000000000000
310
00000000000000000000000000000000000000000000000000000000000000000000000000000000000000000000000000000000000000000000000000000000000000000000000000000000000000000000000000000000000000070007000000000000000000000000000000000000000000000000000000000000000000
310
00000000000000000000000000000000000000000000000000000000000000000000000000000000000000000000000000000000000000000000000000000000000000000000000000000000000000000000000000000000000000000000000000000000000000000000000000000000000000000000000000000000000000
310
000000000000000000000000000000000007070700000000000000000000000000000000000000000000000000000000000000000000000000000000000000000000000000000000000000000000000000000000000000000000000000000000000000000000000000000000
  0
ENDSEC
  0
EOF
