  0
SECTION
  2
HEADER
  9
$ACADVER
  1
AC1015
  9
$ACADMAINTVER
 70
     6
  9
$DWGCODEPAGE
  3
ANSI_1252
  9
$INSBASE
 10
0.0
 20
0.0
 30
0.0
  9
$EXTMIN
 10
7.87074
 20
0.0
 30
0.0
  9
$EXTMAX
 10
114.95674
 20
255.0
 30
0.0
  9
$LIMMIN
 10
0.0
 20
0.0
  9
$LIMMAX
 10
12.0
 20
9.0
  9
$ORTHOMODE
 70
     0
  9
$REGENMODE
 70
     1
  9
$FILLMODE
 70
     1
  9
$QTEXTMODE
 70
     0
  9
$MIRRTEXT
 70
     1
  9
$LTSCALE
 40
1.0
  9
$ATTMODE
 70
     1
  9
$TEXTSIZE
 40
0.2
  9
$TRACEWID
 40
0.05
  9
$TEXTSTYLE
  7
Standard
  9
$CLAYER
  8
0
  9
$CELTYPE
  6
Continuous
  9
$CECOLOR
 62
   256
  9
$CELTSCALE
 40
1.0
  9
$DISPSILH
 70
     0
  9
$DIMSCALE
 40
1.0
  9
$DIMASZ
 40
0.18
  9
$DIMEXO
 40
0.0625
  9
$DIMDLI
 40
0.38
  9
$DIMRND
 40
0.0
  9
$DIMDLE
 40
0.0
  9
$DIMEXE
 40
0.18
  9
$DIMTP
 40
0.0
  9
$DIMTM
 40
0.0
  9
$DIMTXT
 40
0.18
  9
$DIMCEN
 40
0.09
  9
$DIMTSZ
 40
0.0
  9
$DIMTOL
 70
     0
  9
$DIMLIM
 70
     0
  9
$DIMTIH
 70
     1
  9
$DIMTOH
 70
     1
  9
$DIMSE1
 70
     0
  9
$DIMSE2
 70
     0
  9
$DIMTAD
 70
     0
  9
$DIMZIN
 70
     0
  9
$DIMBLK
  1

  9
$DIMASO
 70
     1
  9
$DIMSHO
 70
     1
  9
$DIMPOST
  1

  9
$DIMAPOST
  1

  9
$DIMALT
 70
     0
  9
$DIMALTD
 70
     2
  9
$DIMALTF
 40
25.4
  9
$DIMLFAC
 40
1.0
  9
$DIMTOFL
 70
     0
  9
$DIMTVP
 40
0.0
  9
$DIMTIX
 70
     0
  9
$DIMSOXD
 70
     0
  9
$DIMSAH
 70
     0
  9
$DIMBLK1
  1

  9
$DIMBLK2
  1

  9
$DIMSTYLE
  2
Standard
  9
$DIMCLRD
 70
     0
  9
$DIMCLRE
 70
     0
  9
$DIMCLRT
 70
     0
  9
$DIMTFAC
 40
1.0
  9
$DIMGAP
 40
0.09
  9
$DIMJUST
 70
     0
  9
$DIMSD1
 70
     0
  9
$DIMSD2
 70
     0
  9
$DIMTOLJ
 70
     1
  9
$DIMTZIN
 70
     0
  9
$DIMALTZ
 70
     0
  9
$DIMALTTZ
 70
     0
  9
$DIMUPT
 70
     0
  9
$DIMDEC
 70
     4
  9
$DIMTDEC
 70
     4
  9
$DIMALTU
 70
     2
  9
$DIMALTTD
 70
     2
  9
$DIMTXSTY
  7
Standard
  9
$DIMAUNIT
 70
     0
  9
$DIMADEC
 70
     0
  9
$DIMALTRND
 40
0.0
  9
$DIMAZIN
 70
     0
  9
$DIMDSEP
 70
    46
  9
$DIMATFIT
 70
     3
  9
$DIMFRAC
 70
     0
  9
$DIMLDRBLK
  1

  9
$DIMLUNIT
 70
     2
  9
$DIMLWD
 70
    -2
  9
$DIMLWE
 70
    -2
  9
$DIMTMOVE
 70
     0
  9
$LUNITS
 70
     2
  9
$LUPREC
 70
     4
  9
$SKETCHINC
 40
0.1
  9
$FILLETRAD
 40
0.0
  9
$AUNITS
 70
     0
  9
$AUPREC
 70
     0
  9
$MENU
  1
.
  9
$ELEVATION
 40
0.0
  9
$PELEVATION
 40
0.0
  9
$THICKNESS
 40
0.0
  9
$LIMCHECK
 70
     0
  9
$CHAMFERA
 40
0.0
  9
$CHAMFERB
 40
0.0
  9
$CHAMFERC
 40
0.0
  9
$CHAMFERD
 40
0.0
  9
$SKPOLY
 70
     0
  9
$TDCREATE
 40
2455653.924558738
  9
$TDUCREATE
 40
2455653.841225405
  9
$TDUPDATE
 40
2455820.883368958
  9
$TDUUPDATE
 40
2455820.800035625
  9
$TDINDWG
 40
0.0069540278
  9
$TDUSRTIMER
 40
0.0069540278
  9
$USRTIMER
 70
     1
  9
$ANGBASE
 50
0.0
  9
$ANGDIR
 70
     0
  9
$PDMODE
 70
     0
  9
$PDSIZE
 40
0.0
  9
$PLINEWID
 40
0.0
  9
$SPLFRAME
 70
     0
  9
$SPLINETYPE
 70
     6
  9
$SPLINESEGS
 70
     8
  9
$HANDSEED
  5
3E8
  9
$SURFTAB1
 70
     6
  9
$SURFTAB2
 70
     6
  9
$SURFTYPE
 70
     6
  9
$SURFU
 70
     6
  9
$SURFV
 70
     6
  9
$UCSBASE
  2

  9
$UCSNAME
  2

  9
$UCSORG
 10
0.0
 20
0.0
 30
0.0
  9
$UCSXDIR
 10
1.0
 20
0.0
 30
0.0
  9
$UCSYDIR
 10
0.0
 20
1.0
 30
0.0
  9
$UCSORTHOREF
  2

  9
$UCSORTHOVIEW
 70
     1
  9
$UCSORGTOP
 10
0.0
 20
0.0
 30
0.0
  9
$UCSORGBOTTOM
 10
0.0
 20
0.0
 30
0.0
  9
$UCSORGLEFT
 10
0.0
 20
0.0
 30
0.0
  9
$UCSORGRIGHT
 10
0.0
 20
0.0
 30
0.0
  9
$UCSORGFRONT
 10
0.0
 20
0.0
 30
0.0
  9
$UCSORGBACK
 10
0.0
 20
0.0
 30
0.0
  9
$PUCSBASE
  2

  9
$PUCSNAME
  2

  9
$PUCSORG
 10
0.0
 20
0.0
 30
0.0
  9
$PUCSXDIR
 10
1.0
 20
0.0
 30
0.0
  9
$PUCSYDIR
 10
0.0
 20
1.0
 30
0.0
  9
$PUCSORTHOREF
  2

  9
$PUCSORTHOVIEW
 70
     0
  9
$PUCSORGTOP
 10
0.0
 20
0.0
 30
0.0
  9
$PUCSORGBOTTOM
 10
0.0
 20
0.0
 30
0.0
  9
$PUCSORGLEFT
 10
0.0
 20
0.0
 30
0.0
  9
$PUCSORGRIGHT
 10
0.0
 20
0.0
 30
0.0
  9
$PUCSORGFRONT
 10
0.0
 20
0.0
 30
0.0
  9
$PUCSORGBACK
 10
0.0
 20
0.0
 30
0.0
  9
$USERI1
 70
     0
  9
$USERI2
 70
     0
  9
$USERI3
 70
     0
  9
$USERI4
 70
     0
  9
$USERI5
 70
     0
  9
$USERR1
 40
0.0
  9
$USERR2
 40
0.0
  9
$USERR3
 40
0.0
  9
$USERR4
 40
0.0
  9
$USERR5
 40
0.0
  9
$WORLDVIEW
 70
     1
  9
$SHADEDGE
 70
     3
  9
$SHADEDIF
 70
    70
  9
$TILEMODE
 70
     1
  9
$MAXACTVP
 70
    64
  9
$PINSBASE
 10
0.0
 20
0.0
 30
0.0
  9
$PLIMCHECK
 70
     0
  9
$PEXTMIN
 10
1.000000000000E+20
 20
1.000000000000E+20
 30
1.000000000000E+20
  9
$PEXTMAX
 10
-1.000000000000E+20
 20
-1.000000000000E+20
 30
-1.000000000000E+20
  9
$PLIMMIN
 10
0.0
 20
0.0
  9
$PLIMMAX
 10
12.0
 20
9.0
  9
$UNITMODE
 70
     0
  9
$VISRETAIN
 70
     1
  9
$PLINEGEN
 70
     0
  9
$PSLTSCALE
 70
     1
  9
$TREEDEPTH
 70
  3020
  9
$CMLSTYLE
  2
Standard
  9
$CMLJUST
 70
     0
  9
$CMLSCALE
 40
1.0
  9
$PROXYGRAPHICS
 70
     1
  9
$MEASUREMENT
 70
     0
  9
$CELWEIGHT
370
    -1
  9
$ENDCAPS
280
     0
  9
$JOINSTYLE
280
     0
  9
$LWDISPLAY
290
     0
  9
$INSUNITS
 70
     0
  9
$HYPERLINKBASE
  1

  9
$STYLESHEET
  1

  9
$XEDIT
290
     1
  9
$CEPSNTYPE
380
     0
  9
$PSTYLEMODE
290
     1
  9
$FINGERPRINTGUID
  2
{542490E6-29FA-4330-982D-0F45BAD01C9A}
  9
$VERSIONGUID
  2
{99366013-977A-4C88-BF01-B9C5C20ADBA8}
  9
$EXTNAMES
290
     1
  9
$PSVPSCALE
 40
0.0
  9
$OLESTARTUP
290
     0
  0
ENDSEC
  0
SECTION
  2
CLASSES
  0
CLASS
  1
ACDBDICTIONARYWDFLT
  2
AcDbDictionaryWithDefault
  3
ObjectDBX Classes
 90
        0
280
     0
281
     0
  0
CLASS
  1
ACDBPLACEHOLDER
  2
AcDbPlaceHolder
  3
ObjectDBX Classes
 90
        0
280
     0
281
     0
  0
CLASS
  1
LAYOUT
  2
AcDbLayout
  3
ObjectDBX Classes
 90
        0
280
     0
281
     0
  0
CLASS
  1
DICTIONARYVAR
  2
AcDbDictionaryVar
  3
ObjectDBX Classes
 90
        0
280
     0
281
     0
  0
CLASS
  1
SCALE
  2
AcDbScale
  3
ObjectDBX Classes
 90
     1153
280
     0
281
     0
  0
ENDSEC
  0
SECTION
  2
TABLES
  0
TABLE
  2
VPORT
  5
8
330
0
100
AcDbSymbolTable
 70
     1
  0
VPORT
  5
3BF
330
8
100
AcDbSymbolTableRecord
100
AcDbViewportTableRecord
  2
*Active
 70
     0
 10
0.0
 20
0.0
 11
1.0
 21
1.0
 12
61.41374
 22
127.5
 13
0.0
 23
0.0
 14
1.0
 24
1.0
 15
0.0
 25
0.0
 16
0.0
 26
0.0
 36
1.0
 17
0.0
 27
0.0
 37
0.0
 40
260.1
 41
1.790857142857
 42
50.0
 43
0.0
 44
0.0
 50
0.0
 51
0.0
 71
    16
 72
   100
 73
     1
 74
     3
 75
     0
 76
     0
 77
     0
 78
     0
281
     0
 65
     1
110
0.0
120
0.0
130
0.0
111
1.0
121
0.0
131
0.0
112
0.0
122
1.0
132
0.0
 79
     1
146
0.0
  0
ENDTAB
  0
TABLE
  2
LTYPE
  5
5
330
0
100
AcDbSymbolTable
 70
     1
  0
LTYPE
  5
13
330
5
100
AcDbSymbolTableRecord
100
AcDbLinetypeTableRecord
  2
ByBlock
 70
     0
  3

 72
    65
 73
     0
 40
0.0
  0
LTYPE
  5
14
330
5
100
AcDbSymbolTableRecord
100
AcDbLinetypeTableRecord
  2
ByLayer
 70
     0
  3

 72
    65
 73
     0
 40
0.0
  0
LTYPE
  5
15
330
5
100
AcDbSymbolTableRecord
100
AcDbLinetypeTableRecord
  2
Continuous
 70
     0
  3
Solid line
 72
    65
 73
     0
 40
0.0
  0
ENDTAB
  0
TABLE
  2
LAYER
  5
2
330
0
100
AcDbSymbolTable
 70
     1
  0
LAYER
  5
10
330
2
100
AcDbSymbolTableRecord
100
AcDbLayerTableRecord
  2
0
 70
     0
 62
     7
  6
Continuous
370
    -3
390
F
  0
ENDTAB
  0
TABLE
  2
STYLE
  5
3
330
0
100
AcDbSymbolTable
 70
     1
  0
STYLE
  5
11
330
3
100
AcDbSymbolTableRecord
100
AcDbTextStyleTableRecord
  2
Standard
 70
     0
 40
0.0
 41
1.0
 50
0.0
 71
     0
 42
0.2
  3
txt
  4

  0
ENDTAB
  0
TABLE
  2
VIEW
  5
6
330
0
100
AcDbSymbolTable
 70
     0
  0
ENDTAB
  0
TABLE
  2
UCS
  5
7
330
0
100
AcDbSymbolTable
 70
     0
  0
ENDTAB
  0
TABLE
  2
APPID
  5
9
330
0
100
AcDbSymbolTable
 70
     1
  0
APPID
  5
12
330
9
100
AcDbSymbolTableRecord
100
AcDbRegAppTableRecord
  2
ACAD
 70
     0
  0
ENDTAB
  0
TABLE
  2
DIMSTYLE
  5
A
330
0
100
AcDbSymbolTable
 70
     1
100
AcDbDimStyleTable
  0
DIMSTYLE
105
3B8
330
A
100
AcDbSymbolTableRecord
100
AcDbDimStyleTableRecord
  2
Standard
 70
     0
340
11
  0
ENDTAB
  0
TABLE
  2
BLOCK_RECORD
  5
1
330
0
100
AcDbSymbolTable
 70
     0
  0
BLOCK_RECORD
  5
1E
330
1
100
AcDbSymbolTableRecord
100
AcDbBlockTableRecord
  2
*Model_Space
340
21
  0
BLOCK_RECORD
  5
1A
330
1
100
AcDbSymbolTableRecord
100
AcDbBlockTableRecord
  2
*Paper_Space
340
1D
  0
ENDTAB
  0
ENDSEC
  0
SECTION
  2
BLOCKS
  0
BLOCK
  5
1F
330
1E
100
AcDbEntity
  8
0
100
AcDbBlockBegin
  2
*Model_Space
 70
     0
 10
0.0
 20
0.0
 30
0.0
  3
*Model_Space
  1
*Model_Space
  0
ENDBLK
  5
20
330
1E
100
AcDbEntity
  8
0
100
AcDbBlockEnd
  0
BLOCK
  5
1B
330
1A
100
AcDbEntity
 67
     1
  8
0
100
AcDbBlockBegin
  2
*Paper_Space
 70
     0
 10
0.0
 20
0.0
 30
0.0
  3
*Paper_Space
  1
*Paper_Space
  0
ENDBLK
  5
1C
330
1A
100
AcDbEntity
 67
     1
  8
0
100
AcDbBlockEnd
  0
ENDSEC
  0
SECTION
  2
ENTITIES
  0
LINE
  5
25
330
1E
100
AcDbEntity
  8
0
100
AcDbLine
 10
8.682505
 20
0.0
 30
0.0
 11
10.9825
 21
0.0
 31
0.0
  0
LINE
  5
26
330
1E
100
AcDbEntity
  8
0
100
AcDbLine
 10
8.682505
 20
4.71154
 30
0.0
 11
10.9825
 21
4.71154
 31
0.0
  0
LINE
  5
27
330
1E
100
AcDbEntity
  8
0
100
AcDbLine
 10
8.208975
 20
4.90385
 30
0.0
 11
8.88545
 21
5.0
 31
0.0
  0
LINE
  5
28
330
1E
100
AcDbEntity
  8
0
100
AcDbLine
 10
7.87074
 20
4.71154
 30
0.0
 11
7.87074
 21
0.0
 31
0.0
  0
LINE
  5
29
330
1E
100
AcDbEntity
  8
0
100
AcDbLine
 10
7.87074
 20
4.71154
 30
0.0
 11
8.682505
 21
4.71154
 31
0.0
  0
LINE
  5
2A
330
1E
100
AcDbEntity
  8
0
100
AcDbLine
 10
7.87074
 20
4.71154
 30
0.0
 11
8.208975
 21
4.90385
 31
0.0
  0
LINE
  5
2B
330
1E
100
AcDbEntity
  8
0
100
AcDbLine
 10
9.69721
 20
5.0
 30
0.0
 11
11.86192
 21
5.0
 31
0.0
  0
LINE
  5
2C
330
1E
100
AcDbEntity
  8
0
100
AcDbLine
 10
8.88545
 20
5.0
 30
0.0
 11
9.69721
 21
5.0
 31
0.0
  0
LINE
  5
2D
330
1E
100
AcDbEntity
  8
0
100
AcDbLine
 10
8.682505
 20
0.0
 30
0.0
 11
10.9825
 21
0.0
 31
0.0
  0
LINE
  5
2E
330
1E
100
AcDbEntity
  8
0
100
AcDbLine
 10
7.87074
 20
0.0
 30
0.0
 11
8.682505
 21
0.0
 31
0.0
  0
LINE
  5
2F
330
1E
100
AcDbEntity
  8
0
100
AcDbLine
 10
7.87074
 20
0.0
 30
0.0
 11
8.682505
 21
0.0
 31
0.0
  0
LINE
  5
30
330
1E
100
AcDbEntity
  8
0
100
AcDbLine
 10
7.87074
 20
0.0
 30
0.0
 11
7.87074
 21
4.71154
 31
0.0
  0
LINE
  5
31
330
1E
100
AcDbEntity
  8
0
100
AcDbLine
 10
10.9825
 20
0.0
 30
0.0
 11
14.63545
 21
0.0
 31
0.0
  0
LINE
  5
32
330
1E
100
AcDbEntity
  8
0
100
AcDbLine
 10
14.63545
 20
0.0
 30
0.0
 11
19.43834
 21
0.0
 31
0.0
  0
LINE
  5
33
330
1E
100
AcDbEntity
  8
0
100
AcDbLine
 10
19.43834
 20
0.0
 30
0.0
 11
24.98544
 21
0.0
 31
0.0
  0
LINE
  5
34
330
1E
100
AcDbEntity
  8
0
100
AcDbLine
 10
24.98544
 20
0.0
 30
0.0
 11
30.87074
 21
0.0
 31
0.0
  0
LINE
  5
35
330
1E
100
AcDbEntity
  8
0
100
AcDbLine
 10
30.87074
 20
0.0
 30
0.0
 11
36.75604
 21
0.0
 31
0.0
  0
LINE
  5
36
330
1E
100
AcDbEntity
  8
0
100
AcDbLine
 10
14.63545
 20
0.0
 30
0.0
 11
19.43834
 21
0.0
 31
0.0
  0
LINE
  5
37
330
1E
100
AcDbEntity
  8
0
100
AcDbLine
 10
19.43834
 20
0.0
 30
0.0
 11
24.98544
 21
0.0
 31
0.0
  0
LINE
  5
38
330
1E
100
AcDbEntity
  8
0
100
AcDbLine
 10
14.63545
 20
4.71154
 30
0.0
 11
19.43834
 21
4.71154
 31
0.0
  0
LINE
  5
39
330
1E
100
AcDbEntity
  8
0
100
AcDbLine
 10
19.43834
 20
4.71154
 30
0.0
 11
24.98544
 21
4.71154
 31
0.0
  0
LINE
  5
3A
330
1E
100
AcDbEntity
  8
0
100
AcDbLine
 10
30.87074
 20
4.71154
 30
0.0
 11
36.75604
 21
4.71154
 31
0.0
  0
LINE
  5
3B
330
1E
100
AcDbEntity
  8
0
100
AcDbLine
 10
30.87074
 20
0.0
 30
0.0
 11
36.75604
 21
0.0
 31
0.0
  0
LINE
  5
3C
330
1E
100
AcDbEntity
  8
0
100
AcDbLine
 10
24.98544
 20
4.71154
 30
0.0
 11
30.87074
 21
4.71154
 31
0.0
  0
LINE
  5
3D
330
1E
100
AcDbEntity
  8
0
100
AcDbLine
 10
24.98544
 20
0.0
 30
0.0
 11
30.87074
 21
0.0
 31
0.0
  0
LINE
  5
3E
330
1E
100
AcDbEntity
  8
0
100
AcDbLine
 10
10.9825
 20
4.71154
 30
0.0
 11
14.63545
 21
4.71154
 31
0.0
  0
LINE
  5
3F
330
1E
100
AcDbEntity
  8
0
100
AcDbLine
 10
10.9825
 20
0.0
 30
0.0
 11
14.63545
 21
0.0
 31
0.0
  0
LINE
  5
41
330
1E
100
AcDbEntity
  8
0
100
AcDbLine
 10
15.31192
 20
5.0
 30
0.0
 11
19.91194
 21
5.0
 31
0.0
  0
LINE
  5
42
330
1E
100
AcDbEntity
  8
0
100
AcDbLine
 10
11.86192
 20
5.0
 30
0.0
 11
15.31192
 21
5.0
 31
0.0
  0
LINE
  5
44
330
1E
100
AcDbEntity
  8
0
100
AcDbLine
 10
19.91194
 20
5.0
 30
0.0
 11
25.18834
 21
5.0
 31
0.0
  0
LINE
  5
45
330
1E
100
AcDbEntity
  8
0
100
AcDbLine
 10
30.87074
 20
5.0
 30
0.0
 11
36.55314
 21
5.0
 31
0.0
  0
LINE
  5
46
330
1E
100
AcDbEntity
  8
0
100
AcDbLine
 10
25.18834
 20
5.0
 30
0.0
 11
30.87074
 21
5.0
 31
0.0
  0
LINE
  5
47
330
1E
100
AcDbEntity
  8
0
100
AcDbLine
 10
10.87074
 20
5.0
 30
0.0
 11
10.87074
 21
104.2
 31
0.0
  0
LINE
  5
56
330
1E
100
AcDbEntity
  8
0
100
AcDbLine
 10
10.87074
 20
104.2
 30
0.0
 11
10.97774
 21
104.6
 31
0.0
  0
LINE
  5
5A
330
1E
100
AcDbEntity
  8
0
100
AcDbLine
 10
10.87074
 20
104.2
 30
0.0
 11
10.87074
 21
5.0
 31
0.0
  0
LINE
  5
5B
330
1E
100
AcDbEntity
  8
0
100
AcDbLine
 10
10.97774
 20
104.6
 30
0.0
 11
11.27074
 21
104.893
 31
0.0
  0
LINE
  5
5D
330
1E
100
AcDbEntity
  8
0
100
AcDbLine
 10
11.42253
 20
104.934
 30
0.0
 11
11.67674
 21
105.0
 31
0.0
  0
LINE
  5
5E
330
1E
100
AcDbEntity
  8
0
100
AcDbLine
 10
11.42253
 20
104.934
 30
0.0
 11
11.67074
 21
105.0
 31
0.0
  0
LINE
  5
5F
330
1E
100
AcDbEntity
  8
0
100
AcDbLine
 10
11.27774
 20
104.893
 30
0.0
 11
11.67674
 21
105.0
 31
0.0
  0
LINE
  5
60
330
1E
100
AcDbEntity
  8
0
100
AcDbLine
 10
11.27074
 20
104.893
 30
0.0
 11
11.42253
 21
104.934
 31
0.0
  0
LINE
  5
61
330
1E
100
AcDbEntity
  8
0
100
AcDbLine
 10
11.67674
 20
105.0
 30
0.0
 11
11.98274
 21
105.0
 31
0.0
  0
LINE
  5
62
330
1E
100
AcDbEntity
  8
0
100
AcDbLine
 10
14.87074
 20
105.0
 30
0.0
 11
14.87074
 21
198.898
 31
0.0
  0
LINE
  5
63
330
1E
100
AcDbEntity
  8
0
100
AcDbLine
 10
11.98274
 20
105.0
 30
0.0
 11
12.73574
 21
105.0
 31
0.0
  0
LINE
  5
64
330
1E
100
AcDbEntity
  8
0
100
AcDbLine
 10
12.73574
 20
105.0
 30
0.0
 11
49.26874
 21
105.0
 31
0.0
  0
LINE
  5
6A
330
1E
100
AcDbEntity
  8
0
100
AcDbLine
 10
14.87074
 20
205.242
 30
0.0
 11
14.87074
 21
209.619
 31
0.0
  0
LINE
  5
6B
330
1E
100
AcDbEntity
  8
0
100
AcDbLine
 10
14.87074
 20
205.242
 30
0.0
 11
14.87074
 21
198.898
 31
0.0
  0
LINE
  5
6C
330
1E
100
AcDbEntity
  8
0
100
AcDbLine
 10
14.87074
 20
209.619
 30
0.0
 11
14.87074
 21
213.251
 31
0.0
  0
LINE
  5
6D
330
1E
100
AcDbEntity
  8
0
100
AcDbLine
 10
14.87074
 20
209.619
 30
0.0
 11
14.87074
 21
205.242
 31
0.0
  0
LINE
  5
6E
330
1E
100
AcDbEntity
  8
0
100
AcDbLine
 10
14.87074
 20
223.952
 30
0.0
 11
14.87074
 21
224.864
 31
0.0
  0
LINE
  5
6F
330
1E
100
AcDbEntity
  8
0
100
AcDbLine
 10
14.87074
 20
223.952
 30
0.0
 11
14.87074
 21
220.294
 31
0.0
  0
LINE
  5
70
330
1E
100
AcDbEntity
  8
0
100
AcDbLine
 10
14.87074
 20
218.007
 30
0.0
 11
14.87074
 21
220.294
 31
0.0
  0
LINE
  5
71
330
1E
100
AcDbEntity
  8
0
100
AcDbLine
 10
14.87074
 20
218.007
 30
0.0
 11
14.87074
 21
213.251
 31
0.0
  0
LINE
  5
72
330
1E
100
AcDbEntity
  8
0
100
AcDbLine
 10
14.87074
 20
220.294
 30
0.0
 11
14.87074
 21
223.952
 31
0.0
  0
LINE
  5
73
330
1E
100
AcDbEntity
  8
0
100
AcDbLine
 10
14.87074
 20
220.294
 30
0.0
 11
14.87074
 21
218.007
 31
0.0
  0
LINE
  5
74
330
1E
100
AcDbEntity
  8
0
100
AcDbLine
 10
14.87074
 20
213.251
 30
0.0
 11
14.87074
 21
218.007
 31
0.0
  0
LINE
  5
75
330
1E
100
AcDbEntity
  8
0
100
AcDbLine
 10
14.87074
 20
213.251
 30
0.0
 11
14.87074
 21
209.619
 31
0.0
  0
LINE
  5
76
330
1E
100
AcDbEntity
  8
0
100
AcDbLine
 10
14.87074
 20
224.864
 30
0.0
 11
14.87074
 21
226.892
 31
0.0
  0
LINE
  5
77
330
1E
100
AcDbEntity
  8
0
100
AcDbLine
 10
14.87074
 20
224.864
 30
0.0
 11
14.87074
 21
223.952
 31
0.0
  0
LINE
  5
78
330
1E
100
AcDbEntity
  8
0
100
AcDbLine
 10
14.87074
 20
198.898
 30
0.0
 11
14.87074
 21
105.0
 31
0.0
  0
LINE
  5
79
330
1E
100
AcDbEntity
  8
0
100
AcDbLine
 10
14.87074
 20
198.898
 30
0.0
 11
14.87074
 21
205.242
 31
0.0
  0
LINE
  5
84
330
1E
100
AcDbEntity
  8
0
100
AcDbLine
 10
30.59064
 20
225.997
 30
0.0
 11
30.87074
 21
226.0
 31
0.0
  0
LINE
  5
86
330
1E
100
AcDbEntity
  8
0
100
AcDbLine
 10
31.15084
 20
225.997
 30
0.0
 11
32.27084
 21
226.031
 31
0.0
  0
LINE
  5
87
330
1E
100
AcDbEntity
  8
0
100
AcDbLine
 10
25.21494
 20
226.594
 30
0.0
 11
26.22494
 21
226.39
 31
0.0
  0
LINE
  5
88
330
1E
100
AcDbEntity
  8
0
100
AcDbLine
 10
26.22494
 20
226.39
 30
0.0
 11
27.27724
 21
226.228
 31
0.0
  0
LINE
  5
89
330
1E
100
AcDbEntity
  8
0
100
AcDbLine
 10
27.27724
 20
226.228
 30
0.0
 11
28.36284
 21
226.108
 31
0.0
  0
LINE
  5
8A
330
1E
100
AcDbEntity
  8
0
100
AcDbLine
 10
28.36284
 20
226.108
 30
0.0
 11
29.47064
 21
226.031
 31
0.0
  0
LINE
  5
8B
330
1E
100
AcDbEntity
  8
0
100
AcDbLine
 10
29.47064
 20
226.031
 30
0.0
 11
30.59064
 21
225.997
 31
0.0
  0
LINE
  5
8E
330
1E
100
AcDbEntity
  8
0
100
AcDbLine
 10
29.97514
 20
226.656
 30
0.0
 11
30.87074
 21
226.642
 31
0.0
  0
LINE
  5
8F
330
1E
100
AcDbEntity
  8
0
100
AcDbLine
 10
29.90654
 20
226.612
 30
0.0
 11
30.87074
 21
226.594
 31
0.0
  0
LINE
  5
91
330
1E
100
AcDbEntity
  8
0
100
AcDbLine
 10
30.87074
 20
226.642
 30
0.0
 11
31.76634
 21
226.656
 31
0.0
  0
LINE
  5
92
330
1E
100
AcDbEntity
  8
0
100
AcDbLine
 10
27.90684
 20
226.821
 30
0.0
 11
28.92984
 21
226.717
 31
0.0
  0
LINE
  5
93
330
1E
100
AcDbEntity
  8
0
100
AcDbLine
 10
27.87454
 20
226.779
 30
0.0
 11
28.87944
 21
226.674
 31
0.0
  0
LINE
  5
94
330
1E
100
AcDbEntity
  8
0
100
AcDbLine
 10
28.92984
 20
226.717
 30
0.0
 11
29.97514
 21
226.656
 31
0.0
  0
LINE
  5
95
330
1E
100
AcDbEntity
  8
0
100
AcDbLine
 10
28.87944
 20
226.674
 30
0.0
 11
29.90654
 21
226.612
 31
0.0
  0
LINE
  5
96
330
1E
100
AcDbEntity
  8
0
100
AcDbLine
 10
24.25544
 20
226.836
 30
0.0
 11
25.21494
 21
226.594
 31
0.0
  0
LINE
  5
99
330
1E
100
AcDbEntity
  8
0
100
AcDbLine
 10
31.76634
 20
226.656
 30
0.0
 11
32.81164
 21
226.717
 31
0.0
  0
LINE
  5
9A
330
1E
100
AcDbEntity
  8
0
100
AcDbLine
 10
31.83494
 20
226.612
 30
0.0
 11
32.86204
 21
226.674
 31
0.0
  0
LINE
  5
9B
330
1E
100
AcDbEntity
  8
0
100
AcDbLine
 10
30.87074
 20
226.594
 30
0.0
 11
31.83494
 21
226.612
 31
0.0
  0
LINE
  5
9D
330
1E
100
AcDbEntity
  8
0
100
AcDbLine
 10
32.81164
 20
226.717
 30
0.0
 11
33.83464
 21
226.821
 31
0.0
  0
LINE
  5
9E
330
1E
100
AcDbEntity
  8
0
100
AcDbLine
 10
33.83464
 20
226.821
 30
0.0
 11
34.82644
 21
226.969
 31
0.0
  0
LINE
  5
9F
330
1E
100
AcDbEntity
  8
0
100
AcDbLine
 10
33.86694
 20
226.779
 30
0.0
 11
34.84264
 21
226.925
 31
0.0
  0
LINE
  5
A0
330
1E
100
AcDbEntity
  8
0
100
AcDbLine
 10
32.86204
 20
226.674
 30
0.0
 11
33.86694
 21
226.779
 31
0.0
  0
LINE
  5
A1
330
1E
100
AcDbEntity
  8
0
100
AcDbLine
 10
35.51654
 20
226.39
 30
0.0
 11
36.52654
 21
226.594
 31
0.0
  0
LINE
  5
A2
330
1E
100
AcDbEntity
  8
0
100
AcDbLine
 10
34.46424
 20
226.228
 30
0.0
 11
35.51654
 21
226.39
 31
0.0
  0
LINE
  5
A3
330
1E
100
AcDbEntity
  8
0
100
AcDbLine
 10
33.37864
 20
226.108
 30
0.0
 11
34.46424
 21
226.228
 31
0.0
  0
LINE
  5
A4
330
1E
100
AcDbEntity
  8
0
100
AcDbLine
 10
32.27084
 20
226.031
 30
0.0
 11
33.37864
 21
226.108
 31
0.0
  0
LINE
  5
A5
330
1E
100
AcDbEntity
  8
0
100
AcDbLine
 10
30.87074
 20
226.0
 30
0.0
 11
31.15084
 21
225.997
 31
0.0
  0
LINE
  5
A6
330
1E
100
AcDbEntity
  8
0
100
AcDbLine
 10
36.75604
 20
0.0
 30
0.0
 11
42.30314
 21
0.0
 31
0.0
  0
LINE
  5
A7
330
1E
100
AcDbEntity
  8
0
100
AcDbLine
 10
36.55314
 20
5.0
 30
0.0
 11
41.82954
 21
5.0
 31
0.0
  0
LINE
  5
A8
330
1E
100
AcDbEntity
  8
0
100
AcDbLine
 10
36.75604
 20
4.71154
 30
0.0
 11
42.30314
 21
4.71154
 31
0.0
  0
LINE
  5
A9
330
1E
100
AcDbEntity
  8
0
100
AcDbLine
 10
36.75604
 20
0.0
 30
0.0
 11
42.30314
 21
0.0
 31
0.0
  0
LINE
  5
AB
330
1E
100
AcDbEntity
  8
0
100
AcDbLine
 10
36.52654
 20
226.594
 30
0.0
 11
37.48604
 21
226.836
 31
0.0
  0
LINE
  5
AC
330
1E
100
AcDbEntity
  8
0
100
AcDbLine
 10
14.87074
 20
226.892
 30
0.0
 11
14.87074
 21
229.348
 31
0.0
  0
LINE
  5
AD
330
1E
100
AcDbEntity
  8
0
100
AcDbLine
 10
14.87074
 20
226.892
 30
0.0
 11
14.87074
 21
224.864
 31
0.0
  0
LINE
  5
AE
330
1E
100
AcDbEntity
  8
0
100
AcDbLine
 10
26.91504
 20
226.969
 30
0.0
 11
27.90684
 21
226.821
 31
0.0
  0
LINE
  5
AF
330
1E
100
AcDbEntity
  8
0
100
AcDbLine
 10
26.89884
 20
226.925
 30
0.0
 11
27.87454
 21
226.779
 31
0.0
  0
LINE
  5
B0
330
1E
100
AcDbEntity
  8
0
100
AcDbLine
 10
25.96464
 20
227.111
 30
0.0
 11
26.89884
 21
226.925
 31
0.0
  0
LINE
  5
B1
330
1E
100
AcDbEntity
  8
0
100
AcDbLine
 10
34.82644
 20
226.969
 30
0.0
 11
35.77684
 21
227.158
 31
0.0
  0
LINE
  5
B2
330
1E
100
AcDbEntity
  8
0
100
AcDbLine
 10
34.84264
 20
226.925
 30
0.0
 11
35.77684
 21
227.111
 31
0.0
  0
LINE
  5
B3
330
1E
100
AcDbEntity
  8
0
100
AcDbLine
 10
20.38214
 20
228.645
 30
0.0
 11
20.51224
 21
228.539
 31
0.0
  0
LINE
  5
B4
330
1E
100
AcDbEntity
  8
0
100
AcDbLine
 10
20.51224
 20
228.539
 30
0.0
 11
21.09644
 21
228.142
 31
0.0
  0
LINE
  5
B5
330
1E
100
AcDbEntity
  8
0
100
AcDbLine
 10
21.09644
 20
228.142
 30
0.0
 11
21.76944
 21
227.77
 31
0.0
  0
LINE
  5
B6
330
1E
100
AcDbEntity
  8
0
100
AcDbLine
 10
22.08524
 20
228.7
 30
0.0
 11
22.69264
 21
228.327
 31
0.0
  0
LINE
  5
B7
330
1E
100
AcDbEntity
  8
0
100
AcDbLine
 10
21.76944
 20
227.77
 30
0.0
 11
22.52514
 21
227.427
 31
0.0
  0
LINE
  5
B8
330
1E
100
AcDbEntity
  8
0
100
AcDbLine
 10
14.87074
 20
229.348
 30
0.0
 11
14.87074
 21
231.677
 31
0.0
  0
LINE
  5
B9
330
1E
100
AcDbEntity
  8
0
100
AcDbLine
 10
14.87074
 20
229.348
 30
0.0
 11
14.87074
 21
226.892
 31
0.0
  0
LINE
  5
BA
330
1E
100
AcDbEntity
  8
0
100
AcDbLine
 10
19.48824
 20
229.509
 30
0.0
 11
19.88574
 21
229.068
 31
0.0
  0
LINE
  5
BB
330
1E
100
AcDbEntity
  8
0
100
AcDbLine
 10
21.57674
 20
229.098
 30
0.0
 11
22.08524
 21
228.7
 31
0.0
  0
LINE
  5
BC
330
1E
100
AcDbEntity
  8
0
100
AcDbLine
 10
21.17314
 20
229.516
 30
0.0
 11
21.57674
 21
229.098
 31
0.0
  0
LINE
  5
BD
330
1E
100
AcDbEntity
  8
0
100
AcDbLine
 10
20.97744
 20
229.738
 30
0.0
 11
21.29524
 21
229.33
 31
0.0
  0
LINE
  5
BE
330
1E
100
AcDbEntity
  8
0
100
AcDbLine
 10
21.29524
 20
229.33
 30
0.0
 11
21.70994
 21
228.937
 31
0.0
  0
LINE
  5
BF
330
1E
100
AcDbEntity
  8
0
100
AcDbLine
 10
19.88574
 20
229.068
 30
0.0
 11
20.38214
 21
228.645
 31
0.0
  0
LINE
  5
C0
330
1E
100
AcDbEntity
  8
0
100
AcDbLine
 10
21.70994
 20
228.937
 30
0.0
 11
22.21944
 21
228.564
 31
0.0
  0
LINE
  5
C1
330
1E
100
AcDbEntity
  8
0
100
AcDbLine
 10
29.48684
 20
227.269
 30
0.0
 11
30.48774
 21
227.227
 31
0.0
  0
LINE
  5
C3
330
1E
100
AcDbEntity
  8
0
100
AcDbLine
 10
30.48774
 20
227.227
 30
0.0
 11
30.87074
 21
227.229
 31
0.0
  0
LINE
  5
C5
330
1E
100
AcDbEntity
  8
0
100
AcDbLine
 10
25.96464
 20
227.158
 30
0.0
 11
26.91504
 21
226.969
 31
0.0
  0
LINE
  5
C6
330
1E
100
AcDbEntity
  8
0
100
AcDbLine
 10
24.17774
 20
227.67
 30
0.0
 11
25.03844
 21
227.394
 31
0.0
  0
LINE
  5
C7
330
1E
100
AcDbEntity
  8
0
100
AcDbLine
 10
22.55234
 20
229.654
 30
0.0
 11
22.90444
 21
229.303
 31
0.0
  0
LINE
  5
C8
330
1E
100
AcDbEntity
  8
0
100
AcDbLine
 10
22.69264
 20
228.327
 30
0.0
 11
23.39284
 21
227.982
 31
0.0
  0
LINE
  5
C9
330
1E
100
AcDbEntity
  8
0
100
AcDbLine
 10
23.34444
 20
228.968
 30
0.0
 11
23.86504
 21
228.654
 31
0.0
  0
LINE
  5
CA
330
1E
100
AcDbEntity
  8
0
100
AcDbLine
 10
22.90444
 20
229.303
 30
0.0
 11
23.34444
 21
228.968
 31
0.0
  0
LINE
  5
CB
330
1E
100
AcDbEntity
  8
0
100
AcDbLine
 10
23.86504
 20
228.654
 30
0.0
 11
24.46124
 21
228.365
 31
0.0
  0
LINE
  5
CC
330
1E
100
AcDbEntity
  8
0
100
AcDbLine
 10
23.39284
 20
227.982
 30
0.0
 11
24.17774
 21
227.67
 31
0.0
  0
LINE
  5
CD
330
1E
100
AcDbEntity
  8
0
100
AcDbLine
 10
22.81874
 20
228.213
 30
0.0
 11
23.49874
 21
227.889
 31
0.0
  0
LINE
  5
CE
330
1E
100
AcDbEntity
  8
0
100
AcDbLine
 10
23.49874
 20
227.889
 30
0.0
 11
24.25544
 21
227.596
 31
0.0
  0
LINE
  5
CF
330
1E
100
AcDbEntity
  8
0
100
AcDbLine
 10
25.03844
 20
227.394
 30
0.0
 11
25.96464
 21
227.158
 31
0.0
  0
LINE
  5
D0
330
1E
100
AcDbEntity
  8
0
100
AcDbLine
 10
25.12824
 20
228.102
 30
0.0
 11
25.85764
 21
227.87
 31
0.0
  0
LINE
  5
D1
330
1E
100
AcDbEntity
  8
0
100
AcDbLine
 10
24.46124
 20
228.365
 30
0.0
 11
25.12824
 21
228.102
 31
0.0
  0
LINE
  5
D2
330
1E
100
AcDbEntity
  8
0
100
AcDbLine
 10
25.85764
 20
227.87
 30
0.0
 11
26.64164
 21
227.67
 31
0.0
  0
LINE
  5
D3
330
1E
100
AcDbEntity
  8
0
100
AcDbLine
 10
26.64164
 20
227.67
 30
0.0
 11
27.55064
 21
227.492
 31
0.0
  0
LINE
  5
D4
330
1E
100
AcDbEntity
  8
0
100
AcDbLine
 10
27.55064
 20
227.492
 30
0.0
 11
28.50314
 21
227.358
 31
0.0
  0
LINE
  5
D5
330
1E
100
AcDbEntity
  8
0
100
AcDbLine
 10
28.50314
 20
227.358
 30
0.0
 11
29.48684
 21
227.269
 31
0.0
  0
LINE
  5
D6
330
1E
100
AcDbEntity
  8
0
100
AcDbLine
 10
30.42214
 20
229.92
 30
0.0
 11
30.87074
 21
229.921
 31
0.0
  0
LINE
  5
D7
330
1E
100
AcDbEntity
  8
0
100
AcDbLine
 10
24.25544
 20
227.596
 30
0.0
 11
25.08074
 21
227.335
 31
0.0
  0
LINE
  5
D8
330
1E
100
AcDbEntity
  8
0
100
AcDbLine
 10
25.08074
 20
227.335
 30
0.0
 11
25.96464
 21
227.111
 31
0.0
  0
LINE
  5
D9
330
1E
100
AcDbEntity
  8
0
100
AcDbLine
 10
22.52514
 20
227.427
 30
0.0
 11
23.35644
 21
227.114
 31
0.0
  0
LINE
  5
DA
330
1E
100
AcDbEntity
  8
0
100
AcDbLine
 10
23.35644
 20
227.114
 30
0.0
 11
24.25544
 21
226.836
 31
0.0
  0
LINE
  5
DB
330
1E
100
AcDbEntity
  8
0
100
AcDbLine
 10
22.21944
 20
228.564
 30
0.0
 11
22.81874
 21
228.213
 31
0.0
  0
LINE
  5
DC
330
1E
100
AcDbEntity
  8
0
100
AcDbLine
 10
18.14344
 20
231.155
 30
0.0
 11
18.90464
 21
230.491
 31
0.0
  0
LINE
  5
DD
330
1E
100
AcDbEntity
  8
0
100
AcDbLine
 10
17.38807
 20
231.98
 30
0.0
 11
18.14344
 21
231.155
 31
0.0
  0
LINE
  5
DE
330
1E
100
AcDbEntity
  8
0
100
AcDbLine
 10
14.87074
 20
231.677
 30
0.0
 11
14.87074
 21
234.794
 31
0.0
  0
LINE
  5
DF
330
1E
100
AcDbEntity
  8
0
100
AcDbLine
 10
14.87074
 20
231.677
 30
0.0
 11
14.87074
 21
229.348
 31
0.0
  0
LINE
  5
E0
330
1E
100
AcDbEntity
  8
0
100
AcDbLine
 10
18.87074
 20
231.315
 30
0.0
 11
18.87754
 21
231.198
 31
0.0
  0
LINE
  5
E1
330
1E
100
AcDbEntity
  8
0
100
AcDbLine
 10
18.87074
 20
231.315
 30
0.0
 11
18.87074
 21
234.700555663117
 31
0.0
  0
LINE
  5
E2
330
1E
100
AcDbEntity
  8
0
100
AcDbLine
 10
18.90464
 20
230.491
 30
0.0
 11
19.010655845996
 21
230.415379075845
 31
0.0
  0
LINE
  5
E3
330
1E
100
AcDbEntity
  8
0
100
AcDbLine
 10
18.95244
 20
230.61
 30
0.0
 11
19.00594
 21
230.427
 31
0.0
  0
LINE
  5
E4
330
1E
100
AcDbEntity
  8
0
100
AcDbLine
 10
19.00594
 20
230.427
 30
0.0
 11
19.19464
 21
229.962
 31
0.0
  0
LINE
  5
E5
330
1E
100
AcDbEntity
  8
0
100
AcDbLine
 10
19.19464
 20
229.962
 30
0.0
 11
19.48824
 21
229.509
 31
0.0
  0
LINE
  5
E6
330
1E
100
AcDbEntity
  8
0
100
AcDbLine
 10
22.29104
 20
230.02
 30
0.0
 11
22.55234
 21
229.654
 31
0.0
  0
LINE
  5
E7
330
1E
100
AcDbEntity
  8
0
100
AcDbLine
 10
20.88054
 20
229.95
 30
0.0
 11
21.17314
 21
229.516
 31
0.0
  0
LINE
  5
E8
330
1E
100
AcDbEntity
  8
0
100
AcDbLine
 10
28.47184
 20
230.053
 30
0.0
 11
29.43844
 21
229.963
 31
0.0
  0
LINE
  5
E9
330
1E
100
AcDbEntity
  8
0
100
AcDbLine
 10
29.43844
 20
229.963
 30
0.0
 11
30.42214
 21
229.92
 31
0.0
  0
LINE
  5
EB
330
1E
100
AcDbEntity
  8
0
100
AcDbLine
 10
20.703674688947
 20
230.382423998389
 30
0.0
 11
20.88054
 21
229.95
 31
0.0
  0
LINE
  5
EC
330
1E
100
AcDbEntity
  8
0
100
AcDbLine
 10
22.12254
 20
230.394
 30
0.0
 11
22.12254
 21
231.353
 31
0.0
  0
LINE
  5
ED
330
1E
100
AcDbEntity
  8
0
100
AcDbLine
 10
22.12254
 20
230.394
 30
0.0
 11
22.29104
 21
230.02
 31
0.0
  0
LINE
  5
EE
330
1E
100
AcDbEntity
  8
0
100
AcDbLine
 10
25.80114
 20
230.578
 30
0.0
 11
26.64164
 21
230.361
 31
0.0
  0
LINE
  5
EF
330
1E
100
AcDbEntity
  8
0
100
AcDbLine
 10
20.700638360656
 20
230.394
 30
0.0
 11
22.12254
 21
230.394
 31
0.0
  0
LINE
  5
F0
330
1E
100
AcDbEntity
  8
0
100
AcDbLine
 10
26.64164
 20
230.361
 30
0.0
 11
27.53554
 21
230.186
 31
0.0
  0
LINE
  5
F1
330
1E
100
AcDbEntity
  8
0
100
AcDbLine
 10
27.53554
 20
230.186
 30
0.0
 11
28.47184
 21
230.053
 31
0.0
  0
LINE
  5
F2
330
1E
100
AcDbEntity
  8
0
100
AcDbLine
 10
20.65054
 20
230.585
 30
0.0
 11
20.76254
 21
230.158
 31
0.0
  0
LINE
  5
F3
330
1E
100
AcDbEntity
  8
0
100
AcDbLine
 10
20.76254
 20
230.158
 30
0.0
 11
20.97744
 21
229.738
 31
0.0
  0
LINE
  5
FC
330
1E
100
AcDbEntity
  8
0
100
AcDbLine
 10
20.724943755868
 20
231.353
 30
0.0
 11
22.12254
 21
231.353
 31
0.0
  0
LINE
  5
FD
330
1E
100
AcDbEntity
  8
0
100
AcDbLine
 10
20.65054
 20
231.07
 30
0.0
 11
20.76254
 21
231.496
 31
0.0
  0
LINE
  5
FE
330
1E
100
AcDbEntity
  8
0
100
AcDbLine
 10
22.12254
 20
231.353
 30
0.0
 11
22.12254
 21
230.394
 31
0.0
  0
LINE
  5
FF
330
1E
100
AcDbEntity
  8
0
100
AcDbLine
 10
22.12254
 20
231.353
 30
0.0
 11
22.29104
 21
231.728
 31
0.0
  0
LINE
  5
100
330
1E
100
AcDbEntity
  8
0
100
AcDbLine
 10
20.76254
 20
231.496
 30
0.0
 11
20.97744
 21
231.915
 31
0.0
  0
LINE
  5
101
330
1E
100
AcDbEntity
  8
0
100
AcDbLine
 10
22.55234
 20
232.093
 30
0.0
 11
22.90444
 21
232.445
 31
0.0
  0
LINE
  5
102
330
1E
100
AcDbEntity
  8
0
100
AcDbLine
 10
22.29104
 20
231.728
 30
0.0
 11
22.55234
 21
232.093
 31
0.0
  0
LINE
  5
103
330
1E
100
AcDbEntity
  8
0
100
AcDbLine
 10
20.97744
 20
231.915
 30
0.0
 11
21.29524
 21
232.325
 31
0.0
  0
LINE
  5
104
330
1E
100
AcDbEntity
  8
0
100
AcDbLine
 10
21.29524
 20
232.325
 30
0.0
 11
21.70994
 21
232.718
 31
0.0
  0
LINE
  5
105
330
1E
100
AcDbEntity
  8
0
100
AcDbLine
 10
21.70994
 20
232.718
 30
0.0
 11
22.21944
 21
233.091
 31
0.0
  0
LINE
  5
106
330
1E
100
AcDbEntity
  8
0
100
AcDbLine
 10
22.90444
 20
232.445
 30
0.0
 11
23.34444
 21
232.778
 31
0.0
  0
LINE
  5
107
330
1E
100
AcDbEntity
  8
0
100
AcDbLine
 10
22.677858154989
 20
232.218482506549
 30
0.0
 11
22.73504
 21
232.152
 31
0.0
  0
LINE
  5
108
330
1E
100
AcDbEntity
  8
0
100
AcDbLine
 10
22.73504
 20
232.152
 30
0.0
 11
23.16884
 21
231.784
 31
0.0
  0
LINE
  5
109
330
1E
100
AcDbEntity
  8
0
100
AcDbLine
 10
23.34444
 20
232.778
 30
0.0
 11
23.86504
 21
233.092
 31
0.0
  0
LINE
  5
10A
330
1E
100
AcDbEntity
  8
0
100
AcDbLine
 10
23.16884
 20
231.784
 30
0.0
 11
23.69954
 21
231.439
 31
0.0
  0
LINE
  5
10B
330
1E
100
AcDbEntity
  8
0
100
AcDbLine
 10
23.69954
 20
231.439
 30
0.0
 11
24.32004
 21
231.12
 31
0.0
  0
LINE
  5
10C
330
1E
100
AcDbEntity
  8
0
100
AcDbLine
 10
25.02324
 20
230.832
 30
0.0
 11
25.80114
 21
230.578
 31
0.0
  0
LINE
  5
10D
330
1E
100
AcDbEntity
  8
0
100
AcDbLine
 10
24.32004
 20
231.12
 30
0.0
 11
25.02324
 21
230.832
 31
0.0
  0
LINE
  5
10E
330
1E
100
AcDbEntity
  8
0
100
AcDbLine
 10
20.64654
 20
230.827
 30
0.0
 11
20.65054
 21
230.585
 31
0.0
  0
LINE
  5
10F
330
1E
100
AcDbEntity
  8
0
100
AcDbLine
 10
20.64654
 20
230.827
 30
0.0
 11
20.65054
 21
231.07
 31
0.0
  0
LINE
  5
111
330
1E
100
AcDbEntity
  8
0
100
AcDbLine
 10
18.87074
 20
231.081
 30
0.0
 11
18.95244
 21
230.61
 31
0.0
  0
LINE
  5
112
330
1E
100
AcDbEntity
  8
0
100
AcDbLine
 10
18.87074
 20
231.081
 30
0.0
 11
18.87074
 21
234.700555663117
 31
0.0
  0
LINE
  5
113
330
1E
100
AcDbEntity
  8
0
100
AcDbLine
 10
30.87074
 20
229.921
 30
0.0
 11
31.31934
 21
229.92
 31
0.0
  0
LINE
  5
114
330
1E
100
AcDbEntity
  8
0
100
AcDbLine
 10
35.77684
 20
227.158
 30
0.0
 11
36.70304
 21
227.394
 31
0.0
  0
LINE
  5
115
330
1E
100
AcDbEntity
  8
0
100
AcDbLine
 10
35.88384
 20
227.87
 30
0.0
 11
36.61324
 21
228.102
 31
0.0
  0
LINE
  5
116
330
1E
100
AcDbEntity
  8
0
100
AcDbLine
 10
35.94034
 20
230.578
 30
0.0
 11
36.71824
 21
230.832
 31
0.0
  0
LINE
  5
117
330
1E
100
AcDbEntity
  8
0
100
AcDbLine
 10
36.61324
 20
228.102
 30
0.0
 11
37.28024
 21
228.365
 31
0.0
  0
LINE
  5
118
330
1E
100
AcDbEntity
  8
0
100
AcDbLine
 10
35.09984
 20
230.361
 30
0.0
 11
35.94034
 21
230.578
 31
0.0
  0
LINE
  5
119
330
1E
100
AcDbEntity
  8
0
100
AcDbLine
 10
35.09984
 20
227.67
 30
0.0
 11
35.88384
 21
227.87
 31
0.0
  0
LINE
  5
11A
330
1E
100
AcDbEntity
  8
0
100
AcDbLine
 10
34.20594
 20
230.186
 30
0.0
 11
35.09984
 21
230.361
 31
0.0
  0
LINE
  5
11B
330
1E
100
AcDbEntity
  8
0
100
AcDbLine
 10
34.19084
 20
227.492
 30
0.0
 11
35.09984
 21
227.67
 31
0.0
  0
LINE
  5
11C
330
1E
100
AcDbEntity
  8
0
100
AcDbLine
 10
33.26964
 20
230.053
 30
0.0
 11
34.20594
 21
230.186
 31
0.0
  0
LINE
  5
11D
330
1E
100
AcDbEntity
  8
0
100
AcDbLine
 10
33.23834
 20
227.358
 30
0.0
 11
34.19084
 21
227.492
 31
0.0
  0
LINE
  5
11E
330
1E
100
AcDbEntity
  8
0
100
AcDbLine
 10
32.30304
 20
229.963
 30
0.0
 11
33.26964
 21
230.053
 31
0.0
  0
LINE
  5
11F
330
1E
100
AcDbEntity
  8
0
100
AcDbLine
 10
32.25464
 20
227.269
 30
0.0
 11
33.23834
 21
227.358
 31
0.0
  0
LINE
  5
120
330
1E
100
AcDbEntity
  8
0
100
AcDbLine
 10
31.31934
 20
229.92
 30
0.0
 11
32.30304
 21
229.963
 31
0.0
  0
LINE
  5
121
330
1E
100
AcDbEntity
  8
0
100
AcDbLine
 10
31.25374
 20
227.227
 30
0.0
 11
32.25464
 21
227.269
 31
0.0
  0
LINE
  5
122
330
1E
100
AcDbEntity
  8
0
100
AcDbLine
 10
30.87074
 20
227.229
 30
0.0
 11
31.25374
 21
227.227
 31
0.0
  0
LINE
  5
123
330
1E
100
AcDbEntity
  8
0
100
AcDbLine
 10
16.69377
 20
232.957
 30
0.0
 11
17.38807
 21
231.98
 31
0.0
  0
LINE
  5
124
330
1E
100
AcDbEntity
  8
0
100
AcDbLine
 10
15.859016455648
 20
234.654429517499
 30
0.0
 11
16.69377
 21
232.957
 31
0.0
  0
LINE
  5
126
330
1E
100
AcDbEntity
  8
0
100
AcDbLine
 10
18.75824
 20
234.278
 30
0.0
 11
18.87074
 21
233.619662633107
 31
0.0
  0
LINE
  5
127
330
1E
100
AcDbEntity
  8
0
100
AcDbLine
 10
18.75824
 20
234.278
 30
0.0
 11
18.96484
 21
235.054
 31
0.0
  0
LINE
  5
128
330
1E
100
AcDbEntity
  8
0
100
AcDbLine
 10
23.86504
 20
233.092
 30
0.0
 11
24.46124
 21
233.383
 31
0.0
  0
LINE
  5
129
330
1E
100
AcDbEntity
  8
0
100
AcDbLine
 10
22.81874
 20
233.441
 30
0.0
 11
23.49874
 21
233.764
 31
0.0
  0
LINE
  5
12A
330
1E
100
AcDbEntity
  8
0
100
AcDbLine
 10
23.49874
 20
233.764
 30
0.0
 11
24.25544
 21
234.058
 31
0.0
  0
LINE
  5
12B
330
1E
100
AcDbEntity
  8
0
100
AcDbLine
 10
25.12824
 20
233.644
 30
0.0
 11
25.85764
 21
233.877
 31
0.0
  0
LINE
  5
12C
330
1E
100
AcDbEntity
  8
0
100
AcDbLine
 10
24.46124
 20
233.383
 30
0.0
 11
25.12824
 21
233.644
 31
0.0
  0
LINE
  5
12D
330
1E
100
AcDbEntity
  8
0
100
AcDbLine
 10
25.85764
 20
233.877
 30
0.0
 11
26.64164
 21
234.077
 31
0.0
  0
LINE
  5
12E
330
1E
100
AcDbEntity
  8
0
100
AcDbLine
 10
26.64164
 20
234.077
 30
0.0
 11
27.55064
 21
234.256
 31
0.0
  0
LINE
  5
12F
330
1E
100
AcDbEntity
  8
0
100
AcDbLine
 10
27.55064
 20
234.256
 30
0.0
 11
28.50314
 21
234.39
 31
0.0
  0
LINE
  5
130
330
1E
100
AcDbEntity
  8
0
100
AcDbLine
 10
24.25544
 20
234.058
 30
0.0
 11
25.08074
 21
234.318
 31
0.0
  0
LINE
  5
131
330
1E
100
AcDbEntity
  8
0
100
AcDbLine
 10
28.50314
 20
234.39
 30
0.0
 11
29.48684
 21
234.478
 31
0.0
  0
LINE
  5
132
330
1E
100
AcDbEntity
  8
0
100
AcDbLine
 10
25.08074
 20
234.318
 30
0.0
 11
25.96464
 21
234.543
 31
0.0
  0
LINE
  5
133
330
1E
100
AcDbEntity
  8
0
100
AcDbLine
 10
22.21944
 20
233.091
 30
0.0
 11
22.81874
 21
233.441
 31
0.0
  0
LINE
  5
134
330
1E
100
AcDbEntity
  8
0
100
AcDbLine
 10
29.48684
 20
234.478
 30
0.0
 11
30.48774
 21
234.521
 31
0.0
  0
LINE
  5
136
330
1E
100
AcDbEntity
  8
0
100
AcDbLine
 10
15.79874
 20
234.772
 30
0.0
 11
15.859016455648
 21
234.654429517499
 31
0.0
  0
LINE
  5
138
330
1E
100
AcDbEntity
  8
0
100
AcDbLine
 10
14.87074
 20
234.794
 30
0.0
 11
14.87074
 21
237.422
 31
0.0
  0
LINE
  5
139
330
1E
100
AcDbEntity
  8
0
100
AcDbLine
 10
14.87074
 20
234.794
 30
0.0
 11
14.87074
 21
231.677
 31
0.0
  0
LINE
  5
13A
330
1E
100
AcDbEntity
  8
0
100
AcDbLine
 10
25.96464
 20
234.543
 30
0.0
 11
26.89884
 21
234.729
 31
0.0
  0
LINE
  5
13B
330
1E
100
AcDbEntity
  8
0
100
AcDbLine
 10
30.48774
 20
234.521
 30
0.0
 11
30.87074
 21
234.518
 31
0.0
  0
LINE
  5
13D
330
1E
100
AcDbEntity
  8
0
100
AcDbLine
 10
26.89884
 20
234.729
 30
0.0
 11
27.87454
 21
234.875
 31
0.0
  0
LINE
  5
13E
330
1E
100
AcDbEntity
  8
0
100
AcDbLine
 10
27.87454
 20
234.875
 30
0.0
 11
28.87944
 21
234.981
 31
0.0
  0
LINE
  5
13F
330
1E
100
AcDbEntity
  8
0
100
AcDbLine
 10
18.87074
 20
234.700555663117
 30
0.0
 11
18.87074
 21
231.081
 31
0.0
  0
LINE
  5
140
330
1E
100
AcDbEntity
  8
0
100
AcDbLine
 10
18.87074
 20
234.700555663117
 30
0.0
 11
18.87074
 21
231.315
 31
0.0
  0
LINE
  5
141
330
1E
100
AcDbEntity
  8
0
100
AcDbLine
 10
18.96484
 20
235.054
 30
0.0
 11
19.77544
 21
236.13
 31
0.0
  0
LINE
  5
142
330
1E
100
AcDbEntity
  8
0
100
AcDbLine
 10
28.87944
 20
234.981
 30
0.0
 11
29.90654
 21
235.043
 31
0.0
  0
LINE
  5
143
330
1E
100
AcDbEntity
  8
0
100
AcDbLine
 10
29.90654
 20
235.043
 30
0.0
 11
30.87074
 21
235.06
 31
0.0
  0
LINE
  5
147
330
1E
100
AcDbEntity
  8
0
100
AcDbLine
 10
31.25374
 20
234.521
 30
0.0
 11
32.25464
 21
234.478
 31
0.0
  0
LINE
  5
148
330
1E
100
AcDbEntity
  8
0
100
AcDbLine
 10
30.87074
 20
234.518
 30
0.0
 11
31.25374
 21
234.521
 31
0.0
  0
LINE
  5
149
330
1E
100
AcDbEntity
  8
0
100
AcDbLine
 10
33.23834
 20
234.39
 30
0.0
 11
34.19084
 21
234.256
 31
0.0
  0
LINE
  5
14A
330
1E
100
AcDbEntity
  8
0
100
AcDbLine
 10
32.25464
 20
234.478
 30
0.0
 11
33.23834
 21
234.39
 31
0.0
  0
LINE
  5
14B
330
1E
100
AcDbEntity
  8
0
100
AcDbLine
 10
32.86204
 20
234.981
 30
0.0
 11
33.86694
 21
234.875
 31
0.0
  0
LINE
  5
14C
330
1E
100
AcDbEntity
  8
0
100
AcDbLine
 10
31.83494
 20
235.043
 30
0.0
 11
32.86204
 21
234.981
 31
0.0
  0
LINE
  5
14D
330
1E
100
AcDbEntity
  8
0
100
AcDbLine
 10
14.87074
 20
238.916
 30
0.0
 11
14.87074
 21
238.976
 31
0.0
  0
LINE
  5
14E
330
1E
100
AcDbEntity
  8
0
100
AcDbLine
 10
14.87074
 20
238.916
 30
0.0
 11
14.87268
 21
238.722
 31
0.0
  0
LINE
  5
14F
330
1E
100
AcDbEntity
  8
0
100
AcDbLine
 10
14.87074
 20
238.976
 30
0.0
 11
14.87074
 21
244.493
 31
0.0
  0
LINE
  5
150
330
1E
100
AcDbEntity
  8
0
100
AcDbLine
 10
14.87074
 20
238.976
 30
0.0
 11
14.87074
 21
238.916
 31
0.0
  0
LINE
  5
151
330
1E
100
AcDbEntity
  8
0
100
AcDbLine
 10
14.87074
 20
239.664
 30
0.0
 11
14.87074
 21
240.951
 31
0.0
  0
LINE
  5
152
330
1E
100
AcDbEntity
  8
0
100
AcDbLine
 10
14.87074
 20
239.664
 30
0.0
 11
14.87074
 21
237.422
 31
0.0
  0
LINE
  5
153
330
1E
100
AcDbEntity
  8
0
100
AcDbLine
 10
15.47389
 20
235.641
 30
0.0
 11
15.79874
 21
234.772
 31
0.0
  0
LINE
  5
154
330
1E
100
AcDbEntity
  8
0
100
AcDbLine
 10
15.02492
 20
237.187
 30
0.0
 11
15.21983
 21
236.419
 31
0.0
  0
LINE
  5
155
330
1E
100
AcDbEntity
  8
0
100
AcDbLine
 10
15.21983
 20
236.419
 30
0.0
 11
15.47389
 21
235.641
 31
0.0
  0
LINE
  5
156
330
1E
100
AcDbEntity
  8
0
100
AcDbLine
 10
19.77544
 20
236.13
 30
0.0
 11
21.14664
 21
237.063
 31
0.0
  0
LINE
  5
157
330
1E
100
AcDbEntity
  8
0
100
AcDbLine
 10
21.14664
 20
237.063
 30
0.0
 11
22.92014
 21
237.792
 31
0.0
  0
LINE
  5
158
330
1E
100
AcDbEntity
  8
0
100
AcDbLine
 10
14.90953
 20
237.933
 30
0.0
 11
15.02492
 21
237.187
 31
0.0
  0
LINE
  5
15A
330
1E
100
AcDbEntity
  8
0
100
AcDbLine
 10
25.05934
 20
238.342
 30
0.0
 11
27.87144
 21
238.742
 31
0.0
  0
LINE
  5
15C
330
1E
100
AcDbEntity
  8
0
100
AcDbLine
 10
27.87144
 20
238.742
 30
0.0
 11
30.87064
 21
238.876
 31
0.0
  0
LINE
  5
15E
330
1E
100
AcDbEntity
  8
0
100
AcDbLine
 10
14.89401
 20
238.281
 30
0.0
 11
14.90953
 21
237.933
 31
0.0
  0
LINE
  5
15F
330
1E
100
AcDbEntity
  8
0
100
AcDbLine
 10
14.87268
 20
238.722
 30
0.0
 11
14.89401
 21
238.281
 31
0.0
  0
LINE
  5
160
330
1E
100
AcDbEntity
  8
0
100
AcDbLine
 10
22.92014
 20
237.792
 30
0.0
 11
25.05934
 21
238.342
 31
0.0
  0
LINE
  5
162
330
1E
100
AcDbEntity
  8
0
100
AcDbLine
 10
14.87074
 20
237.422
 30
0.0
 11
14.87074
 21
234.794
 31
0.0
  0
LINE
  5
163
330
1E
100
AcDbEntity
  8
0
100
AcDbLine
 10
14.87074
 20
237.422
 30
0.0
 11
14.87074
 21
239.664
 31
0.0
  0
LINE
  5
166
330
1E
100
AcDbEntity
  8
0
100
AcDbLine
 10
14.87074
 20
240.951
 30
0.0
 11
14.87074
 21
242.061
 31
0.0
  0
LINE
  5
167
330
1E
100
AcDbEntity
  8
0
100
AcDbLine
 10
14.87074
 20
240.951
 30
0.0
 11
14.87074
 21
239.664
 31
0.0
  0
LINE
  5
171
330
1E
100
AcDbEntity
  8
0
100
AcDbLine
 10
14.87074
 20
242.061
 30
0.0
 11
14.87074
 21
243.04
 31
0.0
  0
LINE
  5
172
330
1E
100
AcDbEntity
  8
0
100
AcDbLine
 10
14.87074
 20
242.061
 30
0.0
 11
14.87074
 21
240.951
 31
0.0
  0
LINE
  5
173
330
1E
100
AcDbEntity
  8
0
100
AcDbLine
 10
14.87074
 20
243.04
 30
0.0
 11
14.87074
 21
243.615
 31
0.0
  0
LINE
  5
174
330
1E
100
AcDbEntity
  8
0
100
AcDbLine
 10
14.87074
 20
243.04
 30
0.0
 11
14.87074
 21
242.061
 31
0.0
  0
LINE
  5
175
330
1E
100
AcDbEntity
  8
0
100
AcDbLine
 10
14.87074
 20
244.493
 30
0.0
 11
14.87074
 21
246.839
 31
0.0
  0
LINE
  5
176
330
1E
100
AcDbEntity
  8
0
100
AcDbLine
 10
14.87074
 20
244.493
 30
0.0
 11
14.87074
 21
238.976
 31
0.0
  0
LINE
  5
177
330
1E
100
AcDbEntity
  8
0
100
AcDbLine
 10
14.87074
 20
243.615
 30
0.0
 11
14.87074
 21
244.235
 31
0.0
  0
LINE
  5
178
330
1E
100
AcDbEntity
  8
0
100
AcDbLine
 10
14.87074
 20
243.615
 30
0.0
 11
14.87074
 21
243.04
 31
0.0
  0
LINE
  5
179
330
1E
100
AcDbEntity
  8
0
100
AcDbLine
 10
14.87074
 20
244.235
 30
0.0
 11
14.87074
 21
244.798
 31
0.0
  0
LINE
  5
17A
330
1E
100
AcDbEntity
  8
0
100
AcDbLine
 10
14.87074
 20
244.235
 30
0.0
 11
14.87074
 21
243.615
 31
0.0
  0
LINE
  5
17B
330
1E
100
AcDbEntity
  8
0
100
AcDbLine
 10
14.87074
 20
244.798
 30
0.0
 11
14.87074
 21
244.967
 31
0.0
  0
LINE
  5
17C
330
1E
100
AcDbEntity
  8
0
100
AcDbLine
 10
14.87074
 20
244.798
 30
0.0
 11
14.87074
 21
244.235
 31
0.0
  0
LINE
  5
17D
330
1E
100
AcDbEntity
  8
0
100
AcDbLine
 10
14.87074
 20
244.967
 30
0.0
 11
14.87074
 21
245.154
 31
0.0
  0
LINE
  5
17E
330
1E
100
AcDbEntity
  8
0
100
AcDbLine
 10
14.87074
 20
244.967
 30
0.0
 11
14.87074
 21
244.798
 31
0.0
  0
LINE
  5
17F
330
1E
100
AcDbEntity
  8
0
100
AcDbLine
 10
14.87074
 20
245.209
 30
0.0
 11
14.87074
 21
245.154
 31
0.0
  0
LINE
  5
180
330
1E
100
AcDbEntity
  8
0
100
AcDbLine
 10
14.87074
 20
246.839
 30
0.0
 11
14.87074
 21
248.85
 31
0.0
  0
LINE
  5
181
330
1E
100
AcDbEntity
  8
0
100
AcDbLine
 10
14.87074
 20
246.839
 30
0.0
 11
14.87074
 21
244.493
 31
0.0
  0
LINE
  5
182
330
1E
100
AcDbEntity
  8
0
100
AcDbLine
 10
14.87074
 20
248.85
 30
0.0
 11
14.87074
 21
250.385
 31
0.0
  0
LINE
  5
183
330
1E
100
AcDbEntity
  8
0
100
AcDbLine
 10
14.87074
 20
248.85
 30
0.0
 11
14.87074
 21
246.839
 31
0.0
  0
LINE
  5
184
330
1E
100
AcDbEntity
  8
0
100
AcDbLine
 10
14.87074
 20
245.154
 30
0.0
 11
14.87074
 21
245.209
 31
0.0
  0
LINE
  5
185
330
1E
100
AcDbEntity
  8
0
100
AcDbLine
 10
14.87074
 20
245.154
 30
0.0
 11
14.87074
 21
244.967
 31
0.0
  0
LINE
  5
186
330
1E
100
AcDbEntity
  8
0
100
AcDbLine
 10
14.87074
 20
251.952
 30
0.0
 11
14.87074
 21
252.518
 31
0.0
  0
LINE
  5
187
330
1E
100
AcDbEntity
  8
0
100
AcDbLine
 10
14.87074
 20
251.952
 30
0.0
 11
14.87074
 21
251.229
 31
0.0
  0
LINE
  5
188
330
1E
100
AcDbEntity
  8
0
100
AcDbLine
 10
14.87074
 20
252.518
 30
0.0
 11
14.87074
 21
252.999
 31
0.0
  0
LINE
  5
189
330
1E
100
AcDbEntity
  8
0
100
AcDbLine
 10
14.87074
 20
252.518
 30
0.0
 11
14.87074
 21
251.952
 31
0.0
  0
LINE
  5
18A
330
1E
100
AcDbEntity
  8
0
100
AcDbLine
 10
14.87074
 20
253.496
 30
0.0
 11
14.90274
 21
253.916
 31
0.0
  0
LINE
  5
18B
330
1E
100
AcDbEntity
  8
0
100
AcDbLine
 10
14.87074
 20
253.496
 30
0.0
 11
14.87074
 21
253.385
 31
0.0
  0
LINE
  5
18C
330
1E
100
AcDbEntity
  8
0
100
AcDbLine
 10
14.87074
 20
252.999
 30
0.0
 11
14.87074
 21
253.385
 31
0.0
  0
LINE
  5
18D
330
1E
100
AcDbEntity
  8
0
100
AcDbLine
 10
14.87074
 20
252.999
 30
0.0
 11
14.87074
 21
252.518
 31
0.0
  0
LINE
  5
18E
330
1E
100
AcDbEntity
  8
0
100
AcDbLine
 10
14.87074
 20
253.385
 30
0.0
 11
14.87074
 21
253.496
 31
0.0
  0
LINE
  5
18F
330
1E
100
AcDbEntity
  8
0
100
AcDbLine
 10
14.87074
 20
253.385
 30
0.0
 11
14.87074
 21
252.999
 31
0.0
  0
LINE
  5
190
330
1E
100
AcDbEntity
  8
0
100
AcDbLine
 10
14.87074
 20
250.385
 30
0.0
 11
14.87074
 21
251.229
 31
0.0
  0
LINE
  5
191
330
1E
100
AcDbEntity
  8
0
100
AcDbLine
 10
14.87074
 20
250.385
 30
0.0
 11
14.87074
 21
248.85
 31
0.0
  0
LINE
  5
192
330
1E
100
AcDbEntity
  8
0
100
AcDbLine
 10
14.87074
 20
251.229
 30
0.0
 11
14.87074
 21
251.952
 31
0.0
  0
LINE
  5
193
330
1E
100
AcDbEntity
  8
0
100
AcDbLine
 10
14.87074
 20
251.229
 30
0.0
 11
14.87074
 21
250.385
 31
0.0
  0
LINE
  5
194
330
1E
100
AcDbEntity
  8
0
100
AcDbLine
 10
14.90274
 20
253.916
 30
0.0
 11
14.92504
 21
254.001
 31
0.0
  0
LINE
  5
195
330
1E
100
AcDbEntity
  8
0
100
AcDbLine
 10
14.90274
 20
253.916
 30
0.0
 11
15.01232
 21
254.203
 31
0.0
  0
LINE
  5
196
330
1E
100
AcDbEntity
  8
0
100
AcDbLine
 10
14.92504
 20
254.001
 30
0.0
 11
14.98773277925
 21
254.138603829574
 31
0.0
  0
LINE
  5
197
330
1E
100
AcDbEntity
  8
0
100
AcDbLine
 10
15.03074
 20
254.233
 30
0.0
 11
15.128366292276
 21
254.346039730534
 31
0.0
  0
LINE
  5
198
330
1E
100
AcDbEntity
  8
0
100
AcDbLine
 10
15.19656
 20
254.425
 30
0.0
 11
15.245845491991
 21
254.452011441648
 31
0.0
  0
LINE
  5
199
330
1E
100
AcDbEntity
  8
0
100
AcDbLine
 10
15.1762
 20
254.405
 30
0.0
 11
15.38953
 21
254.549
 31
0.0
  0
LINE
  5
19A
330
1E
100
AcDbEntity
  8
0
100
AcDbLine
 10
15.38953
 20
254.549
 30
0.0
 11
15.50492
 21
254.594
 31
0.0
  0
LINE
  5
19B
330
1E
100
AcDbEntity
  8
0
100
AcDbLine
 10
15.50492
 20
254.594
 30
0.0
 11
15.66007
 21
254.631
 31
0.0
  0
LINE
  5
19C
330
1E
100
AcDbEntity
  8
0
100
AcDbLine
 10
23.24794
 20
254.912
 30
0.0
 11
30.87074
 21
255.0
 31
0.0
  0
LINE
  5
19D
330
1E
100
AcDbEntity
  8
0
100
AcDbLine
 10
15.94128
 20
254.656
 30
0.0
 11
23.24794
 21
254.912
 31
0.0
  0
LINE
  5
19E
330
1E
100
AcDbEntity
  8
0
100
AcDbLine
 10
15.66007
 20
254.631
 30
0.0
 11
15.94128
 21
254.656
 31
0.0
  0
LINE
  5
19F
330
1E
100
AcDbEntity
  8
0
100
AcDbLine
 10
30.87074
 20
255.0
 30
0.0
 11
38.49354
 21
254.912
 31
0.0
  0
LINE
  5
1A0
330
1E
100
AcDbEntity
  8
0
100
AcDbLine
 10
30.87084
 20
238.876
 30
0.0
 11
33.87004
 21
238.742
 31
0.0
  0
LINE
  5
1A3
330
1E
100
AcDbEntity
  8
0
100
AcDbLine
 10
30.87074
 20
235.06
 30
0.0
 11
31.83494
 21
235.043
 31
0.0
  0
LINE
  5
1A5
330
1E
100
AcDbEntity
  8
0
100
AcDbLine
 10
35.88384
 20
233.877
 30
0.0
 11
36.61324
 21
233.644
 31
0.0
  0
LINE
  5
1A6
330
1E
100
AcDbEntity
  8
0
100
AcDbLine
 10
36.61324
 20
233.644
 30
0.0
 11
37.28024
 21
233.383
 31
0.0
  0
LINE
  5
1A7
330
1E
100
AcDbEntity
  8
0
100
AcDbLine
 10
35.09984
 20
234.077
 30
0.0
 11
35.88384
 21
233.877
 31
0.0
  0
LINE
  5
1A8
330
1E
100
AcDbEntity
  8
0
100
AcDbLine
 10
34.19084
 20
234.256
 30
0.0
 11
35.09984
 21
234.077
 31
0.0
  0
LINE
  5
1A9
330
1E
100
AcDbEntity
  8
0
100
AcDbLine
 10
36.66074
 20
234.318
 30
0.0
 11
37.48604
 21
234.058
 31
0.0
  0
LINE
  5
1AA
330
1E
100
AcDbEntity
  8
0
100
AcDbLine
 10
33.87004
 20
238.742
 30
0.0
 11
36.68214
 21
238.342
 31
0.0
  0
LINE
  5
1AB
330
1E
100
AcDbEntity
  8
0
100
AcDbLine
 10
34.84264
 20
234.729
 30
0.0
 11
35.77684
 21
234.543
 31
0.0
  0
LINE
  5
1AC
330
1E
100
AcDbEntity
  8
0
100
AcDbLine
 10
33.86694
 20
234.875
 30
0.0
 11
34.84264
 21
234.729
 31
0.0
  0
LINE
  5
1AD
330
1E
100
AcDbEntity
  8
0
100
AcDbLine
 10
35.77684
 20
234.543
 30
0.0
 11
36.66074
 21
234.318
 31
0.0
  0
LINE
  5
1AE
330
1E
100
AcDbEntity
  8
0
100
AcDbLine
 10
36.70304
 20
227.394
 30
0.0
 11
37.56374
 21
227.67
 31
0.0
  0
LINE
  5
1B0
330
1E
100
AcDbEntity
  8
0
100
AcDbLine
 10
36.68214
 20
238.342
 30
0.0
 11
38.82134
 21
237.792
 31
0.0
  0
LINE
  5
1B2
330
1E
100
AcDbEntity
  8
0
100
AcDbLine
 10
37.28024
 20
233.383
 30
0.0
 11
37.87644
 21
233.092
 31
0.0
  0
LINE
  5
1B3
330
1E
100
AcDbEntity
  8
0
100
AcDbLine
 10
37.87644
 20
233.092
 30
0.0
 11
38.39704
 21
232.778
 31
0.0
  0
LINE
  5
1B4
330
1E
100
AcDbEntity
  8
0
100
AcDbLine
 10
37.48604
 20
234.058
 30
0.0
 11
38.24274
 21
233.764
 31
0.0
  0
LINE
  5
1B5
330
1E
100
AcDbEntity
  8
0
100
AcDbLine
 10
38.24274
 20
233.764
 30
0.0
 11
38.92274
 21
233.441
 31
0.0
  0
LINE
  5
1B6
330
1E
100
AcDbEntity
  8
0
100
AcDbLine
 10
38.04194
 20
231.439
 30
0.0
 11
38.57264
 21
231.784
 31
0.0
  0
LINE
  5
1B7
330
1E
100
AcDbEntity
  8
0
100
AcDbLine
 10
37.87644
 20
228.654
 30
0.0
 11
38.39704
 21
228.968
 31
0.0
  0
LINE
  5
1B8
330
1E
100
AcDbEntity
  8
0
100
AcDbLine
 10
37.42144
 20
231.12
 30
0.0
 11
38.04194
 21
231.439
 31
0.0
  0
LINE
  5
1B9
330
1E
100
AcDbEntity
  8
0
100
AcDbLine
 10
37.28024
 20
228.365
 30
0.0
 11
37.87644
 21
228.654
 31
0.0
  0
LINE
  5
1BA
330
1E
100
AcDbEntity
  8
0
100
AcDbLine
 10
36.71824
 20
230.832
 30
0.0
 11
37.42144
 21
231.12
 31
0.0
  0
LINE
  5
1BB
330
1E
100
AcDbEntity
  8
0
100
AcDbLine
 10
37.56374
 20
227.67
 30
0.0
 11
38.34864
 21
227.982
 31
0.0
  0
LINE
  5
1BC
330
1E
100
AcDbEntity
  8
0
100
AcDbLine
 10
38.34864
 20
227.982
 30
0.0
 11
39.04884
 21
228.327
 31
0.0
  0
LINE
  5
1BD
330
1E
100
AcDbEntity
  8
0
100
AcDbLine
 10
38.24274
 20
227.889
 30
0.0
 11
38.92274
 21
228.213
 31
0.0
  0
LINE
  5
1BE
330
1E
100
AcDbEntity
  8
0
100
AcDbLine
 10
37.48604
 20
227.596
 30
0.0
 11
38.24274
 21
227.889
 31
0.0
  0
LINE
  5
1BF
330
1E
100
AcDbEntity
  8
0
100
AcDbLine
 10
36.66074
 20
227.335
 30
0.0
 11
37.48604
 21
227.596
 31
0.0
  0
LINE
  5
1C0
330
1E
100
AcDbEntity
  8
0
100
AcDbLine
 10
35.77684
 20
227.111
 30
0.0
 11
36.66074
 21
227.335
 31
0.0
  0
LINE
  5
1C1
330
1E
100
AcDbEntity
  8
0
100
AcDbLine
 10
38.39704
 20
228.968
 30
0.0
 11
38.83704
 21
229.303
 31
0.0
  0
LINE
  5
1C2
330
1E
100
AcDbEntity
  8
0
100
AcDbLine
 10
38.49354
 20
254.912
 30
0.0
 11
45.80024
 21
254.656
 31
0.0
  0
LINE
  5
1C3
330
1E
100
AcDbEntity
  8
0
100
AcDbLine
 10
38.39704
 20
232.778
 30
0.0
 11
38.83704
 21
232.445
 31
0.0
  0
LINE
  5
1C4
330
1E
100
AcDbEntity
  8
0
100
AcDbLine
 10
38.83704
 20
232.445
 30
0.0
 11
39.18914
 21
232.093
 31
0.0
  0
LINE
  5
1C5
330
1E
100
AcDbEntity
  8
0
100
AcDbLine
 10
38.82134
 20
237.792
 30
0.0
 11
40.59484
 21
237.063
 31
0.0
  0
LINE
  5
1C6
330
1E
100
AcDbEntity
  8
0
100
AcDbLine
 10
38.92274
 20
233.441
 30
0.0
 11
39.52204
 21
233.091
 31
0.0
  0
LINE
  5
1C7
330
1E
100
AcDbEntity
  8
0
100
AcDbLine
 10
38.57264
 20
231.784
 30
0.0
 11
39.00644
 21
232.152
 31
0.0
  0
LINE
  5
1C8
330
1E
100
AcDbEntity
  8
0
100
AcDbLine
 10
38.83704
 20
229.303
 30
0.0
 11
39.18914
 21
229.654
 31
0.0
  0
LINE
  5
1C9
330
1E
100
AcDbEntity
  8
0
100
AcDbLine
 10
38.38504
 20
227.114
 30
0.0
 11
39.21634
 21
227.427
 31
0.0
  0
LINE
  5
1CA
330
1E
100
AcDbEntity
  8
0
100
AcDbLine
 10
37.48604
 20
226.836
 30
0.0
 11
38.38504
 21
227.114
 31
0.0
  0
LINE
  5
1CB
330
1E
100
AcDbEntity
  8
0
100
AcDbLine
 10
39.04884
 20
228.327
 30
0.0
 11
39.65624
 21
228.7
 31
0.0
  0
LINE
  5
1CC
330
1E
100
AcDbEntity
  8
0
100
AcDbLine
 10
47.10604
 20
0.0
 30
0.0
 11
50.75894
 21
0.0
 31
0.0
  0
LINE
  5
1CD
330
1E
100
AcDbEntity
  8
0
100
AcDbLine
 10
50.75894
 20
0.0
 30
0.0
 11
53.05894
 21
0.0
 31
0.0
  0
LINE
  5
1CE
330
1E
100
AcDbEntity
  8
0
100
AcDbLine
 10
42.30314
 20
0.0
 30
0.0
 11
47.10604
 21
0.0
 31
0.0
  0
LINE
  5
1CF
330
1E
100
AcDbEntity
  8
0
100
AcDbLine
 10
47.10604
 20
0.0
 30
0.0
 11
50.75894
 21
0.0
 31
0.0
  0
LINE
  5
1D0
330
1E
100
AcDbEntity
  8
0
100
AcDbLine
 10
50.75894
 20
0.0
 30
0.0
 11
53.05894
 21
0.0
 31
0.0
  0
LINE
  5
1D1
330
1E
100
AcDbEntity
  8
0
100
AcDbLine
 10
41.82954
 20
5.0
 30
0.0
 11
46.42954
 21
5.0
 31
0.0
  0
LINE
  5
1D2
330
1E
100
AcDbEntity
  8
0
100
AcDbLine
 10
47.10604
 20
4.71154
 30
0.0
 11
50.75894
 21
4.71154
 31
0.0
  0
LINE
  5
1D3
330
1E
100
AcDbEntity
  8
0
100
AcDbLine
 10
46.42954
 20
5.0
 30
0.0
 11
52.04424
 21
5.0
 31
0.0
  0
LINE
  5
1D4
330
1E
100
AcDbEntity
  8
0
100
AcDbLine
 10
50.75894
 20
4.71154
 30
0.0
 11
53.05894
 21
4.71154
 31
0.0
  0
LINE
  5
1D5
330
1E
100
AcDbEntity
  8
0
100
AcDbLine
 10
42.30314
 20
4.71154
 30
0.0
 11
47.10604
 21
4.71154
 31
0.0
  0
LINE
  5
1D6
330
1E
100
AcDbEntity
  8
0
100
AcDbLine
 10
42.30314
 20
0.0
 30
0.0
 11
47.10604
 21
0.0
 31
0.0
  0
LINE
  5
1D7
330
1E
100
AcDbEntity
  8
0
100
AcDbLine
 10
50.87074
 20
5.0
 30
0.0
 11
50.87074
 21
41.8507
 31
0.0
  0
LINE
  5
1D8
330
1E
100
AcDbEntity
  8
0
100
AcDbLine
 10
50.93174
 20
44.7237
 30
0.0
 11
51.06774
 21
46.0567
 31
0.0
  0
LINE
  5
1D9
330
1E
100
AcDbEntity
  8
0
100
AcDbLine
 10
51.24374
 20
46.9847
 30
0.0
 11
51.49374
 21
47.8387
 31
0.0
  0
LINE
  5
1DA
330
1E
100
AcDbEntity
  8
0
100
AcDbLine
 10
51.06774
 20
46.0567
 30
0.0
 11
51.24374
 21
46.9847
 31
0.0
  0
LINE
  5
1DB
330
1E
100
AcDbEntity
  8
0
100
AcDbLine
 10
50.87074
 20
41.8507
 30
0.0
 11
50.87074
 21
5.0
 31
0.0
  0
LINE
  5
1DC
330
1E
100
AcDbEntity
  8
0
100
AcDbLine
 10
50.87074
 20
41.8507
 30
0.0
 11
50.93174
 21
44.7237
 31
0.0
  0
LINE
  5
1DD
330
1E
100
AcDbEntity
  8
0
100
AcDbLine
 10
52.02774
 20
48.9667
 30
0.0
 11
52.76474
 21
49.8937
 31
0.0
  0
LINE
  5
1DE
330
1E
100
AcDbEntity
  8
0
100
AcDbLine
 10
51.49374
 20
47.8387
 30
0.0
 11
52.02774
 21
48.9667
 31
0.0
  0
LINE
  5
1DF
330
1E
100
AcDbEntity
  8
0
100
AcDbLine
 10
52.04424
 20
5.0
 30
0.0
 11
52.85604
 21
5.0
 31
0.0
  0
LINE
  5
1E0
330
1E
100
AcDbEntity
  8
0
100
AcDbLine
 10
53.05894
 20
0.0
 30
0.0
 11
53.87074
 21
0.0
 31
0.0
  0
LINE
  5
1E1
330
1E
100
AcDbEntity
  8
0
100
AcDbLine
 10
52.85604
 20
5.0
 30
0.0
 11
53.53254
 21
4.90385
 31
0.0
  0
LINE
  5
1E2
330
1E
100
AcDbEntity
  8
0
100
AcDbLine
 10
53.53254
 20
4.90385
 30
0.0
 11
53.87074
 21
4.71154
 31
0.0
  0
LINE
  5
1E3
330
1E
100
AcDbEntity
  8
0
100
AcDbLine
 10
53.05894
 20
4.71154
 30
0.0
 11
53.87074
 21
4.71154
 31
0.0
  0
LINE
  5
1E4
330
1E
100
AcDbEntity
  8
0
100
AcDbLine
 10
53.05894
 20
0.0
 30
0.0
 11
53.87074
 21
0.0
 31
0.0
  0
LINE
  5
1E5
330
1E
100
AcDbEntity
  8
0
100
AcDbLine
 10
52.76474
 20
49.8937
 30
0.0
 11
53.71174
 21
50.6166
 31
0.0
  0
LINE
  5
1E6
330
1E
100
AcDbEntity
  8
0
100
AcDbLine
 10
53.71174
 20
50.6166
 30
0.0
 11
54.86174
 21
51.1386
 31
0.0
  0
LINE
  5
1E7
330
1E
100
AcDbEntity
  8
0
100
AcDbLine
 10
53.87074
 20
4.71154
 30
0.0
 11
53.87074
 21
0.0
 31
0.0
  0
LINE
  5
1E8
330
1E
100
AcDbEntity
  8
0
100
AcDbLine
 10
53.87074
 20
0.0
 30
0.0
 11
53.87074
 21
4.71154
 31
0.0
  0
LINE
  5
1E9
330
1E
100
AcDbEntity
  8
0
100
AcDbLine
 10
54.86174
 20
51.1386
 30
0.0
 11
55.73374
 21
51.3846
 31
0.0
  0
LINE
  5
1EA
330
1E
100
AcDbEntity
  8
0
100
AcDbLine
 10
54.86174
 20
86.8604
 30
0.0
 11
55.73374
 21
86.6154
 31
0.0
  0
LINE
  5
1EB
330
1E
100
AcDbEntity
  8
0
100
AcDbLine
 10
55.73374
 20
51.3846
 30
0.0
 11
56.68074
 21
51.5566
 31
0.0
  0
LINE
  5
1EC
330
1E
100
AcDbEntity
  8
0
100
AcDbLine
 10
53.71174
 20
87.3834
 30
0.0
 11
54.86174
 21
86.8604
 31
0.0
  0
LINE
  5
1ED
330
1E
100
AcDbEntity
  8
0
100
AcDbLine
 10
52.76474
 20
88.1054
 30
0.0
 11
53.71174
 21
87.3834
 31
0.0
  0
LINE
  5
1EE
330
1E
100
AcDbEntity
  8
0
100
AcDbLine
 10
52.02774
 20
89.0334
 30
0.0
 11
52.76474
 21
88.1054
 31
0.0
  0
LINE
  5
1EF
330
1E
100
AcDbEntity
  8
0
100
AcDbLine
 10
51.49374
 20
90.1603
 30
0.0
 11
52.02774
 21
89.0334
 31
0.0
  0
LINE
  5
1F0
330
1E
100
AcDbEntity
  8
0
100
AcDbLine
 10
51.24374
 20
91.0143
 30
0.0
 11
51.49374
 21
90.1603
 31
0.0
  0
LINE
  5
1F1
330
1E
100
AcDbEntity
  8
0
100
AcDbLine
 10
46.87074
 20
105.0
 30
0.0
 11
46.87074
 21
198.898
 31
0.0
  0
LINE
  5
1F4
330
1E
100
AcDbEntity
  8
0
100
AcDbLine
 10
49.26874
 20
105.0
 30
0.0
 11
49.86074
 21
105.0
 31
0.0
  0
LINE
  5
1F5
330
1E
100
AcDbEntity
  8
0
100
AcDbLine
 10
45.47874
 20
105.0
 30
0.0
 11
46.99174
 21
105.0
 31
0.0
  0
LINE
  5
1F7
330
1E
100
AcDbEntity
  8
0
100
AcDbLine
 10
49.86074
 20
105.0
 30
0.0
 11
50.07074
 21
105.0
 31
0.0
  0
LINE
  5
1F8
330
1E
100
AcDbEntity
  8
0
100
AcDbLine
 10
50.76374
 20
104.6
 30
0.0
 11
50.87074
 21
104.2
 31
0.0
  0
LINE
  5
1F9
330
1E
100
AcDbEntity
  8
0
100
AcDbLine
 10
50.87074
 20
96.149
 30
0.0
 11
50.93174
 21
93.2753
 31
0.0
  0
LINE
  5
1FA
330
1E
100
AcDbEntity
  8
0
100
AcDbLine
 10
50.87074
 20
96.149
 30
0.0
 11
50.87074
 21
104.2
 31
0.0
  0
LINE
  5
1FB
330
1E
100
AcDbEntity
  8
0
100
AcDbLine
 10
50.47074
 20
104.893
 30
0.0
 11
50.76374
 21
104.6
 31
0.0
  0
LINE
  5
1FC
330
1E
100
AcDbEntity
  8
0
100
AcDbLine
 10
50.31024
 20
104.936
 30
0.0
 11
50.47074
 21
104.893
 31
0.0
  0
LINE
  5
1FD
330
1E
100
AcDbEntity
  8
0
100
AcDbLine
 10
46.87074
 20
209.619
 30
0.0
 11
46.87074
 21
213.251
 31
0.0
  0
LINE
  5
1FE
330
1E
100
AcDbEntity
  8
0
100
AcDbLine
 10
46.87074
 20
209.619
 30
0.0
 11
46.87074
 21
205.242
 31
0.0
  0
LINE
  5
1FF
330
1E
100
AcDbEntity
  8
0
100
AcDbLine
 10
46.87074
 20
205.242
 30
0.0
 11
46.87074
 21
209.619
 31
0.0
  0
LINE
  5
200
330
1E
100
AcDbEntity
  8
0
100
AcDbLine
 10
46.87074
 20
205.242
 30
0.0
 11
46.87074
 21
198.898
 31
0.0
  0
LINE
  5
201
330
1E
100
AcDbEntity
  8
0
100
AcDbLine
 10
46.87074
 20
198.898
 30
0.0
 11
46.87074
 21
205.242
 31
0.0
  0
LINE
  5
202
330
1E
100
AcDbEntity
  8
0
100
AcDbLine
 10
46.87074
 20
198.898
 30
0.0
 11
46.87074
 21
105.0
 31
0.0
  0
LINE
  5
203
330
1E
100
AcDbEntity
  8
0
100
AcDbLine
 10
46.87074
 20
223.952
 30
0.0
 11
46.87074
 21
224.864
 31
0.0
  0
LINE
  5
204
330
1E
100
AcDbEntity
  8
0
100
AcDbLine
 10
46.87074
 20
223.952
 30
0.0
 11
46.87074
 21
220.294
 31
0.0
  0
LINE
  5
205
330
1E
100
AcDbEntity
  8
0
100
AcDbLine
 10
46.87074
 20
224.864
 30
0.0
 11
46.87074
 21
226.892
 31
0.0
  0
LINE
  5
206
330
1E
100
AcDbEntity
  8
0
100
AcDbLine
 10
46.87074
 20
224.864
 30
0.0
 11
46.87074
 21
223.952
 31
0.0
  0
LINE
  5
207
330
1E
100
AcDbEntity
  8
0
100
AcDbLine
 10
46.87074
 20
226.892
 30
0.0
 11
46.87074
 21
229.348
 31
0.0
  0
LINE
  5
208
330
1E
100
AcDbEntity
  8
0
100
AcDbLine
 10
46.87074
 20
226.892
 30
0.0
 11
46.87074
 21
224.864
 31
0.0
  0
LINE
  5
209
330
1E
100
AcDbEntity
  8
0
100
AcDbLine
 10
46.87074
 20
220.294
 30
0.0
 11
46.87074
 21
223.952
 31
0.0
  0
LINE
  5
20A
330
1E
100
AcDbEntity
  8
0
100
AcDbLine
 10
46.87074
 20
220.294
 30
0.0
 11
46.87074
 21
218.007
 31
0.0
  0
LINE
  5
20B
330
1E
100
AcDbEntity
  8
0
100
AcDbLine
 10
46.87074
 20
213.251
 30
0.0
 11
46.87074
 21
218.007
 31
0.0
  0
LINE
  5
20C
330
1E
100
AcDbEntity
  8
0
100
AcDbLine
 10
46.87074
 20
213.251
 30
0.0
 11
46.87074
 21
209.619
 31
0.0
  0
LINE
  5
20D
330
1E
100
AcDbEntity
  8
0
100
AcDbLine
 10
46.87074
 20
218.007
 30
0.0
 11
46.87074
 21
220.294
 31
0.0
  0
LINE
  5
20E
330
1E
100
AcDbEntity
  8
0
100
AcDbLine
 10
46.87074
 20
218.007
 30
0.0
 11
46.87074
 21
213.251
 31
0.0
  0
LINE
  5
20F
330
1E
100
AcDbEntity
  8
0
100
AcDbLine
 10
50.07074
 20
105.0
 30
0.0
 11
50.31024
 21
104.936
 31
0.0
  0
LINE
  5
210
330
1E
100
AcDbEntity
  8
0
100
AcDbLine
 10
50.93174
 20
93.2753
 30
0.0
 11
51.06774
 21
91.9423
 31
0.0
  0
LINE
  5
211
330
1E
100
AcDbEntity
  8
0
100
AcDbLine
 10
50.87074
 20
104.2
 30
0.0
 11
50.87074
 21
96.149
 31
0.0
  0
LINE
  5
212
330
1E
100
AcDbEntity
  8
0
100
AcDbLine
 10
51.06774
 20
91.9423
 30
0.0
 11
51.24374
 21
91.0143
 31
0.0
  0
LINE
  5
213
330
1E
100
AcDbEntity
  8
0
100
AcDbLine
 10
56.68074
 20
51.5566
 30
0.0
 11
58.04174
 21
51.6906
 31
0.0
  0
LINE
  5
214
330
1E
100
AcDbEntity
  8
0
100
AcDbLine
 10
58.04174
 20
51.6906
 30
0.0
 11
60.97374
 21
51.7496
 31
0.0
  0
LINE
  5
217
330
1E
100
AcDbEntity
  8
0
100
AcDbLine
 10
60.97374
 20
51.7496
 30
0.0
 11
71.07074
 21
51.7496
 31
0.0
  0
LINE
  5
218
330
1E
100
AcDbEntity
  8
0
100
AcDbLine
 10
79.56484
 20
51.3329
 30
0.0
 11
109.83274
 21
51.9598
 31
0.0
  0
LINE
  5
219
330
1E
100
AcDbEntity
  8
0
100
AcDbLine
 10
79.56484
 20
51.3329
 30
0.0
 11
109.83274
 21
51.9598
 31
0.0
  0
LINE
  5
21A
330
1E
100
AcDbEntity
  8
0
100
AcDbLine
 10
78.58094
 20
51.6578
 30
0.0
 11
78.94074
 21
51.4629
 31
0.0
  0
LINE
  5
21B
330
1E
100
AcDbEntity
  8
0
100
AcDbLine
 10
78.94074
 20
51.4629
 30
0.0
 11
79.24984
 21
51.3835
 31
0.0
  0
LINE
  5
21C
330
1E
100
AcDbEntity
  8
0
100
AcDbLine
 10
79.24984
 20
51.3835
 30
0.0
 11
79.56484
 21
51.3329
 31
0.0
  0
LINE
  5
21D
330
1E
100
AcDbEntity
  8
0
100
AcDbLine
 10
71.07074
 20
51.7496
 30
0.0
 11
71.47074
 21
51.8566
 31
0.0
  0
LINE
  5
21F
330
1E
100
AcDbEntity
  8
0
100
AcDbLine
 10
71.07074
 20
86.2494
 30
0.0
 11
71.47074
 21
86.1424
 31
0.0
  0
LINE
  5
220
330
1E
100
AcDbEntity
  8
0
100
AcDbLine
 10
71.47074
 20
86.1424
 30
0.0
 11
71.76374
 21
85.8494
 31
0.0
  0
LINE
  5
221
330
1E
100
AcDbEntity
  8
0
100
AcDbLine
 10
71.76374
 20
85.8494
 30
0.0
 11
71.823371895062
 21
85.626477027807
 31
0.0
  0
LINE
  5
222
330
1E
100
AcDbEntity
  8
0
100
AcDbLine
 10
77.86144
 20
52.3354
 30
0.0
 11
78.18244
 21
51.994
 31
0.0
  0
LINE
  5
223
330
1E
100
AcDbEntity
  8
0
100
AcDbLine
 10
78.18244
 20
51.994
 30
0.0
 11
78.58094
 21
51.6578
 31
0.0
  0
LINE
  5
224
330
1E
100
AcDbEntity
  8
0
100
AcDbLine
 10
110.39374
 20
51.9926
 30
0.0
 11
110.61574
 21
52.0447
 31
0.0
  0
LINE
  5
225
330
1E
100
AcDbEntity
  8
0
100
AcDbLine
 10
110.61574
 20
52.0447
 30
0.0
 11
110.87374
 21
52.1862
 31
0.0
  0
LINE
  5
226
330
1E
100
AcDbEntity
  8
0
100
AcDbLine
 10
110.87374
 20
52.1862
 30
0.0
 11
111.03974
 21
52.4009
 31
0.0
  0
LINE
  5
227
330
1E
100
AcDbEntity
  8
0
100
AcDbLine
 10
111.03974
 20
52.4009
 30
0.0
 11
111.10074
 21
52.5839
 31
0.0
  0
LINE
  5
228
330
1E
100
AcDbEntity
  8
0
100
AcDbLine
 10
109.83274
 20
51.9598
 30
0.0
 11
110.39374
 21
51.9926
 31
0.0
  0
LINE
  5
229
330
1E
100
AcDbEntity
  8
0
100
AcDbLine
 10
71.87074
 20
52.628005385209
 30
0.0
 11
72.03144
 21
52.6348
 31
0.0
  0
LINE
  5
22A
330
1E
100
AcDbEntity
  8
0
100
AcDbLine
 10
71.87074
 20
52.7536
 30
0.0
 11
71.87074
 21
52.5496
 31
0.0
  0
LINE
  5
22B
330
1E
100
AcDbEntity
  8
0
100
AcDbLine
 10
71.87074
 20
52.7536
 30
0.0
 11
71.820125681912
 21
85.626612404066
 31
0.0
  0
LINE
  5
22C
330
1E
100
AcDbEntity
  8
0
100
AcDbLine
 10
71.820125681912
 20
85.626612404066
 30
0.0
 11
72.03144
 21
85.6178
 31
0.0
  0
LINE
  5
22D
330
1E
100
AcDbEntity
  8
0
100
AcDbLine
 10
71.820125681912
 20
85.626612404066
 30
0.0
 11
71.87074
 21
52.7536
 31
0.0
  0
LINE
  5
22E
330
1E
100
AcDbEntity
  8
0
100
AcDbLine
 10
72.03144
 20
52.6348
 30
0.0
 11
74.08274
 21
52.8954
 31
0.0
  0
LINE
  5
22F
330
1E
100
AcDbEntity
  8
0
100
AcDbLine
 10
73.43374
 20
61.5902
 30
0.0
 11
73.43374
 21
63.3939
 31
0.0
  0
LINE
  5
230
330
1E
100
AcDbEntity
  8
0
100
AcDbLine
 10
73.43374
 20
61.5902
 30
0.0
 11
73.43374
 21
60.3303
 31
0.0
  0
LINE
  5
231
330
1E
100
AcDbEntity
  8
0
100
AcDbLine
 10
73.43374
 20
60.3303
 30
0.0
 11
73.43374
 21
61.5902
 31
0.0
  0
LINE
  5
232
330
1E
100
AcDbEntity
  8
0
100
AcDbLine
 10
73.43374
 20
60.3303
 30
0.0
 11
73.45564
 21
60.2273
 31
0.0
  0
LINE
  5
233
330
1E
100
AcDbEntity
  8
0
100
AcDbLine
 10
73.43374
 20
63.3939
 30
0.0
 11
73.43374
 21
65.2606
 31
0.0
  0
LINE
  5
234
330
1E
100
AcDbEntity
  8
0
100
AcDbLine
 10
73.43374
 20
63.3939
 30
0.0
 11
73.43374
 21
61.5902
 31
0.0
  0
LINE
  5
235
330
1E
100
AcDbEntity
  8
0
100
AcDbLine
 10
73.43374
 20
65.2606
 30
0.0
 11
73.43374
 21
67.1674
 31
0.0
  0
LINE
  5
236
330
1E
100
AcDbEntity
  8
0
100
AcDbLine
 10
73.43374
 20
65.2606
 30
0.0
 11
73.43374
 21
63.3939
 31
0.0
  0
LINE
  5
237
330
1E
100
AcDbEntity
  8
0
100
AcDbLine
 10
73.43374
 20
73.4155
 30
0.0
 11
73.43374
 21
71.273
 31
0.0
  0
LINE
  5
238
330
1E
100
AcDbEntity
  8
0
100
AcDbLine
 10
73.43374
 20
73.4155
 30
0.0
 11
73.43374
 21
75.492
 31
0.0
  0
LINE
  5
239
330
1E
100
AcDbEntity
  8
0
100
AcDbLine
 10
73.43374
 20
71.273
 30
0.0
 11
73.43374
 21
73.4155
 31
0.0
  0
LINE
  5
23A
330
1E
100
AcDbEntity
  8
0
100
AcDbLine
 10
73.43374
 20
71.273
 30
0.0
 11
73.43374
 21
69.0943
 31
0.0
  0
LINE
  5
23B
330
1E
100
AcDbEntity
  8
0
100
AcDbLine
 10
73.43374
 20
69.0943
 30
0.0
 11
73.43374
 21
67.1674
 31
0.0
  0
LINE
  5
23C
330
1E
100
AcDbEntity
  8
0
100
AcDbLine
 10
73.43374
 20
69.0943
 30
0.0
 11
73.43374
 21
71.273
 31
0.0
  0
LINE
  5
23D
330
1E
100
AcDbEntity
  8
0
100
AcDbLine
 10
73.43374
 20
67.1674
 30
0.0
 11
73.43374
 21
69.0943
 31
0.0
  0
LINE
  5
23E
330
1E
100
AcDbEntity
  8
0
100
AcDbLine
 10
73.43374
 20
67.1674
 30
0.0
 11
73.43374
 21
65.2606
 31
0.0
  0
LINE
  5
23F
330
1E
100
AcDbEntity
  8
0
100
AcDbLine
 10
73.43374
 20
79.2163
 30
0.0
 11
73.43374
 21
80.8273
 31
0.0
  0
LINE
  5
240
330
1E
100
AcDbEntity
  8
0
100
AcDbLine
 10
73.43374
 20
79.2163
 30
0.0
 11
73.43374
 21
77.4712
 31
0.0
  0
LINE
  5
241
330
1E
100
AcDbEntity
  8
0
100
AcDbLine
 10
73.43374
 20
83.5566
 30
0.0
 11
73.43374
 21
84.2539
 31
0.0
  0
LINE
  5
242
330
1E
100
AcDbEntity
  8
0
100
AcDbLine
 10
73.43374
 20
83.5566
 30
0.0
 11
73.43374
 21
82.2812
 31
0.0
  0
LINE
  5
243
330
1E
100
AcDbEntity
  8
0
100
AcDbLine
 10
73.43374
 20
82.2812
 30
0.0
 11
73.43374
 21
80.8273
 31
0.0
  0
LINE
  5
244
330
1E
100
AcDbEntity
  8
0
100
AcDbLine
 10
73.43374
 20
82.2812
 30
0.0
 11
73.43374
 21
83.5566
 31
0.0
  0
LINE
  5
245
330
1E
100
AcDbEntity
  8
0
100
AcDbLine
 10
73.43374
 20
80.8273
 30
0.0
 11
73.43374
 21
82.2812
 31
0.0
  0
LINE
  5
246
330
1E
100
AcDbEntity
  8
0
100
AcDbLine
 10
73.43374
 20
80.8273
 30
0.0
 11
73.43374
 21
79.2163
 31
0.0
  0
LINE
  5
247
330
1E
100
AcDbEntity
  8
0
100
AcDbLine
 10
73.43374
 20
77.4712
 30
0.0
 11
73.43374
 21
75.492
 31
0.0
  0
LINE
  5
248
330
1E
100
AcDbEntity
  8
0
100
AcDbLine
 10
73.43374
 20
77.4712
 30
0.0
 11
73.43374
 21
79.2163
 31
0.0
  0
LINE
  5
249
330
1E
100
AcDbEntity
  8
0
100
AcDbLine
 10
73.43374
 20
75.492
 30
0.0
 11
73.43374
 21
77.4712
 31
0.0
  0
LINE
  5
24A
330
1E
100
AcDbEntity
  8
0
100
AcDbLine
 10
73.43374
 20
75.492
 30
0.0
 11
73.43374
 21
73.4155
 31
0.0
  0
LINE
  5
24B
330
1E
100
AcDbEntity
  8
0
100
AcDbLine
 10
73.43374
 20
84.2539
 30
0.0
 11
73.43374
 21
84.8666
 31
0.0
  0
LINE
  5
24C
330
1E
100
AcDbEntity
  8
0
100
AcDbLine
 10
73.43374
 20
84.2539
 30
0.0
 11
73.43374
 21
83.5566
 31
0.0
  0
LINE
  5
24D
330
1E
100
AcDbEntity
  8
0
100
AcDbLine
 10
73.43374
 20
85.438350992054
 30
0.0
 11
73.43374
 21
85.9515
 31
0.0
  0
LINE
  5
24E
330
1E
100
AcDbEntity
  8
0
100
AcDbLine
 10
74.08274
 20
52.8954
 30
0.0
 11
76.09234
 21
53.327
 31
0.0
  0
LINE
  5
24F
330
1E
100
AcDbEntity
  8
0
100
AcDbLine
 10
76.09234
 20
53.327
 30
0.0
 11
76.908755506929
 21
53.578143360006
 31
0.0
  0
LINE
  5
250
330
1E
100
AcDbEntity
  8
0
100
AcDbLine
 10
111.10074
 20
52.5839
 30
0.0
 11
111.11874
 21
52.6799
 31
0.0
  0
LINE
  5
251
330
1E
100
AcDbEntity
  8
0
100
AcDbLine
 10
111.11874
 20
52.6799
 30
0.0
 11
111.15274
 21
53.1879
 31
0.0
  0
LINE
  5
252
330
1E
100
AcDbEntity
  8
0
100
AcDbLine
 10
77.52254
 20
52.7484
 30
0.0
 11
77.86144
 21
52.3354
 31
0.0
  0
LINE
  5
253
330
1E
100
AcDbEntity
  8
0
100
AcDbLine
 10
111.16274
 20
53.3703
 30
0.0
 11
111.17074
 21
53.624
 31
0.0
  0
LINE
  5
254
330
1E
100
AcDbEntity
  8
0
100
AcDbLine
 10
111.17074
 20
53.624
 30
0.0
 11
111.17874
 21
53.9473
 31
0.0
  0
LINE
  5
255
330
1E
100
AcDbEntity
  8
0
100
AcDbLine
 10
111.15274
 20
53.1879
 30
0.0
 11
111.16274
 21
53.3703
 31
0.0
  0
LINE
  5
256
330
1E
100
AcDbEntity
  8
0
100
AcDbLine
 10
111.17874
 20
53.9473
 30
0.0
 11
111.18374
 21
54.3408
 31
0.0
  0
LINE
  5
257
330
1E
100
AcDbEntity
  8
0
100
AcDbLine
 10
77.35354
 20
52.9598
 30
0.0
 11
77.52254
 21
52.7484
 31
0.0
  0
LINE
  5
258
330
1E
100
AcDbEntity
  8
0
100
AcDbLine
 10
76.72644
 20
53.8316
 30
0.0
 11
77.35354
 21
52.9598
 31
0.0
  0
LINE
  5
259
330
1E
100
AcDbEntity
  8
0
100
AcDbLine
 10
111.18374
 20
54.3408
 30
0.0
 11
111.18674
 21
54.8014
 31
0.0
  0
LINE
  5
25A
330
1E
100
AcDbEntity
  8
0
100
AcDbLine
 10
111.18674
 20
54.8014
 30
0.0
 11
111.18774
 21
55.3272
 31
0.0
  0
LINE
  5
25B
330
1E
100
AcDbEntity
  8
0
100
AcDbLine
 10
111.18774
 20
55.3272
 30
0.0
 11
111.18774
 21
95.7486
 31
0.0
  0
LINE
  5
25C
330
1E
100
AcDbEntity
  8
0
100
AcDbLine
 10
76.64094
 20
53.9768
 30
0.0
 11
76.72644
 21
53.8316
 31
0.0
  0
LINE
  5
25D
330
1E
100
AcDbEntity
  8
0
100
AcDbLine
 10
74.57074
 20
57.7754
 30
0.0
 11
76.64094
 21
53.9768
 31
0.0
  0
LINE
  5
260
330
1E
100
AcDbEntity
  8
0
100
AcDbLine
 10
73.45564
 20
60.2273
 30
0.0
 11
73.98434
 21
59.0339
 31
0.0
  0
LINE
  5
261
330
1E
100
AcDbEntity
  8
0
100
AcDbLine
 10
73.98434
 20
59.0339
 30
0.0
 11
74.57074
 21
57.7754
 31
0.0
  0
LINE
  5
262
330
1E
100
AcDbEntity
  8
0
100
AcDbLine
 10
79.77654
 20
84.6097
 30
0.0
 11
79.81734
 21
84.5194
 31
0.0
  0
LINE
  5
263
330
1E
100
AcDbEntity
  8
0
100
AcDbLine
 10
79.75074
 20
84.6759
 30
0.0
 11
79.77654
 21
84.6097
 31
0.0
  0
LINE
  5
264
330
1E
100
AcDbEntity
  8
0
100
AcDbLine
 10
79.72884
 20
84.8627
 30
0.0
 11
79.75074
 21
84.6759
 31
0.0
  0
LINE
  5
265
330
1E
100
AcDbEntity
  8
0
100
AcDbLine
 10
79.88884
 20
84.4174
 30
0.0
 11
79.98724
 21
84.319
 31
0.0
  0
LINE
  5
266
330
1E
100
AcDbEntity
  8
0
100
AcDbLine
 10
79.98724
 20
84.319
 30
0.0
 11
80.11054
 21
84.2261
 31
0.0
  0
LINE
  5
267
330
1E
100
AcDbEntity
  8
0
100
AcDbLine
 10
80.11054
 20
84.2261
 30
0.0
 11
80.23874
 21
84.1472
 31
0.0
  0
LINE
  5
268
330
1E
100
AcDbEntity
  8
0
100
AcDbLine
 10
79.81734
 20
84.5194
 30
0.0
 11
79.88884
 21
84.4174
 31
0.0
  0
LINE
  5
26B
330
1E
100
AcDbEntity
  8
0
100
AcDbLine
 10
79.80044
 20
85.1196
 30
0.0
 11
79.83824
 21
85.1797
 31
0.0
  0
LINE
  5
26C
330
1E
100
AcDbEntity
  8
0
100
AcDbLine
 10
80.01314
 20
85.3824
 30
0.0
 11
80.13834
 21
85.4759
 31
0.0
  0
LINE
  5
26D
330
1E
100
AcDbEntity
  8
0
100
AcDbLine
 10
79.91274
 20
85.2839
 30
0.0
 11
80.01314
 21
85.3824
 31
0.0
  0
LINE
  5
26E
330
1E
100
AcDbEntity
  8
0
100
AcDbLine
 10
79.83824
 20
85.1797
 30
0.0
 11
79.91274
 21
85.2839
 31
0.0
  0
LINE
  5
26F
330
1E
100
AcDbEntity
  8
0
100
AcDbLine
 10
79.75774
 20
85.0274
 30
0.0
 11
79.80044
 21
85.1196
 31
0.0
  0
LINE
  5
270
330
1E
100
AcDbEntity
  8
0
100
AcDbLine
 10
79.73684
 20
84.9339
 30
0.0
 11
79.75774
 21
85.0274
 31
0.0
  0
LINE
  5
271
330
1E
100
AcDbEntity
  8
0
100
AcDbLine
 10
79.72884
 20
84.8627
 30
0.0
 11
79.73684
 21
84.9339
 31
0.0
  0
LINE
  5
272
330
1E
100
AcDbEntity
  8
0
100
AcDbLine
 10
81.04074
 20
83.8567
 30
0.0
 11
81.17994
 21
83.826
 31
0.0
  0
LINE
  5
275
330
1E
100
AcDbEntity
  8
0
100
AcDbLine
 10
82.90524
 20
83.7082
 30
0.0
 11
83.22824
 21
83.731
 31
0.0
  0
LINE
  5
276
330
1E
100
AcDbEntity
  8
0
100
AcDbLine
 10
82.25424
 20
83.7029
 30
0.0
 11
82.57924
 21
83.6983
 31
0.0
  0
LINE
  5
277
330
1E
100
AcDbEntity
  8
0
100
AcDbLine
 10
82.57924
 20
83.6983
 30
0.0
 11
82.90524
 21
83.7082
 31
0.0
  0
LINE
  5
278
330
1E
100
AcDbEntity
  8
0
100
AcDbLine
 10
81.93424
 20
83.7211
 30
0.0
 11
82.25424
 21
83.7029
 31
0.0
  0
LINE
  5
279
330
1E
100
AcDbEntity
  8
0
100
AcDbLine
 10
81.32504
 20
83.7984
 30
0.0
 11
81.47314
 21
83.7741
 31
0.0
  0
LINE
  5
27A
330
1E
100
AcDbEntity
  8
0
100
AcDbLine
 10
81.47314
 20
83.7741
 30
0.0
 11
81.62514
 21
83.7523
 31
0.0
  0
LINE
  5
27B
330
1E
100
AcDbEntity
  8
0
100
AcDbLine
 10
81.17994
 20
83.826
 30
0.0
 11
81.32504
 21
83.7984
 31
0.0
  0
LINE
  5
27C
330
1E
100
AcDbEntity
  8
0
100
AcDbLine
 10
83.38924
 20
83.7473
 30
0.0
 11
83.54724
 21
83.7676
 31
0.0
  0
LINE
  5
27D
330
1E
100
AcDbEntity
  8
0
100
AcDbLine
 10
83.70134
 20
83.7912
 30
0.0
 11
83.85344
 21
83.8175
 31
0.0
  0
LINE
  5
27E
330
1E
100
AcDbEntity
  8
0
100
AcDbLine
 10
83.85344
 20
83.8175
 30
0.0
 11
84.08294
 21
83.8652
 31
0.0
  0
LINE
  5
27F
330
1E
100
AcDbEntity
  8
0
100
AcDbLine
 10
83.54724
 20
83.7676
 30
0.0
 11
83.70134
 21
83.7912
 31
0.0
  0
LINE
  5
280
330
1E
100
AcDbEntity
  8
0
100
AcDbLine
 10
81.62514
 20
83.7523
 30
0.0
 11
81.93424
 21
83.7211
 31
0.0
  0
LINE
  5
281
330
1E
100
AcDbEntity
  8
0
100
AcDbLine
 10
83.22824
 20
83.731
 30
0.0
 11
83.38924
 21
83.7473
 31
0.0
  0
LINE
  5
282
330
1E
100
AcDbEntity
  8
0
100
AcDbLine
 10
84.08294
 20
83.8652
 30
0.0
 11
84.30364
 21
83.9204
 31
0.0
  0
LINE
  5
286
330
1E
100
AcDbEntity
  8
0
100
AcDbLine
 10
80.41064
 20
84.0622
 30
0.0
 11
80.60344
 21
83.9847
 31
0.0
  0
LINE
  5
287
330
1E
100
AcDbEntity
  8
0
100
AcDbLine
 10
80.60344
 20
83.9847
 30
0.0
 11
80.81414
 21
83.9165
 31
0.0
  0
LINE
  5
288
330
1E
100
AcDbEntity
  8
0
100
AcDbLine
 10
84.51234
 20
83.9837
 30
0.0
 11
84.70914
 21
84.0537
 31
0.0
  0
LINE
  5
289
330
1E
100
AcDbEntity
  8
0
100
AcDbLine
 10
84.30364
 20
83.9204
 30
0.0
 11
84.51234
 21
83.9837
 31
0.0
  0
LINE
  5
28A
330
1E
100
AcDbEntity
  8
0
100
AcDbLine
 10
80.81414
 20
83.9165
 30
0.0
 11
81.04074
 21
83.8567
 31
0.0
  0
LINE
  5
28B
330
1E
100
AcDbEntity
  8
0
100
AcDbLine
 10
80.23874
 20
84.1472
 30
0.0
 11
80.41064
 21
84.0622
 31
0.0
  0
LINE
  5
28C
330
1E
100
AcDbEntity
  8
0
100
AcDbLine
 10
84.70914
 20
84.0537
 30
0.0
 11
84.90784
 21
84.139
 31
0.0
  0
LINE
  5
28D
330
1E
100
AcDbEntity
  8
0
100
AcDbLine
 10
85.08674
 20
84.2319
 30
0.0
 11
85.24184
 21
84.3318
 31
0.0
  0
LINE
  5
28E
330
1E
100
AcDbEntity
  8
0
100
AcDbLine
 10
85.24184
 20
84.3318
 30
0.0
 11
85.34714
 21
84.4169
 31
0.0
  0
LINE
  5
28F
330
1E
100
AcDbEntity
  8
0
100
AcDbLine
 10
84.90784
 20
84.139
 30
0.0
 11
85.08674
 21
84.2319
 31
0.0
  0
LINE
  5
290
330
1E
100
AcDbEntity
  8
0
100
AcDbLine
 10
85.34714
 20
84.4169
 30
0.0
 11
85.43464
 21
84.5053
 31
0.0
  0
LINE
  5
294
330
1E
100
AcDbEntity
  8
0
100
AcDbLine
 10
85.30744
 20
85.3386
 30
0.0
 11
85.39284
 21
85.2543
 31
0.0
  0
LINE
  5
295
330
1E
100
AcDbEntity
  8
0
100
AcDbLine
 10
85.43464
 20
84.5053
 30
0.0
 11
85.50424
 21
84.5962
 31
0.0
  0
LINE
  5
296
330
1E
100
AcDbEntity
  8
0
100
AcDbLine
 10
85.50424
 20
84.5962
 30
0.0
 11
85.55294
 21
84.6899
 31
0.0
  0
LINE
  5
298
330
1E
100
AcDbEntity
  8
0
100
AcDbLine
 10
85.58074
 20
84.7851
 30
0.0
 11
85.58564
 21
84.8601
 31
0.0
  0
LINE
  5
299
330
1E
100
AcDbEntity
  8
0
100
AcDbLine
 10
85.55294
 20
84.6899
 30
0.0
 11
85.58074
 21
84.7851
 31
0.0
  0
LINE
  5
29E
330
1E
100
AcDbEntity
  8
0
100
AcDbLine
 10
85.55294
 20
85.0289
 30
0.0
 11
85.58074
 21
84.9351
 31
0.0
  0
LINE
  5
29F
330
1E
100
AcDbEntity
  8
0
100
AcDbLine
 10
85.58074
 20
84.9351
 30
0.0
 11
85.58564
 21
84.8601
 31
0.0
  0
LINE
  5
2A0
330
1E
100
AcDbEntity
  8
0
100
AcDbLine
 10
85.50424
 20
85.1212
 30
0.0
 11
85.55294
 21
85.0289
 31
0.0
  0
LINE
  5
2A1
330
1E
100
AcDbEntity
  8
0
100
AcDbLine
 10
85.43464
 20
85.2093
 30
0.0
 11
85.50424
 21
85.1212
 31
0.0
  0
LINE
  5
2A3
330
1E
100
AcDbEntity
  8
0
100
AcDbLine
 10
85.39284
 20
85.2543
 30
0.0
 11
85.43464
 21
85.2093
 31
0.0
  0
LINE
  5
2A4
330
1E
100
AcDbEntity
  8
0
100
AcDbLine
 10
85.20404
 20
85.4198
 30
0.0
 11
85.30744
 21
85.3386
 31
0.0
  0
LINE
  5
2A5
330
1E
100
AcDbEntity
  8
0
100
AcDbLine
 10
80.13834
 20
85.4759
 30
0.0
 11
80.19594
 21
85.512
 31
0.0
  0
LINE
  5
2A6
330
1E
100
AcDbEntity
  8
0
100
AcDbLine
 10
85.00134
 20
85.5416
 30
0.0
 11
85.05194
 21
85.5139
 31
0.0
  0
LINE
  5
2A7
330
1E
100
AcDbEntity
  8
0
100
AcDbLine
 10
85.05194
 20
85.5139
 30
0.0
 11
85.20404
 21
85.4198
 31
0.0
  0
LINE
  5
2A8
330
1E
100
AcDbEntity
  8
0
100
AcDbLine
 10
80.32224
 20
85.5883
 30
0.0
 11
80.49214
 21
85.6709
 31
0.0
  0
LINE
  5
2A9
330
1E
100
AcDbEntity
  8
0
100
AcDbLine
 10
80.19594
 20
85.512
 30
0.0
 11
80.32224
 21
85.5883
 31
0.0
  0
LINE
  5
2AA
330
1E
100
AcDbEntity
  8
0
100
AcDbLine
 10
111.18674
 20
55.9164
 30
0.0
 11
111.18774
 21
55.3272
 31
0.0
  0
LINE
  5
2AB
330
1E
100
AcDbEntity
  8
0
100
AcDbLine
 10
73.43374
 20
84.8666
 30
0.0
 11
73.43374
 21
84.2539
 31
0.0
  0
LINE
  5
2AC
330
1E
100
AcDbEntity
  8
0
100
AcDbLine
 10
73.43374
 20
84.8666
 30
0.0
 11
73.43374
 21
85.6612
 31
0.0
  0
LINE
  5
2AD
330
1E
100
AcDbEntity
  8
0
100
AcDbLine
 10
73.43374
 20
85.9515
 30
0.0
 11
73.43374
 21
85.438350992054
 31
0.0
  0
LINE
  5
2AE
330
1E
100
AcDbEntity
  8
0
100
AcDbLine
 10
73.43374
 20
85.9515
 30
0.0
 11
73.43374
 21
86.3883
 31
0.0
  0
LINE
  5
2AF
330
1E
100
AcDbEntity
  8
0
100
AcDbLine
 10
73.43374
 20
86.2213
 30
0.0
 11
73.43374
 21
85.6612
 31
0.0
  0
LINE
  5
2B0
330
1E
100
AcDbEntity
  8
0
100
AcDbLine
 10
73.43374
 20
86.2213
 30
0.0
 11
73.43374
 21
86.5423
 31
0.0
  0
LINE
  5
2B1
330
1E
100
AcDbEntity
  8
0
100
AcDbLine
 10
84.83034
 20
85.6272
 30
0.0
 11
85.00134
 21
85.5416
 31
0.0
  0
LINE
  5
2B2
330
1E
100
AcDbEntity
  8
0
100
AcDbLine
 10
84.64054
 20
85.7068
 30
0.0
 11
84.83034
 21
85.6272
 31
0.0
  0
LINE
  5
2B3
330
1E
100
AcDbEntity
  8
0
100
AcDbLine
 10
80.68194
 20
85.7462
 30
0.0
 11
80.88774
 21
85.8127
 31
0.0
  0
LINE
  5
2B4
330
1E
100
AcDbEntity
  8
0
100
AcDbLine
 10
80.49214
 20
85.6709
 30
0.0
 11
80.68194
 21
85.7462
 31
0.0
  0
LINE
  5
2B5
330
1E
100
AcDbEntity
  8
0
100
AcDbLine
 10
80.88774
 20
85.8127
 30
0.0
 11
81.10834
 21
85.8708
 31
0.0
  0
LINE
  5
2B6
330
1E
100
AcDbEntity
  8
0
100
AcDbLine
 10
81.38364
 20
85.9285
 30
0.0
 11
81.52674
 21
85.9528
 31
0.0
  0
LINE
  5
2B7
330
1E
100
AcDbEntity
  8
0
100
AcDbLine
 10
81.67184
 20
85.9728
 30
0.0
 11
81.96404
 21
86.0018
 31
0.0
  0
LINE
  5
2B8
330
1E
100
AcDbEntity
  8
0
100
AcDbLine
 10
81.52674
 20
85.9528
 30
0.0
 11
81.67184
 21
85.9728
 31
0.0
  0
LINE
  5
2B9
330
1E
100
AcDbEntity
  8
0
100
AcDbLine
 10
81.96404
 20
86.0018
 30
0.0
 11
82.27414
 21
86.0219
 31
0.0
  0
LINE
  5
2BA
330
1E
100
AcDbEntity
  8
0
100
AcDbLine
 10
84.02534
 20
85.8834
 30
0.0
 11
84.25194
 21
85.8285
 31
0.0
  0
LINE
  5
2BB
330
1E
100
AcDbEntity
  8
0
100
AcDbLine
 10
83.66154
 20
85.9506
 30
0.0
 11
83.80664
 21
85.9269
 31
0.0
  0
LINE
  5
2BC
330
1E
100
AcDbEntity
  8
0
100
AcDbLine
 10
83.51444
 20
85.9713
 30
0.0
 11
83.66154
 21
85.9506
 31
0.0
  0
LINE
  5
2BD
330
1E
100
AcDbEntity
  8
0
100
AcDbLine
 10
83.36344
 20
85.989
 30
0.0
 11
83.51444
 21
85.9713
 31
0.0
  0
LINE
  5
2BE
330
1E
100
AcDbEntity
  8
0
100
AcDbLine
 10
83.80664
 20
85.9269
 30
0.0
 11
84.02534
 21
85.8834
 31
0.0
  0
LINE
  5
2BF
330
1E
100
AcDbEntity
  8
0
100
AcDbLine
 10
83.20934
 20
86.0032
 30
0.0
 11
83.36344
 21
85.989
 31
0.0
  0
LINE
  5
2C0
330
1E
100
AcDbEntity
  8
0
100
AcDbLine
 10
82.90024
 20
86.0226
 30
0.0
 11
83.20934
 21
86.0032
 31
0.0
  0
LINE
  5
2C1
330
1E
100
AcDbEntity
  8
0
100
AcDbLine
 10
82.58624
 20
86.0285
 30
0.0
 11
82.90024
 21
86.0226
 31
0.0
  0
LINE
  5
2C2
330
1E
100
AcDbEntity
  8
0
100
AcDbLine
 10
82.27414
 20
86.0219
 30
0.0
 11
82.58624
 21
86.0285
 31
0.0
  0
LINE
  5
2C3
330
1E
100
AcDbEntity
  8
0
100
AcDbLine
 10
81.24354
 20
85.9012
 30
0.0
 11
81.38364
 21
85.9285
 31
0.0
  0
LINE
  5
2C4
330
1E
100
AcDbEntity
  8
0
100
AcDbLine
 10
81.10834
 20
85.8708
 30
0.0
 11
81.24354
 21
85.9012
 31
0.0
  0
LINE
  5
2C5
330
1E
100
AcDbEntity
  8
0
100
AcDbLine
 10
84.25194
 20
85.8285
 30
0.0
 11
84.45174
 21
85.7715
 31
0.0
  0
LINE
  5
2C6
330
1E
100
AcDbEntity
  8
0
100
AcDbLine
 10
84.45174
 20
85.7715
 30
0.0
 11
84.64054
 21
85.7068
 31
0.0
  0
LINE
  5
2C7
330
1E
100
AcDbEntity
  8
0
100
AcDbLine
 10
73.43374
 20
85.6612
 30
0.0
 11
73.43374
 21
84.8666
 31
0.0
  0
LINE
  5
2C8
330
1E
100
AcDbEntity
  8
0
100
AcDbLine
 10
73.43374
 20
85.6612
 30
0.0
 11
73.43374
 21
86.2213
 31
0.0
  0
LINE
  5
2C9
330
1E
100
AcDbEntity
  8
0
100
AcDbLine
 10
72.03144
 20
85.6178
 30
0.0
 11
73.43374
 21
85.438350992054
 31
0.0
  0
LINE
  5
2CA
330
1E
100
AcDbEntity
  8
0
100
AcDbLine
 10
71.87074
 20
52.5496
 30
0.0
 11
71.87074
 21
52.7536
 31
0.0
  0
LINE
  5
2CB
330
1E
100
AcDbEntity
  8
0
100
AcDbLine
 10
71.76374
 20
52.1496
 30
0.0
 11
71.87074
 21
52.5496
 31
0.0
  0
LINE
  5
2CC
330
1E
100
AcDbEntity
  8
0
100
AcDbLine
 10
71.47074
 20
51.8566
 30
0.0
 11
71.76374
 21
52.1496
 31
0.0
  0
LINE
  5
2CD
330
1E
100
AcDbEntity
  8
0
100
AcDbLine
 10
60.97374
 20
86.2494
 30
0.0
 11
64.37104
 21
86.2494
 31
0.0
  0
LINE
  5
2CF
330
1E
100
AcDbEntity
  8
0
100
AcDbLine
 10
73.43374
 20
86.5288
 30
0.0
 11
73.43374
 21
86.3883
 31
0.0
  0
LINE
  5
2D0
330
1E
100
AcDbEntity
  8
0
100
AcDbLine
 10
73.43374
 20
86.3883
 30
0.0
 11
73.43374
 21
85.9515
 31
0.0
  0
LINE
  5
2D1
330
1E
100
AcDbEntity
  8
0
100
AcDbLine
 10
73.43374
 20
86.3883
 30
0.0
 11
73.43374
 21
86.5288
 31
0.0
  0
LINE
  5
2D2
330
1E
100
AcDbEntity
  8
0
100
AcDbLine
 10
73.43374
 20
86.6212
 30
0.0
 11
73.43374
 21
86.5423
 31
0.0
  0
LINE
  5
2D3
330
1E
100
AcDbEntity
  8
0
100
AcDbLine
 10
73.43374
 20
86.6212
 30
0.0
 11
73.49734
 21
86.8217
 31
0.0
  0
LINE
  5
2D4
330
1E
100
AcDbEntity
  8
0
100
AcDbLine
 10
73.43374
 20
86.5423
 30
0.0
 11
73.43374
 21
86.2213
 31
0.0
  0
LINE
  5
2D5
330
1E
100
AcDbEntity
  8
0
100
AcDbLine
 10
73.43374
 20
86.5423
 30
0.0
 11
73.43374
 21
86.6212
 31
0.0
  0
LINE
  5
2D6
330
1E
100
AcDbEntity
  8
0
100
AcDbLine
 10
73.67424
 20
86.9707
 30
0.0
 11
73.91774
 21
87.028
 31
0.0
  0
LINE
  5
2D7
330
1E
100
AcDbEntity
  8
0
100
AcDbLine
 10
81.573618723397
 20
87.181285106383
 30
0.0
 11
88.02954
 21
87.3301
 31
0.0
  0
LINE
  5
2D8
330
1E
100
AcDbEntity
  8
0
100
AcDbLine
 10
89.20434
 20
87.3747
 30
0.0
 11
90.90784
 21
87.4633
 31
0.0
  0
LINE
  5
2D9
330
1E
100
AcDbEntity
  8
0
100
AcDbLine
 10
88.02954
 20
87.3301
 30
0.0
 11
89.20434
 21
87.3747
 31
0.0
  0
LINE
  5
2DA
330
1E
100
AcDbEntity
  8
0
100
AcDbLine
 10
92.46514
 20
87.6157
 30
0.0
 11
93.43224
 21
87.7478
 31
0.0
  0
LINE
  5
2DB
330
1E
100
AcDbEntity
  8
0
100
AcDbLine
 10
94.31774
 20
87.9118
 30
0.0
 11
95.09194
 21
88.0849
 31
0.0
  0
LINE
  5
2DC
330
1E
100
AcDbEntity
  8
0
100
AcDbLine
 10
93.43224
 20
87.7478
 30
0.0
 11
94.31774
 21
87.9118
 31
0.0
  0
LINE
  5
2DD
330
1E
100
AcDbEntity
  8
0
100
AcDbLine
 10
95.09194
 20
88.0849
 30
0.0
 11
96.43364
 21
88.5068
 31
0.0
  0
LINE
  5
2DE
330
1E
100
AcDbEntity
  8
0
100
AcDbLine
 10
98.09444
 20
89.3806
 30
0.0
 11
98.82494
 21
90.0093
 31
0.0
  0
LINE
  5
2DF
330
1E
100
AcDbEntity
  8
0
100
AcDbLine
 10
99.07334
 20
90.2628
 30
0.0
 11
99.42524
 21
90.7358
 31
0.0
  0
LINE
  5
2E0
330
1E
100
AcDbEntity
  8
0
100
AcDbLine
 10
98.82494
 20
90.0093
 30
0.0
 11
99.162747988486
 21
90.382976125473
 31
0.0
  0
LINE
  5
2E1
330
1E
100
AcDbEntity
  8
0
100
AcDbLine
 10
99.42524
 20
90.7358
 30
0.0
 11
99.731423076705
 21
91.231891831127
 31
0.0
  0
LINE
  5
2E2
330
1E
100
AcDbEntity
  8
0
100
AcDbLine
 10
99.64184
 20
91.0526
 30
0.0
 11
99.99824
 21
91.7659
 31
0.0
  0
LINE
  5
2E3
330
1E
100
AcDbEntity
  8
0
100
AcDbLine
 10
100.06724
 20
91.8927
 30
0.0
 11
100.23924
 21
92.3358
 31
0.0
  0
LINE
  5
2E4
330
1E
100
AcDbEntity
  8
0
100
AcDbLine
 10
100.23924
 20
92.3358
 30
0.0
 11
100.60124
 21
93.7382
 31
0.0
  0
LINE
  5
2E5
330
1E
100
AcDbEntity
  8
0
100
AcDbLine
 10
99.99824
 20
91.7659
 30
0.0
 11
100.241605518454
 21
92.344964096906
 31
0.0
  0
LINE
  5
2E6
330
1E
100
AcDbEntity
  8
0
100
AcDbLine
 10
97.22474
 20
88.839
 30
0.0
 11
98.09444
 21
89.3806
 31
0.0
  0
LINE
  5
2E7
330
1E
100
AcDbEntity
  8
0
100
AcDbLine
 10
96.43364
 20
88.5068
 30
0.0
 11
97.386298946159
 21
88.93960977951
 31
0.0
  0
LINE
  5
2E8
330
1E
100
AcDbEntity
  8
0
100
AcDbLine
 10
91.70194
 20
87.5327
 30
0.0
 11
92.46514
 21
87.6157
 31
0.0
  0
LINE
  5
2E9
330
1E
100
AcDbEntity
  8
0
100
AcDbLine
 10
90.90784
 20
87.4633
 30
0.0
 11
91.70194
 21
87.5327
 31
0.0
  0
LINE
  5
2EA
330
1E
100
AcDbEntity
  8
0
100
AcDbLine
 10
100.60124
 20
93.7382
 30
0.0
 11
100.762605753021
 21
94.537944414972
 31
0.0
  0
LINE
  5
2EB
330
1E
100
AcDbEntity
  8
0
100
AcDbLine
 10
101.06824
 20
96.6638
 30
0.0
 11
101.25224
 21
98.1916
 31
0.0
  0
LINE
  5
2EC
330
1E
100
AcDbEntity
  8
0
100
AcDbLine
 10
101.25224
 20
98.1916
 30
0.0
 11
101.57924
 21
100.97
 31
0.0
  0
LINE
  5
2ED
330
1E
100
AcDbEntity
  8
0
100
AcDbLine
 10
101.57924
 20
100.97
 30
0.0
 11
102.15924
 21
106.388
 31
0.0
  0
LINE
  5
2EE
330
1E
100
AcDbEntity
  8
0
100
AcDbLine
 10
100.75924
 20
94.5143
 30
0.0
 11
101.084844591837
 21
96.801672257654
 31
0.0
  0
LINE
  5
2EF
330
1E
100
AcDbEntity
  8
0
100
AcDbLine
 10
102.44824
 20
109.414
 30
0.0
 11
102.66024
 21
111.172
 31
0.0
  0
LINE
  5
2F1
330
1E
100
AcDbEntity
  8
0
100
AcDbLine
 10
102.66024
 20
111.172
 30
0.0
 11
103.11824
 21
113.983
 31
0.0
  0
LINE
  5
2F2
330
1E
100
AcDbEntity
  8
0
100
AcDbLine
 10
103.11824
 20
113.983
 30
0.0
 11
103.32024
 21
114.939
 31
0.0
  0
LINE
  5
2F4
330
1E
100
AcDbEntity
  8
0
100
AcDbLine
 10
102.15924
 20
106.388
 30
0.0
 11
102.44824
 21
109.414
 31
0.0
  0
LINE
  5
2FB
330
1E
100
AcDbEntity
  8
0
100
AcDbLine
 10
103.32024
 20
114.939
 30
0.0
 11
103.66424
 21
116.605
 31
0.0
  0
LINE
  5
2FC
330
1E
100
AcDbEntity
  8
0
100
AcDbLine
 10
104.39024
 20
119.216
 30
0.0
 11
105.275345063727
 21
121.95389424733
 31
0.0
  0
LINE
  5
2FD
330
1E
100
AcDbEntity
  8
0
100
AcDbLine
 10
105.275345063727
 20
121.95389424733
 30
0.0
 11
105.52524
 21
122.657
 31
0.0
  0
LINE
  5
302
330
1E
100
AcDbEntity
  8
0
100
AcDbLine
 10
105.275345063727
 20
121.95389424733
 30
0.0
 11
105.52524
 21
122.657
 31
0.0
  0
LINE
  5
303
330
1E
100
AcDbEntity
  8
0
100
AcDbLine
 10
105.52524
 20
122.657
 30
0.0
 11
105.98924
 21
123.9
 31
0.0
  0
LINE
  5
308
330
1E
100
AcDbEntity
  8
0
100
AcDbLine
 10
106.81324
 20
125.903
 30
0.0
 11
107.02424
 21
126.401
 31
0.0
  0
LINE
  5
309
330
1E
100
AcDbEntity
  8
0
100
AcDbLine
 10
107.02424
 20
126.401
 30
0.0
 11
107.52024
 21
127.537
 31
0.0
  0
LINE
  5
30A
330
1E
100
AcDbEntity
  8
0
100
AcDbLine
 10
110.19274
 20
133.172
 30
0.0
 11
110.34974
 21
133.42
 31
0.0
  0
LINE
  5
30B
330
1E
100
AcDbEntity
  8
0
100
AcDbLine
 10
110.34974
 20
133.42
 30
0.0
 11
110.57674
 21
133.72
 31
0.0
  0
LINE
  5
30C
330
1E
100
AcDbEntity
  8
0
100
AcDbLine
 10
109.87074
 20
132.604
 30
0.0
 11
110.19274
 21
133.172
 31
0.0
  0
LINE
  5
30D
330
1E
100
AcDbEntity
  8
0
100
AcDbLine
 10
110.57674
 20
133.72
 30
0.0
 11
110.72774
 21
133.883
 31
0.0
  0
LINE
  5
30E
330
1E
100
AcDbEntity
  8
0
100
AcDbLine
 10
109.05874
 20
131.003
 30
0.0
 11
109.87074
 21
132.604
 31
0.0
  0
LINE
  5
30F
330
1E
100
AcDbEntity
  8
0
100
AcDbLine
 10
108.38974
 20
129.539
 30
0.0
 11
109.05874
 21
131.003
 31
0.0
  0
LINE
  5
310
330
1E
100
AcDbEntity
  8
0
100
AcDbLine
 10
107.52024
 20
127.537
 30
0.0
 11
108.38974
 21
129.539
 31
0.0
  0
LINE
  5
312
330
1E
100
AcDbEntity
  8
0
100
AcDbLine
 10
111.12774
 20
134.198
 30
0.0
 11
111.48274
 21
134.388
 31
0.0
  0
LINE
  5
313
330
1E
100
AcDbEntity
  8
0
100
AcDbLine
 10
110.95074
 20
134.103
 30
0.0
 11
111.12774
 21
134.198
 31
0.0
  0
LINE
  5
317
330
1E
100
AcDbEntity
  8
0
100
AcDbLine
 10
110.72774
 20
133.883
 30
0.0
 11
110.95074
 21
134.103
 31
0.0
  0
LINE
  5
318
330
1E
100
AcDbEntity
  8
0
100
AcDbLine
 10
106.29524
 20
124.651
 30
0.0
 11
106.81324
 21
125.903
 31
0.0
  0
LINE
  5
319
330
1E
100
AcDbEntity
  8
0
100
AcDbLine
 10
105.98924
 20
123.9
 30
0.0
 11
106.29524
 21
124.651
 31
0.0
  0
LINE
  5
31A
330
1E
100
AcDbEntity
  8
0
100
AcDbLine
 10
103.66424
 20
116.605
 30
0.0
 11
104.39024
 21
119.216
 31
0.0
  0
LINE
  5
31B
330
1E
100
AcDbEntity
  8
0
100
AcDbLine
 10
112.12874
 20
111.867
 30
0.0
 11
112.71074
 21
114.078
 31
0.0
  0
LINE
  5
31C
330
1E
100
AcDbEntity
  8
0
100
AcDbLine
 10
113.26374
 20
115.769
 30
0.0
 11
113.51674
 21
116.474
 31
0.0
  0
LINE
  5
31D
330
1E
100
AcDbEntity
  8
0
100
AcDbLine
 10
114.04274
 20
118.002
 30
0.0
 11
114.20574
 21
118.554
 31
0.0
  0
LINE
  5
31E
330
1E
100
AcDbEntity
  8
0
100
AcDbLine
 10
113.85074
 20
117.42
 30
0.0
 11
114.04274
 21
118.002
 31
0.0
  0
LINE
  5
31F
330
1E
100
AcDbEntity
  8
0
100
AcDbLine
 10
113.64974
 20
116.844
 30
0.0
 11
113.85074
 21
117.42
 31
0.0
  0
LINE
  5
320
330
1E
100
AcDbEntity
  8
0
100
AcDbLine
 10
114.33374
 20
119.055
 30
0.0
 11
114.39674
 21
119.354
 31
0.0
  0
LINE
  5
321
330
1E
100
AcDbEntity
  8
0
100
AcDbLine
 10
114.20574
 20
118.554
 30
0.0
 11
114.33374
 21
119.055
 31
0.0
  0
LINE
  5
322
330
1E
100
AcDbEntity
  8
0
100
AcDbLine
 10
113.51674
 20
116.474
 30
0.0
 11
113.64974
 21
116.844
 31
0.0
  0
LINE
  5
323
330
1E
100
AcDbEntity
  8
0
100
AcDbLine
 10
112.71074
 20
114.078
 30
0.0
 11
113.26374
 21
115.769
 31
0.0
  0
LINE
  5
324
330
1E
100
AcDbEntity
  8
0
100
AcDbLine
 10
114.39674
 20
119.354
 30
0.0
 11
114.47874
 21
119.864
 31
0.0
  0
LINE
  5
325
330
1E
100
AcDbEntity
  8
0
100
AcDbLine
 10
111.57574
 20
109.062
 30
0.0
 11
112.12874
 21
111.867
 31
0.0
  0
LINE
  5
326
330
1E
100
AcDbEntity
  8
0
100
AcDbLine
 10
111.28574
 20
105.828
 30
0.0
 11
111.28774
 21
105.141
 31
0.0
  0
LINE
  5
327
330
1E
100
AcDbEntity
  8
0
100
AcDbLine
 10
111.28574
 20
105.828
 30
0.0
 11
111.629296103256
 21
109.333654375468
 31
0.0
  0
LINE
  5
328
330
1E
100
AcDbEntity
  8
0
100
AcDbLine
 10
114.70874
 20
121.873
 30
0.0
 11
114.85474
 21
123.683
 31
0.0
  0
LINE
  5
329
330
1E
100
AcDbEntity
  8
0
100
AcDbLine
 10
114.69574
 20
121.742
 30
0.0
 11
114.70874
 21
121.873
 31
0.0
  0
LINE
  5
32A
330
1E
100
AcDbEntity
  8
0
100
AcDbLine
 10
114.47874
 20
119.864
 30
0.0
 11
114.69574
 21
121.742
 31
0.0
  0
LINE
  5
32C
330
1E
100
AcDbEntity
  8
0
100
AcDbLine
 10
111.28774
 20
105.141
 30
0.0
 11
111.19974
 21
101.546
 31
0.0
  0
LINE
  5
32D
330
1E
100
AcDbEntity
  8
0
100
AcDbLine
 10
111.19574
 20
99.6826
 30
0.0
 11
111.19974
 21
101.546
 31
0.0
  0
LINE
  5
32E
330
1E
100
AcDbEntity
  8
0
100
AcDbLine
 10
114.85474
 20
123.683
 30
0.0
 11
114.93974
 21
125.416
 31
0.0
  0
LINE
  5
32F
330
1E
100
AcDbEntity
  8
0
100
AcDbLine
 10
114.70874
 20
131.528
 30
0.0
 11
114.85474
 21
130.126
 31
0.0
  0
LINE
  5
330
330
1E
100
AcDbEntity
  8
0
100
AcDbLine
 10
114.35474
 20
133.346
 30
0.0
 11
114.44274
 21
133.043
 31
0.0
  0
LINE
  5
331
330
1E
100
AcDbEntity
  8
0
100
AcDbLine
 10
114.21174
 20
133.522
 30
0.0
 11
114.35474
 21
133.346
 31
0.0
  0
LINE
  5
332
330
1E
100
AcDbEntity
  8
0
100
AcDbLine
 10
114.13174
 20
133.612
 30
0.0
 11
114.21174
 21
133.522
 31
0.0
  0
LINE
  5
333
330
1E
100
AcDbEntity
  8
0
100
AcDbLine
 10
112.86974
 20
134.181
 30
0.0
 11
113.55674
 21
133.918
 31
0.0
  0
LINE
  5
334
330
1E
100
AcDbEntity
  8
0
100
AcDbLine
 10
112.36374
 20
134.377
 30
0.0
 11
112.86974
 21
134.181
 31
0.0
  0
LINE
  5
335
330
1E
100
AcDbEntity
  8
0
100
AcDbLine
 10
113.55674
 20
133.918
 30
0.0
 11
113.98274
 21
133.715
 31
0.0
  0
LINE
  5
336
330
1E
100
AcDbEntity
  8
0
100
AcDbLine
 10
113.98274
 20
133.715
 30
0.0
 11
114.13174
 21
133.612
 31
0.0
  0
LINE
  5
337
330
1E
100
AcDbEntity
  8
0
100
AcDbLine
 10
114.44274
 20
133.043
 30
0.0
 11
114.49274
 21
132.849
 31
0.0
  0
LINE
  5
338
330
1E
100
AcDbEntity
  8
0
100
AcDbLine
 10
114.49274
 20
132.849
 30
0.0
 11
114.70874
 21
131.528
 31
0.0
  0
LINE
  5
339
330
1E
100
AcDbEntity
  8
0
100
AcDbLine
 10
114.93974
 20
125.416
 30
0.0
 11
114.95674
 21
126.93
 31
0.0
  0
LINE
  5
33A
330
1E
100
AcDbEntity
  8
0
100
AcDbLine
 10
114.935551915641
 20
125.723740438719
 30
0.0
 11
114.95674
 21
126.93
 31
0.0
  0
LINE
  5
33B
330
1E
100
AcDbEntity
  8
0
100
AcDbLine
 10
114.93974
 20
128.64
 30
0.0
 11
114.95674
 21
126.93
 31
0.0
  0
LINE
  5
33C
330
1E
100
AcDbEntity
  8
0
100
AcDbLine
 10
114.85474
 20
130.126
 30
0.0
 11
114.93974
 21
128.64
 31
0.0
  0
LINE
  5
33D
330
1E
100
AcDbEntity
  8
0
100
AcDbLine
 10
112.19874
 20
134.403
 30
0.0
 11
112.36374
 21
134.377
 31
0.0
  0
LINE
  5
33E
330
1E
100
AcDbEntity
  8
0
100
AcDbLine
 10
111.90074
 20
134.442
 30
0.0
 11
112.19874
 21
134.403
 31
0.0
  0
LINE
  5
33F
330
1E
100
AcDbEntity
  8
0
100
AcDbLine
 10
111.48274
 20
134.388
 30
0.0
 11
111.90074
 21
134.442
 31
0.0
  0
LINE
  5
340
330
1E
100
AcDbEntity
  8
0
100
AcDbLine
 10
111.18774
 20
95.7486
 30
0.0
 11
111.18774
 21
55.3272
 31
0.0
  0
LINE
  5
341
330
1E
100
AcDbEntity
  8
0
100
AcDbLine
 10
111.18774
 20
95.7486
 30
0.0
 11
111.19574
 21
99.6826
 31
0.0
  0
LINE
  5
342
330
1E
100
AcDbEntity
  8
0
100
AcDbLine
 10
73.91774
 20
87.028
 30
0.0
 11
81.573618723397
 21
87.181285106383
 31
0.0
  0
LINE
  5
343
330
1E
100
AcDbEntity
  8
0
100
AcDbLine
 10
73.91774
 20
87.028
 30
0.0
 11
81.573618723397
 21
87.181285106383
 31
0.0
  0
LINE
  5
344
330
1E
100
AcDbEntity
  8
0
100
AcDbLine
 10
73.49734
 20
86.8217
 30
0.0
 11
73.67424
 21
86.9707
 31
0.0
  0
LINE
  5
345
330
1E
100
AcDbEntity
  8
0
100
AcDbLine
 10
58.04174
 20
86.3094
 30
0.0
 11
60.97374
 21
86.2494
 31
0.0
  0
LINE
  5
346
330
1E
100
AcDbEntity
  8
0
100
AcDbLine
 10
56.68074
 20
86.4424
 30
0.0
 11
58.04174
 21
86.3094
 31
0.0
  0
LINE
  5
347
330
1E
100
AcDbEntity
  8
0
100
AcDbLine
 10
64.37104
 20
86.2494
 30
0.0
 11
71.07074
 21
86.2494
 31
0.0
  0
LINE
  5
348
330
1E
100
AcDbEntity
  8
0
100
AcDbLine
 10
55.73374
 20
86.6154
 30
0.0
 11
56.68074
 21
86.4424
 31
0.0
  0
LINE
  5
349
330
1E
100
AcDbEntity
  8
0
100
AcDbLine
 10
41.22924
 20
228.539
 30
0.0
 11
41.35934
 21
228.645
 31
0.0
  0
LINE
  5
34A
330
1E
100
AcDbEntity
  8
0
100
AcDbLine
 10
40.64504
 20
228.142
 30
0.0
 11
41.22924
 21
228.539
 31
0.0
  0
LINE
  5
34B
330
1E
100
AcDbEntity
  8
0
100
AcDbLine
 10
39.97204
 20
227.77
 30
0.0
 11
40.64504
 21
228.142
 31
0.0
  0
LINE
  5
34C
330
1E
100
AcDbEntity
  8
0
100
AcDbLine
 10
39.21634
 20
227.427
 30
0.0
 11
39.97204
 21
227.77
 31
0.0
  0
LINE
  5
34D
330
1E
100
AcDbEntity
  8
0
100
AcDbLine
 10
39.65624
 20
228.7
 30
0.0
 11
40.16474
 21
229.098
 31
0.0
  0
LINE
  5
34E
330
1E
100
AcDbEntity
  8
0
100
AcDbLine
 10
39.18914
 20
229.654
 30
0.0
 11
39.45044
 21
230.02
 31
0.0
  0
LINE
  5
34F
330
1E
100
AcDbEntity
  8
0
100
AcDbLine
 10
39.45044
 20
230.02
 30
0.0
 11
39.61894
 21
230.394
 31
0.0
  0
LINE
  5
350
330
1E
100
AcDbEntity
  8
0
100
AcDbLine
 10
40.16474
 20
229.098
 30
0.0
 11
40.56834
 21
229.516
 31
0.0
  0
LINE
  5
351
330
1E
100
AcDbEntity
  8
0
100
AcDbLine
 10
40.56834
 20
229.516
 30
0.0
 11
40.86094
 21
229.95
 31
0.0
  0
LINE
  5
352
330
1E
100
AcDbEntity
  8
0
100
AcDbLine
 10
40.86094
 20
229.95
 30
0.0
 11
41.037805311053
 21
230.382423998389
 31
0.0
  0
LINE
  5
353
330
1E
100
AcDbEntity
  8
0
100
AcDbLine
 10
40.97894
 20
230.158
 30
0.0
 11
41.09094
 21
230.585
 31
0.0
  0
LINE
  5
354
330
1E
100
AcDbEntity
  8
0
100
AcDbLine
 10
40.76404
 20
229.738
 30
0.0
 11
40.97894
 21
230.158
 31
0.0
  0
LINE
  5
355
330
1E
100
AcDbEntity
  8
0
100
AcDbLine
 10
40.44624
 20
229.33
 30
0.0
 11
40.76404
 21
229.738
 31
0.0
  0
LINE
  5
356
330
1E
100
AcDbEntity
  8
0
100
AcDbLine
 10
40.03154
 20
228.937
 30
0.0
 11
40.44624
 21
229.33
 31
0.0
  0
LINE
  5
357
330
1E
100
AcDbEntity
  8
0
100
AcDbLine
 10
42.54684
 20
229.962
 30
0.0
 11
42.73554
 21
230.427
 31
0.0
  0
LINE
  5
358
330
1E
100
AcDbEntity
  8
0
100
AcDbLine
 10
42.25324
 20
229.509
 30
0.0
 11
42.54684
 21
229.962
 31
0.0
  0
LINE
  5
359
330
1E
100
AcDbEntity
  8
0
100
AcDbLine
 10
41.85574
 20
229.068
 30
0.0
 11
42.25324
 21
229.509
 31
0.0
  0
LINE
  5
35A
330
1E
100
AcDbEntity
  8
0
100
AcDbLine
 10
41.35934
 20
228.645
 30
0.0
 11
41.85574
 21
229.068
 31
0.0
  0
LINE
  5
35B
330
1E
100
AcDbEntity
  8
0
100
AcDbLine
 10
39.61894
 20
230.394
 30
0.0
 11
41.040841639344
 21
230.394
 31
0.0
  0
LINE
  5
35C
330
1E
100
AcDbEntity
  8
0
100
AcDbLine
 10
39.61894
 20
230.394
 30
0.0
 11
39.61894
 21
231.353
 31
0.0
  0
LINE
  5
361
330
1E
100
AcDbEntity
  8
0
100
AcDbLine
 10
41.09094
 20
230.585
 30
0.0
 11
41.09494
 21
230.827
 31
0.0
  0
LINE
  5
362
330
1E
100
AcDbEntity
  8
0
100
AcDbLine
 10
39.18914
 20
232.093
 30
0.0
 11
39.45044
 21
231.728
 31
0.0
  0
LINE
  5
363
330
1E
100
AcDbEntity
  8
0
100
AcDbLine
 10
39.45044
 20
231.728
 30
0.0
 11
39.61894
 21
231.353
 31
0.0
  0
LINE
  5
364
330
1E
100
AcDbEntity
  8
0
100
AcDbLine
 10
39.52204
 20
233.091
 30
0.0
 11
40.03154
 21
232.718
 31
0.0
  0
LINE
  5
365
330
1E
100
AcDbEntity
  8
0
100
AcDbLine
 10
39.00644
 20
232.152
 30
0.0
 11
39.063621845011
 21
232.218482506549
 31
0.0
  0
LINE
  5
366
330
1E
100
AcDbEntity
  8
0
100
AcDbLine
 10
41.09094
 20
231.07
 30
0.0
 11
41.09494
 21
230.827
 31
0.0
  0
LINE
  5
368
330
1E
100
AcDbEntity
  8
0
100
AcDbLine
 10
40.97894
 20
231.496
 30
0.0
 11
41.09094
 21
231.07
 31
0.0
  0
LINE
  5
369
330
1E
100
AcDbEntity
  8
0
100
AcDbLine
 10
40.76404
 20
231.915
 30
0.0
 11
40.97894
 21
231.496
 31
0.0
  0
LINE
  5
36A
330
1E
100
AcDbEntity
  8
0
100
AcDbLine
 10
41.96604
 20
236.13
 30
0.0
 11
42.77664
 21
235.054
 31
0.0
  0
LINE
  5
36B
330
1E
100
AcDbEntity
  8
0
100
AcDbLine
 10
40.59484
 20
237.063
 30
0.0
 11
41.96604
 21
236.13
 31
0.0
  0
LINE
  5
36C
330
1E
100
AcDbEntity
  8
0
100
AcDbLine
 10
40.44624
 20
232.325
 30
0.0
 11
40.76404
 21
231.915
 31
0.0
  0
LINE
  5
36D
330
1E
100
AcDbEntity
  8
0
100
AcDbLine
 10
40.03154
 20
232.718
 30
0.0
 11
40.44624
 21
232.325
 31
0.0
  0
LINE
  5
36F
330
1E
100
AcDbEntity
  8
0
100
AcDbLine
 10
39.61894
 20
231.353
 30
0.0
 11
39.61894
 21
230.394
 31
0.0
  0
LINE
  5
370
330
1E
100
AcDbEntity
  8
0
100
AcDbLine
 10
39.61894
 20
231.353
 30
0.0
 11
41.016536244132
 21
231.353
 31
0.0
  0
LINE
  5
373
330
1E
100
AcDbEntity
  8
0
100
AcDbLine
 10
42.730824154004
 20
230.415379075845
 30
0.0
 11
42.83684
 21
230.491
 31
0.0
  0
LINE
  5
374
330
1E
100
AcDbEntity
  8
0
100
AcDbLine
 10
42.77664
 20
235.054
 30
0.0
 11
42.98324
 21
234.278
 31
0.0
  0
LINE
  5
375
330
1E
100
AcDbEntity
  8
0
100
AcDbLine
 10
42.73554
 20
230.427
 30
0.0
 11
42.78904
 21
230.61
 31
0.0
  0
LINE
  5
378
330
1E
100
AcDbEntity
  8
0
100
AcDbLine
 10
42.83684
 20
230.491
 30
0.0
 11
43.59804
 21
231.155
 31
0.0
  0
LINE
  5
379
330
1E
100
AcDbEntity
  8
0
100
AcDbLine
 10
42.86394
 20
231.198
 30
0.0
 11
42.87074
 21
231.315
 31
0.0
  0
LINE
  5
37A
330
1E
100
AcDbEntity
  8
0
100
AcDbLine
 10
46.87074
 20
229.348
 30
0.0
 11
46.87074
 21
231.677
 31
0.0
  0
LINE
  5
37B
330
1E
100
AcDbEntity
  8
0
100
AcDbLine
 10
46.87074
 20
229.348
 30
0.0
 11
46.87074
 21
226.892
 31
0.0
  0
LINE
  5
37C
330
1E
100
AcDbEntity
  8
0
100
AcDbLine
 10
43.59804
 20
231.155
 30
0.0
 11
44.35344
 21
231.98
 31
0.0
  0
LINE
  5
37D
330
1E
100
AcDbEntity
  8
0
100
AcDbLine
 10
42.87074
 20
231.081
 30
0.0
 11
42.87074
 21
231.315
 31
0.0
  0
LINE
  5
37E
330
1E
100
AcDbEntity
  8
0
100
AcDbLine
 10
42.87074
 20
233.619662633107
 30
0.0
 11
42.98324
 21
234.278
 31
0.0
  0
LINE
  5
37F
330
1E
100
AcDbEntity
  8
0
100
AcDbLine
 10
44.35344
 20
231.98
 30
0.0
 11
45.082031620598
 21
233.023992973966
 31
0.0
  0
LINE
  5
381
330
1E
100
AcDbEntity
  8
0
100
AcDbLine
 10
45.082031620598
 20
233.023992973966
 30
0.0
 11
45.65284
 21
234.049
 31
0.0
  0
LINE
  5
382
330
1E
100
AcDbEntity
  8
0
100
AcDbLine
 10
45.88261733744
 20
234.65472949412
 30
0.0
 11
45.94274
 21
234.772
 31
0.0
  0
LINE
  5
383
330
1E
100
AcDbEntity
  8
0
100
AcDbLine
 10
45.65284
 20
234.049
 30
0.0
 11
45.88261733744
 21
234.65472949412
 31
0.0
  0
LINE
  5
384
330
1E
100
AcDbEntity
  8
0
100
AcDbLine
 10
46.52164
 20
236.419
 30
0.0
 11
46.71654
 21
237.187
 31
0.0
  0
LINE
  5
385
330
1E
100
AcDbEntity
  8
0
100
AcDbLine
 10
46.26754
 20
235.641
 30
0.0
 11
46.52164
 21
236.419
 31
0.0
  0
LINE
  5
386
330
1E
100
AcDbEntity
  8
0
100
AcDbLine
 10
45.94274
 20
234.772
 30
0.0
 11
46.26754
 21
235.641
 31
0.0
  0
LINE
  5
387
330
1E
100
AcDbEntity
  8
0
100
AcDbLine
 10
46.753651353311
 20
254.138814248172
 30
0.0
 11
46.81644
 21
254.001
 31
0.0
  0
LINE
  5
388
330
1E
100
AcDbEntity
  8
0
100
AcDbLine
 10
46.72914
 20
254.203
 30
0.0
 11
46.83874
 21
253.916
 31
0.0
  0
LINE
  5
389
330
1E
100
AcDbEntity
  8
0
100
AcDbLine
 10
46.71654
 20
237.187
 30
0.0
 11
46.83194
 21
237.933
 31
0.0
  0
LINE
  5
38A
330
1E
100
AcDbEntity
  8
0
100
AcDbLine
 10
46.495415427833
 20
254.452138951674
 30
0.0
 11
46.54494
 21
254.425
 31
0.0
  0
LINE
  5
38B
330
1E
100
AcDbEntity
  8
0
100
AcDbLine
 10
46.612364896184
 20
254.346920506229
 30
0.0
 11
46.71074
 21
254.233
 31
0.0
  0
LINE
  5
38C
330
1E
100
AcDbEntity
  8
0
100
AcDbLine
 10
46.83194
 20
237.933
 30
0.0
 11
46.84744
 21
238.281
 31
0.0
  0
LINE
  5
38D
330
1E
100
AcDbEntity
  8
0
100
AcDbLine
 10
46.87074
 20
231.677
 30
0.0
 11
46.87074
 21
234.794
 31
0.0
  0
LINE
  5
38E
330
1E
100
AcDbEntity
  8
0
100
AcDbLine
 10
46.87074
 20
231.677
 30
0.0
 11
46.87074
 21
229.348
 31
0.0
  0
LINE
  5
38F
330
1E
100
AcDbEntity
  8
0
100
AcDbLine
 10
46.87074
 20
237.422
 30
0.0
 11
46.87074
 21
238.916
 31
0.0
  0
LINE
  5
390
330
1E
100
AcDbEntity
  8
0
100
AcDbLine
 10
46.87074
 20
237.422
 30
0.0
 11
46.87074
 21
234.794
 31
0.0
  0
LINE
  5
391
330
1E
100
AcDbEntity
  8
0
100
AcDbLine
 10
46.87074
 20
234.794
 30
0.0
 11
46.87074
 21
237.422
 31
0.0
  0
LINE
  5
392
330
1E
100
AcDbEntity
  8
0
100
AcDbLine
 10
46.87074
 20
234.794
 30
0.0
 11
46.87074
 21
231.677
 31
0.0
  0
LINE
  5
393
330
1E
100
AcDbEntity
  8
0
100
AcDbLine
 10
46.86884
 20
238.722
 30
0.0
 11
46.87074
 21
238.916
 31
0.0
  0
LINE
  5
394
330
1E
100
AcDbEntity
  8
0
100
AcDbLine
 10
46.87074
 20
238.916
 30
0.0
 11
46.87074
 21
238.976
 31
0.0
  0
LINE
  5
395
330
1E
100
AcDbEntity
  8
0
100
AcDbLine
 10
46.87074
 20
238.916
 30
0.0
 11
46.87074
 21
237.422
 31
0.0
  0
LINE
  5
396
330
1E
100
AcDbEntity
  8
0
100
AcDbLine
 10
46.87074
 20
246.839
 30
0.0
 11
46.87074
 21
248.85
 31
0.0
  0
LINE
  5
397
330
1E
100
AcDbEntity
  8
0
100
AcDbLine
 10
46.87074
 20
246.839
 30
0.0
 11
46.87074
 21
244.493
 31
0.0
  0
LINE
  5
398
330
1E
100
AcDbEntity
  8
0
100
AcDbLine
 10
46.87074
 20
248.85
 30
0.0
 11
46.87074
 21
250.385
 31
0.0
  0
LINE
  5
399
330
1E
100
AcDbEntity
  8
0
100
AcDbLine
 10
46.87074
 20
248.85
 30
0.0
 11
46.87074
 21
246.839
 31
0.0
  0
LINE
  5
39A
330
1E
100
AcDbEntity
  8
0
100
AcDbLine
 10
46.87074
 20
250.385
 30
0.0
 11
46.87074
 21
251.229
 31
0.0
  0
LINE
  5
39B
330
1E
100
AcDbEntity
  8
0
100
AcDbLine
 10
46.87074
 20
250.385
 30
0.0
 11
46.87074
 21
248.85
 31
0.0
  0
LINE
  5
39C
330
1E
100
AcDbEntity
  8
0
100
AcDbLine
 10
46.87074
 20
251.952
 30
0.0
 11
46.87074
 21
252.518
 31
0.0
  0
LINE
  5
39D
330
1E
100
AcDbEntity
  8
0
100
AcDbLine
 10
46.87074
 20
251.952
 30
0.0
 11
46.87074
 21
251.229
 31
0.0
  0
LINE
  5
39E
330
1E
100
AcDbEntity
  8
0
100
AcDbLine
 10
46.87074
 20
251.229
 30
0.0
 11
46.87074
 21
251.952
 31
0.0
  0
LINE
  5
39F
330
1E
100
AcDbEntity
  8
0
100
AcDbLine
 10
46.87074
 20
251.229
 30
0.0
 11
46.87074
 21
250.385
 31
0.0
  0
LINE
  5
3A0
330
1E
100
AcDbEntity
  8
0
100
AcDbLine
 10
46.87074
 20
244.493
 30
0.0
 11
46.87074
 21
246.839
 31
0.0
  0
LINE
  5
3A1
330
1E
100
AcDbEntity
  8
0
100
AcDbLine
 10
46.87074
 20
244.493
 30
0.0
 11
46.87074
 21
238.976
 31
0.0
  0
LINE
  5
3A2
330
1E
100
AcDbEntity
  8
0
100
AcDbLine
 10
46.87074
 20
238.976
 30
0.0
 11
46.87074
 21
244.493
 31
0.0
  0
LINE
  5
3A3
330
1E
100
AcDbEntity
  8
0
100
AcDbLine
 10
46.87074
 20
238.976
 30
0.0
 11
46.87074
 21
238.916
 31
0.0
  0
LINE
  5
3A4
330
1E
100
AcDbEntity
  8
0
100
AcDbLine
 10
46.84744
 20
238.281
 30
0.0
 11
46.86884
 21
238.722
 31
0.0
  0
LINE
  5
3A5
330
1E
100
AcDbEntity
  8
0
100
AcDbLine
 10
46.87074
 20
253.496
 30
0.0
 11
46.87074
 21
253.385
 31
0.0
  0
LINE
  5
3A6
330
1E
100
AcDbEntity
  8
0
100
AcDbLine
 10
46.87074
 20
253.385
 30
0.0
 11
46.87074
 21
252.999
 31
0.0
  0
LINE
  5
3A7
330
1E
100
AcDbEntity
  8
0
100
AcDbLine
 10
46.87074
 20
253.385
 30
0.0
 11
46.87074
 21
253.496
 31
0.0
  0
LINE
  5
3A8
330
1E
100
AcDbEntity
  8
0
100
AcDbLine
 10
46.87074
 20
252.999
 30
0.0
 11
46.87074
 21
253.385
 31
0.0
  0
LINE
  5
3A9
330
1E
100
AcDbEntity
  8
0
100
AcDbLine
 10
46.87074
 20
252.999
 30
0.0
 11
46.87074
 21
252.518
 31
0.0
  0
LINE
  5
3AA
330
1E
100
AcDbEntity
  8
0
100
AcDbLine
 10
46.87074
 20
252.518
 30
0.0
 11
46.87074
 21
252.999
 31
0.0
  0
LINE
  5
3AB
330
1E
100
AcDbEntity
  8
0
100
AcDbLine
 10
46.87074
 20
252.518
 30
0.0
 11
46.87074
 21
251.952
 31
0.0
  0
LINE
  5
3AC
330
1E
100
AcDbEntity
  8
0
100
AcDbLine
 10
46.83874
 20
253.916
 30
0.0
 11
46.87074
 21
253.496
 31
0.0
  0
LINE
  5
3AD
330
1E
100
AcDbEntity
  8
0
100
AcDbLine
 10
46.81644
 20
254.001
 30
0.0
 11
46.83874
 21
253.916
 31
0.0
  0
LINE
  5
3AE
330
1E
100
AcDbEntity
  8
0
100
AcDbLine
 10
46.08144
 20
254.631
 30
0.0
 11
46.23654
 21
254.594
 31
0.0
  0
LINE
  5
3AF
330
1E
100
AcDbEntity
  8
0
100
AcDbLine
 10
46.23654
 20
254.594
 30
0.0
 11
46.35194
 21
254.549
 31
0.0
  0
LINE
  5
3B0
330
1E
100
AcDbEntity
  8
0
100
AcDbLine
 10
45.80024
 20
254.656
 30
0.0
 11
46.08144
 21
254.631
 31
0.0
  0
LINE
  5
3B1
330
1E
100
AcDbEntity
  8
0
100
AcDbLine
 10
46.35194
 20
254.549
 30
0.0
 11
46.56524
 21
254.405
 31
0.0
  0
LINE
  5
3B2
330
1E
100
AcDbEntity
  8
0
100
AcDbLine
 10
42.87074
 20
234.700555663117
 30
0.0
 11
42.87074
 21
231.315
 31
0.0
  0
LINE
  5
3B3
330
1E
100
AcDbEntity
  8
0
100
AcDbLine
 10
42.87074
 20
231.315
 30
0.0
 11
42.87074
 21
231.081
 31
0.0
  0
LINE
  5
3B4
330
1E
100
AcDbEntity
  8
0
100
AcDbLine
 10
42.87074
 20
231.315
 30
0.0
 11
42.87074
 21
234.700555663117
 31
0.0
  0
LINE
  5
3B5
330
1E
100
AcDbEntity
  8
0
100
AcDbLine
 10
42.78904
 20
230.61
 30
0.0
 11
42.87074
 21
231.081
 31
0.0
  0
LINE
  5
3B6
330
1E
100
AcDbEntity
  8
0
100
AcDbLine
 10
39.52204
 20
228.564
 30
0.0
 11
40.03154
 21
228.937
 31
0.0
  0
LINE
  5
3B7
330
1E
100
AcDbEntity
  8
0
100
AcDbLine
 10
38.92274
 20
228.213
 30
0.0
 11
39.52204
 21
228.564
 31
0.0
  0
ENDSEC
  0
SECTION
  2
OBJECTS
  0
DICTIONARY
  5
C
330
0
100
AcDbDictionary
281
     1
  3
ACAD_GROUP
350
D
  3
ACAD_LAYOUT
350
19
  3
ACAD_MLEADERSTYLE
350
3E4
  3
ACAD_MLINESTYLE
350
16
  3
ACAD_PLOTSETTINGS
350
18
  3
ACAD_PLOTSTYLENAME
350
E
  3
ACAD_SCALELIST
350
3C0
  3
AcDbVariableDictionary
350
3BD
  3
DWGPROPS
350
3E7
  0
DICTIONARY
  5
D
102
{ACAD_REACTORS
330
C
102
}
330
C
100
AcDbDictionary
281
     1
  0
DICTIONARY
  5
19
102
{ACAD_REACTORS
330
C
102
}
330
C
100
AcDbDictionary
281
     1
  3
Layout1
350
1D
  3
Model
350
21
  0
DICTIONARY
  5
3E4
102
{ACAD_REACTORS
330
C
102
}
330
C
100
AcDbDictionary
281
     1
  0
DICTIONARY
  5
16
102
{ACAD_REACTORS
330
C
102
}
330
C
100
AcDbDictionary
281
     1
  3
Standard
350
17
  0
DICTIONARY
  5
18
102
{ACAD_REACTORS
330
C
102
}
330
C
100
AcDbDictionary
281
     1
  0
ACDBDICTIONARYWDFLT
  5
E
102
{ACAD_REACTORS
330
C
102
}
330
C
100
AcDbDictionary
281
     1
  3
Normal
350
F
100
AcDbDictionaryWithDefault
340
F
  0
DICTIONARY
  5
3C0
102
{ACAD_REACTORS
330
C
102
}
330
C
100
AcDbDictionary
281
     1
  3
A0
350
3C1
  3
A1
350
3C2
  3
A2
350
3C3
  3
A3
350
3C4
  3
A4
350
3C5
  3
A5
350
3C6
  3
A6
350
3C7
  3
A7
350
3C8
  3
A8
350
3C9
  3
A9
350
3CA
  3
B0
350
3CB
  3
B1
350
3CC
  3
B2
350
3CD
  3
B3
350
3CE
  3
B4
350
3CF
  3
B5
350
3D0
  3
B6
350
3D1
  3
B7
350
3D2
  3
B8
350
3D3
  3
B9
350
3D4
  3
C0
350
3D5
  3
C1
350
3D6
  3
C2
350
3D7
  3
C3
350
3D8
  3
C4
350
3D9
  3
C5
350
3DA
  3
C6
350
3DB
  3
C7
350
3DC
  3
C8
350
3DD
  3
C9
350
3DE
  3
D0
350
3DF
  3
D1
350
3E0
  3
D2
350
3E1
  0
DICTIONARY
  5
3BD
102
{ACAD_REACTORS
330
C
102
}
330
C
100
AcDbDictionary
281
     1
  3
CANNOSCALE
350
3E5
  3
DIMASSOC
350
3BE
  0
XRECORD
  5
3E7
102
{ACAD_REACTORS
330
C
102
}
330
C
100
AcDbXrecord
280
     1
  1
DWGPROPS COOKIE
  2

  3

  4

  6

  7

  8
MARTIN
  9

300
=
301
=
302
=
303
=
304
=
305
=
306
=
307
=
308
=
309
=
 40
0.0
 41
2455653.841225405
 42
2455820.800035625
  1

 90
        0
  0
LAYOUT
  5
1D
102
{ACAD_REACTORS
330
19
102
}
330
19
100
AcDbPlotSettings
  1

  2
C:\Programme\AutoCAD LT 2002 Deu\plotters\DWF ePlot (optimized for plotting).pc3
  4

  6

 40
0.0
 41
0.0
 42
0.0
 43
0.0
 44
0.0
 45
0.0
 46
0.0
 47
0.0
 48
0.0
 49
0.0
140
0.0
141
0.0
142
1.0
143
1.0
 70
   688
 72
     0
 73
     0
 74
     5
  7

 75
    16
147
1.0
148
0.0
149
0.0
100
AcDbLayout
  1
Layout1
 70
     1
 71
     1
 10
0.0
 20
0.0
 11
12.0
 21
9.0
 12
0.0
 22
0.0
 32
0.0
 14
1.000000000000E+20
 24
1.000000000000E+20
 34
1.000000000000E+20
 15
-1.000000000000E+20
 25
-1.000000000000E+20
 35
-1.000000000000E+20
146
0.0
 13
0.0
 23
0.0
 33
0.0
 16
1.0
 26
0.0
 36
0.0
 17
0.0
 27
1.0
 37
0.0
 76
     0
330
1A
  0
LAYOUT
  5
21
102
{ACAD_REACTORS
330
19
102
}
330
19
100
AcDbPlotSettings
  1

  2
C:\Programme\AutoCAD LT 2002 Deu\plotters\DWF ePlot (optimized for plotting).pc3
  4

  6

 40
0.0
 41
0.0
 42
0.0
 43
0.0
 44
0.0
 45
0.0
 46
0.0
 47
0.0
 48
0.0
 49
0.0
140
0.0
141
0.0
142
1.0
143
1.0
 70
  1712
 72
     0
 73
     0
 74
     0
  7

 75
     0
147
1.0
148
0.0
149
0.0
100
AcDbLayout
  1
Model
 70
     1
 71
     0
 10
0.0
 20
0.0
 11
12.0
 21
9.0
 12
0.0
 22
0.0
 32
0.0
 14
7.87074
 24
0.0
 34
0.0
 15
0.0
 25
0.0
 35
0.0
146
0.0
 13
0.0
 23
0.0
 33
0.0
 16
1.0
 26
0.0
 36
0.0
 17
0.0
 27
1.0
 37
0.0
 76
     0
330
1E
331
3BF
  0
MLINESTYLE
  5
17
102
{ACAD_REACTORS
330
16
102
}
330
16
100
AcDbMlineStyle
  2
STANDARD
 70
     0
  3

 62
   256
 51
90.0
 52
90.0
 71
     2
 49
0.5
 62
   256
  6
BYLAYER
 49
-0.5
 62
   256
  6
BYLAYER
  0
ACDBPLACEHOLDER
  5
F
102
{ACAD_REACTORS
330
E
102
}
330
E
  0
SCALE
  5
3C1
102
{ACAD_REACTORS
330
3C0
102
}
330
3C0
100
AcDbScale
 70
     0
300
1:1
140
1.0
141
1.0
290
     1
  0
SCALE
  5
3C2
102
{ACAD_REACTORS
330
3C0
102
}
330
3C0
100
AcDbScale
 70
     0
300
1:2
140
1.0
141
2.0
290
     0
  0
SCALE
  5
3C3
102
{ACAD_REACTORS
330
3C0
102
}
330
3C0
100
AcDbScale
 70
     0
300
1:4
140
1.0
141
4.0
290
     0
  0
SCALE
  5
3C4
102
{ACAD_REACTORS
330
3C0
102
}
330
3C0
100
AcDbScale
 70
     0
300
1:5
140
1.0
141
5.0
290
     0
  0
SCALE
  5
3C5
102
{ACAD_REACTORS
330
3C0
102
}
330
3C0
100
AcDbScale
 70
     0
300
1:8
140
1.0
141
8.0
290
     0
  0
SCALE
  5
3C6
102
{ACAD_REACTORS
330
3C0
102
}
330
3C0
100
AcDbScale
 70
     0
300
1:10
140
1.0
141
10.0
290
     0
  0
SCALE
  5
3C7
102
{ACAD_REACTORS
330
3C0
102
}
330
3C0
100
AcDbScale
 70
     0
300
1:16
140
1.0
141
16.0
290
     0
  0
SCALE
  5
3C8
102
{ACAD_REACTORS
330
3C0
102
}
330
3C0
100
AcDbScale
 70
     0
300
1:20
140
1.0
141
20.0
290
     0
  0
SCALE
  5
3C9
102
{ACAD_REACTORS
330
3C0
102
}
330
3C0
100
AcDbScale
 70
     0
300
1:30
140
1.0
141
30.0
290
     0
  0
SCALE
  5
3CA
102
{ACAD_REACTORS
330
3C0
102
}
330
3C0
100
AcDbScale
 70
     0
300
1:40
140
1.0
141
40.0
290
     0
  0
SCALE
  5
3CB
102
{ACAD_REACTORS
330
3C0
102
}
330
3C0
100
AcDbScale
 70
     0
300
1:50
140
1.0
141
50.0
290
     0
  0
SCALE
  5
3CC
102
{ACAD_REACTORS
330
3C0
102
}
330
3C0
100
AcDbScale
 70
     0
300
1:100
140
1.0
141
100.0
290
     0
  0
SCALE
  5
3CD
102
{ACAD_REACTORS
330
3C0
102
}
330
3C0
100
AcDbScale
 70
     0
300
2:1
140
2.0
141
1.0
290
     0
  0
SCALE
  5
3CE
102
{ACAD_REACTORS
330
3C0
102
}
330
3C0
100
AcDbScale
 70
     0
300
4:1
140
4.0
141
1.0
290
     0
  0
SCALE
  5
3CF
102
{ACAD_REACTORS
330
3C0
102
}
330
3C0
100
AcDbScale
 70
     0
300
8:1
140
8.0
141
1.0
290
     0
  0
SCALE
  5
3D0
102
{ACAD_REACTORS
330
3C0
102
}
330
3C0
100
AcDbScale
 70
     0
300
10:1
140
10.0
141
1.0
290
     0
  0
SCALE
  5
3D1
102
{ACAD_REACTORS
330
3C0
102
}
330
3C0
100
AcDbScale
 70
     0
300
100:1
140
100.0
141
1.0
290
     0
  0
SCALE
  5
3D2
102
{ACAD_REACTORS
330
3C0
102
}
330
3C0
100
AcDbScale
 70
     0
300
1/128" = 1'-0"
140
0.0078125
141
12.0
290
     0
  0
SCALE
  5
3D3
102
{ACAD_REACTORS
330
3C0
102
}
330
3C0
100
AcDbScale
 70
     0
300
1/64" = 1'-0"
140
0.015625
141
12.0
290
     0
  0
SCALE
  5
3D4
102
{ACAD_REACTORS
330
3C0
102
}
330
3C0
100
AcDbScale
 70
     0
300
1/32" = 1'-0"
140
0.03125
141
12.0
290
     0
  0
SCALE
  5
3D5
102
{ACAD_REACTORS
330
3C0
102
}
330
3C0
100
AcDbScale
 70
     0
300
1/16" = 1'-0"
140
0.0625
141
12.0
290
     0
  0
SCALE
  5
3D6
102
{ACAD_REACTORS
330
3C0
102
}
330
3C0
100
AcDbScale
 70
     0
300
3/32" = 1'-0"
140
0.09375
141
12.0
290
     0
  0
SCALE
  5
3D7
102
{ACAD_REACTORS
330
3C0
102
}
330
3C0
100
AcDbScale
 70
     0
300
1/8" = 1'-0"
140
0.125
141
12.0
290
     0
  0
SCALE
  5
3D8
102
{ACAD_REACTORS
330
3C0
102
}
330
3C0
100
AcDbScale
 70
     0
300
3/16" = 1'-0"
140
0.1875
141
12.0
290
     0
  0
SCALE
  5
3D9
102
{ACAD_REACTORS
330
3C0
102
}
330
3C0
100
AcDbScale
 70
     0
300
1/4" = 1'-0"
140
0.25
141
12.0
290
     0
  0
SCALE
  5
3DA
102
{ACAD_REACTORS
330
3C0
102
}
330
3C0
100
AcDbScale
 70
     0
300
3/8" = 1'-0"
140
0.375
141
12.0
290
     0
  0
SCALE
  5
3DB
102
{ACAD_REACTORS
330
3C0
102
}
330
3C0
100
AcDbScale
 70
     0
300
1/2" = 1'-0"
140
0.5
141
12.0
290
     0
  0
SCALE
  5
3DC
102
{ACAD_REACTORS
330
3C0
102
}
330
3C0
100
AcDbScale
 70
     0
300
3/4" = 1'-0"
140
0.75
141
12.0
290
     0
  0
SCALE
  5
3DD
102
{ACAD_REACTORS
330
3C0
102
}
330
3C0
100
AcDbScale
 70
     0
300
1" = 1'-0"
140
1.0
141
12.0
290
     0
  0
SCALE
  5
3DE
102
{ACAD_REACTORS
330
3C0
102
}
330
3C0
100
AcDbScale
 70
     0
300
1-1/2" = 1'-0"
140
1.5
141
12.0
290
     0
  0
SCALE
  5
3DF
102
{ACAD_REACTORS
330
3C0
102
}
330
3C0
100
AcDbScale
 70
     0
300
3" = 1'-0"
140
3.0
141
12.0
290
     0
  0
SCALE
  5
3E0
102
{ACAD_REACTORS
330
3C0
102
}
330
3C0
100
AcDbScale
 70
     0
300
6" = 1'-0"
140
6.0
141
12.0
290
     0
  0
SCALE
  5
3E1
102
{ACAD_REACTORS
330
3C0
102
}
330
3C0
100
AcDbScale
 70
     0
300
1'-0" = 1'-0"
140
12.0
141
12.0
290
     0
  0
DICTIONARYVAR
  5
3E5
102
{ACAD_REACTORS
330
3BD
102
}
330
3BD
100
DictionaryVariables
280
     0
  1
1:1
  0
DICTIONARYVAR
  5
3BE
102
{ACAD_REACTORS
330
3BD
102
}
330
3BD
100
DictionaryVariables
280
     0
  1
1
  0
ENDSEC
  0
SECTION
  2
THUMBNAILIMAGE
 90
    16364
310
28000000B40000005500000001000800000000000000000000000000000000000000000000000000FFFFFF000000FF0000FFFF0000FF0000FFFF0000FF000000FF00FF000000000080808000C0C0C0000000FF007F7FFF000000A5005252A50000007F003F3F7F0000004C0026264C000000260013132600003FFF007F9FFF
310
000029A5005267A500001F7F003F4F7F0000134C00262F4C000009260013172600007FFF007FBFFF000052A500527CA500003F7F003F5F7F0000264C0026394C0000132600131C260000BFFF007FDFFF00007CA5005291A500005F7F003F6F7F0000394C0026424C00001C26001321260000FFFF007FFFFF0000A5A50052A5
310
A500007F7F003F7F7F00004C4C00264C4C00002626001326260000FFBF007FFFDF0000A57C0052A59100007F5F003F7F6F00004C3900264C420000261C001326210000FF7F007FFFBF0000A5520052A57C00007F3F003F7F5F00004C2600264C39000026130013261C0000FF3F007FFF9F0000A5290052A56700007F1F003F
310
7F4F00004C1300264C2F00002609001326170000FF00007FFF7F0000A5000052A55200007F00003F7F3F00004C0000264C260000260000132613003FFF00009FFF7F0029A5000067A552001F7F00004F7F3F00134C00002F4C260009260000172613007FFF0000BFFF7F0052A500007CA552003F7F00005F7F3F00264C0000
310
394C2600132600001C261300BFFF0000DFFF7F007CA5000091A552005F7F00006F7F3F00394C0000424C26001C26000021261300FFFF0000FFFF7F00A5A50000A5A552007F7F00007F7F3F004C4C00004C4C26002626000026261300FFBF0000FFDF7F00A57C0000A59152007F5F00007F6F3F004C3900004C422600261C00
310
0026211300FF7F0000FFBF7F00A5520000A57C52007F3F00007F5F3F004C2600004C39260026130000261C1300FF3F0000FF9F7F00A5290000A56752007F1F00007F4F3F004C1300004C2F26002609000026171300FF000000FF7F7F00A5000000A55252007F0000007F3F3F004C0000004C2626002600000026131300FF00
310
3F00FF7F9F00A5002900A55267007F001F007F3F4F004C0013004C262F002600090026131700FF007F00FF7FBF00A5005200A5527C007F003F007F3F5F004C0026004C2639002600130026131C00FF00BF00FF7FDF00A5007C00A55291007F005F007F3F6F004C0039004C26420026001C0026132100FF00FF00FF7FFF00A5
310
00A500A552A5007F007F007F3F7F004C004C004C264C002600260026132600BF00FF00DF7FFF007C00A5009152A5005F007F006F3F7F0039004C0042264C001C002600211326007F00FF00BF7FFF005200A5007C52A5003F007F005F3F7F0026004C0039264C00130026001C1326003F00FF009F7FFF002900A5006752A500
310
1F007F004F3F7F0013004C002F264C000900260017132600000000002D2D2D005B5B5B0089898900B7B7B700B3B3B30000000000000000000000000000000000000000000000000000000000000000000000000000000000000000000000000000000000000000000000000000000000000000000000000000070707070707
310
07070707070707070707000000000000000000000000000000000000000000000000000000000000000000000000000000000000000000000000000000000000000000000000000000000000000000000000000000000000000000000000000000000000000000000000000000000000000000000000000000000000000000
310
00000000000000000000000000000000000000000000000000000000000000000000000000000000000000000000000707070707070707070707070707070700000000000000000000000000000000000000000000000000000000000000000000000000000000000000000000000000000000000000000000000000000000
310
00000000000000000000000000000000000000000000000000000000000000000000000000000000000000000000000000000000000000000000000000000000000000000000000000000000000000000000000000000000000000000000000000000000070000000000000000000000000007000000000000000000000000
310
00000000000000000000000000000000000000000000000000000000000000000000000000000000000000000000000000000000000000000000000000000000000000000000000000000000000000000000000000000000000000000000000000000000000000000000000000000000000000000000000000000000000000
310
00000000000000000000000000000000000000000000000000000700000000000000000000000000070000000000000000000000000000000000000000000000000000000000000000000000000000000000000000000000000000000000000000000000000000000000000000000000000000000000000000000000000000
310
00000000000000000000000000000000000000000000000000000000000000000000000000000000000000000000000000000000000000000000000000000000000000000000000000000000000000070000000000000000000000000007000000000000000000000000000000000000000000000000000000000000000000
310
00000000000000000000000000000000000000000000000000000000000000000000000000000000000000000000000000000000000000000000000000000000000000000000000000000000000000000000000000000000000000000000000000000000000000000000000000000000000000000000000000000000000000
310
00000000000700000000000000000000000000070000000000000000000000000000000000000000000000000000000000000000000000000000000000000000000000000000000000000000000000000000000000000000000000000000000000000000000000000000000000000000000000000000000000000000000000
310
00000000000000000000000000000000000000000000000000000000000000000000000000000000000000000000000000000000000000000000070000000000000000000000000007000000000000000000000000000000000000000000000000000000000000000000000000000000000000000000000000000000000000
310
00000000000000000000000000000000000000000000000000000000000000000000000000000000000000000000000000000000000000000000000000000000000000000000000000000000000000000000000000000000000000000000000000000000000000000000000000000007000000000000000000000000000700
310
00000000000000000000000000000000000000000000000000000000000000000000000000000000000000000000000000000000000000000000000000000000000000000000000000000000000000000000000000000000000000000000000000000000000000000000000000000000000000000000000000000000000000
310
00000000000000000000000000000000000000000000000000000000000000000000000000070000000000000000000000000007000000000000000000000000000000000000000000000000000000000000000000000000000000000000000000000000000000000000000000000000000000000000000000000000000000
310
00000000000000000000000000000000000000000000000000000000000000000000000000000000000000000000000000000000000000000000000000000000000000000000000000000000000000000000000000000000000007000000000000000000000000000700000000000000000000000000000000000000000000
310
00000000000000000000000000000000000000000000000000000000000000000000000000000000000000000000000000000000000000000000000000000000000000000000000000000000000000000000000000000000000000000000000000000000000000000000000000000000000000000000000000000000000000
310
00000000000000000000000000000000070000000000000000000000000007000000000000000000000000000000000000000000000000000000000000000000000000000000000000000000000000000000000000000000000000000000000000000000000000000000000000000000000000000000000000000000000000
310
00000000000000000000000000000000000000000000000000000000000000000000000000000000000000000000000000000000000000000000000000000000000000000007000000000000000000000000000700000000000000000000000000000000000000000000000000000000000000000000000000000000000000
310
00000000000000000000000000000000000000000000000000000000000000000000000000000000000000000000000000000000000000000000000000000000000000000000000000000000000000000000000000000000000000000000000000000000000000000000000000000000000000000000000000000700000000
310
00000000000000000007000000000000000000000000000000000000000000000000000000000000000000000000000000000000000000000000000000000000000000000000000000000000000000000000000000000000000000000000000000000000000000000000000000000000000000000000000000000000000000
310
00000000000000000000000000000000000000000000000000000000000000000000000000000000000000000000000007000000000000000000000000000700000000000000000000000000000000000000000000000000000000000000000000000000000000000000000000000000000000000000000000000000000000
310
00000000000000000000000000000000000000000000000000000000000000000000000000000000000000000000000000000000000000000000000000000000000000000000000000000000000000000000000000000000000000000000000000000000000700000000000000000000000000070000000000000000000000
310
00000000000000000000000000000000000000000000000000000000000000000000000000000000000000000000000000000000000000000000000000000000000000000000000000000000000000000000000000000000000000000000000000000000000000000000000000000000000000000000000000000000000000
310
00000000000000000000000000000000000000000000000000000007000000000000000000000000000700000000000000000000000000000000000000000000000000000000000000000000000000000000000000000000000000000000000000000000000000000000000000000000000000000000000000000000000000
310
00000000000000000000000000000000000000000000000000000000000000000000000000000000000000000000000000000000000000000000000000000000000000000000000000000000000000000700000000000000000000000000070000000000000000000000000000000000000000000000000000000000000000
310
00000000000000000000000000000000000000000000000000000000000000000000000000000000000000000000000000000000000000000000000000000000000000000000000000000000000000000000000000000000000000000000000000000000000000000000000000000000000000000000000000000000000000
310
00000000000007000000000000000000000000000007070707070707070707070707070707070707000000000000000000000000000000000000000000000000000000000000000000000000000000000000000000000000000000000000000000000000000000000000000000000000000000000000000000000000000000
310
00000000000000000000000000000000000000000000000000000000000000000000000000000000000000000000000000000000000000000000000700000000000000000000000000000000000000070700000000000000000000000700000000000000000000000000000000000000000000000000000000000000000000
310
00000000000000000000000000000000000000000000000000000000000000000000000000000000000000000000000000000000000000000000000000000000000000000000000000000000000000000000000000000000000000000000000000000000000000000000000000000000070000000000000000000000000000
310
00000000000707000000000000000000000007000000000000000000000000000000000000000000000000000000000000000000000000000000000000000000000000000000000000000000000000000000000000000000000000000000000000000000000000000000000000000000000000000000000000000000000000
310
00000000000000000000000000000000000000000000000000000000000000000000000000000700000000000000000000000000000000000000070700000000000000000000000700000000000000000000000000000000000000000000000000000000000000000000000000000000000000000000000000000000000000
310
00000000000000000000000000000000000000000000000000000000000000000000000000000000000000000000000000000000000000000000000000000000000000000000000000000000000000000000000000000000000000070000000000000000000000000000000000000007070000000000000000000000070000
310
00000000000000000000000000000000000000000000000000000000000000000000000000000000000000000000000000000000000000000000000000000000000000000000000000000000000000000000000000000000000000000000000000000000000000000000000000000000000000000000000000000000000000
310
00000000000000000000000000000000000700000000000000000000000000000000000000070700000000000000000000000700000000000000000000000000000000000000000000000000000000000000000000000000000000000000000000000000000000000000000000000000000000000000000000000000000000
310
00000000000000000000000000000000000000000000000000000000000000000000000000000000000000000000000000000000000000000000000000000000000000000000070000000000000000000000000000000000000007070000000000000000000000070000000000000000000000000000000000000000000000
310
00000000000000000000000000000000000000000000000000000000000000000000000000000000000000000000000000000000000000000000000000000000000000000000000000000000000000000000000000000000000000000000000000000000000000000000000000000000000000000000000000000007000000
310
00000000000000000000000000000000070700000000000000000000000700000000000000000000000000000000000000000000000000000000000000000000000000000000000000000000000000000000000000000000000000000000000000000000000000000000000000000000000000000000000000000000000000
310
00000000000000000000000000000000000000000000000000000000000000000000000000000000000000000000000000070000000000000000000000000000000000000007070000000000000000000000070000000000000000000000000000000000000000000000000000000000000000000000000000000000000000
310
00000000000000000000000000000000000000000000000000000000000000000000000000000000000000000000000000000000000000000000000000000000000000000000000000000000000000000000000000000000000000000000000000000000000007000000000000000000000000000000000000000707000000
310
00000000000000000700000000000000000000000000000000000000000000000000000000000000000000000000000000000000000000000000000000000000000000000000000000000000000000000000000000000000000000000000000000000000000000000000000000000000000000000000000000000000000000
310
00000000000000000000000000000000000000000000000000000000070000000000000000000000000000000000000007070007070700000000000000070000000000000000000000000000000000000000000000000000000000000000000000000000000000000000000000000000000000000000000000000000000000
310
00000000000000000000000000000000000000000000000000000000000000000000000000000000000000000000000000000000000000000000000000000000000000000000000000000000000000000007000000000000000000000000000707070707070707070707070707000000000007000000000000000000000000
310
00000000000000000000000000000000000000000000000000000000000000000000000000000000000000000000000000000000000000000000000000000000000000000000000000000000000000000000000000000000000000000000000000000000000000000000000000000000000000000000000000000000000000
310
00000000000000070000000000000000000000000007000000000000000000000000070707000000070000000000000000000000000000000000000000000000000000000000000000000000000000000000000000000000000000000000000000000000000000000000000000000000000000000000000000000000000000
310
00000000000000000000000000000000000000000000000000000000000000000000000000000000000000000000000000000000000000000000000007000000000000000000000000000700000000000000000000000000000707000007000000000000000000000000000000000000000000000000000000000000000000
310
00000000000000000000000000000000000000000000000000000000000000000000000000000000000000000000000000000000000000000000000000000000000000000000000000000000000000000000000000000000000000000000000000000000000000000000000000000000000700000000000000000000000000
310
07000000000000000000000000000000070000070000000000000000000000000000000000000000000000000000000000000000000000000000000000000000000000000000000000000000000000000000000000000000000000000000000000000000000000000000000000000000000000000000000000000000000000
310
00000000000000000000000000000000000000000000000000000000000000000000000000000007000000000000000000000000000700000000000000000000000000000007000007000000000000000000000000000000000000000000000000000000000000000000000000000000000000000000000000000000000000
310
00000000000000000000000000000000000000000000000000000000000000000000000000000000000000000000000000000000000000000000000000000000000000000000000000000000000000000000000000000000000000000700000000000000000000000000070000000000000000000000000000000700000000
310
00000000000000000000000000000000000000000000000000000000000000000000000000000000000000000000000000000000000000000000000000000000000000000000000000000000000000000000000000000000000000000000000000000000000000000000000000000000000000000000000000000000000000
310
00000000000000000000000000000000000007070707070707070707070707070700000000000000000000000000000007000007000000000000000000000000000000000000000000000000000000000000000000000000000000000000000000000000000000000000000000000000000000000000000000000000000000
310
00000000000000000000000000000000000000000000000000000000000000000000000000000000000000000000000000000000000000000000000000000000000000000000000000070000000000000000000700000000000000000000000000000000000700000700000000000000000000000000000000000000000000
310
00000000000000000000000000000000000000000000000000000000000000000000000000000000000000000000000000000000000000000000000000000000000000000000000000000000000000000000000000000000000000000000000000000000000000000000000000000000000000000000000000000000000007
310
00000000000000000007000000000000000000000000000000000007000000070000000000000000000000000000000000000000000000000000000000000000000000000000000000000000000000000000000000000000000000000000000000000000000000000000000000000000000000000000000000000000000000
310
00000000000000000000000000000000000000000000000000000000000000000000000000000000000000000000000000000000070000000000000000000700000000000000000000000000000000000007000007000000000000000000000000000000000000000000000000000000000000000000000000000000000000
310
00000000000000000000000000000000000000000000000000000000000000000000000000000000000000000000000000000000000000000000000000000000000000000000000000000000000000000000000000000000000000000000000000000000000000000007000000000000000000070000000000000000000000
310
00000000000000070000070000000000000000000000000000000000000000000000000000000000000000000000000000000000000000000000000000000000000000000000000000000000000000000000000000000000000000000000000000000000000000000000000000000000000000000000000000000000000000
310
00000000000000000000000000000000000000000000000000000000000000070000000000000000000700000000000000000000000000000000000007000007000000000000000000000000000000000000000000000000000000000000000000000000000000000000000000000000000000000000000000000000000000
310
00000000000000000000000000000000000000000000000000000000000000000000000000000000000000000000000000000000000000000000000000000000000000000000000000000000000000000000000007000000000000000000070000000000000000000000000000000000000707000700000000000000000000
310
00000000000000000000000000000000000000000000000000000000000000000000000000000000000000000000000000000000000000000000000000000000000000000000000000000000000000000000000000000000000000000000000000000000000000000000000000000000000000000000000000000000000000
310
00000000000000000000070000000000000000000700000000000000000000000000000000000000070007000000000000000000000000000000000000000000000000000000000000000000000000000000000000000000000000000000000000000000000000000000000000000000000000000000000000000000000000
310
00000000000000000000000000000000000000000000000000000000000000000000000000000000000000000000000000000000000000000000000000000007000000000000000000070000000000000000000000000000000000000007000700000000000000000000000000000000000000000000000000000000000000
310
00000000000000000000000000000000000000000000000000000000000000000000000000000000000000000000000000000000000000000000000000000000000000000000000000000000000000000000000000000000000000000000000000000000000000000000000000000000000000000700000000000000000007
310
00000000000000000000000000000000000000000707000000000000000000000000000000000000000000000000000000000000000000000000000000000000000000000000000000000000000000000000000000000000000000000000000000000000000000000000000000000000000000000000000000000000000000
310
00000000000000000000000000000000000000000000000000000000000000000000000000000000000007000000000000000000070000000000000000000000000000000000000000070700000000000000000000000000000000000000000000000000000000000000000000000000000000000000000000000000000000
310
00000000000000000000000000000000000000000000000000000000000000000000000000000000000000000000000000000000000000000000000000000000000000000000000000000000000000000000000000000000000000000000000700000000000000000007000000000000000000000000000000000000000000
310
00000000000000000000000000000000000000000000000000000000000000000000000000000000000000000000000000000000000000000000000000000000000000000000000000000000000000000000000000000000000000000000000000000000000000000000000000000000000000000000000000000000000000
310
00000000000000000000000000000000000000000007000000000000000000070000000000000000000000000000000000000000000000000000000000000000000000000000000000000000000000000000000000000000000000000000000000000000000000000000000000000000000000000000000000000000000000
310
00000000000000000000000000000000000000000000000000000000000000000000000000000000000000000000000000000000000000000000000000000000000000000000000000000700000000000000000007000000000000000000000000000000000000000000000000000000000000000000000000000000000000
310
00000000000000000000000000000000000000000000000000000000000000000000000000000000000000000000000000000000000000000000000000000000000000000000000000000000000000000000000000000000000000000000000000000000000000000000000000000000000000000000000000000000000000
310
07000000000000000000070000000000000000000000000000000000000000000000000000000000000000000000000000000000000000000000000000000000000000000000000000000000000000000000000000000000000000000000000000000000000000000000000000000000000000000000000000000000000000
310
00000000000000000000000000000000000000000000000000000000000000000000000000000000000000000000000000000000000700000000000000000007000000000000000000000000000000000000000000000000000000000000000000000000000000000000000000000000000000000000000000000000000000
310
00000000000000000000000000000000000000000000000000000000000000000000000000000000000000000000000000000000000000000000000000000000000000000000000000000000000000000000000000000000000000000000000000000000000000000000070000000000000000000700000000000000000000
310
00000000000000000000000000000000000000000000000000000000000000000000000000000000000000000000000000000000000000000000000000000000000000000000000000000000000000000000000000000000000000000000000000000000000000000000000000000000000000000000000000000000000000
310
00000000000000000000000000000000000000000000000000000000000000000700000000000000000007000000000000000000000000000000000000000000000000000000000000000000000000000000000000000000000000000000000000000000000000000000000000000000000000000000000000000000000000
310
00000000000000000000000000000000000000000000000000000000000000000000000000000000000000000000000000000000000000000000000000000000000000000000000000000000000000000000000000070000000000000000000700000000000000000000000000000000000000000000000000000000000000
310
00000000000000000000000000000000000000000000000000000000000000000000000000000000000000000000000000000000000000000000000000000000000000000000000000000000000000000000000000000000000000000000000000000000000000000000000000000000000000000000000000000000000000
310
00000000000000000000000700000000000000000007000000000000000000000000000000000000000000000000000000000000000000000000000000000000000000000000000000000000000000000000000000000000000000000000000000000000000000000000000000000000000000000000000000000000000000
310
00000000000000000000000000000000000000000000000000000000000000000000000000000000000000000000000000000000000000000000000000000000070000000000000000000700000000000000000000000000000000000000000000000000000000000000000000000000000000000000000000000000000000
310
00000000000000000000000000000000000000000000000000000000000000000000000000000000000000000000000000000000000000000000000000000000000000000000000000000000000000000000000000000000000000000000000000000000000000000000000000000000000000000007000000000000000000
310
07000000000000000000000000000000000000000000000000000000000000000000000000000000000000000000000000000000000000000000000000000000000000000000000000000000000000000000000000000000000000000000000000000000000000000000000000000000000000000000000000000000000000
310
00000000000000000000000000000000000000000000000000000000000000000000000000000000000000070000000000000000000700000000000000000000000000000000000000000000000000000000000000000000000000000000000000000000000000000000000000000000000000000000000000000000000000
310
00000000000000000000000000000000000000000000000000000000000000000000000000000000000000000000000000000000000000000000000000000000000000000000000000000000000000000000000000000000000000000000000007000000000000000000070000000000000000000000000000000000000000
310
00000000000000000000000000000000000000000000000000000000000000000000000000000000000000000000000000000000000000000000000000000000000000000000000000000000000000000000000000000000000000000000000000000000000000000000000000000000000000000000000000000000000000
310
00000000000000000000000000000000000000000000070000000000000000000700000000000000000000000000000000000000000000000000000000000000000000000000000000000000000000000000000000000000000000000000000000000000000000000000000000000000000000000000000000000000000000
310
00000000000000000000000000000000000000000000000000000000000000000000000000000000000000000000000000000000000000000000000000000000000000000000000000000007000000000000000000070000000000000000000000000000000000000000000000000000000000000000000000000000000000
310
00000000000000000000000000000000000000000000000000000000000000000000000000000000000000000000000000000000000000000000000000000000000000000000000000000000000000000000000000000000000000000000000000000000000000000000000000000000000000000000000000000000000000
310
00070000000000000000000700000000000000000000000000000000000000000000000000000000000000000000000000000000000000000000000000000000000000000000000000000000000000000000000000000000000000000000000000000000000000000000000000000000000000000000000000000000000000
310
00000000000000000000000000000000000000000000000000000000000000000000000000000000000000000000000000000000000007000000000000000000070000000000000000000000000000000000000000000000000000000000000000000000000000000000000000000000000000000000000000000000000000
310
00000000000000000000000000000000000000000000000000000000000000000000000000000000000000000000000000000000000000000000000000000000000000000000000000000000000000000000000000000000000000000000000000000000000000000000000700000000000000000007000000000000000000
310
00000000000000000000000000000000000000000000000000000000000000000000000000000000000000000000000000000000000000000000000000000000000000000000000000000000000000000000000000000000000000000000000000000000000000000000000000000000000000000000000000000000000000
310
00000000000000000000000000000000000000000000000000000000000000000007000000000000000000070000000000000000000000000000000000000000000000000000000000000000000000000000000000000000000000000000000000000000000000000000000000000000000000000000000000000000000000
310
00000000000000000000000000000000000000000000000000000000000000000000000000000000000000000000000000000000000000000000000000000000000000000000000000000000000000000000000000000700000000000000000007000000000000000000000000000000000000000000000000000000000000
310
00000000000000000000000000000000000000000000000000000000000000000000000000000000000000000000000000000000000000000000000000000000000000000000000000000000000000000000000000000000000000000000000000000000000000000000000000000000000000000000000000000000000000
310
00000000000000000000000007000000000000000000070000000000000000000000000000000000000000000000000000000000000000000000000000000000000000000000000000000000000000000000000000000000000000000000000000000000000000000000000000000000000000000000000000000000000000
310
00000000000000000000000000000000000000000000000000000000000000000000000000000000000000000000000000000000000000000000000000000000000700000000000000000007000000000000000000000000000000000000000000000000000000000000000000000000000000000000000000000000000000
310
00000000000000000000000000000000000000000000000000000000000000000000000000000000000000000000000000000000000000000000000000000000000000000000000000000000000000000000000000000000000000000000000000000000000000000000000000000000000000000000070000000000000000
310
00070000000000000000000000000000000000000000000000000000000000000000000000000000000000000000000000000000000000000000000000000000000000000000000000000000000000000000000000000000000000000000000000000000000000000000000000000000000000000000000000000000000000
310
00000000000000000000000000000000000000000000000000000000000000000000000000000000000000000700000000000000000007000000000000000000000000000000000000000000000000000000000000000000000000000000000000000000000000000000000000000000000000000000000000000000000000
310
00000000000000000000000000000000000000000000000000000000000000000000000000000000000000000000000000000000000000000000000000000000000000000000000000000000000000000000000000000000000000000000000000070000000000000000000700000000000000000000000000000000000000
310
00000000000000000000000000000000000000000000000000000000000000000000000000000000000000000000000000000000000000000000000000000000000000000000000000000000000000000000000000000000000000000000000000000000000000000000000000000000000000000000000000000000000000
310
00000000000000000000000000000000000000000000000700000000000000000007000000000000000000000000000000000000000000000000000000000000000000000000000000000000000000000000000000000000000000000000000000000000000000000000000000000000000000000000000000000000000000
310
00000000000000000000000000000000000000000000000000000000000000000000000000000000000000000000000000000000000000000000000000000000000000000000000000000000070000000000000000000700000000000000000000000000000000000000000000000000000000000000000000000000000000
310
00000000000000000000000000000000000000000000000000000000000000000000000000000000000000000000000000000000000000000000000000000000000000000000000000000000000000000000000000000000000000000000000000000000000000000000000000000000000000000000000000000000000000
310
00000700000000000000000007000000000000000000000000000000000000000000000000000000000000000000000000000000000000000000000000000000000000000000000000000000000000000000000000000000000000000000000000000000000000000000000000000000000000000000000000000000000000
310
00000000000000000000000000000000000000000000000000000000000000000000000000000000000000000000000000000000000000070000000000000000000700000000000000000000000000000000000000000000000000000000000000000000000000000000000000000000000000000000000000000000000000
310
00000000000000000000000000000000000000000000000000000000000000000000000000000000000000000000000000000000000000000000000000000000000000000000000000000000000000000000000000000000000000000000000000000000000000000000000007000707070707070700070000000000000000
310
00000000000000000000000000000000000000000000000000000000000000000000000000000000000000000000000000000000000000000000000000000000000000000000000000000000000000000000000000000000000000000000000000000000000000000000000000000000000000000000000000000000000000
310
00000000000000000000000000000000000000000000000000000000000000000000070707070707070707070700000000000000000000000000000000000000000000000000000000000000000000000000000000000000000000000000000000000000000000000000000000000000000000000000000000000000000000
310
00000000000000000000000000000000000000000000000000000000000000000000000000000000000000000000000000000000000000000000000000000000000000000000000000000000000000000000000000000007070707070707070707070000000000000000000000000000000000000000000000000000000000
310
00000000000000000000000000000000000000000000000000000000000000000000000000000000000000000000000000000000000000000000000000000000000000000000000000000000000000000000000000000000000000000000000000000000000000000000000000000000000000000000000000000000000000
310
00000000000000000000000000070707000707070007070700000000000000000000000000000000000000000000000000000000000000000000000000000000000000000000000000000000000000000000000000000000000000000000000000000000000000000000000000000000000000000000000000000000000000
310
00000000000000000000000000000000000000000000000000000000000000000000000000000000000000000000000000000000000000000000000000000000000007000707070707070700070000000000000000000000000000000000000000000000000000000000000000000000000000000000000000000000000000
310
00000000000000000000000000000000000000000000000000000000000000000000000000000000000000000000000000000000000000000000000000000000000000000000000000000000000000000000000000000000000000000000000000000000000000000000000000000000000000000000000700000000000000
310
00000700000000000000000000000000000000000000000000000000000000000000000000000000000000000000000000000000000000000000000000000000000000000000000000000000000000000000000000000000000000000000000000000000000000000000000000000000000000000000000000000000000000
310
00000000000000000000000000000000000000000000000000000000000000000000000000000000000000000007000000000000000000070000000000000000000000000000000000000000000000000000000000000000000000000000000000000000000000000000000000000000000000000000000000000000000000
310
00000000000000000000000000000000000000000000000000000000000000000000000000000000000000000000000000000000000000000000000000000000000000000000000000000000000000000000000000000000000000000000000000000700000000000000000007000000000000000000000000000000000000
310
00000000000000000000000000000000000000000000000000000000000000000000000000000000000000000000000000000000000000000000000000000000000000000000000000000000000000000000000000000000000000000000000000000000000000000000000000000000000000000000000000000000000000
310
00000000000000000000000000000000000000000000000007000000000000000000070000000000000000000000000000000000000000000000000000000000000000000000000000000000000000000000000000000000000000000000000000000000000000000000000000000000000000000000000000000000000000
310
00000000000000000000000000000000000000000000000000000000000000000000000000000000000000000000000000000000000000000000000000000000000000000000000000000000000707070707070707070707000000000000000000000000000000000000000000000000000000000000000000000000000000
310
00000000000000000000000000000000000000000000000000000000000000000000000000000000000000000000000000000000000000000000000000000000000000000000000000000000000000000000000000000000000000000000000000000000000000000000000000000000000000000000000000000000000000
310
000000000000000000000000000000000000000000000000000000000000000000000000000000000000000000000000000000000000000000000000000000000000000000000000000000000000000000000000000000000000000000000000000000000000000000000000
  0
ENDSEC
  0
EOF
