  0
SECTION
  2
HEADER
  9
$ACADVER
  1
AC1015
  9
$ACADMAINTVER
 70
     6
  9
$DWGCODEPAGE
  3
ANSI_1252
  9
$INSBASE
 10
0.0
 20
0.0
 30
0.0
  9
$EXTMIN
 10
-4.113528779721
 20
-0.1305
 30
0.0
  9
$EXTMAX
 10
217.94954
 20
1253.1305
 30
0.0
  9
$LIMMIN
 10
0.0
 20
0.0
  9
$LIMMAX
 10
12.0
 20
9.0
  9
$ORTHOMODE
 70
     0
  9
$REGENMODE
 70
     1
  9
$FILLMODE
 70
     1
  9
$QTEXTMODE
 70
     0
  9
$MIRRTEXT
 70
     1
  9
$LTSCALE
 40
1.0
  9
$ATTMODE
 70
     1
  9
$TEXTSIZE
 40
0.2
  9
$TRACEWID
 40
0.05
  9
$TEXTSTYLE
  7
Standard
  9
$CLAYER
  8
0
  9
$CELTYPE
  6
ByBlock
  9
$CECOLOR
 62
   256
  9
$CELTSCALE
 40
1.0
  9
$DISPSILH
 70
     0
  9
$DIMSCALE
 40
1.0
  9
$DIMASZ
 40
0.18
  9
$DIMEXO
 40
0.0625
  9
$DIMDLI
 40
0.38
  9
$DIMRND
 40
0.0
  9
$DIMDLE
 40
0.0
  9
$DIMEXE
 40
0.18
  9
$DIMTP
 40
0.0
  9
$DIMTM
 40
0.0
  9
$DIMTXT
 40
0.18
  9
$DIMCEN
 40
0.09
  9
$DIMTSZ
 40
0.0
  9
$DIMTOL
 70
     0
  9
$DIMLIM
 70
     0
  9
$DIMTIH
 70
     1
  9
$DIMTOH
 70
     1
  9
$DIMSE1
 70
     0
  9
$DIMSE2
 70
     0
  9
$DIMTAD
 70
     0
  9
$DIMZIN
 70
     0
  9
$DIMBLK
  1

  9
$DIMASO
 70
     1
  9
$DIMSHO
 70
     1
  9
$DIMPOST
  1

  9
$DIMAPOST
  1

  9
$DIMALT
 70
     0
  9
$DIMALTD
 70
     2
  9
$DIMALTF
 40
25.4
  9
$DIMLFAC
 40
1.0
  9
$DIMTOFL
 70
     0
  9
$DIMTVP
 40
0.0
  9
$DIMTIX
 70
     0
  9
$DIMSOXD
 70
     0
  9
$DIMSAH
 70
     0
  9
$DIMBLK1
  1

  9
$DIMBLK2
  1

  9
$DIMSTYLE
  2
Standard
  9
$DIMCLRD
 70
     0
  9
$DIMCLRE
 70
     0
  9
$DIMCLRT
 70
     0
  9
$DIMTFAC
 40
1.0
  9
$DIMGAP
 40
0.09
  9
$DIMJUST
 70
     0
  9
$DIMSD1
 70
     0
  9
$DIMSD2
 70
     0
  9
$DIMTOLJ
 70
     1
  9
$DIMTZIN
 70
     0
  9
$DIMALTZ
 70
     0
  9
$DIMALTTZ
 70
     0
  9
$DIMUPT
 70
     0
  9
$DIMDEC
 70
     4
  9
$DIMTDEC
 70
     4
  9
$DIMALTU
 70
     2
  9
$DIMALTTD
 70
     2
  9
$DIMTXSTY
  7
Standard
  9
$DIMAUNIT
 70
     0
  9
$DIMADEC
 70
     0
  9
$DIMALTRND
 40
0.0
  9
$DIMAZIN
 70
     0
  9
$DIMDSEP
 70
    46
  9
$DIMATFIT
 70
     3
  9
$DIMFRAC
 70
     0
  9
$DIMLDRBLK
  1

  9
$DIMLUNIT
 70
     2
  9
$DIMLWD
 70
    -2
  9
$DIMLWE
 70
    -2
  9
$DIMTMOVE
 70
     2
  9
$LUNITS
 70
     2
  9
$LUPREC
 70
     4
  9
$SKETCHINC
 40
0.1
  9
$FILLETRAD
 40
0.5
  9
$AUNITS
 70
     0
  9
$AUPREC
 70
     0
  9
$MENU
  1
.
  9
$ELEVATION
 40
0.0
  9
$PELEVATION
 40
0.0
  9
$THICKNESS
 40
0.0
  9
$LIMCHECK
 70
     0
  9
$CHAMFERA
 40
0.5
  9
$CHAMFERB
 40
0.5
  9
$CHAMFERC
 40
1.0
  9
$CHAMFERD
 40
0.0
  9
$SKPOLY
 70
     0
  9
$TDCREATE
 40
2455825.017961516
  9
$TDUCREATE
 40
2455824.934628183
  9
$TDUPDATE
 40
2455825.018644745
  9
$TDUUPDATE
 40
2455824.935311412
  9
$TDINDWG
 40
0.000682338
  9
$TDUSRTIMER
 40
0.000682338
  9
$USRTIMER
 70
     1
  9
$ANGBASE
 50
0.0
  9
$ANGDIR
 70
     0
  9
$PDMODE
 70
     0
  9
$PDSIZE
 40
0.0
  9
$PLINEWID
 40
0.0
  9
$SPLFRAME
 70
     0
  9
$SPLINETYPE
 70
     6
  9
$SPLINESEGS
 70
     8
  9
$HANDSEED
  5
24C7
  9
$SURFTAB1
 70
     6
  9
$SURFTAB2
 70
     6
  9
$SURFTYPE
 70
     6
  9
$SURFU
 70
     6
  9
$SURFV
 70
     6
  9
$UCSBASE
  2

  9
$UCSNAME
  2

  9
$UCSORG
 10
0.0
 20
0.0
 30
0.0
  9
$UCSXDIR
 10
1.0
 20
0.0
 30
0.0
  9
$UCSYDIR
 10
0.0
 20
1.0
 30
0.0
  9
$UCSORTHOREF
  2

  9
$UCSORTHOVIEW
 70
     0
  9
$UCSORGTOP
 10
0.0
 20
0.0
 30
0.0
  9
$UCSORGBOTTOM
 10
0.0
 20
0.0
 30
0.0
  9
$UCSORGLEFT
 10
0.0
 20
0.0
 30
0.0
  9
$UCSORGRIGHT
 10
0.0
 20
0.0
 30
0.0
  9
$UCSORGFRONT
 10
0.0
 20
0.0
 30
0.0
  9
$UCSORGBACK
 10
0.0
 20
0.0
 30
0.0
  9
$PUCSBASE
  2

  9
$PUCSNAME
  2

  9
$PUCSORG
 10
0.0
 20
0.0
 30
0.0
  9
$PUCSXDIR
 10
1.0
 20
0.0
 30
0.0
  9
$PUCSYDIR
 10
0.0
 20
1.0
 30
0.0
  9
$PUCSORTHOREF
  2

  9
$PUCSORTHOVIEW
 70
     0
  9
$PUCSORGTOP
 10
0.0
 20
0.0
 30
0.0
  9
$PUCSORGBOTTOM
 10
0.0
 20
0.0
 30
0.0
  9
$PUCSORGLEFT
 10
0.0
 20
0.0
 30
0.0
  9
$PUCSORGRIGHT
 10
0.0
 20
0.0
 30
0.0
  9
$PUCSORGFRONT
 10
0.0
 20
0.0
 30
0.0
  9
$PUCSORGBACK
 10
0.0
 20
0.0
 30
0.0
  9
$USERI1
 70
     0
  9
$USERI2
 70
     0
  9
$USERI3
 70
     0
  9
$USERI4
 70
     0
  9
$USERI5
 70
     0
  9
$USERR1
 40
0.0
  9
$USERR2
 40
0.0
  9
$USERR3
 40
0.0
  9
$USERR4
 40
0.0
  9
$USERR5
 40
0.0
  9
$WORLDVIEW
 70
     1
  9
$SHADEDGE
 70
     3
  9
$SHADEDIF
 70
    70
  9
$TILEMODE
 70
     1
  9
$MAXACTVP
 70
    64
  9
$PINSBASE
 10
0.0
 20
0.0
 30
0.0
  9
$PLIMCHECK
 70
     0
  9
$PEXTMIN
 10
1.000000000000E+20
 20
1.000000000000E+20
 30
1.000000000000E+20
  9
$PEXTMAX
 10
-1.000000000000E+20
 20
-1.000000000000E+20
 30
-1.000000000000E+20
  9
$PLIMMIN
 10
0.0
 20
0.0
  9
$PLIMMAX
 10
12.0
 20
9.0
  9
$UNITMODE
 70
     0
  9
$VISRETAIN
 70
     1
  9
$PLINEGEN
 70
     0
  9
$PSLTSCALE
 70
     1
  9
$TREEDEPTH
 70
  3020
  9
$CMLSTYLE
  2
Standard
  9
$CMLJUST
 70
     0
  9
$CMLSCALE
 40
1.0
  9
$PROXYGRAPHICS
 70
     1
  9
$MEASUREMENT
 70
     0
  9
$CELWEIGHT
370
    -1
  9
$ENDCAPS
280
     0
  9
$JOINSTYLE
280
     0
  9
$LWDISPLAY
290
     0
  9
$INSUNITS
 70
     0
  9
$HYPERLINKBASE
  1

  9
$STYLESHEET
  1

  9
$XEDIT
290
     1
  9
$CEPSNTYPE
380
     0
  9
$PSTYLEMODE
290
     1
  9
$FINGERPRINTGUID
  2
{2C8C2C1C-40B5-4C3A-9559-20D5D70ADDE5}
  9
$VERSIONGUID
  2
{FAEB1C32-E019-11D5-929B-00C0DF256EC4}
  9
$EXTNAMES
290
     1
  9
$PSVPSCALE
 40
0.0
  9
$OLESTARTUP
290
     0
  0
ENDSEC
  0
SECTION
  2
CLASSES
  0
CLASS
  1
ACDBDICTIONARYWDFLT
  2
AcDbDictionaryWithDefault
  3
ObjectDBX Classes
 90
        0
280
     0
281
     0
  0
CLASS
  1
SCALE
  2
AcDbScale
  3
ObjectDBX Classes
 90
     1153
280
     0
281
     0
  0
CLASS
  1
DICTIONARYVAR
  2
AcDbDictionaryVar
  3
ObjectDBX Classes
 90
        0
280
     0
281
     0
  0
CLASS
  1
ACDBPLACEHOLDER
  2
AcDbPlaceHolder
  3
ObjectDBX Classes
 90
        0
280
     0
281
     0
  0
CLASS
  1
LAYOUT
  2
AcDbLayout
  3
ObjectDBX Classes
 90
        0
280
     0
281
     0
  0
ENDSEC
  0
SECTION
  2
TABLES
  0
TABLE
  2
VPORT
  5
8
330
0
100
AcDbSymbolTable
 70
     1
  0
VPORT
  5
1536
330
8
100
AcDbSymbolTableRecord
100
AcDbViewportTableRecord
  2
*Active
 70
     0
 10
0.0
 20
0.0
 11
1.0
 21
1.0
 12
106.91800561014
 22
626.5
 13
0.0
 23
0.0
 14
0.5
 24
0.5
 15
0.5
 25
0.5
 16
0.0
 26
0.0
 36
1.0
 17
0.0
 27
0.0
 37
0.0
 40
1278.32622
 41
1.790857142857
 42
50.0
 43
0.0
 44
0.0
 50
0.0
 51
0.0
 71
    16
 72
   100
 73
     1
 74
     3
 75
     0
 76
     0
 77
     0
 78
     0
281
     0
 65
     1
110
0.0
120
0.0
130
0.0
111
1.0
121
0.0
131
0.0
112
0.0
122
1.0
132
0.0
 79
     0
146
0.0
  0
ENDTAB
  0
TABLE
  2
LTYPE
  5
5
330
0
100
AcDbSymbolTable
 70
     1
  0
LTYPE
  5
14
330
5
100
AcDbSymbolTableRecord
100
AcDbLinetypeTableRecord
  2
ByBlock
 70
     0
  3

 72
    65
 73
     0
 40
0.0
  0
LTYPE
  5
15
330
5
100
AcDbSymbolTableRecord
100
AcDbLinetypeTableRecord
  2
ByLayer
 70
     0
  3

 72
    65
 73
     0
 40
0.0
  0
LTYPE
  5
16
330
5
100
AcDbSymbolTableRecord
100
AcDbLinetypeTableRecord
  2
Continuous
 70
     0
  3
Solid line
 72
    65
 73
     0
 40
0.0
  0
ENDTAB
  0
TABLE
  2
LAYER
  5
2
330
0
100
AcDbSymbolTable
 70
     1
  0
LAYER
  5
10
330
2
100
AcDbSymbolTableRecord
100
AcDbLayerTableRecord
  2
0
 70
     0
 62
     7
  6
Continuous
370
    -3
390
F
  0
ENDTAB
  0
TABLE
  2
STYLE
  5
3
330
0
100
AcDbSymbolTable
 70
     1
  0
STYLE
  5
11
330
3
100
AcDbSymbolTableRecord
100
AcDbTextStyleTableRecord
  2
Standard
 70
     0
 40
0.0
 41
1.0
 50
0.0
 71
     0
 42
0.2
  3
txt
  4

  0
ENDTAB
  0
TABLE
  2
VIEW
  5
6
330
0
100
AcDbSymbolTable
 70
     0
  0
ENDTAB
  0
TABLE
  2
UCS
  5
7
330
0
100
AcDbSymbolTable
 70
     0
  0
ENDTAB
  0
TABLE
  2
APPID
  5
9
330
0
100
AcDbSymbolTable
 70
     1
  0
APPID
  5
12
330
9
100
AcDbSymbolTableRecord
100
AcDbRegAppTableRecord
  2
ACAD
 70
     0
  0
ENDTAB
  0
TABLE
  2
DIMSTYLE
  5
A
330
0
100
AcDbSymbolTable
 70
     1
100
AcDbDimStyleTable
  0
DIMSTYLE
105
20
330
A
100
AcDbSymbolTableRecord
100
AcDbDimStyleTableRecord
  2
Standard
 70
     0
340
11
  0
ENDTAB
  0
TABLE
  2
BLOCK_RECORD
  5
1
330
0
100
AcDbSymbolTable
 70
     2
  0
BLOCK_RECORD
  5
1D
330
1
100
AcDbSymbolTableRecord
100
AcDbBlockTableRecord
  2
*Model_Space
340
1E
  0
BLOCK_RECORD
  5
1B
330
1
100
AcDbSymbolTableRecord
100
AcDbBlockTableRecord
  2
*Paper_Space
340
1C
  0
ENDTAB
  0
ENDSEC
  0
SECTION
  2
BLOCKS
  0
BLOCK
  5
1539
330
1D
100
AcDbEntity
  8
0
100
AcDbBlockBegin
  2
*Model_Space
 70
     0
 10
0.0
 20
0.0
 30
0.0
  3
*Model_Space
  1
*Model_Space
  0
ENDBLK
  5
153A
330
1D
100
AcDbEntity
  8
0
100
AcDbBlockEnd
  0
BLOCK
  5
1537
330
1B
100
AcDbEntity
 67
     1
  8
0
100
AcDbBlockBegin
  2
*Paper_Space
 70
     0
 10
0.0
 20
0.0
 30
0.0
  3
*Paper_Space
  1
*Paper_Space
  0
ENDBLK
  5
1538
330
1B
100
AcDbEntity
 67
     1
  8
0
100
AcDbBlockEnd
  0
ENDSEC
  0
SECTION
  2
ENTITIES
  0
LINE
  5
14C
330
1D
100
AcDbEntity
  8
0
100
AcDbLine
 10
83.19054
 20
151.1305
 30
0.0
 11
83.68954
 21
153.1305
 31
0.0
  0
LINE
  5
151
330
1D
100
AcDbEntity
  8
0
100
AcDbLine
 10
84.17854
 20
153.1305
 30
0.0
 11
85.59754
 21
153.1305
 31
0.0
  0
LINE
  5
152
330
1D
100
AcDbEntity
  8
0
100
AcDbLine
 10
83.68954
 20
153.1305
 30
0.0
 11
84.17854
 21
153.1305
 31
0.0
  0
LINE
  5
147B
330
1D
100
AcDbEntity
  8
0
100
AcDbLine
 10
166.45454
 20
1253.1305
 30
0.0
 11
166.85054
 21
1253.1305
 31
0.0
  0
LINE
  5
147C
330
1D
100
AcDbEntity
  8
0
100
AcDbLine
 10
166.19054
 20
1252.7505
 30
0.0
 11
166.58654
 21
1252.7505
 31
0.0
  0
LINE
  5
147D
330
1D
100
AcDbEntity
  8
0
100
AcDbLine
 10
166.19054
 20
1252.7505
 30
0.0
 11
166.45454
 21
1253.1305
 31
0.0
  0
LINE
  5
147E
330
1D
100
AcDbEntity
  8
0
100
AcDbLine
 10
166.85054
 20
1253.1305
 30
0.0
 11
167.90654
 21
1253.1305
 31
0.0
  0
LINE
  5
147F
330
1D
100
AcDbEntity
  8
0
100
AcDbLine
 10
166.58654
 20
1252.7505
 30
0.0
 11
167.64254
 21
1252.7505
 31
0.0
  0
LINE
  5
1481
330
1D
100
AcDbEntity
  8
0
100
AcDbLine
 10
167.90654
 20
1253.1305
 30
0.0
 11
169.62254
 21
1253.1305
 31
0.0
  0
LINE
  5
1482
330
1D
100
AcDbEntity
  8
0
100
AcDbLine
 10
167.64254
 20
1252.7505
 30
0.0
 11
169.40254
 21
1252.7505
 31
0.0
  0
LINE
  5
14CD
330
1D
100
AcDbEntity
  8
0
100
AcDbLine
 10
169.62254
 20
1253.1305
 30
0.0
 11
171.86654
 21
1253.1305
 31
0.0
  0
LINE
  5
14CE
330
1D
100
AcDbEntity
  8
0
100
AcDbLine
 10
169.40254
 20
1252.7505
 30
0.0
 11
171.73454
 21
1252.7505
 31
0.0
  0
LINE
  5
14D0
330
1D
100
AcDbEntity
  8
0
100
AcDbLine
 10
171.86654
 20
1253.1305
 30
0.0
 11
174.41854
 21
1253.1305
 31
0.0
  0
LINE
  5
14D1
330
1D
100
AcDbEntity
  8
0
100
AcDbLine
 10
171.73454
 20
1252.7505
 30
0.0
 11
174.37454
 21
1252.7505
 31
0.0
  0
LINE
  5
14DE
330
1D
100
AcDbEntity
  8
0
100
AcDbLine
 10
177.19054
 20
1253.1305
 30
0.0
 11
179.96254
 21
1253.1305
 31
0.0
  0
LINE
  5
14E1
330
1D
100
AcDbEntity
  8
0
100
AcDbLine
 10
187.79454
 20
1252.7505
 30
0.0
 11
188.19054
 21
1252.7505
 31
0.0
  0
LINE
  5
14E3
330
1D
100
AcDbEntity
  8
0
100
AcDbLine
 10
186.73854
 20
1252.7505
 30
0.0
 11
187.79454
 21
1252.7505
 31
0.0
  0
LINE
  5
14E4
330
1D
100
AcDbEntity
  8
0
100
AcDbLine
 10
184.97854
 20
1252.7505
 30
0.0
 11
186.73854
 21
1252.7505
 31
0.0
  0
LINE
  5
14E5
330
1D
100
AcDbEntity
  8
0
100
AcDbLine
 10
182.64654
 20
1252.7505
 30
0.0
 11
184.97854
 21
1252.7505
 31
0.0
  0
LINE
  5
14E6
330
1D
100
AcDbEntity
  8
0
100
AcDbLine
 10
187.92654
 20
1253.1305
 30
0.0
 11
188.19054
 21
1252.7505
 31
0.0
  0
LINE
  5
14E7
330
1D
100
AcDbEntity
  8
0
100
AcDbLine
 10
187.53054
 20
1253.1305
 30
0.0
 11
187.92654
 21
1253.1305
 31
0.0
  0
LINE
  5
14E8
330
1D
100
AcDbEntity
  8
0
100
AcDbLine
 10
186.47454
 20
1253.1305
 30
0.0
 11
187.53054
 21
1253.1305
 31
0.0
  0
LINE
  5
14E9
330
1D
100
AcDbEntity
  8
0
100
AcDbLine
 10
184.75854
 20
1253.1305
 30
0.0
 11
186.47454
 21
1253.1305
 31
0.0
  0
LINE
  5
14EA
330
1D
100
AcDbEntity
  8
0
100
AcDbLine
 10
182.51454
 20
1253.1305
 30
0.0
 11
184.75854
 21
1253.1305
 31
0.0
  0
LINE
  5
14EB
330
1D
100
AcDbEntity
  8
0
100
AcDbLine
 10
179.96254
 20
1253.1305
 30
0.0
 11
182.51454
 21
1253.1305
 31
0.0
  0
LINE
  5
14EC
330
1D
100
AcDbEntity
  8
0
100
AcDbLine
 10
180.00654
 20
1252.7505
 30
0.0
 11
182.64654
 21
1252.7505
 31
0.0
  0
LINE
  5
14ED
330
1D
100
AcDbEntity
  8
0
100
AcDbLine
 10
177.19054
 20
1252.7505
 30
0.0
 11
180.00654
 21
1252.7505
 31
0.0
  0
LINE
  5
14EE
330
1D
100
AcDbEntity
  8
0
100
AcDbLine
 10
174.41854
 20
1253.1305
 30
0.0
 11
177.19054
 21
1253.1305
 31
0.0
  0
LINE
  5
14EF
330
1D
100
AcDbEntity
  8
0
100
AcDbLine
 10
174.37454
 20
1252.7505
 30
0.0
 11
177.19054
 21
1252.7505
 31
0.0
  0
LINE
  5
169B
330
1D
100
AcDbEntity
  8
0
100
AcDbLine
 10
83.19054
 20
151.1305
 30
0.0
 11
83.68954
 21
153.1305
 31
0.0
  0
LINE
  5
169C
330
1D
100
AcDbEntity
  8
0
100
AcDbLine
 10
84.17854
 20
153.1305
 30
0.0
 11
85.59754
 21
153.1305
 31
0.0
  0
LINE
  5
169D
330
1D
100
AcDbEntity
  8
0
100
AcDbLine
 10
83.68954
 20
153.1305
 30
0.0
 11
84.17854
 21
153.1305
 31
0.0
  0
LINE
  5
169E
330
1D
100
AcDbEntity
  8
0
100
AcDbLine
 10
151.43854
 20
125.5463
 30
0.0
 11
150.55454
 21
128.1547
 31
0.0
  0
LINE
  5
169F
330
1D
100
AcDbEntity
  8
0
100
AcDbLine
 10
151.96954
 20
122.8716
 30
0.0
 11
151.43854
 21
125.5463
 31
0.0
  0
LINE
  5
16A0
330
1D
100
AcDbEntity
  8
0
100
AcDbLine
 10
152.19054
 20
120.1305
 30
0.0
 11
151.96954
 21
117.3894
 31
0.0
  0
LINE
  5
16A1
330
1D
100
AcDbEntity
  8
0
100
AcDbLine
 10
151.43854
 20
114.7147
 30
0.0
 11
150.55454
 21
112.1063
 31
0.0
  0
LINE
  5
16A2
330
1D
100
AcDbEntity
  8
0
100
AcDbLine
 10
151.96954
 20
117.3894
 30
0.0
 11
151.43854
 21
114.7147
 31
0.0
  0
LINE
  5
16A3
330
1D
100
AcDbEntity
  8
0
100
AcDbLine
 10
152.19054
 20
120.1305
 30
0.0
 11
151.96954
 21
122.8716
 31
0.0
  0
LINE
  5
16A4
330
1D
100
AcDbEntity
  8
0
100
AcDbLine
 10
143.96754
 20
136.7537
 30
0.0
 11
141.64654
 21
138.3231
 31
0.0
  0
LINE
  5
16A5
330
1D
100
AcDbEntity
  8
0
100
AcDbLine
 10
146.02354
 20
134.9631
 30
0.0
 11
143.96754
 21
136.7537
 31
0.0
  0
LINE
  5
16A6
330
1D
100
AcDbEntity
  8
0
100
AcDbLine
 10
149.38354
 20
130.5863
 30
0.0
 11
147.81354
 21
132.9073
 31
0.0
  0
LINE
  5
16A7
330
1D
100
AcDbEntity
  8
0
100
AcDbLine
 10
150.55454
 20
128.1547
 30
0.0
 11
149.38354
 21
130.5863
 31
0.0
  0
LINE
  5
16A8
330
1D
100
AcDbEntity
  8
0
100
AcDbLine
 10
150.55454
 20
112.1063
 30
0.0
 11
149.38354
 21
109.6747
 31
0.0
  0
LINE
  5
16A9
330
1D
100
AcDbEntity
  8
0
100
AcDbLine
 10
144.398850472135
 20
103.882934499711
 30
0.0
 11
144.182428145895
 21
103.69444917998
 31
0.0
  0
LINE
  5
16AA
330
1D
100
AcDbEntity
  8
0
100
AcDbLine
 10
144.398850472135
 20
103.882934499711
 30
0.0
 11
144.182428145895
 21
103.69444917998
 31
0.0
  0
LINE
  5
16AB
330
1D
100
AcDbEntity
  8
0
100
AcDbLine
 10
143.96754
 20
103.5073
 30
0.0
 11
141.64654
 21
101.9379
 31
0.0
  0
LINE
  5
16AC
330
1D
100
AcDbEntity
  8
0
100
AcDbLine
 10
147.81354
 20
107.3537
 30
0.0
 11
146.02354
 21
105.2979
 31
0.0
  0
LINE
  5
16AD
330
1D
100
AcDbEntity
  8
0
100
AcDbLine
 10
146.02354
 20
105.2979
 30
0.0
 11
143.96754
 21
103.5073
 31
0.0
  0
LINE
  5
16AE
330
1D
100
AcDbEntity
  8
0
100
AcDbLine
 10
149.38354
 20
109.6747
 30
0.0
 11
147.81354
 21
107.3537
 31
0.0
  0
LINE
  5
16AF
330
1D
100
AcDbEntity
  8
0
100
AcDbLine
 10
147.81354
 20
132.9073
 30
0.0
 11
146.02354
 21
134.9631
 31
0.0
  0
LINE
  5
16B0
330
1D
100
AcDbEntity
  8
0
100
AcDbLine
 10
134.17254
 20
139.3187
 30
0.0
 11
132.72554
 21
139.9187
 31
0.0
  0
LINE
  5
16B1
330
1D
100
AcDbEntity
  8
0
100
AcDbLine
 10
135.42554
 20
138.3658
 30
0.0
 11
134.17254
 21
139.3187
 31
0.0
  0
LINE
  5
16B2
330
1D
100
AcDbEntity
  8
0
100
AcDbLine
 10
134.04954
 20
139.0893
 30
0.0
 11
132.67254
 21
139.654
 31
0.0
  0
LINE
  5
16B3
330
1D
100
AcDbEntity
  8
0
100
AcDbLine
 10
135.24954
 20
138.1893
 30
0.0
 11
134.04954
 21
139.0893
 31
0.0
  0
LINE
  5
16B4
330
1D
100
AcDbEntity
  8
0
100
AcDbLine
 10
136.14954
 20
136.9893
 30
0.0
 11
135.24954
 21
138.1893
 31
0.0
  0
LINE
  5
16B5
330
1D
100
AcDbEntity
  8
0
100
AcDbLine
 10
136.60654
 20
140.3789
 30
0.0
 11
133.93154
 21
140.9094
 31
0.0
  0
LINE
  5
16B6
330
1D
100
AcDbEntity
  8
0
100
AcDbLine
 10
136.37854
 20
137.1129
 30
0.0
 11
135.42554
 21
138.3658
 31
0.0
  0
LINE
  5
16B7
330
1D
100
AcDbEntity
  8
0
100
AcDbLine
 10
139.21454
 20
139.4947
 30
0.0
 11
136.60654
 21
140.3789
 31
0.0
  0
LINE
  5
16B8
330
1D
100
AcDbEntity
  8
0
100
AcDbLine
 10
136.97854
 20
135.6658
 30
0.0
 11
136.37854
 21
137.1129
 31
0.0
  0
LINE
  5
16B9
330
1D
100
AcDbEntity
  8
0
100
AcDbLine
 10
136.71354
 20
135.6129
 30
0.0
 11
136.14954
 21
136.9893
 31
0.0
  0
LINE
  5
16BA
330
1D
100
AcDbEntity
  8
0
100
AcDbLine
 10
141.64654
 20
138.3231
 30
0.0
 11
139.21454
 21
139.4947
 31
0.0
  0
LINE
  5
16BB
330
1D
100
AcDbEntity
  8
0
100
AcDbLine
 10
133.93154
 20
140.9094
 30
0.0
 11
131.19054
 21
141.1305
 31
0.0
  0
LINE
  5
16BC
330
1D
100
AcDbEntity
  8
0
100
AcDbLine
 10
132.72554
 20
139.9187
 30
0.0
 11
131.19054
 21
140.1305
 31
0.0
  0
LINE
  5
16BD
330
1D
100
AcDbEntity
  8
0
100
AcDbLine
 10
132.67254
 20
139.654
 30
0.0
 11
131.19054
 21
139.8658
 31
0.0
  0
LINE
  5
16BE
330
1D
100
AcDbEntity
  8
0
100
AcDbLine
 10
136.14954
 20
103.2717
 30
0.0
 11
135.24954
 21
102.0717
 31
0.0
  0
LINE
  5
16BF
330
1D
100
AcDbEntity
  8
0
100
AcDbLine
 10
135.24954
 20
102.0717
 30
0.0
 11
134.04954
 21
101.1717
 31
0.0
  0
LINE
  5
16C0
330
1D
100
AcDbEntity
  8
0
100
AcDbLine
 10
136.37854
 20
103.1481
 30
0.0
 11
136.19054
 21
102.900938195173
 31
0.0
  0
LINE
  5
16C1
330
1D
100
AcDbEntity
  8
0
100
AcDbLine
 10
136.92554
 20
106.1305
 30
0.0
 11
136.71354
 21
104.6481
 31
0.0
  0
LINE
  5
16C2
330
1D
100
AcDbEntity
  8
0
100
AcDbLine
 10
136.71354
 20
104.6481
 30
0.0
 11
136.14954
 21
103.2717
 31
0.0
  0
LINE
  5
16C3
330
1D
100
AcDbEntity
  8
0
100
AcDbLine
 10
136.97854
 20
104.5952
 30
0.0
 11
136.37854
 21
103.1481
 31
0.0
  0
LINE
  5
16C4
330
1D
100
AcDbEntity
  8
0
100
AcDbLine
 10
137.19054
 20
106.1305
 30
0.0
 11
136.97854
 21
104.5952
 31
0.0
  0
LINE
  5
16C5
330
1D
100
AcDbEntity
  8
0
100
AcDbLine
 10
133.57254
 20
99.1305
 30
0.0
 11
132.42554
 21
99.1305
 31
0.0
  0
LINE
  5
16C6
330
1D
100
AcDbEntity
  8
0
100
AcDbLine
 10
133.17854
 20
99.1305
 30
0.0
 11
132.21354
 21
99.1305
 31
0.0
  0
LINE
  5
16C7
330
1D
100
AcDbEntity
  8
0
100
AcDbLine
 10
134.01454
 20
99.1305
 30
0.0
 11
133.17854
 21
99.1305
 31
0.0
  0
LINE
  5
16C8
330
1D
100
AcDbEntity
  8
0
100
AcDbLine
 10
134.49654
 20
95.1305
 30
0.0
 11
133.89654
 21
95.1305
 31
0.0
  0
LINE
  5
16C9
330
1D
100
AcDbEntity
  8
0
100
AcDbLine
 10
133.09654
 20
95.1305
 30
0.0
 11
132.17854
 21
95.1305
 31
0.0
  0
LINE
  5
16CA
330
1D
100
AcDbEntity
  8
0
100
AcDbLine
 10
133.89654
 20
95.1305
 30
0.0
 11
133.09654
 21
95.1305
 31
0.0
  0
LINE
  5
16CB
330
1D
100
AcDbEntity
  8
0
100
AcDbLine
 10
136.19054
 20
99.7074
 30
0.0
 11
136.11654
 21
99.3228
 31
0.0
  0
LINE
  5
16CC
330
1D
100
AcDbEntity
  8
0
100
AcDbLine
 10
135.96954
 20
99.1305
 30
0.0
 11
135.79354
 21
99.1305
 31
0.0
  0
LINE
  5
16CD
330
1D
100
AcDbEntity
  8
0
100
AcDbLine
 10
136.11654
 20
99.3228
 30
0.0
 11
135.96954
 21
99.1305
 31
0.0
  0
LINE
  5
16CE
330
1D
100
AcDbEntity
  8
0
100
AcDbLine
 10
135.79354
 20
99.1305
 30
0.0
 11
135.32254
 21
99.1305
 31
0.0
  0
LINE
  5
16CF
330
1D
100
AcDbEntity
  8
0
100
AcDbLine
 10
135.32254
 20
99.1305
 30
0.0
 11
134.57254
 21
99.1305
 31
0.0
  0
LINE
  5
16D0
330
1D
100
AcDbEntity
  8
0
100
AcDbLine
 10
135.32254
 20
99.1305
 30
0.0
 11
135.19054
 21
99.1305
 31
0.0
  0
LINE
  5
16D1
330
1D
100
AcDbEntity
  8
0
100
AcDbLine
 10
135.19054
 20
99.1305
 30
0.0
 11
135.04954
 21
99.1305
 31
0.0
  0
LINE
  5
16D2
330
1D
100
AcDbEntity
  8
0
100
AcDbLine
 10
135.19054
 20
99.1305
 30
0.0
 11
135.19054
 21
95.592
 31
0.0
  0
LINE
  5
16D3
330
1D
100
AcDbEntity
  8
0
100
AcDbLine
 10
135.04954
 20
99.1305
 30
0.0
 11
134.64954
 21
99.1305
 31
0.0
  0
LINE
  5
16D4
330
1D
100
AcDbEntity
  8
0
100
AcDbLine
 10
135.19054
 20
95.592
 30
0.0
 11
135.19054
 21
99.1305
 31
0.0
  0
LINE
  5
16D5
330
1D
100
AcDbEntity
  8
0
100
AcDbLine
 10
135.19054
 20
95.592
 30
0.0
 11
135.13154
 21
95.2843
 31
0.0
  0
LINE
  5
16D6
330
1D
100
AcDbEntity
  8
0
100
AcDbLine
 10
135.13154
 20
95.2843
 30
0.0
 11
135.01454
 21
95.1305
 31
0.0
  0
LINE
  5
16D7
330
1D
100
AcDbEntity
  8
0
100
AcDbLine
 10
135.01454
 20
95.1305
 30
0.0
 11
134.87254
 21
95.1305
 31
0.0
  0
LINE
  5
16D8
330
1D
100
AcDbEntity
  8
0
100
AcDbLine
 10
136.60654
 20
99.8821
 30
0.0
 11
136.19054
 21
99.799599813084
 31
0.0
  0
LINE
  5
16D9
330
1D
100
AcDbEntity
  8
0
100
AcDbLine
 10
134.57254
 20
99.1305
 30
0.0
 11
133.57254
 21
99.1305
 31
0.0
  0
LINE
  5
16DA
330
1D
100
AcDbEntity
  8
0
100
AcDbLine
 10
134.64954
 20
99.1305
 30
0.0
 11
134.01454
 21
99.1305
 31
0.0
  0
LINE
  5
16DB
330
1D
100
AcDbEntity
  8
0
100
AcDbLine
 10
134.87254
 20
95.1305
 30
0.0
 11
134.49654
 21
95.1305
 31
0.0
  0
LINE
  5
16DC
330
1D
100
AcDbEntity
  8
0
100
AcDbLine
 10
136.19054
 20
102.900938195173
 30
0.0
 11
136.19054
 21
99.7074
 31
0.0
  0
LINE
  5
16DD
330
1D
100
AcDbEntity
  8
0
100
AcDbLine
 10
134.04954
 20
101.1717
 30
0.0
 11
132.67254
 21
100.607
 31
0.0
  0
LINE
  5
16DE
330
1D
100
AcDbEntity
  8
0
100
AcDbLine
 10
136.19054
 20
99.7074
 30
0.0
 11
136.19054
 21
102.900938195173
 31
0.0
  0
LINE
  5
16DF
330
1D
100
AcDbEntity
  8
0
100
AcDbLine
 10
141.64654
 20
101.9379
 30
0.0
 11
139.21454
 21
100.7663
 31
0.0
  0
LINE
  5
16E0
330
1D
100
AcDbEntity
  8
0
100
AcDbLine
 10
139.21454
 20
100.7663
 30
0.0
 11
136.60654
 21
99.8821
 31
0.0
  0
LINE
  5
16E1
330
1D
100
AcDbEntity
  8
0
100
AcDbLine
 10
137.19054
 20
134.1305
 30
0.0
 11
137.19054
 21
106.1305
 31
0.0
  0
LINE
  5
16E2
330
1D
100
AcDbEntity
  8
0
100
AcDbLine
 10
136.92554
 20
134.1305
 30
0.0
 11
136.92554
 21
106.1305
 31
0.0
  0
LINE
  5
16E3
330
1D
100
AcDbEntity
  8
0
100
AcDbLine
 10
136.92554
 20
106.1305
 30
0.0
 11
136.92554
 21
134.1305
 31
0.0
  0
LINE
  5
16E4
330
1D
100
AcDbEntity
  8
0
100
AcDbLine
 10
137.19054
 20
106.1305
 30
0.0
 11
137.19054
 21
134.1305
 31
0.0
  0
LINE
  5
16E5
330
1D
100
AcDbEntity
  8
0
100
AcDbLine
 10
132.67254
 20
100.607
 30
0.0
 11
131.19054
 21
100.3952
 31
0.0
  0
LINE
  5
16E6
330
1D
100
AcDbEntity
  8
0
100
AcDbLine
 10
132.42554
 20
99.1305
 30
0.0
 11
131.19054
 21
99.1305
 31
0.0
  0
LINE
  5
16E7
330
1D
100
AcDbEntity
  8
0
100
AcDbLine
 10
132.21354
 20
99.1305
 30
0.0
 11
131.19054
 21
99.1305
 31
0.0
  0
LINE
  5
16E8
330
1D
100
AcDbEntity
  8
0
100
AcDbLine
 10
132.17854
 20
95.1305
 30
0.0
 11
131.19054
 21
95.1305
 31
0.0
  0
LINE
  5
16E9
330
1D
100
AcDbEntity
  8
0
100
AcDbLine
 10
137.19054
 20
134.1305
 30
0.0
 11
136.97854
 21
135.6658
 31
0.0
  0
LINE
  5
16EA
330
1D
100
AcDbEntity
  8
0
100
AcDbLine
 10
136.92554
 20
134.1305
 30
0.0
 11
136.71354
 21
135.6129
 31
0.0
  0
LINE
  5
16EB
330
1D
100
AcDbEntity
  8
0
100
AcDbLine
 10
212.035215346827
 20
153.127465630881
 30
0.0
 11
211.67554
 21
153.1305
 31
0.0
  0
LINE
  5
16EC
330
1D
100
AcDbEntity
  8
0
100
AcDbLine
 10
212.18154
 20
152.888659858163
 30
0.0
 11
212.035215346827
 21
153.127465630881
 31
0.0
  0
LINE
  5
16ED
330
1D
100
AcDbEntity
  8
0
100
AcDbLine
 10
212.18154
 20
149.1305
 30
0.0
 11
212.18154
 21
152.888659858163
 31
0.0
  0
LINE
  5
16EE
330
1D
100
AcDbEntity
  8
0
100
AcDbLine
 10
212.18154
 20
91.8136
 30
0.0
 11
212.18154
 21
149.1305
 31
0.0
  0
LINE
  5
16EF
330
1D
100
AcDbEntity
  8
0
100
AcDbLine
 10
210.98954
 20
153.1305
 30
0.0
 11
211.38254
 21
153.1305
 31
0.0
  0
LINE
  5
16F0
330
1D
100
AcDbEntity
  8
0
100
AcDbLine
 10
211.38254
 20
153.1305
 30
0.0
 11
211.67554
 21
153.1305
 31
0.0
  0
LINE
  5
16F1
330
1D
100
AcDbEntity
  8
0
100
AcDbLine
 10
209.92954
 20
153.1305
 30
0.0
 11
210.06654
 21
153.1305
 31
0.0
  0
LINE
  5
16F2
330
1D
100
AcDbEntity
  8
0
100
AcDbLine
 10
210.06654
 20
153.1305
 30
0.0
 11
210.98954
 21
153.1305
 31
0.0
  0
LINE
  5
16F3
330
1D
100
AcDbEntity
  8
0
100
AcDbLine
 10
211.23354
 20
149.1305
 30
0.0
 11
211.82954
 21
149.1305
 31
0.0
  0
LINE
  5
16F4
330
1D
100
AcDbEntity
  8
0
100
AcDbLine
 10
211.82954
 20
149.1305
 30
0.0
 11
212.18854
 21
149.1305
 31
0.0
  0
LINE
  5
16F5
330
1D
100
AcDbEntity
  8
0
100
AcDbLine
 10
211.23354
 20
91.1385
 30
0.0
 11
211.82054
 21
91.3267
 31
0.0
  0
LINE
  5
16F6
330
1D
100
AcDbEntity
  8
0
100
AcDbLine
 10
211.82054
 20
91.3267
 30
0.0
 11
212.18154
 21
91.8136
 31
0.0
  0
LINE
  5
16F7
330
1D
100
AcDbEntity
  8
0
100
AcDbLine
 10
158.78054
 20
91.1505
 30
0.0
 11
162.20054
 21
91.1505
 31
0.0
  0
LINE
  5
16F8
330
1D
100
AcDbEntity
  8
0
100
AcDbLine
 10
155.36454
 20
91.1495
 30
0.0
 11
158.78054
 21
91.1505
 31
0.0
  0
LINE
  5
16F9
330
1D
100
AcDbEntity
  8
0
100
AcDbLine
 10
162.20054
 20
91.1505
 30
0.0
 11
165.05354
 21
91.1505
 31
0.0
  0
LINE
  5
16FA
330
1D
100
AcDbEntity
  8
0
100
AcDbLine
 10
165.05354
 20
91.1505
 30
0.0
 11
168.21854
 21
91.1485
 31
0.0
  0
LINE
  5
16FB
330
1D
100
AcDbEntity
  8
0
100
AcDbLine
 10
179.29254
 20
91.1395
 30
0.0
 11
182.53054
 21
91.1375
 31
0.0
  0
LINE
  5
16FC
330
1D
100
AcDbEntity
  8
0
100
AcDbLine
 10
207.40454
 20
91.1355
 30
0.0
 11
211.23354
 21
91.1385
 31
0.0
  0
LINE
  5
16FD
330
1D
100
AcDbEntity
  8
0
100
AcDbLine
 10
201.26754
 20
91.1375
 30
0.0
 11
204.64754
 21
91.1365
 31
0.0
  0
LINE
  5
16FE
330
1D
100
AcDbEntity
  8
0
100
AcDbLine
 10
204.64754
 20
91.1365
 30
0.0
 11
207.40454
 21
91.1355
 31
0.0
  0
LINE
  5
16FF
330
1D
100
AcDbEntity
  8
0
100
AcDbLine
 10
195.29954
 20
91.1365
 30
0.0
 11
198.57554
 21
91.1375
 31
0.0
  0
LINE
  5
1700
330
1D
100
AcDbEntity
  8
0
100
AcDbLine
 10
182.53054
 20
91.1375
 30
0.0
 11
185.03654
 21
91.1365
 31
0.0
  0
LINE
  5
1701
330
1D
100
AcDbEntity
  8
0
100
AcDbLine
 10
198.57554
 20
91.1375
 30
0.0
 11
201.26754
 21
91.1375
 31
0.0
  0
LINE
  5
1702
330
1D
100
AcDbEntity
  8
0
100
AcDbLine
 10
192.12054
 20
91.1365
 30
0.0
 11
195.29954
 21
91.1365
 31
0.0
  0
LINE
  5
1703
330
1D
100
AcDbEntity
  8
0
100
AcDbLine
 10
189.72954
 20
91.1365
 30
0.0
 11
192.12054
 21
91.1365
 31
0.0
  0
LINE
  5
1704
330
1D
100
AcDbEntity
  8
0
100
AcDbLine
 10
187.33354
 20
91.1365
 30
0.0
 11
189.72954
 21
91.1365
 31
0.0
  0
LINE
  5
1705
330
1D
100
AcDbEntity
  8
0
100
AcDbLine
 10
185.03654
 20
91.1365
 30
0.0
 11
187.33354
 21
91.1365
 31
0.0
  0
LINE
  5
1706
330
1D
100
AcDbEntity
  8
0
100
AcDbLine
 10
170.74854
 20
91.1465
 30
0.0
 11
173.59354
 21
91.1435
 31
0.0
  0
LINE
  5
1707
330
1D
100
AcDbEntity
  8
0
100
AcDbLine
 10
168.21854
 20
91.1485
 30
0.0
 11
170.74854
 21
91.1465
 31
0.0
  0
LINE
  5
1708
330
1D
100
AcDbEntity
  8
0
100
AcDbLine
 10
173.59354
 20
91.1435
 30
0.0
 11
176.44154
 21
91.1415
 31
0.0
  0
LINE
  5
1709
330
1D
100
AcDbEntity
  8
0
100
AcDbLine
 10
176.44154
 20
91.1415
 30
0.0
 11
179.29254
 21
91.1395
 31
0.0
  0
LINE
  5
170A
330
1D
100
AcDbEntity
  8
0
100
AcDbLine
 10
149.69854
 20
91.1435
 30
0.0
 11
155.36454
 21
91.1495
 31
0.0
  0
LINE
  5
170B
330
1D
100
AcDbEntity
  8
0
100
AcDbLine
 10
83.19054
 20
149.1305
 30
0.0
 11
83.30454
 21
149.1305
 31
0.0
  0
LINE
  5
170C
330
1D
100
AcDbEntity
  8
0
100
AcDbLine
 10
83.19054
 20
149.1305
 30
0.0
 11
83.24354
 21
148.1345
 31
0.0
  0
LINE
  5
170D
330
1D
100
AcDbEntity
  8
0
100
AcDbLine
 10
83.68954
 20
153.1305
 30
0.0
 11
84.17854
 21
153.1305
 31
0.0
  0
LINE
  5
170E
330
1D
100
AcDbEntity
  8
0
100
AcDbLine
 10
93.67854
 20
153.1305
 30
0.0
 11
209.92954
 21
153.1305
 31
0.0
  0
LINE
  5
170F
330
1D
100
AcDbEntity
  8
0
100
AcDbLine
 10
93.67854
 20
153.1305
 30
0.0
 11
209.92954
 21
153.1305
 31
0.0
  0
LINE
  5
1710
330
1D
100
AcDbEntity
  8
0
100
AcDbLine
 10
90.59254
 20
153.1305
 30
0.0
 11
93.67854
 21
153.1305
 31
0.0
  0
LINE
  5
1711
330
1D
100
AcDbEntity
  8
0
100
AcDbLine
 10
87.80754
 20
153.1305
 30
0.0
 11
90.59254
 21
153.1305
 31
0.0
  0
LINE
  5
1712
330
1D
100
AcDbEntity
  8
0
100
AcDbLine
 10
84.17854
 20
153.1305
 30
0.0
 11
85.59754
 21
153.1305
 31
0.0
  0
LINE
  5
1713
330
1D
100
AcDbEntity
  8
0
100
AcDbLine
 10
85.59754
 20
153.1305
 30
0.0
 11
87.80754
 21
153.1305
 31
0.0
  0
LINE
  5
1714
330
1D
100
AcDbEntity
  8
0
100
AcDbLine
 10
83.19054
 20
151.1305
 30
0.0
 11
83.68954
 21
153.1305
 31
0.0
  0
LINE
  5
1715
330
1D
100
AcDbEntity
  8
0
100
AcDbLine
 10
83.19054
 20
151.1305
 30
0.0
 11
83.68954
 21
149.1305
 31
0.0
  0
LINE
  5
1716
330
1D
100
AcDbEntity
  8
0
100
AcDbLine
 10
83.24354
 20
148.1345
 30
0.0
 11
85.20584
 21
143.5935
 31
0.0
  0
LINE
  5
1717
330
1D
100
AcDbEntity
  8
0
100
AcDbLine
 10
84.33574
 20
149.1305
 30
0.0
 11
85.30484
 21
149.1305
 31
0.0
  0
LINE
  5
1718
330
1D
100
AcDbEntity
  8
0
100
AcDbLine
 10
85.30484
 20
149.1305
 30
0.0
 11
86.36304
 21
149.1305
 31
0.0
  0
LINE
  5
1719
330
1D
100
AcDbEntity
  8
0
100
AcDbLine
 10
86.36304
 20
149.1305
 30
0.0
 11
87.58124
 21
149.1305
 31
0.0
  0
LINE
  5
171A
330
1D
100
AcDbEntity
  8
0
100
AcDbLine
 10
87.58124
 20
149.1305
 30
0.0
 11
88.94444
 21
149.1305
 31
0.0
  0
LINE
  5
171B
330
1D
100
AcDbEntity
  8
0
100
AcDbLine
 10
88.94444
 20
149.1305
 30
0.0
 11
90.42064
 21
149.1305
 31
0.0
  0
LINE
  5
171C
330
1D
100
AcDbEntity
  8
0
100
AcDbLine
 10
90.42064
 20
149.1305
 30
0.0
 11
91.96694
 21
149.1305
 31
0.0
  0
LINE
  5
171D
330
1D
100
AcDbEntity
  8
0
100
AcDbLine
 10
91.96694
 20
149.1305
 30
0.0
 11
93.81724
 21
149.1305
 31
0.0
  0
LINE
  5
171E
330
1D
100
AcDbEntity
  8
0
100
AcDbLine
 10
93.81724
 20
149.1305
 30
0.0
 11
211.23354
 21
149.1305
 31
0.0
  0
LINE
  5
171F
330
1D
100
AcDbEntity
  8
0
100
AcDbLine
 10
128.44954
 20
140.9094
 30
0.0
 11
131.19054
 21
141.1305
 31
0.0
  0
LINE
  5
1720
330
1D
100
AcDbEntity
  8
0
100
AcDbLine
 10
86.06504
 20
141.6345
 30
0.0
 11
86.92914
 21
139.6842
 31
0.0
  0
LINE
  5
1721
330
1D
100
AcDbEntity
  8
0
100
AcDbLine
 10
83.30454
 20
149.1305
 30
0.0
 11
83.64864
 21
149.1305
 31
0.0
  0
LINE
  5
1722
330
1D
100
AcDbEntity
  8
0
100
AcDbLine
 10
83.64864
 20
149.1305
 30
0.0
 11
84.33574
 21
149.1305
 31
0.0
  0
LINE
  5
1723
330
1D
100
AcDbEntity
  8
0
100
AcDbLine
 10
85.20584
 20
143.5935
 30
0.0
 11
86.06504
 21
141.6345
 31
0.0
  0
LINE
  5
1724
330
1D
100
AcDbEntity
  8
0
100
AcDbLine
 10
145.11254
 20
91.1365
 30
0.0
 11
149.69854
 21
91.1435
 31
0.0
  0
LINE
  5
1725
330
1D
100
AcDbEntity
  8
0
100
AcDbLine
 10
141.99754
 20
91.1325
 30
0.0
 11
145.11254
 21
91.1365
 31
0.0
  0
LINE
  5
1726
330
1D
100
AcDbEntity
  8
0
100
AcDbLine
 10
127.10854
 20
91.4372
 30
0.0
 11
129.50954
 21
91.2719
 31
0.0
  0
LINE
  5
1727
330
1D
100
AcDbEntity
  8
0
100
AcDbLine
 10
126.04654
 20
91.5388
 30
0.0
 11
127.10854
 21
91.4372
 31
0.0
  0
LINE
  5
1728
330
1D
100
AcDbEntity
  8
0
100
AcDbLine
 10
129.65554
 20
139.9187
 30
0.0
 11
131.19054
 21
140.1305
 31
0.0
  0
LINE
  5
1729
330
1D
100
AcDbEntity
  8
0
100
AcDbLine
 10
126.19054
 20
102.900938195173
 30
0.0
 11
126.19054
 21
99.7074
 31
0.0
  0
LINE
  5
172A
330
1D
100
AcDbEntity
  8
0
100
AcDbLine
 10
126.23154
 20
103.2717
 30
0.0
 11
127.13154
 21
102.0717
 31
0.0
  0
LINE
  5
172B
330
1D
100
AcDbEntity
  8
0
100
AcDbLine
 10
128.20854
 20
139.3187
 30
0.0
 11
129.65554
 21
139.9187
 31
0.0
  0
LINE
  5
172C
330
1D
100
AcDbEntity
  8
0
100
AcDbLine
 10
129.70854
 20
139.654
 30
0.0
 11
131.19054
 21
139.8658
 31
0.0
  0
LINE
  5
172D
330
1D
100
AcDbEntity
  8
0
100
AcDbLine
 10
126.95554
 20
138.3658
 30
0.0
 11
128.20854
 21
139.3187
 31
0.0
  0
LINE
  5
172E
330
1D
100
AcDbEntity
  8
0
100
AcDbLine
 10
128.33154
 20
139.0893
 30
0.0
 11
129.70854
 21
139.654
 31
0.0
  0
LINE
  5
172F
330
1D
100
AcDbEntity
  8
0
100
AcDbLine
 10
127.13154
 20
138.1893
 30
0.0
 11
128.33154
 21
139.0893
 31
0.0
  0
LINE
  5
1730
330
1D
100
AcDbEntity
  8
0
100
AcDbLine
 10
126.23154
 20
136.9893
 30
0.0
 11
127.13154
 21
138.1893
 31
0.0
  0
LINE
  5
1731
330
1D
100
AcDbEntity
  8
0
100
AcDbLine
 10
129.70854
 20
100.607
 30
0.0
 11
131.19054
 21
100.3952
 31
0.0
  0
LINE
  5
1732
330
1D
100
AcDbEntity
  8
0
100
AcDbLine
 10
128.33154
 20
101.1717
 30
0.0
 11
129.70854
 21
100.607
 31
0.0
  0
LINE
  5
1733
330
1D
100
AcDbEntity
  8
0
100
AcDbLine
 10
127.13154
 20
102.0717
 30
0.0
 11
128.33154
 21
101.1717
 31
0.0
  0
LINE
  5
1734
330
1D
100
AcDbEntity
  8
0
100
AcDbLine
 10
126.19054
 20
99.7074
 30
0.0
 11
126.19054
 21
102.900938195173
 31
0.0
  0
LINE
  5
1735
330
1D
100
AcDbEntity
  8
0
100
AcDbLine
 10
126.19054
 20
99.7074
 30
0.0
 11
126.26454
 21
99.3228
 31
0.0
  0
LINE
  5
1736
330
1D
100
AcDbEntity
  8
0
100
AcDbLine
 10
126.41154
 20
99.1305
 30
0.0
 11
126.58754
 21
99.1305
 31
0.0
  0
LINE
  5
1737
330
1D
100
AcDbEntity
  8
0
100
AcDbLine
 10
126.26454
 20
99.3228
 30
0.0
 11
126.41154
 21
99.1305
 31
0.0
  0
LINE
  5
1738
330
1D
100
AcDbEntity
  8
0
100
AcDbLine
 10
126.58754
 20
99.1305
 30
0.0
 11
127.05854
 21
99.1305
 31
0.0
  0
LINE
  5
1739
330
1D
100
AcDbEntity
  8
0
100
AcDbLine
 10
127.05854
 20
99.1305
 30
0.0
 11
127.80854
 21
99.1305
 31
0.0
  0
LINE
  5
173A
330
1D
100
AcDbEntity
  8
0
100
AcDbLine
 10
127.05854
 20
99.1305
 30
0.0
 11
127.19054
 21
99.1305
 31
0.0
  0
LINE
  5
173B
330
1D
100
AcDbEntity
  8
0
100
AcDbLine
 10
129.95554
 20
99.1305
 30
0.0
 11
131.19054
 21
99.1305
 31
0.0
  0
LINE
  5
173C
330
1D
100
AcDbEntity
  8
0
100
AcDbLine
 10
130.16754
 20
99.1305
 30
0.0
 11
131.19054
 21
99.1305
 31
0.0
  0
LINE
  5
173D
330
1D
100
AcDbEntity
  8
0
100
AcDbLine
 10
128.80854
 20
99.1305
 30
0.0
 11
129.95554
 21
99.1305
 31
0.0
  0
LINE
  5
173E
330
1D
100
AcDbEntity
  8
0
100
AcDbLine
 10
127.80854
 20
99.1305
 30
0.0
 11
128.80854
 21
99.1305
 31
0.0
  0
LINE
  5
173F
330
1D
100
AcDbEntity
  8
0
100
AcDbLine
 10
129.20254
 20
99.1305
 30
0.0
 11
130.16754
 21
99.1305
 31
0.0
  0
LINE
  5
1740
330
1D
100
AcDbEntity
  8
0
100
AcDbLine
 10
128.36654
 20
99.1305
 30
0.0
 11
129.20254
 21
99.1305
 31
0.0
  0
LINE
  5
1741
330
1D
100
AcDbEntity
  8
0
100
AcDbLine
 10
127.19054
 20
99.1305
 30
0.0
 11
127.33154
 21
99.1305
 31
0.0
  0
LINE
  5
1742
330
1D
100
AcDbEntity
  8
0
100
AcDbLine
 10
127.19054
 20
99.1305
 30
0.0
 11
127.19054
 21
95.592
 31
0.0
  0
LINE
  5
1743
330
1D
100
AcDbEntity
  8
0
100
AcDbLine
 10
127.33154
 20
99.1305
 30
0.0
 11
127.73154
 21
99.1305
 31
0.0
  0
LINE
  5
1744
330
1D
100
AcDbEntity
  8
0
100
AcDbLine
 10
127.73154
 20
99.1305
 30
0.0
 11
128.36654
 21
99.1305
 31
0.0
  0
LINE
  5
1745
330
1D
100
AcDbEntity
  8
0
100
AcDbLine
 10
127.19054
 20
95.592
 30
0.0
 11
127.19054
 21
99.1305
 31
0.0
  0
LINE
  5
1746
330
1D
100
AcDbEntity
  8
0
100
AcDbLine
 10
127.19054
 20
95.592
 30
0.0
 11
127.24954
 21
95.2843
 31
0.0
  0
LINE
  5
1747
330
1D
100
AcDbEntity
  8
0
100
AcDbLine
 10
127.24954
 20
95.2843
 30
0.0
 11
127.36654
 21
95.1305
 31
0.0
  0
LINE
  5
1748
330
1D
100
AcDbEntity
  8
0
100
AcDbLine
 10
127.36654
 20
95.1305
 30
0.0
 11
127.50854
 21
95.1305
 31
0.0
  0
LINE
  5
1749
330
1D
100
AcDbEntity
  8
0
100
AcDbLine
 10
127.50854
 20
95.1305
 30
0.0
 11
127.88454
 21
95.1305
 31
0.0
  0
LINE
  5
174A
330
1D
100
AcDbEntity
  8
0
100
AcDbLine
 10
127.88454
 20
95.1305
 30
0.0
 11
128.48454
 21
95.1305
 31
0.0
  0
LINE
  5
174B
330
1D
100
AcDbEntity
  8
0
100
AcDbLine
 10
130.20254
 20
95.1305
 30
0.0
 11
131.19054
 21
95.1305
 31
0.0
  0
LINE
  5
174C
330
1D
100
AcDbEntity
  8
0
100
AcDbLine
 10
129.28454
 20
95.1305
 30
0.0
 11
130.20254
 21
95.1305
 31
0.0
  0
LINE
  5
174D
330
1D
100
AcDbEntity
  8
0
100
AcDbLine
 10
128.48454
 20
95.1305
 30
0.0
 11
129.28454
 21
95.1305
 31
0.0
  0
LINE
  5
174E
330
1D
100
AcDbEntity
  8
0
100
AcDbLine
 10
124.57654
 20
91.7378
 30
0.0
 11
126.04654
 21
91.5388
 31
0.0
  0
LINE
  5
174F
330
1D
100
AcDbEntity
  8
0
100
AcDbLine
 10
125.77454
 20
140.3789
 30
0.0
 11
128.44954
 21
140.9094
 31
0.0
  0
LINE
  5
1750
330
1D
100
AcDbEntity
  8
0
100
AcDbLine
 10
126.00254
 20
103.1481
 30
0.0
 11
126.19054
 21
102.900938195173
 31
0.0
  0
LINE
  5
1751
330
1D
100
AcDbEntity
  8
0
100
AcDbLine
 10
126.00254
 20
137.1129
 30
0.0
 11
126.95554
 21
138.3658
 31
0.0
  0
LINE
  5
1752
330
1D
100
AcDbEntity
  8
0
100
AcDbLine
 10
123.16654
 20
139.4947
 30
0.0
 11
125.77454
 21
140.3789
 31
0.0
  0
LINE
  5
1753
330
1D
100
AcDbEntity
  8
0
100
AcDbLine
 10
125.77454
 20
99.8821
 30
0.0
 11
126.19054
 21
99.799599813084
 31
0.0
  0
LINE
  5
1754
330
1D
100
AcDbEntity
  8
0
100
AcDbLine
 10
123.16654
 20
100.7663
 30
0.0
 11
125.77454
 21
99.8821
 31
0.0
  0
LINE
  5
1755
330
1D
100
AcDbEntity
  8
0
100
AcDbLine
 10
125.19054
 20
134.1305
 30
0.0
 11
125.40254
 21
135.6658
 31
0.0
  0
LINE
  5
1756
330
1D
100
AcDbEntity
  8
0
100
AcDbLine
 10
125.19054
 20
134.1305
 30
0.0
 11
125.19054
 21
106.1305
 31
0.0
  0
LINE
  5
1757
330
1D
100
AcDbEntity
  8
0
100
AcDbLine
 10
125.45554
 20
134.1305
 30
0.0
 11
125.66754
 21
135.6129
 31
0.0
  0
LINE
  5
1758
330
1D
100
AcDbEntity
  8
0
100
AcDbLine
 10
125.45554
 20
134.1305
 30
0.0
 11
125.45554
 21
106.1305
 31
0.0
  0
LINE
  5
1759
330
1D
100
AcDbEntity
  8
0
100
AcDbLine
 10
125.40254
 20
135.6658
 30
0.0
 11
126.00254
 21
137.1129
 31
0.0
  0
LINE
  5
175A
330
1D
100
AcDbEntity
  8
0
100
AcDbLine
 10
125.66754
 20
135.6129
 30
0.0
 11
126.23154
 21
136.9893
 31
0.0
  0
LINE
  5
175B
330
1D
100
AcDbEntity
  8
0
100
AcDbLine
 10
125.45554
 20
106.1305
 30
0.0
 11
125.66754
 21
104.6481
 31
0.0
  0
LINE
  5
175C
330
1D
100
AcDbEntity
  8
0
100
AcDbLine
 10
125.45554
 20
106.1305
 30
0.0
 11
125.45554
 21
134.1305
 31
0.0
  0
LINE
  5
175D
330
1D
100
AcDbEntity
  8
0
100
AcDbLine
 10
125.66754
 20
104.6481
 30
0.0
 11
126.23154
 21
103.2717
 31
0.0
  0
LINE
  5
175E
330
1D
100
AcDbEntity
  8
0
100
AcDbLine
 10
125.40254
 20
104.5952
 30
0.0
 11
126.00254
 21
103.1481
 31
0.0
  0
LINE
  5
175F
330
1D
100
AcDbEntity
  8
0
100
AcDbLine
 10
125.19054
 20
106.1305
 30
0.0
 11
125.40254
 21
104.5952
 31
0.0
  0
LINE
  5
1760
330
1D
100
AcDbEntity
  8
0
100
AcDbLine
 10
125.19054
 20
106.1305
 30
0.0
 11
125.19054
 21
134.1305
 31
0.0
  0
LINE
  5
1761
330
1D
100
AcDbEntity
  8
0
100
AcDbLine
 10
139.52754
 20
91.1305
 30
0.0
 11
141.99754
 21
91.1325
 31
0.0
  0
LINE
  5
1762
330
1D
100
AcDbEntity
  8
0
100
AcDbLine
 10
129.50954
 20
91.2719
 30
0.0
 11
132.17654
 21
91.1873
 31
0.0
  0
LINE
  5
1763
330
1D
100
AcDbEntity
  8
0
100
AcDbLine
 10
132.17654
 20
91.1873
 30
0.0
 11
135.84154
 21
91.1415
 31
0.0
  0
LINE
  5
1764
330
1D
100
AcDbEntity
  8
0
100
AcDbLine
 10
135.84154
 20
91.1415
 30
0.0
 11
139.52754
 21
91.1305
 31
0.0
  0
LINE
  5
1765
330
1D
100
AcDbEntity
  8
0
100
AcDbLine
 10
88.08634
 20
137.0964
 30
0.0
 11
89.74954
 21
133.4451
 31
0.0
  0
LINE
  5
1766
330
1D
100
AcDbEntity
  8
0
100
AcDbLine
 10
120.73454
 20
138.3231
 30
0.0
 11
123.16654
 21
139.4947
 31
0.0
  0
LINE
  5
1767
330
1D
100
AcDbEntity
  8
0
100
AcDbLine
 10
86.92914
 20
139.6842
 30
0.0
 11
88.08634
 21
137.0964
 31
0.0
  0
LINE
  5
1768
330
1D
100
AcDbEntity
  8
0
100
AcDbLine
 10
118.41354
 20
136.7537
 30
0.0
 11
120.73454
 21
138.3231
 31
0.0
  0
LINE
  5
1769
330
1D
100
AcDbEntity
  8
0
100
AcDbLine
 10
116.35754
 20
134.9631
 30
0.0
 11
118.41354
 21
136.7537
 31
0.0
  0
LINE
  5
176A
330
1D
100
AcDbEntity
  8
0
100
AcDbLine
 10
112.99754
 20
130.5863
 30
0.0
 11
114.56754
 21
132.9073
 31
0.0
  0
LINE
  5
176B
330
1D
100
AcDbEntity
  8
0
100
AcDbLine
 10
114.56754
 20
132.9073
 30
0.0
 11
116.35754
 21
134.9631
 31
0.0
  0
LINE
  5
176C
330
1D
100
AcDbEntity
  8
0
100
AcDbLine
 10
112.99754
 20
109.6747
 30
0.0
 11
114.56754
 21
107.3537
 31
0.0
  0
LINE
  5
176D
330
1D
100
AcDbEntity
  8
0
100
AcDbLine
 10
114.56754
 20
107.3537
 30
0.0
 11
116.35754
 21
105.2979
 31
0.0
  0
LINE
  5
176E
330
1D
100
AcDbEntity
  8
0
100
AcDbLine
 10
117.982229527865
 20
103.882934499711
 30
0.0
 11
118.198651854105
 21
103.69444917998
 31
0.0
  0
LINE
  5
176F
330
1D
100
AcDbEntity
  8
0
100
AcDbLine
 10
117.982229527865
 20
103.882934499711
 30
0.0
 11
118.198651854105
 21
103.69444917998
 31
0.0
  0
LINE
  5
1770
330
1D
100
AcDbEntity
  8
0
100
AcDbLine
 10
116.35754
 20
105.2979
 30
0.0
 11
118.41354
 21
103.5073
 31
0.0
  0
LINE
  5
1771
330
1D
100
AcDbEntity
  8
0
100
AcDbLine
 10
118.16454
 20
93.4375
 30
0.0
 11
121.08254
 21
92.4777
 31
0.0
  0
LINE
  5
1772
330
1D
100
AcDbEntity
  8
0
100
AcDbLine
 10
113.79554
 20
95.6421
 30
0.0
 11
115.41354
 21
94.6991
 31
0.0
  0
LINE
  5
1773
330
1D
100
AcDbEntity
  8
0
100
AcDbLine
 10
115.41354
 20
94.6991
 30
0.0
 11
118.16454
 21
93.4375
 31
0.0
  0
LINE
  5
1774
330
1D
100
AcDbEntity
  8
0
100
AcDbLine
 10
120.73454
 20
101.9379
 30
0.0
 11
123.16654
 21
100.7663
 31
0.0
  0
LINE
  5
1775
330
1D
100
AcDbEntity
  8
0
100
AcDbLine
 10
118.41354
 20
103.5073
 30
0.0
 11
120.73454
 21
101.9379
 31
0.0
  0
LINE
  5
1776
330
1D
100
AcDbEntity
  8
0
100
AcDbLine
 10
121.08254
 20
92.4777
 30
0.0
 11
124.57654
 21
91.7378
 31
0.0
  0
LINE
  5
1777
330
1D
100
AcDbEntity
  8
0
100
AcDbLine
 10
92.66104
 20
127.2438
 30
0.0
 11
94.15824
 21
124.1631
 31
0.0
  0
LINE
  5
1778
330
1D
100
AcDbEntity
  8
0
100
AcDbLine
 10
89.74954
 20
133.4451
 30
0.0
 11
91.18984
 21
130.3445
 31
0.0
  0
LINE
  5
1779
330
1D
100
AcDbEntity
  8
0
100
AcDbLine
 10
91.18984
 20
130.3445
 30
0.0
 11
92.66104
 21
127.2438
 31
0.0
  0
LINE
  5
177A
330
1D
100
AcDbEntity
  8
0
100
AcDbLine
 10
111.82654
 20
128.1547
 30
0.0
 11
112.99754
 21
130.5863
 31
0.0
  0
LINE
  5
177B
330
1D
100
AcDbEntity
  8
0
100
AcDbLine
 10
110.94254
 20
125.5463
 30
0.0
 11
111.82654
 21
128.1547
 31
0.0
  0
LINE
  5
177C
330
1D
100
AcDbEntity
  8
0
100
AcDbLine
 10
111.82654
 20
112.1063
 30
0.0
 11
112.99754
 21
109.6747
 31
0.0
  0
LINE
  5
177D
330
1D
100
AcDbEntity
  8
0
100
AcDbLine
 10
110.94254
 20
114.7147
 30
0.0
 11
111.82654
 21
112.1063
 31
0.0
  0
LINE
  5
177E
330
1D
100
AcDbEntity
  8
0
100
AcDbLine
 10
110.19054
 20
120.1305
 30
0.0
 11
110.41154
 21
122.8716
 31
0.0
  0
LINE
  5
177F
330
1D
100
AcDbEntity
  8
0
100
AcDbLine
 10
110.19054
 20
120.1305
 30
0.0
 11
110.41154
 21
117.3894
 31
0.0
  0
LINE
  5
1780
330
1D
100
AcDbEntity
  8
0
100
AcDbLine
 10
110.41154
 20
122.8716
 30
0.0
 11
110.94254
 21
125.5463
 31
0.0
  0
LINE
  5
1781
330
1D
100
AcDbEntity
  8
0
100
AcDbLine
 10
110.41154
 20
117.3894
 30
0.0
 11
110.94254
 21
114.7147
 31
0.0
  0
LINE
  5
1782
330
1D
100
AcDbEntity
  8
0
100
AcDbLine
 10
111.91554
 20
96.9733
 30
0.0
 11
113.79554
 21
95.6421
 31
0.0
  0
LINE
  5
1783
330
1D
100
AcDbEntity
  8
0
100
AcDbLine
 10
110.17954
 20
98.4818
 30
0.0
 11
111.91554
 21
96.9733
 31
0.0
  0
LINE
  5
1784
330
1D
100
AcDbEntity
  8
0
100
AcDbLine
 10
109.52054
 20
99.2166
 30
0.0
 11
110.17954
 21
98.4818
 31
0.0
  0
LINE
  5
1785
330
1D
100
AcDbEntity
  8
0
100
AcDbLine
 10
109.384705683151
 20
99.384691351922
 30
0.0
 11
109.52054
 21
99.2166
 31
0.0
  0
LINE
  5
1786
330
1D
100
AcDbEntity
  8
0
100
AcDbLine
 10
106.95554
 20
102.1441
 30
0.0
 11
109.384705683151
 21
99.384691351922
 31
0.0
  0
LINE
  5
1787
330
1D
100
AcDbEntity
  8
0
100
AcDbLine
 10
105.11254
 20
104.6871
 30
0.0
 11
106.95554
 21
102.1441
 31
0.0
  0
LINE
  5
1788
330
1D
100
AcDbEntity
  8
0
100
AcDbLine
 10
98.95854
 20
114.8811
 30
0.0
 11
100.02254
 21
112.9594
 31
0.0
  0
LINE
  5
1789
330
1D
100
AcDbEntity
  8
0
100
AcDbLine
 10
97.26554
 20
118.0395
 30
0.0
 11
98.95854
 21
114.8811
 31
0.0
  0
LINE
  5
178A
330
1D
100
AcDbEntity
  8
0
100
AcDbLine
 10
95.69454
 20
121.0903
 30
0.0
 11
97.26554
 21
118.0395
 31
0.0
  0
LINE
  5
178B
330
1D
100
AcDbEntity
  8
0
100
AcDbLine
 10
94.15824
 20
124.1631
 30
0.0
 11
95.69454
 21
121.0903
 31
0.0
  0
LINE
  5
178C
330
1D
100
AcDbEntity
  8
0
100
AcDbLine
 10
101.49954
 20
110.3975
 30
0.0
 11
103.30654
 21
107.4332
 31
0.0
  0
LINE
  5
178D
330
1D
100
AcDbEntity
  8
0
100
AcDbLine
 10
103.30654
 20
107.4332
 30
0.0
 11
105.11254
 21
104.6871
 31
0.0
  0
LINE
  5
178E
330
1D
100
AcDbEntity
  8
0
100
AcDbLine
 10
100.02254
 20
112.9594
 30
0.0
 11
101.49954
 21
110.3975
 31
0.0
  0
LINE
  5
178F
330
1D
100
AcDbEntity
  8
0
100
AcDbLine
 10
162.31774
 20
91.150465
 30
0.0
 11
162.31774
 21
89.778891210134
 31
0.0
  0
LINE
  5
1790
330
1D
100
AcDbEntity
  8
0
100
AcDbLine
 10
161.59854
 20
59.7843
 30
0.0
 11
161.89854
 21
59.7815
 31
0.0
  0
LINE
  5
1791
330
1D
100
AcDbEntity
  8
0
100
AcDbLine
 10
160.69864
 20
59.7929
 30
0.0
 11
161.59854
 21
59.7843
 31
0.0
  0
LINE
  5
1792
330
1D
100
AcDbEntity
  8
0
100
AcDbLine
 10
163.18264
 20
89.7707
 30
0.0
 11
164.16364
 21
87.7613
 31
0.0
  0
LINE
  5
1793
330
1D
100
AcDbEntity
  8
0
100
AcDbLine
 10
162.78264
 20
89.7745
 30
0.0
 11
163.18264
 21
89.7707
 31
0.0
  0
LINE
  5
1794
330
1D
100
AcDbEntity
  8
0
100
AcDbLine
 10
161.88274
 20
89.783
 30
0.0
 11
162.78264
 21
89.7745
 31
0.0
  0
LINE
  5
1795
330
1D
100
AcDbEntity
  8
0
100
AcDbLine
 10
162.31774
 20
89.778891210134
 30
0.0
 11
162.31774
 21
91.150465
 31
0.0
  0
LINE
  5
1796
330
1D
100
AcDbEntity
  8
0
100
AcDbLine
 10
159.698640000001
 20
59.802328571429
 30
0.0
 11
160.09864
 21
59.7985
 31
0.0
  0
LINE
  5
1797
330
1D
100
AcDbEntity
  8
0
100
AcDbLine
 10
159.698640000001
 20
59.802328571429
 30
0.0
 11
160.69864
 21
59.7929
 31
0.0
  0
LINE
  5
1798
330
1D
100
AcDbEntity
  8
0
100
AcDbLine
 10
152.89894
 20
59.8667
 30
0.0
 11
155.19884
 21
59.8449
 31
0.0
  0
LINE
  5
1799
330
1D
100
AcDbEntity
  8
0
100
AcDbLine
 10
155.19884
 20
59.8449
 30
0.0
 11
157.39874
 21
59.8241
 31
0.0
  0
LINE
  5
179A
330
1D
100
AcDbEntity
  8
0
100
AcDbLine
 10
153.18304
 20
89.8654
 30
0.0
 11
155.78294
 21
89.8408
 31
0.0
  0
LINE
  5
179B
330
1D
100
AcDbEntity
  8
0
100
AcDbLine
 10
155.78294
 20
89.8408
 30
0.0
 11
158.18284
 21
89.818
 31
0.0
  0
LINE
  5
179C
330
1D
100
AcDbEntity
  8
0
100
AcDbLine
 10
158.18284
 20
89.818
 30
0.0
 11
160.28274
 21
89.7981
 31
0.0
  0
LINE
  5
179D
330
1D
100
AcDbEntity
  8
0
100
AcDbLine
 10
160.28274
 20
89.7981
 30
0.0
 11
161.88274
 21
89.783
 31
0.0
  0
LINE
  5
179E
330
1D
100
AcDbEntity
  8
0
100
AcDbLine
 10
157.39874
 20
59.8241
 30
0.0
 11
159.29864
 21
59.8061
 31
0.0
  0
LINE
  5
179F
330
1D
100
AcDbEntity
  8
0
100
AcDbLine
 10
159.29864
 20
59.8061
 30
0.0
 11
160.69864
 21
59.7929
 31
0.0
  0
LINE
  5
17A0
330
1D
100
AcDbEntity
  8
0
100
AcDbLine
 10
157.416726098489
 20
59.823929596414
 30
0.0
 11
158.19874
 21
59.8165
 31
0.0
  0
LINE
  5
17A1
330
1D
100
AcDbEntity
  8
0
100
AcDbLine
 10
158.19874
 20
59.8165
 30
0.0
 11
158.562801517118
 21
59.813071468336
 31
0.0
  0
LINE
  5
17A2
330
1D
100
AcDbEntity
  8
0
100
AcDbLine
 10
159.69864
 20
59.802328571429
 30
0.0
 11
160.69864
 21
59.7929
 31
0.0
  0
LINE
  5
17A3
330
1D
100
AcDbEntity
  8
0
100
AcDbLine
 10
160.09864
 20
59.7985
 30
0.0
 11
160.39864
 21
59.7957
 31
0.0
  0
LINE
  5
17A4
330
1D
100
AcDbEntity
  8
0
100
AcDbLine
 10
161.89854
 20
59.7815
 30
0.0
 11
164.16364
 21
87.7613
 31
0.0
  0
LINE
  5
17A5
330
1D
100
AcDbEntity
  8
0
100
AcDbLine
 10
154.32314
 20
9.6225
 30
0.0
 11
156.11634
 21
8.8935
 31
0.0
  0
LINE
  5
17A6
330
1D
100
AcDbEntity
  8
0
100
AcDbLine
 10
156.11634
 20
8.8935
 30
0.0
 11
157.70634
 21
7.8285
 31
0.0
  0
LINE
  5
17A7
330
1D
100
AcDbEntity
  8
0
100
AcDbLine
 10
157.70634
 20
7.8285
 30
0.0
 11
158.89494
 21
6.6185
 31
0.0
  0
LINE
  5
17A8
330
1D
100
AcDbEntity
  8
0
100
AcDbLine
 10
158.89494
 20
6.6185
 30
0.0
 11
159.58354
 21
5.4125
 31
0.0
  0
LINE
  5
17A9
330
1D
100
AcDbEntity
  8
0
100
AcDbLine
 10
159.87074
 20
4.0595
 30
0.0
 11
160.39864
 21
59.7957
 31
0.0
  0
LINE
  5
17AA
330
1D
100
AcDbEntity
  8
0
100
AcDbLine
 10
159.58354
 20
5.4125
 30
0.0
 11
159.87074
 21
4.0595
 31
0.0
  0
LINE
  5
17AB
330
1D
100
AcDbEntity
  8
0
100
AcDbLine
 10
159.55194
 20
2.0765
 30
0.0
 11
159.87074
 21
4.0595
 31
0.0
  0
LINE
  5
17AC
330
1D
100
AcDbEntity
  8
0
100
AcDbLine
 10
157.63504
 20
0.2955
 30
0.0
 11
158.84134
 21
0.9585
 31
0.0
  0
LINE
  5
17AD
330
1D
100
AcDbEntity
  8
0
100
AcDbLine
 10
158.84134
 20
0.9585
 30
0.0
 11
159.55194
 21
2.0765
 31
0.0
  0
LINE
  5
17AE
330
1D
100
AcDbEntity
  8
0
100
AcDbLine
 10
154.23094
 20
-0.1225
 30
0.0
 11
156.03154
 21
-0.0645
 31
0.0
  0
LINE
  5
17AF
330
1D
100
AcDbEntity
  8
0
100
AcDbLine
 10
156.03154
 20
-0.0645
 30
0.0
 11
157.63504
 21
0.2955
 31
0.0
  0
LINE
  5
17B0
330
1D
100
AcDbEntity
  8
0
100
AcDbLine
 10
150.59904
 20
59.8885
 30
0.0
 11
152.89894
 21
59.8667
 31
0.0
  0
LINE
  5
17B1
330
1D
100
AcDbEntity
  8
0
100
AcDbLine
 10
150.58324
 20
89.89
 30
0.0
 11
153.18304
 21
89.8654
 31
0.0
  0
LINE
  5
17B2
330
1D
100
AcDbEntity
  8
0
100
AcDbLine
 10
150.52334
 20
9.6585
 30
0.0
 11
152.42544
 21
9.8685
 31
0.0
  0
LINE
  5
17B3
330
1D
100
AcDbEntity
  8
0
100
AcDbLine
 10
150.99904
 20
59.8847
 30
0.0
 11
152.89894
 21
59.8667
 31
0.0
  0
LINE
  5
17B4
330
1D
100
AcDbEntity
  8
0
100
AcDbLine
 10
150.608700240613
 20
59.888408433738
 30
0.0
 11
150.99904
 21
59.8847
 31
0.0
  0
LINE
  5
17B5
330
1D
100
AcDbEntity
  8
0
100
AcDbLine
 10
152.42544
 20
9.8685
 30
0.0
 11
154.32314
 21
9.6225
 31
0.0
  0
LINE
  5
17B6
330
1D
100
AcDbEntity
  8
0
100
AcDbLine
 10
152.33074
 20
-0.1305
 30
0.0
 11
154.23094
 21
-0.1225
 31
0.0
  0
LINE
  5
17B7
330
1D
100
AcDbEntity
  8
0
100
AcDbLine
 10
148.39914
 20
59.9093
 30
0.0
 11
150.59904
 21
59.8885
 31
0.0
  0
LINE
  5
17B8
330
1D
100
AcDbEntity
  8
0
100
AcDbLine
 10
150.43104
 20
-0.0865
 30
0.0
 11
152.33074
 21
-0.1305
 31
0.0
  0
LINE
  5
17B9
330
1D
100
AcDbEntity
  8
0
100
AcDbLine
 10
148.63184
 20
0.0055
 30
0.0
 11
150.43104
 21
-0.0865
 31
0.0
  0
LINE
  5
17BA
330
1D
100
AcDbEntity
  8
0
100
AcDbLine
 10
148.71674
 20
8.9635
 30
0.0
 11
150.52334
 21
9.6585
 31
0.0
  0
LINE
  5
17BB
330
1D
100
AcDbEntity
  8
0
100
AcDbLine
 10
148.18334
 20
89.9127
 30
0.0
 11
150.58324
 21
89.89
 31
0.0
  0
LINE
  5
17BC
330
1D
100
AcDbEntity
  8
0
100
AcDbLine
 10
83.68954
 20
153.1305
 30
0.0
 11
84.17854
 21
153.1305
 31
0.0
  0
LINE
  5
17BD
330
1D
100
AcDbEntity
  8
0
100
AcDbLine
 10
83.19054
 20
151.1305
 30
0.0
 11
83.68954
 21
153.1305
 31
0.0
  0
LINE
  5
17BE
330
1D
100
AcDbEntity
  8
0
100
AcDbLine
 10
83.19054
 20
151.1305
 30
0.0
 11
83.68954
 21
153.1305
 31
0.0
  0
LINE
  5
17BF
330
1D
100
AcDbEntity
  8
0
100
AcDbLine
 10
147.03544
 20
0.3955
 30
0.0
 11
148.63184
 21
0.0055
 31
0.0
  0
LINE
  5
17C0
330
1D
100
AcDbEntity
  8
0
100
AcDbLine
 10
147.10684
 20
7.9295
 30
0.0
 11
148.71674
 21
8.9635
 31
0.0
  0
LINE
  5
17C1
330
1D
100
AcDbEntity
  8
0
100
AcDbLine
 10
145.09934
 20
59.9406
 30
0.0
 11
146.49924
 21
59.9273
 31
0.0
  0
LINE
  5
17C2
330
1D
100
AcDbEntity
  8
0
100
AcDbLine
 10
145.09934
 20
59.9406
 30
0.0
 11
145.399339524537
 21
59.937749800931
 31
0.0
  0
LINE
  5
17C3
330
1D
100
AcDbEntity
  8
0
100
AcDbLine
 10
146.49924
 20
59.9273
 30
0.0
 11
148.39914
 21
59.9093
 31
0.0
  0
LINE
  5
17C4
330
1D
100
AcDbEntity
  8
0
100
AcDbLine
 10
146.08344
 20
89.9326
 30
0.0
 11
148.18334
 21
89.9127
 31
0.0
  0
LINE
  5
17C5
330
1D
100
AcDbEntity
  8
0
100
AcDbLine
 10
145.84194
 20
1.0815
 30
0.0
 11
147.03544
 21
0.3955
 31
0.0
  0
LINE
  5
17C6
330
1D
100
AcDbEntity
  8
0
100
AcDbLine
 10
145.89554
 20
6.7415
 30
0.0
 11
147.10684
 21
7.9295
 31
0.0
  0
LINE
  5
17C7
330
1D
100
AcDbEntity
  8
0
100
AcDbLine
 10
145.15264
 20
2.2125
 30
0.0
 11
145.84194
 21
1.0815
 31
0.0
  0
LINE
  5
17C8
330
1D
100
AcDbEntity
  8
0
100
AcDbLine
 10
145.18424
 20
5.5485
 30
0.0
 11
145.89554
 21
6.7415
 31
0.0
  0
LINE
  5
17C9
330
1D
100
AcDbEntity
  8
0
100
AcDbLine
 10
144.87144
 20
4.2025
 30
0.0
 11
145.18424
 21
5.5485
 31
0.0
  0
LINE
  5
17CA
330
1D
100
AcDbEntity
  8
0
100
AcDbLine
 10
144.87144
 20
4.2025
 30
0.0
 11
145.399339524537
 21
59.937749800931
 31
0.0
  0
LINE
  5
17CB
330
1D
100
AcDbEntity
  8
0
100
AcDbLine
 10
144.87144
 20
4.2025
 30
0.0
 11
145.15264
 21
2.2125
 31
0.0
  0
LINE
  5
17CC
330
1D
100
AcDbEntity
  8
0
100
AcDbLine
 10
144.19934
 20
59.9491
 30
0.0
 11
145.09934
 21
59.9406
 31
0.0
  0
LINE
  5
17CD
330
1D
100
AcDbEntity
  8
0
100
AcDbLine
 10
142.16464
 20
87.9696
 30
0.0
 11
143.18354
 21
89.9601
 31
0.0
  0
LINE
  5
17CE
330
1D
100
AcDbEntity
  8
0
100
AcDbLine
 10
142.16464
 20
87.9696
 30
0.0
 11
143.89934
 21
59.952
 31
0.0
  0
LINE
  5
17CF
330
1D
100
AcDbEntity
  8
0
100
AcDbLine
 10
143.58354
 20
89.9563
 30
0.0
 11
144.48344
 21
89.9478
 31
0.0
  0
LINE
  5
17D0
330
1D
100
AcDbEntity
  8
0
100
AcDbLine
 10
143.58354
 20
89.9563
 30
0.0
 11
144.31774
 21
89.949365118347
 31
0.0
  0
LINE
  5
17D1
330
1D
100
AcDbEntity
  8
0
100
AcDbLine
 10
143.18354
 20
89.9601
 30
0.0
 11
143.58354
 21
89.9563
 31
0.0
  0
LINE
  5
17D2
330
1D
100
AcDbEntity
  8
0
100
AcDbLine
 10
144.31774
 20
91.135470525381
 30
0.0
 11
144.31774
 21
89.949365118347
 31
0.0
  0
LINE
  5
17D3
330
1D
100
AcDbEntity
  8
0
100
AcDbLine
 10
143.89934
 20
59.952
 30
0.0
 11
144.19934
 21
59.9491
 31
0.0
  0
LINE
  5
17D4
330
1D
100
AcDbEntity
  8
0
100
AcDbLine
 10
144.48344
 20
89.9478
 30
0.0
 11
146.08344
 21
89.9326
 31
0.0
  0
LINE
  5
17D5
330
1D
100
AcDbEntity
  8
0
100
AcDbLine
 10
144.31774
 20
89.949365118347
 30
0.0
 11
144.31774
 21
91.135470525381
 31
0.0
  0
LINE
  5
1E4D
330
1D
100
AcDbEntity
  8
0
100
AcDbLine
 10
166.19054
 20
245.515115
 30
0.0
 11
166.58654
 21
245.515115
 31
0.0
  0
LINE
  5
1E4E
330
1D
100
AcDbEntity
  8
0
100
AcDbLine
 10
166.19054
 20
245.515115
 30
0.0
 11
166.45454
 21
245.1305
 31
0.0
  0
LINE
  5
1E4F
330
1D
100
AcDbEntity
  8
0
100
AcDbLine
 10
166.19054
 20
245.515115
 30
0.0
 11
166.19054
 21
314.7459
 31
0.0
  0
LINE
  5
1E50
330
1D
100
AcDbEntity
  8
0
100
AcDbLine
 10
166.19054
 20
245.515115
 30
0.0
 11
166.45454
 21
245.1305
 31
0.0
  0
LINE
  5
1E51
330
1D
100
AcDbEntity
  8
0
100
AcDbLine
 10
166.19054
 20
314.7459
 30
0.0
 11
166.58654
 21
314.7459
 31
0.0
  0
LINE
  5
1E52
330
1D
100
AcDbEntity
  8
0
100
AcDbLine
 10
166.19054
 20
314.7459
 30
0.0
 11
166.45454
 21
315.1305
 31
0.0
  0
LINE
  5
1E53
330
1D
100
AcDbEntity
  8
0
100
AcDbLine
 10
166.19054
 20
314.7459
 30
0.0
 11
166.19054
 21
245.515115
 31
0.0
  0
LINE
  5
1E54
330
1D
100
AcDbEntity
  8
0
100
AcDbLine
 10
165.62254
 20
345.1305
 30
0.0
 11
166.77454
 21
345.1305
 31
0.0
  0
LINE
  5
1E55
330
1D
100
AcDbEntity
  8
0
100
AcDbLine
 10
165.62254
 20
345.1305
 30
0.0
 11
166.19054
 21
345.1305
 31
0.0
  0
LINE
  5
1E56
330
1D
100
AcDbEntity
  8
0
100
AcDbLine
 10
165.19054
 20
345.1305
 30
0.0
 11
165.62254
 21
345.1305
 31
0.0
  0
LINE
  5
1E57
330
1D
100
AcDbEntity
  8
0
100
AcDbLine
 10
166.19054
 20
315.7305
 30
0.0
 11
166.45454
 21
315.1305
 31
0.0
  0
LINE
  5
1E58
330
1D
100
AcDbEntity
  8
0
100
AcDbLine
 10
166.19054
 20
315.7305
 30
0.0
 11
166.19054
 21
345.1305
 31
0.0
  0
LINE
  5
1E59
330
1D
100
AcDbEntity
  8
0
100
AcDbLine
 10
166.45454
 20
245.1305
 30
0.0
 11
166.85054
 21
245.1305
 31
0.0
  0
LINE
  5
1E5A
330
1D
100
AcDbEntity
  8
0
100
AcDbLine
 10
166.58654
 20
245.515115
 30
0.0
 11
167.64254
 21
245.515115
 31
0.0
  0
LINE
  5
1E5B
330
1D
100
AcDbEntity
  8
0
100
AcDbLine
 10
166.85054
 20
245.1305
 30
0.0
 11
167.90654
 21
245.1305
 31
0.0
  0
LINE
  5
1E5C
330
1D
100
AcDbEntity
  8
0
100
AcDbLine
 10
166.58654
 20
314.7459
 30
0.0
 11
167.64254
 21
314.7459
 31
0.0
  0
LINE
  5
1E5D
330
1D
100
AcDbEntity
  8
0
100
AcDbLine
 10
166.45454
 20
315.1305
 30
0.0
 11
166.85054
 21
315.1305
 31
0.0
  0
LINE
  5
1E5E
330
1D
100
AcDbEntity
  8
0
100
AcDbLine
 10
167.90654
 20
245.1305
 30
0.0
 11
169.62254
 21
245.1305
 31
0.0
  0
LINE
  5
1E5F
330
1D
100
AcDbEntity
  8
0
100
AcDbLine
 10
167.64254
 20
245.515115
 30
0.0
 11
169.40254
 21
245.515115
 31
0.0
  0
LINE
  5
1E60
330
1D
100
AcDbEntity
  8
0
100
AcDbLine
 10
167.64254
 20
314.7459
 30
0.0
 11
169.40254
 21
314.7459
 31
0.0
  0
LINE
  5
1E61
330
1D
100
AcDbEntity
  8
0
100
AcDbLine
 10
166.85054
 20
315.1305
 30
0.0
 11
167.90654
 21
315.1305
 31
0.0
  0
LINE
  5
1E62
330
1D
100
AcDbEntity
  8
0
100
AcDbLine
 10
168.69454
 20
345.1305
 30
0.0
 11
171.23854
 21
345.1305
 31
0.0
  0
LINE
  5
1E63
330
1D
100
AcDbEntity
  8
0
100
AcDbLine
 10
166.77454
 20
345.1305
 30
0.0
 11
168.69454
 21
345.1305
 31
0.0
  0
LINE
  5
1E64
330
1D
100
AcDbEntity
  8
0
100
AcDbLine
 10
167.90654
 20
315.1305
 30
0.0
 11
169.62254
 21
315.1305
 31
0.0
  0
LINE
  5
1E65
330
1D
100
AcDbEntity
  8
0
100
AcDbLine
 10
166.19054
 20
345.1305
 30
0.0
 11
166.19054
 21
315.7305
 31
0.0
  0
LINE
  5
1E66
330
1D
100
AcDbEntity
  8
0
100
AcDbLine
 10
167.27854
 20
345.1305
 30
0.0
 11
170.24654
 21
345.1305
 31
0.0
  0
LINE
  5
1E67
330
1D
100
AcDbEntity
  8
0
100
AcDbLine
 10
169.40254
 20
245.515115
 30
0.0
 11
171.73454
 21
245.515115
 31
0.0
  0
LINE
  5
1E68
330
1D
100
AcDbEntity
  8
0
100
AcDbLine
 10
169.62254
 20
245.1305
 30
0.0
 11
171.86654
 21
245.1305
 31
0.0
  0
LINE
  5
1E69
330
1D
100
AcDbEntity
  8
0
100
AcDbLine
 10
169.40254
 20
314.7459
 30
0.0
 11
171.73454
 21
314.7459
 31
0.0
  0
LINE
  5
1E6A
330
1D
100
AcDbEntity
  8
0
100
AcDbLine
 10
169.62254
 20
315.1305
 30
0.0
 11
171.86654
 21
315.1305
 31
0.0
  0
LINE
  5
1E6B
330
1D
100
AcDbEntity
  8
0
100
AcDbLine
 10
171.86654
 20
245.1305
 30
0.0
 11
174.41854
 21
245.1305
 31
0.0
  0
LINE
  5
1E6C
330
1D
100
AcDbEntity
  8
0
100
AcDbLine
 10
171.73454
 20
245.515115
 30
0.0
 11
174.37454
 21
245.515115
 31
0.0
  0
LINE
  5
1E6D
330
1D
100
AcDbEntity
  8
0
100
AcDbLine
 10
174.37454
 20
245.515115
 30
0.0
 11
177.19054
 21
245.515115
 31
0.0
  0
LINE
  5
1E6E
330
1D
100
AcDbEntity
  8
0
100
AcDbLine
 10
171.73454
 20
314.7459
 30
0.0
 11
174.37454
 21
314.7459
 31
0.0
  0
LINE
  5
1E6F
330
1D
100
AcDbEntity
  8
0
100
AcDbLine
 10
174.41854
 20
245.1305
 30
0.0
 11
177.19054
 21
245.1305
 31
0.0
  0
LINE
  5
1E70
330
1D
100
AcDbEntity
  8
0
100
AcDbLine
 10
174.37454
 20
314.7459
 30
0.0
 11
177.19054
 21
314.7459
 31
0.0
  0
LINE
  5
1E71
330
1D
100
AcDbEntity
  8
0
100
AcDbLine
 10
174.11854
 20
345.1305
 30
0.0
 11
177.19054
 21
345.1305
 31
0.0
  0
LINE
  5
1E72
330
1D
100
AcDbEntity
  8
0
100
AcDbLine
 10
171.23854
 20
345.1305
 30
0.0
 11
174.11854
 21
345.1305
 31
0.0
  0
LINE
  5
1E73
330
1D
100
AcDbEntity
  8
0
100
AcDbLine
 10
171.86654
 20
315.1305
 30
0.0
 11
174.41854
 21
315.1305
 31
0.0
  0
LINE
  5
1E74
330
1D
100
AcDbEntity
  8
0
100
AcDbLine
 10
177.19054
 20
245.1305
 30
0.0
 11
179.96254
 21
245.1305
 31
0.0
  0
LINE
  5
1E75
330
1D
100
AcDbEntity
  8
0
100
AcDbLine
 10
177.19054
 20
245.515115
 30
0.0
 11
180.00654
 21
245.515115
 31
0.0
  0
LINE
  5
1E76
330
1D
100
AcDbEntity
  8
0
100
AcDbLine
 10
179.96254
 20
245.1305
 30
0.0
 11
182.51454
 21
245.1305
 31
0.0
  0
LINE
  5
1E77
330
1D
100
AcDbEntity
  8
0
100
AcDbLine
 10
180.00654
 20
245.515115
 30
0.0
 11
182.64654
 21
245.515115
 31
0.0
  0
LINE
  5
1E78
330
1D
100
AcDbEntity
  8
0
100
AcDbLine
 10
179.96254
 20
315.1305
 30
0.0
 11
201.992434739518
 21
315.1305
 31
0.0
  0
LINE
  5
1E79
330
1D
100
AcDbEntity
  8
0
100
AcDbLine
 10
180.00654
 20
314.7459
 30
0.0
 11
182.64654
 21
314.7459
 31
0.0
  0
LINE
  5
1E7A
330
1D
100
AcDbEntity
  8
0
100
AcDbLine
 10
177.19054
 20
314.7459
 30
0.0
 11
180.00654
 21
314.7459
 31
0.0
  0
LINE
  5
1E7B
330
1D
100
AcDbEntity
  8
0
100
AcDbLine
 10
180.26254
 20
345.1305
 30
0.0
 11
183.14254
 21
345.1305
 31
0.0
  0
LINE
  5
1E7C
330
1D
100
AcDbEntity
  8
0
100
AcDbLine
 10
177.19054
 20
315.1305
 30
0.0
 11
179.96254
 21
315.1305
 31
0.0
  0
LINE
  5
1E7D
330
1D
100
AcDbEntity
  8
0
100
AcDbLine
 10
174.41854
 20
315.1305
 30
0.0
 11
177.19054
 21
315.1305
 31
0.0
  0
LINE
  5
1E7E
330
1D
100
AcDbEntity
  8
0
100
AcDbLine
 10
177.19054
 20
345.1305
 30
0.0
 11
181.28654
 21
345.1305
 31
0.0
  0
LINE
  5
1E7F
330
1D
100
AcDbEntity
  8
0
100
AcDbLine
 10
177.19054
 20
345.1305
 30
0.0
 11
180.77454
 21
345.1305
 31
0.0
  0
LINE
  5
1E80
330
1D
100
AcDbEntity
  8
0
100
AcDbLine
 10
177.19054
 20
345.1305
 30
0.0
 11
180.26254
 21
345.1305
 31
0.0
  0
LINE
  5
1E81
330
1D
100
AcDbEntity
  8
0
100
AcDbLine
 10
182.51454
 20
245.1305
 30
0.0
 11
184.75854
 21
245.1305
 31
0.0
  0
LINE
  5
1E82
330
1D
100
AcDbEntity
  8
0
100
AcDbLine
 10
183.14254
 20
345.1305
 30
0.0
 11
185.68654
 21
345.1305
 31
0.0
  0
LINE
  5
1E83
330
1D
100
AcDbEntity
  8
0
100
AcDbLine
 10
181.707873532474
 20
270.1305
 30
0.0
 11
202.027096259239
 21
270.1305
 31
0.0
  0
LINE
  5
1E84
330
1D
100
AcDbEntity
  8
0
100
AcDbLine
 10
181.707873532474
 20
270.1305
 30
0.0
 11
202.027096259239
 21
270.1305
 31
0.0
  0
LINE
  5
1E85
330
1D
100
AcDbEntity
  8
0
100
AcDbLine
 10
182.64654
 20
245.515115
 30
0.0
 11
184.97854
 21
245.515115
 31
0.0
  0
LINE
  5
1E86
330
1D
100
AcDbEntity
  8
0
100
AcDbLine
 10
180.77454
 20
345.1305
 30
0.0
 11
184.13454
 21
345.1305
 31
0.0
  0
LINE
  5
1E87
330
1D
100
AcDbEntity
  8
0
100
AcDbLine
 10
181.28654
 20
345.1305
 30
0.0
 11
185.12654
 21
345.1305
 31
0.0
  0
LINE
  5
1E88
330
1D
100
AcDbEntity
  8
0
100
AcDbLine
 10
186.47454
 20
245.1305
 30
0.0
 11
187.53054
 21
245.1305
 31
0.0
  0
LINE
  5
1E89
330
1D
100
AcDbEntity
  8
0
100
AcDbLine
 10
184.75854
 20
245.1305
 30
0.0
 11
186.47454
 21
245.1305
 31
0.0
  0
LINE
  5
1E8A
330
1D
100
AcDbEntity
  8
0
100
AcDbLine
 10
186.73854
 20
245.515115
 30
0.0
 11
187.79454
 21
245.515115
 31
0.0
  0
LINE
  5
1E8B
330
1D
100
AcDbEntity
  8
0
100
AcDbLine
 10
185.68654
 20
345.1305
 30
0.0
 11
187.60654
 21
345.1305
 31
0.0
  0
LINE
  5
1E8C
330
1D
100
AcDbEntity
  8
0
100
AcDbLine
 10
184.97854
 20
245.515115
 30
0.0
 11
186.73854
 21
245.515115
 31
0.0
  0
LINE
  5
1E8D
330
1D
100
AcDbEntity
  8
0
100
AcDbLine
 10
184.13454
 20
345.1305
 30
0.0
 11
187.10254
 21
345.1305
 31
0.0
  0
LINE
  5
1E8E
330
1D
100
AcDbEntity
  8
0
100
AcDbLine
 10
185.12654
 20
345.1305
 30
0.0
 11
188.51854
 21
345.1305
 31
0.0
  0
LINE
  5
1E8F
330
1D
100
AcDbEntity
  8
0
100
AcDbLine
 10
187.92654
 20
245.1305
 30
0.0
 11
188.19054
 21
245.515115
 31
0.0
  0
LINE
  5
1E90
330
1D
100
AcDbEntity
  8
0
100
AcDbLine
 10
187.53054
 20
245.1305
 30
0.0
 11
187.92654
 21
245.1305
 31
0.0
  0
LINE
  5
1E91
330
1D
100
AcDbEntity
  8
0
100
AcDbLine
 10
187.92654
 20
245.1305
 30
0.0
 11
188.19054
 21
245.515115
 31
0.0
  0
LINE
  5
1E92
330
1D
100
AcDbEntity
  8
0
100
AcDbLine
 10
188.19054
 20
270.1305
 30
0.0
 11
188.19054
 21
245.515115
 31
0.0
  0
LINE
  5
1E93
330
1D
100
AcDbEntity
  8
0
100
AcDbLine
 10
187.79454
 20
245.515115
 30
0.0
 11
188.19054
 21
245.515115
 31
0.0
  0
LINE
  5
1E94
330
1D
100
AcDbEntity
  8
0
100
AcDbLine
 10
188.19054
 20
245.515115
 30
0.0
 11
188.19054
 21
270.1305
 31
0.0
  0
LINE
  5
1E95
330
1D
100
AcDbEntity
  8
0
100
AcDbLine
 10
187.60654
 20
345.1305
 30
0.0
 11
188.75854
 21
345.1305
 31
0.0
  0
LINE
  5
1E96
330
1D
100
AcDbEntity
  8
0
100
AcDbLine
 10
188.19054
 20
315.7305
 30
0.0
 11
188.19054
 21
345.1305
 31
0.0
  0
LINE
  5
1E97
330
1D
100
AcDbEntity
  8
0
100
AcDbLine
 10
187.92654
 20
315.1305
 30
0.0
 11
188.19054
 21
315.7305
 31
0.0
  0
LINE
  5
1E98
330
1D
100
AcDbEntity
  8
0
100
AcDbLine
 10
187.10254
 20
345.1305
 30
0.0
 11
189.34254
 21
345.1305
 31
0.0
  0
LINE
  5
1E99
330
1D
100
AcDbEntity
  8
0
100
AcDbLine
 10
173.60654
 20
345.1305
 30
0.0
 11
177.19054
 21
345.1305
 31
0.0
  0
LINE
  5
1E9A
330
1D
100
AcDbEntity
  8
0
100
AcDbLine
 10
170.24654
 20
345.1305
 30
0.0
 11
173.60654
 21
345.1305
 31
0.0
  0
LINE
  5
1E9B
330
1D
100
AcDbEntity
  8
0
100
AcDbLine
 10
173.09454
 20
345.1305
 30
0.0
 11
177.19054
 21
345.1305
 31
0.0
  0
LINE
  5
1E9C
330
1D
100
AcDbEntity
  8
0
100
AcDbLine
 10
169.25454
 20
345.1305
 30
0.0
 11
173.09454
 21
345.1305
 31
0.0
  0
LINE
  5
1E9D
330
1D
100
AcDbEntity
  8
0
100
AcDbLine
 10
165.86254
 20
345.1305
 30
0.0
 11
166.19054
 21
345.1305
 31
0.0
  0
LINE
  5
1E9E
330
1D
100
AcDbEntity
  8
0
100
AcDbLine
 10
165.86254
 20
345.1305
 30
0.0
 11
169.25454
 21
345.1305
 31
0.0
  0
LINE
  5
1E9F
330
1D
100
AcDbEntity
  8
0
100
AcDbLine
 10
163.30254
 20
345.1305
 30
0.0
 11
165.86254
 21
345.1305
 31
0.0
  0
LINE
  5
1EA0
330
1D
100
AcDbEntity
  8
0
100
AcDbLine
 10
165.03854
 20
345.1305
 30
0.0
 11
166.19054
 21
345.1305
 31
0.0
  0
LINE
  5
1EA1
330
1D
100
AcDbEntity
  8
0
100
AcDbLine
 10
165.03854
 20
345.1305
 30
0.0
 11
167.27854
 21
345.1305
 31
0.0
  0
LINE
  5
1EA2
330
1D
100
AcDbEntity
  8
0
100
AcDbLine
 10
161.76654
 20
345.1305
 30
0.0
 11
163.30254
 21
345.1305
 31
0.0
  0
LINE
  5
1EA3
330
1D
100
AcDbEntity
  8
0
100
AcDbLine
 10
163.69454
 20
345.1305
 30
0.0
 11
165.03854
 21
345.1305
 31
0.0
  0
LINE
  5
1EA4
330
1D
100
AcDbEntity
  8
0
100
AcDbLine
 10
161.19054
 20
345.1305
 30
0.0
 11
161.76654
 21
345.1305
 31
0.0
  0
LINE
  5
1EA5
330
1D
100
AcDbEntity
  8
0
100
AcDbLine
 10
161.19054
 20
345.1305
 30
0.0
 11
161.19054
 21
357.1305
 31
0.0
  0
LINE
  5
1EA6
330
1D
100
AcDbEntity
  8
0
100
AcDbLine
 10
163.19054
 20
345.1305
 30
0.0
 11
163.69454
 21
345.1305
 31
0.0
  0
LINE
  5
1EA7
330
1D
100
AcDbEntity
  8
0
100
AcDbLine
 10
163.19054
 20
345.1305
 30
0.0
 11
165.19054
 21
345.1305
 31
0.0
  0
LINE
  5
1EA8
330
1D
100
AcDbEntity
  8
0
100
AcDbLine
 10
189.19054
 20
345.1305
 30
0.0
 11
191.19054
 21
345.1305
 31
0.0
  0
LINE
  5
1EA9
330
1D
100
AcDbEntity
  8
0
100
AcDbLine
 10
188.75854
 20
345.1305
 30
0.0
 11
189.19054
 21
345.1305
 31
0.0
  0
LINE
  5
1EAA
330
1D
100
AcDbEntity
  8
0
100
AcDbLine
 10
189.34254
 20
345.1305
 30
0.0
 11
190.68654
 21
345.1305
 31
0.0
  0
LINE
  5
1EAB
330
1D
100
AcDbEntity
  8
0
100
AcDbLine
 10
190.68654
 20
345.1305
 30
0.0
 11
191.19054
 21
345.1305
 31
0.0
  0
LINE
  5
1EAC
330
1D
100
AcDbEntity
  8
0
100
AcDbLine
 10
188.19054
 20
345.1305
 30
0.0
 11
188.51854
 21
345.1305
 31
0.0
  0
LINE
  5
1EAD
330
1D
100
AcDbEntity
  8
0
100
AcDbLine
 10
188.19054
 20
345.1305
 30
0.0
 11
189.34254
 21
345.1305
 31
0.0
  0
LINE
  5
1EAE
330
1D
100
AcDbEntity
  8
0
100
AcDbLine
 10
188.19054
 20
345.1305
 30
0.0
 11
188.19054
 21
315.7305
 31
0.0
  0
LINE
  5
1EAF
330
1D
100
AcDbEntity
  8
0
100
AcDbLine
 10
188.19054
 20
345.1305
 30
0.0
 11
188.75854
 21
345.1305
 31
0.0
  0
LINE
  5
1EB0
330
1D
100
AcDbEntity
  8
0
100
AcDbLine
 10
188.51854
 20
345.1305
 30
0.0
 11
191.07854
 21
345.1305
 31
0.0
  0
LINE
  5
1EB1
330
1D
100
AcDbEntity
  8
0
100
AcDbLine
 10
191.07854
 20
345.1305
 30
0.0
 11
192.61454
 21
345.1305
 31
0.0
  0
LINE
  5
1EB2
330
1D
100
AcDbEntity
  8
0
100
AcDbLine
 10
131.19054
 20
357.1305
 30
0.0
 11
139.29054
 21
357.1305
 31
0.0
  0
LINE
  5
1EB3
330
1D
100
AcDbEntity
  8
0
100
AcDbLine
 10
139.29054
 20
357.1305
 30
0.0
 11
147.19054
 21
357.1305
 31
0.0
  0
LINE
  5
1EB4
330
1D
100
AcDbEntity
  8
0
100
AcDbLine
 10
147.19054
 20
357.1305
 30
0.0
 11
154.89054
 21
357.1305
 31
0.0
  0
LINE
  5
1EB5
330
1D
100
AcDbEntity
  8
0
100
AcDbLine
 10
154.89054
 20
357.1305
 30
0.0
 11
162.09054
 21
357.1305
 31
0.0
  0
LINE
  5
1EB6
330
1D
100
AcDbEntity
  8
0
100
AcDbLine
 10
123.09054
 20
357.1305
 30
0.0
 11
131.19054
 21
357.1305
 31
0.0
  0
LINE
  5
1EB7
330
1D
100
AcDbEntity
  8
0
100
AcDbLine
 10
115.19054
 20
357.1305
 30
0.0
 11
123.09054
 21
357.1305
 31
0.0
  0
LINE
  5
1EB8
330
1D
100
AcDbEntity
  8
0
100
AcDbLine
 10
107.49054
 20
357.1305
 30
0.0
 11
115.19054
 21
357.1305
 31
0.0
  0
LINE
  5
1EB9
330
1D
100
AcDbEntity
  8
0
100
AcDbLine
 10
100.29054
 20
357.1305
 30
0.0
 11
107.49054
 21
357.1305
 31
0.0
  0
LINE
  5
1EBA
330
1D
100
AcDbEntity
  8
0
100
AcDbLine
 10
93.49054
 20
357.1305
 30
0.0
 11
100.29054
 21
357.1305
 31
0.0
  0
LINE
  5
1EBB
330
1D
100
AcDbEntity
  8
0
100
AcDbLine
 10
87.39054
 20
357.1305
 30
0.0
 11
93.49054
 21
357.1305
 31
0.0
  0
LINE
  5
1EBC
330
1D
100
AcDbEntity
  8
0
100
AcDbLine
 10
82.09054
 20
357.1305
 30
0.0
 11
87.39054
 21
357.1305
 31
0.0
  0
LINE
  5
1EBD
330
1D
100
AcDbEntity
  8
0
100
AcDbLine
 10
77.49054
 20
357.1305
 30
0.0
 11
82.09054
 21
357.1305
 31
0.0
  0
LINE
  5
1EBE
330
1D
100
AcDbEntity
  8
0
100
AcDbLine
 10
73.99054
 20
357.1305
 30
0.0
 11
77.49054
 21
357.1305
 31
0.0
  0
LINE
  5
1EBF
330
1D
100
AcDbEntity
  8
0
100
AcDbLine
 10
71.39054
 20
357.1305
 30
0.0
 11
73.99054
 21
357.1305
 31
0.0
  0
LINE
  5
1EC0
330
1D
100
AcDbEntity
  8
0
100
AcDbLine
 10
69.79054
 20
357.1305
 30
0.0
 11
71.39054
 21
357.1305
 31
0.0
  0
LINE
  5
1EC1
330
1D
100
AcDbEntity
  8
0
100
AcDbLine
 10
80.89054
 20
357.6305
 30
0.0
 11
86.39054
 21
357.6305
 31
0.0
  0
LINE
  5
1EC2
330
1D
100
AcDbEntity
  8
0
100
AcDbLine
 10
76.19054
 20
357.6305
 30
0.0
 11
80.89054
 21
357.6305
 31
0.0
  0
LINE
  5
1EC3
330
1D
100
AcDbEntity
  8
0
100
AcDbLine
 10
72.69054
 20
357.6305
 30
0.0
 11
76.19054
 21
357.6305
 31
0.0
  0
LINE
  5
1EC4
330
1D
100
AcDbEntity
  8
0
100
AcDbLine
 10
69.99054
 20
357.6305
 30
0.0
 11
72.69054
 21
357.6305
 31
0.0
  0
LINE
  5
1EC5
330
1D
100
AcDbEntity
  8
0
100
AcDbLine
 10
68.29054
 20
357.6305
 30
0.0
 11
69.99054
 21
357.6305
 31
0.0
  0
LINE
  5
1EC6
330
1D
100
AcDbEntity
  8
0
100
AcDbLine
 10
86.39054
 20
357.6305
 30
0.0
 11
92.59054
 21
357.6305
 31
0.0
  0
LINE
  5
1EC7
330
1D
100
AcDbEntity
  8
0
100
AcDbLine
 10
92.59054
 20
357.6305
 30
0.0
 11
99.29054
 21
357.6305
 31
0.0
  0
LINE
  5
1EC8
330
1D
100
AcDbEntity
  8
0
100
AcDbLine
 10
99.29054
 20
357.6305
 30
0.0
 11
106.89054
 21
357.6305
 31
0.0
  0
LINE
  5
1EC9
330
1D
100
AcDbEntity
  8
0
100
AcDbLine
 10
106.89054
 20
357.6305
 30
0.0
 11
114.79054
 21
357.6305
 31
0.0
  0
LINE
  5
1ECA
330
1D
100
AcDbEntity
  8
0
100
AcDbLine
 10
114.79054
 20
357.6305
 30
0.0
 11
122.89054
 21
357.6305
 31
0.0
  0
LINE
  5
1ECB
330
1D
100
AcDbEntity
  8
0
100
AcDbLine
 10
155.49054
 20
357.6305
 30
0.0
 11
163.09054
 21
357.6305
 31
0.0
  0
LINE
  5
1ECC
330
1D
100
AcDbEntity
  8
0
100
AcDbLine
 10
147.59054
 20
357.6305
 30
0.0
 11
155.49054
 21
357.6305
 31
0.0
  0
LINE
  5
1ECD
330
1D
100
AcDbEntity
  8
0
100
AcDbLine
 10
139.49054
 20
357.6305
 30
0.0
 11
147.59054
 21
357.6305
 31
0.0
  0
LINE
  5
1ECE
330
1D
100
AcDbEntity
  8
0
100
AcDbLine
 10
131.19054
 20
357.6305
 30
0.0
 11
139.49054
 21
357.6305
 31
0.0
  0
LINE
  5
1ECF
330
1D
100
AcDbEntity
  8
0
100
AcDbLine
 10
122.89054
 20
357.6305
 30
0.0
 11
131.19054
 21
357.6305
 31
0.0
  0
LINE
  5
1ED0
330
1D
100
AcDbEntity
  8
0
100
AcDbLine
 10
69.19054
 20
357.1305
 30
0.0
 11
69.79054
 21
357.1305
 31
0.0
  0
LINE
  5
1ED1
330
1D
100
AcDbEntity
  8
0
100
AcDbLine
 10
162.09054
 20
357.1305
 30
0.0
 11
168.89054
 21
357.1305
 31
0.0
  0
LINE
  5
1ED2
330
1D
100
AcDbEntity
  8
0
100
AcDbLine
 10
168.89054
 20
357.1305
 30
0.0
 11
174.99054
 21
357.1305
 31
0.0
  0
LINE
  5
1ED3
330
1D
100
AcDbEntity
  8
0
100
AcDbLine
 10
177.19054
 20
357.1305
 30
0.0
 11
181.28654
 21
357.1305
 31
0.0
  0
LINE
  5
1ED4
330
1D
100
AcDbEntity
  8
0
100
AcDbLine
 10
174.99054
 20
357.1305
 30
0.0
 11
180.29054
 21
357.1305
 31
0.0
  0
LINE
  5
1ED5
330
1D
100
AcDbEntity
  8
0
100
AcDbLine
 10
181.28654
 20
357.1305
 30
0.0
 11
185.12654
 21
357.1305
 31
0.0
  0
LINE
  5
1ED6
330
1D
100
AcDbEntity
  8
0
100
AcDbLine
 10
185.12654
 20
357.1305
 30
0.0
 11
188.51854
 21
357.1305
 31
0.0
  0
LINE
  5
1ED7
330
1D
100
AcDbEntity
  8
0
100
AcDbLine
 10
180.29054
 20
357.1305
 30
0.0
 11
184.89054
 21
357.1305
 31
0.0
  0
LINE
  5
1ED8
330
1D
100
AcDbEntity
  8
0
100
AcDbLine
 10
184.89054
 20
357.1305
 30
0.0
 11
188.39054
 21
357.1305
 31
0.0
  0
LINE
  5
1ED9
330
1D
100
AcDbEntity
  8
0
100
AcDbLine
 10
188.51854
 20
357.1305
 30
0.0
 11
191.07854
 21
357.1305
 31
0.0
  0
LINE
  5
1EDA
330
1D
100
AcDbEntity
  8
0
100
AcDbLine
 10
191.07854
 20
357.1305
 30
0.0
 11
192.61454
 21
357.1305
 31
0.0
  0
LINE
  5
1EDB
330
1D
100
AcDbEntity
  8
0
100
AcDbLine
 10
188.39054
 20
357.1305
 30
0.0
 11
190.99054
 21
357.1305
 31
0.0
  0
LINE
  5
1EDC
330
1D
100
AcDbEntity
  8
0
100
AcDbLine
 10
190.99054
 20
357.1305
 30
0.0
 11
192.59054
 21
357.1305
 31
0.0
  0
LINE
  5
1EDD
330
1D
100
AcDbEntity
  8
0
100
AcDbLine
 10
192.61454
 20
357.1305
 30
0.0
 11
193.19054
 21
357.1305
 31
0.0
  0
LINE
  5
1EDE
330
1D
100
AcDbEntity
  8
0
100
AcDbLine
 10
192.59054
 20
357.1305
 30
0.0
 11
193.19054
 21
357.1305
 31
0.0
  0
LINE
  5
1EDF
330
1D
100
AcDbEntity
  8
0
100
AcDbLine
 10
173.09454
 20
357.1305
 30
0.0
 11
177.19054
 21
357.1305
 31
0.0
  0
LINE
  5
1EE0
330
1D
100
AcDbEntity
  8
0
100
AcDbLine
 10
169.25454
 20
357.1305
 30
0.0
 11
173.09454
 21
357.1305
 31
0.0
  0
LINE
  5
1EE1
330
1D
100
AcDbEntity
  8
0
100
AcDbLine
 10
165.86254
 20
357.1305
 30
0.0
 11
169.25454
 21
357.1305
 31
0.0
  0
LINE
  5
1EE2
330
1D
100
AcDbEntity
  8
0
100
AcDbLine
 10
163.30254
 20
357.1305
 30
0.0
 11
165.86254
 21
357.1305
 31
0.0
  0
LINE
  5
1EE3
330
1D
100
AcDbEntity
  8
0
100
AcDbLine
 10
169.79054
 20
357.6305
 30
0.0
 11
175.99054
 21
357.6305
 31
0.0
  0
LINE
  5
1EE4
330
1D
100
AcDbEntity
  8
0
100
AcDbLine
 10
163.09054
 20
357.6305
 30
0.0
 11
169.79054
 21
357.6305
 31
0.0
  0
LINE
  5
1EE5
330
1D
100
AcDbEntity
  8
0
100
AcDbLine
 10
175.99054
 20
357.6305
 30
0.0
 11
181.49054
 21
357.6305
 31
0.0
  0
LINE
  5
1EE6
330
1D
100
AcDbEntity
  8
0
100
AcDbLine
 10
181.49054
 20
357.6305
 30
0.0
 11
186.19054
 21
357.6305
 31
0.0
  0
LINE
  5
1EE7
330
1D
100
AcDbEntity
  8
0
100
AcDbLine
 10
186.19054
 20
357.6305
 30
0.0
 11
189.69054
 21
357.6305
 31
0.0
  0
LINE
  5
1EE8
330
1D
100
AcDbEntity
  8
0
100
AcDbLine
 10
189.69054
 20
357.6305
 30
0.0
 11
192.39054
 21
357.6305
 31
0.0
  0
LINE
  5
1EE9
330
1D
100
AcDbEntity
  8
0
100
AcDbLine
 10
193.19054
 20
357.273357142857
 30
0.0
 11
193.19054
 21
357.1305
 31
0.0
  0
LINE
  5
1EEA
330
1D
100
AcDbEntity
  8
0
100
AcDbLine
 10
193.19054
 20
357.273357142857
 30
0.0
 11
193.19054
 21
345.1305
 31
0.0
  0
LINE
  5
1EEB
330
1D
100
AcDbEntity
  8
0
100
AcDbLine
 10
192.39054
 20
357.6305
 30
0.0
 11
194.09054
 21
357.6305
 31
0.0
  0
LINE
  5
1EEC
330
1D
100
AcDbEntity
  8
0
100
AcDbLine
 10
161.76654
 20
357.1305
 30
0.0
 11
163.30254
 21
357.1305
 31
0.0
  0
LINE
  5
1EED
330
1D
100
AcDbEntity
  8
0
100
AcDbLine
 10
161.19054
 20
357.1305
 30
0.0
 11
161.19054
 21
345.1305
 31
0.0
  0
LINE
  5
1EEE
330
1D
100
AcDbEntity
  8
0
100
AcDbLine
 10
161.19054
 20
357.1305
 30
0.0
 11
161.76654
 21
357.1305
 31
0.0
  0
LINE
  5
1EEF
330
1D
100
AcDbEntity
  8
0
100
AcDbLine
 10
192.61454
 20
345.1305
 30
0.0
 11
193.19054
 21
345.1305
 31
0.0
  0
LINE
  5
1EF0
330
1D
100
AcDbEntity
  8
0
100
AcDbLine
 10
193.19054
 20
345.1305
 30
0.0
 11
193.19054
 21
357.273357142857
 31
0.0
  0
LINE
  5
1EF1
330
1D
100
AcDbEntity
  8
0
100
AcDbLine
 10
66.19054
 20
383.1305
 30
0.0
 11
66.19054
 21
360.1305
 31
0.0
  0
LINE
  5
1EF2
330
1D
100
AcDbEntity
  8
0
100
AcDbLine
 10
66.19054
 20
383.1305
 30
0.0
 11
66.89054
 21
383.1305
 31
0.0
  0
LINE
  5
1EF3
330
1D
100
AcDbEntity
  8
0
100
AcDbLine
 10
66.19054
 20
360.1305
 30
0.0
 11
66.69054
 21
358.6305
 31
0.0
  0
LINE
  5
1EF4
330
1D
100
AcDbEntity
  8
0
100
AcDbLine
 10
66.19054
 20
360.1305
 30
0.0
 11
66.19054
 21
383.1305
 31
0.0
  0
LINE
  5
1EF5
330
1D
100
AcDbEntity
  8
0
100
AcDbLine
 10
79.69054
 20
383.1305
 30
0.0
 11
85.29054
 21
383.1305
 31
0.0
  0
LINE
  5
1EF6
330
1D
100
AcDbEntity
  8
0
100
AcDbLine
 10
74.89054
 20
383.1305
 30
0.0
 11
79.69054
 21
383.1305
 31
0.0
  0
LINE
  5
1EF7
330
1D
100
AcDbEntity
  8
0
100
AcDbLine
 10
71.29054
 20
383.1305
 30
0.0
 11
74.89054
 21
383.1305
 31
0.0
  0
LINE
  5
1EF8
330
1D
100
AcDbEntity
  8
0
100
AcDbLine
 10
68.49054
 20
383.1305
 30
0.0
 11
71.29054
 21
383.1305
 31
0.0
  0
LINE
  5
1EF9
330
1D
100
AcDbEntity
  8
0
100
AcDbLine
 10
66.89054
 20
383.1305
 30
0.0
 11
68.49054
 21
383.1305
 31
0.0
  0
LINE
  5
1EFA
330
1D
100
AcDbEntity
  8
0
100
AcDbLine
 10
85.29054
 20
383.1305
 30
0.0
 11
91.69054
 21
383.1305
 31
0.0
  0
LINE
  5
1EFB
330
1D
100
AcDbEntity
  8
0
100
AcDbLine
 10
91.69054
 20
383.1305
 30
0.0
 11
98.79054
 21
383.1305
 31
0.0
  0
LINE
  5
1EFC
330
1D
100
AcDbEntity
  8
0
100
AcDbLine
 10
98.79054
 20
383.1305
 30
0.0
 11
106.39054
 21
383.1305
 31
0.0
  0
LINE
  5
1EFD
330
1D
100
AcDbEntity
  8
0
100
AcDbLine
 10
106.39054
 20
383.1305
 30
0.0
 11
114.39054
 21
383.1305
 31
0.0
  0
LINE
  5
1EFE
330
1D
100
AcDbEntity
  8
0
100
AcDbLine
 10
166.19054
 20
383.1305
 30
0.0
 11
166.19054
 21
749.1305
 31
0.0
  0
LINE
  5
1EFF
330
1D
100
AcDbEntity
  8
0
100
AcDbLine
 10
166.19054
 20
383.1305
 30
0.0
 11
166.19054
 21
749.1305
 31
0.0
  0
LINE
  5
1F00
330
1D
100
AcDbEntity
  8
0
100
AcDbLine
 10
170.69054
 20
383.1305
 30
0.0
 11
177.09054
 21
383.1305
 31
0.0
  0
LINE
  5
1F01
330
1D
100
AcDbEntity
  8
0
100
AcDbLine
 10
163.59054
 20
383.1305
 30
0.0
 11
170.69054
 21
383.1305
 31
0.0
  0
LINE
  5
1F02
330
1D
100
AcDbEntity
  8
0
100
AcDbLine
 10
155.99054
 20
383.1305
 30
0.0
 11
163.59054
 21
383.1305
 31
0.0
  0
LINE
  5
1F03
330
1D
100
AcDbEntity
  8
0
100
AcDbLine
 10
147.99054
 20
383.1305
 30
0.0
 11
155.99054
 21
383.1305
 31
0.0
  0
LINE
  5
1F04
330
1D
100
AcDbEntity
  8
0
100
AcDbLine
 10
139.69054
 20
383.1305
 30
0.0
 11
147.99054
 21
383.1305
 31
0.0
  0
LINE
  5
1F05
330
1D
100
AcDbEntity
  8
0
100
AcDbLine
 10
131.19054
 20
383.1305
 30
0.0
 11
139.69054
 21
383.1305
 31
0.0
  0
LINE
  5
1F06
330
1D
100
AcDbEntity
  8
0
100
AcDbLine
 10
177.09054
 20
383.1305
 30
0.0
 11
182.69054
 21
383.1305
 31
0.0
  0
LINE
  5
1F07
330
1D
100
AcDbEntity
  8
0
100
AcDbLine
 10
182.69054
 20
383.1305
 30
0.0
 11
187.49054
 21
383.1305
 31
0.0
  0
LINE
  5
1F08
330
1D
100
AcDbEntity
  8
0
100
AcDbLine
 10
188.19054
 20
383.1305
 30
0.0
 11
188.19054
 21
749.1305
 31
0.0
  0
LINE
  5
1F09
330
1D
100
AcDbEntity
  8
0
100
AcDbLine
 10
187.49054
 20
383.1305
 30
0.0
 11
191.09054
 21
383.1305
 31
0.0
  0
LINE
  5
1F0A
330
1D
100
AcDbEntity
  8
0
100
AcDbLine
 10
191.09054
 20
383.1305
 30
0.0
 11
193.89054
 21
383.1305
 31
0.0
  0
LINE
  5
1F0B
330
1D
100
AcDbEntity
  8
0
100
AcDbLine
 10
114.39054
 20
383.1305
 30
0.0
 11
122.69054
 21
383.1305
 31
0.0
  0
LINE
  5
1F0C
330
1D
100
AcDbEntity
  8
0
100
AcDbLine
 10
151.25854
 20
942.1095
 30
0.0
 11
167.55754
 21
916.8775
 31
0.0
  0
LINE
  5
1F0D
330
1D
100
AcDbEntity
  8
0
100
AcDbLine
 10
162.15054
 20
910.1625
 30
0.0
 11
163.68654
 21
913.8745
 31
0.0
  0
LINE
  5
1F0E
330
1D
100
AcDbEntity
  8
0
100
AcDbLine
 10
161.57454
 20
906.1305
 30
0.0
 11
162.15054
 21
902.0985
 31
0.0
  0
LINE
  5
1F0F
330
1D
100
AcDbEntity
  8
0
100
AcDbLine
 10
161.57454
 20
906.1305
 30
0.0
 11
162.15054
 21
910.1625
 31
0.0
  0
LINE
  5
1F10
330
1D
100
AcDbEntity
  8
0
100
AcDbLine
 10
162.15054
 20
902.0985
 30
0.0
 11
163.68654
 21
898.3865
 31
0.0
  0
LINE
  5
1F11
330
1D
100
AcDbEntity
  8
0
100
AcDbLine
 10
166.19054
 20
749.1305
 30
0.0
 11
166.19054
 21
918.993712282962
 31
0.0
  0
LINE
  5
1F12
330
1D
100
AcDbEntity
  8
0
100
AcDbLine
 10
163.68654
 20
913.8745
 30
0.0
 11
166.18254
 21
917.1385
 31
0.0
  0
LINE
  5
1F13
330
1D
100
AcDbEntity
  8
0
100
AcDbLine
 10
163.68654
 20
898.3865
 30
0.0
 11
166.18254
 21
895.1225
 31
0.0
  0
LINE
  5
1F14
330
1D
100
AcDbEntity
  8
0
100
AcDbLine
 10
166.19054
 20
918.993712282962
 30
0.0
 11
166.19054
 21
749.1305
 31
0.0
  0
LINE
  5
1F15
330
1D
100
AcDbEntity
  8
0
100
AcDbLine
 10
167.55754
 20
916.8775
 30
0.0
 11
167.90454
 21
917.0785
 31
0.0
  0
LINE
  5
1F16
330
1D
100
AcDbEntity
  8
0
100
AcDbLine
 10
168.223349364981
 20
917.262255333603
 30
0.0
 11
170.696252050104
 21
912.979046574245
 31
0.0
  0
LINE
  5
1F17
330
1D
100
AcDbEntity
  8
0
100
AcDbLine
 10
167.90454
 20
917.0785
 30
0.0
 11
168.223349364981
 21
917.262255333603
 31
0.0
  0
LINE
  5
1F18
330
1D
100
AcDbEntity
  8
0
100
AcDbLine
 10
166.19054
 20
968.18805375371
 30
0.0
 11
166.19054
 21
1182.5305
 31
0.0
  0
LINE
  5
1F19
330
1D
100
AcDbEntity
  8
0
100
AcDbLine
 10
166.45454
 20
1183.1305
 30
0.0
 11
166.85054
 21
1183.1305
 31
0.0
  0
LINE
  5
1F1A
330
1D
100
AcDbEntity
  8
0
100
AcDbLine
 10
166.19054
 20
1183.5155
 30
0.0
 11
166.58654
 21
1183.5155
 31
0.0
  0
LINE
  5
1F1B
330
1D
100
AcDbEntity
  8
0
100
AcDbLine
 10
166.19054
 20
1183.5155
 30
0.0
 11
166.45454
 21
1183.1305
 31
0.0
  0
LINE
  5
1F1C
330
1D
100
AcDbEntity
  8
0
100
AcDbLine
 10
166.19054
 20
1183.5155
 30
0.0
 11
166.19054
 21
1252.7505
 31
0.0
  0
LINE
  5
1F1D
330
1D
100
AcDbEntity
  8
0
100
AcDbLine
 10
166.19054
 20
1252.7505
 30
0.0
 11
166.58654
 21
1252.7505
 31
0.0
  0
LINE
  5
1F1E
330
1D
100
AcDbEntity
  8
0
100
AcDbLine
 10
166.19054
 20
1252.7505
 30
0.0
 11
166.45454
 21
1253.1305
 31
0.0
  0
LINE
  5
1F1F
330
1D
100
AcDbEntity
  8
0
100
AcDbLine
 10
166.45454
 20
1253.1305
 30
0.0
 11
166.85054
 21
1253.1305
 31
0.0
  0
LINE
  5
1F20
330
1D
100
AcDbEntity
  8
0
100
AcDbLine
 10
166.85054
 20
1253.1305
 30
0.0
 11
167.90654
 21
1253.1305
 31
0.0
  0
LINE
  5
1F21
330
1D
100
AcDbEntity
  8
0
100
AcDbLine
 10
166.58654
 20
1252.7505
 30
0.0
 11
167.64254
 21
1252.7505
 31
0.0
  0
LINE
  5
1F22
330
1D
100
AcDbEntity
  8
0
100
AcDbLine
 10
167.64254
 20
1252.7505
 30
0.0
 11
169.40254
 21
1252.7505
 31
0.0
  0
LINE
  5
1F23
330
1D
100
AcDbEntity
  8
0
100
AcDbLine
 10
166.58654
 20
1183.5155
 30
0.0
 11
167.64254
 21
1183.5155
 31
0.0
  0
LINE
  5
1F24
330
1D
100
AcDbEntity
  8
0
100
AcDbLine
 10
167.64254
 20
1183.5155
 30
0.0
 11
169.40254
 21
1183.5155
 31
0.0
  0
LINE
  5
1F25
330
1D
100
AcDbEntity
  8
0
100
AcDbLine
 10
166.85054
 20
1183.1305
 30
0.0
 11
167.90654
 21
1183.1305
 31
0.0
  0
LINE
  5
1F26
330
1D
100
AcDbEntity
  8
0
100
AcDbLine
 10
167.90654
 20
1253.1305
 30
0.0
 11
169.62254
 21
1253.1305
 31
0.0
  0
LINE
  5
1F27
330
1D
100
AcDbEntity
  8
0
100
AcDbLine
 10
167.90654
 20
1183.1305
 30
0.0
 11
169.62254
 21
1183.1305
 31
0.0
  0
LINE
  5
1F28
330
1D
100
AcDbEntity
  8
0
100
AcDbLine
 10
166.19054
 20
1182.5305
 30
0.0
 11
166.19054
 21
968.18805375371
 31
0.0
  0
LINE
  5
1F29
330
1D
100
AcDbEntity
  8
0
100
AcDbLine
 10
166.19054
 20
1182.5305
 30
0.0
 11
166.45454
 21
1183.1305
 31
0.0
  0
LINE
  5
1F2A
330
1D
100
AcDbEntity
  8
0
100
AcDbLine
 10
170.76354
 20
912.8625
 30
0.0
 11
173.10154
 21
914.2125
 31
0.0
  0
LINE
  5
1F2B
330
1D
100
AcDbEntity
  8
0
100
AcDbLine
 10
170.696252050104
 20
912.979046574245
 30
0.0
 11
178.24154
 21
895.3845
 31
0.0
  0
LINE
  5
1F2C
330
1D
100
AcDbEntity
  8
0
100
AcDbLine
 10
173.10154
 20
914.2125
 30
0.0
 11
175.78654
 21
915.7625
 31
0.0
  0
LINE
  5
1F2D
330
1D
100
AcDbEntity
  8
0
100
AcDbLine
 10
188.19054
 20
749.1305
 30
0.0
 11
188.19054
 21
383.1305
 31
0.0
  0
LINE
  5
1F2E
330
1D
100
AcDbEntity
  8
0
100
AcDbLine
 10
188.19054
 20
749.1305
 30
0.0
 11
188.19054
 21
864.52962
 31
0.0
  0
LINE
  5
1F2F
330
1D
100
AcDbEntity
  8
0
100
AcDbLine
 10
192.34254
 20
848.1915
 30
0.0
 11
196.94154
 21
823.9845
 31
0.0
  0
LINE
  5
1F30
330
1D
100
AcDbEntity
  8
0
100
AcDbLine
 10
186.14254
 20
872.5885
 30
0.0
 11
192.34254
 21
848.1915
 31
0.0
  0
LINE
  5
1F31
330
1D
100
AcDbEntity
  8
0
100
AcDbLine
 10
178.24154
 20
895.3845
 30
0.0
 11
186.14254
 21
872.5885
 31
0.0
  0
LINE
  5
1F32
330
1D
100
AcDbEntity
  8
0
100
AcDbLine
 10
175.78654
 20
915.7625
 30
0.0
 11
178.73054
 21
917.4625
 31
0.0
  0
LINE
  5
1F33
330
1D
100
AcDbEntity
  8
0
100
AcDbLine
 10
188.19054
 20
911.568318551991
 30
0.0
 11
188.19054
 21
922.923742440901
 31
0.0
  0
LINE
  5
1F34
330
1D
100
AcDbEntity
  8
0
100
AcDbLine
 10
190.69454
 20
913.8745
 30
0.0
 11
192.23054
 21
910.1625
 31
0.0
  0
LINE
  5
1F35
330
1D
100
AcDbEntity
  8
0
100
AcDbLine
 10
188.19854
 20
917.1385
 30
0.0
 11
190.69454
 21
913.8745
 31
0.0
  0
LINE
  5
1F36
330
1D
100
AcDbEntity
  8
0
100
AcDbLine
 10
181.67554
 20
919.1625
 30
0.0
 11
184.35954
 21
920.7125
 31
0.0
  0
LINE
  5
1F37
330
1D
100
AcDbEntity
  8
0
100
AcDbLine
 10
178.73054
 20
917.4625
 30
0.0
 11
181.67554
 21
919.1625
 31
0.0
  0
LINE
  5
1F38
330
1D
100
AcDbEntity
  8
0
100
AcDbLine
 10
192.23054
 20
910.1625
 30
0.0
 11
192.80654
 21
906.1305
 31
0.0
  0
LINE
  5
1F39
330
1D
100
AcDbEntity
  8
0
100
AcDbLine
 10
192.265115364609
 20
902.340527552261
 30
0.0
 11
192.80654
 21
906.1305
 31
0.0
  0
LINE
  5
1F3A
330
1D
100
AcDbEntity
  8
0
100
AcDbLine
 10
191.64254
 20
904.0815
 30
0.0
 11
200.04154
 21
880.5945
 31
0.0
  0
LINE
  5
1F3B
330
1D
100
AcDbEntity
  8
0
100
AcDbLine
 10
184.091140000149
 20
920.557500000086
 30
0.0
 11
184.719386153507
 21
920.920192307497
 31
0.0
  0
LINE
  5
1F3C
330
1D
100
AcDbEntity
  8
0
100
AcDbLine
 10
184.09114000015
 20
920.557500000087
 30
0.0
 11
184.719386153507
 21
920.920192307496
 31
0.0
  0
LINE
  5
1F3D
330
1D
100
AcDbEntity
  8
0
100
AcDbLine
 10
186.406165000512
 20
921.893750000295
 30
0.0
 11
186.95854
 21
922.2125
 31
0.0
  0
LINE
  5
1F3E
330
1D
100
AcDbEntity
  8
0
100
AcDbLine
 10
186.406165000514
 20
921.893750000296
 30
0.0
 11
186.95854
 21
922.2125
 31
0.0
  0
LINE
  5
1F3F
330
1D
100
AcDbEntity
  8
0
100
AcDbLine
 10
186.69854
 20
922.0625
 30
0.0
 11
188.51754
 21
923.1125
 31
0.0
  0
LINE
  5
1F40
330
1D
100
AcDbEntity
  8
0
100
AcDbLine
 10
184.35954
 20
920.7125
 30
0.0
 11
186.69854
 21
922.0625
 31
0.0
  0
LINE
  5
1F41
330
1D
100
AcDbEntity
  8
0
100
AcDbLine
 10
188.19054
 20
922.923742440901
 30
0.0
 11
188.19054
 21
911.568318551991
 31
0.0
  0
LINE
  5
1F42
330
1D
100
AcDbEntity
  8
0
100
AcDbLine
 10
188.19054
 20
927.0784708
 30
0.0
 11
188.19054
 21
1182.5305
 31
0.0
  0
LINE
  5
1F43
330
1D
100
AcDbEntity
  8
0
100
AcDbLine
 10
186.95854
 20
922.2125
 30
0.0
 11
187.60804000011
 21
922.587500000063
 31
0.0
  0
LINE
  5
1F44
330
1D
100
AcDbEntity
  8
0
100
AcDbLine
 10
186.95854
 20
922.2125
 30
0.0
 11
187.60804000011
 21
922.587500000063
 31
0.0
  0
LINE
  5
1F45
330
1D
100
AcDbEntity
  8
0
100
AcDbLine
 10
189.55654
 20
923.7125
 30
0.0
 11
189.98954
 21
923.9625
 31
0.0
  0
LINE
  5
1F46
330
1D
100
AcDbEntity
  8
0
100
AcDbLine
 10
188.51754
 20
923.1125
 30
0.0
 11
189.55654
 21
923.7125
 31
0.0
  0
LINE
  5
1F47
330
1D
100
AcDbEntity
  8
0
100
AcDbLine
 10
184.05536169029
 20
920.536838159445
 30
0.0
 11
191.64254
 21
904.0815
 31
0.0
  0
LINE
  5
1F48
330
1D
100
AcDbEntity
  8
0
100
AcDbLine
 10
172.48954
 20
954.2735
 30
0.0
 11
189.98954
 21
923.9625
 31
0.0
  0
LINE
  5
1F49
330
1D
100
AcDbEntity
  8
0
100
AcDbLine
 10
169.62254
 20
1183.1305
 30
0.0
 11
171.86654
 21
1183.1305
 31
0.0
  0
LINE
  5
1F4A
330
1D
100
AcDbEntity
  8
0
100
AcDbLine
 10
169.62254
 20
1253.1305
 30
0.0
 11
171.86654
 21
1253.1305
 31
0.0
  0
LINE
  5
1F4B
330
1D
100
AcDbEntity
  8
0
100
AcDbLine
 10
169.40254
 20
1252.7505
 30
0.0
 11
171.73454
 21
1252.7505
 31
0.0
  0
LINE
  5
1F4C
330
1D
100
AcDbEntity
  8
0
100
AcDbLine
 10
169.40254
 20
1183.5155
 30
0.0
 11
171.73454
 21
1183.5155
 31
0.0
  0
LINE
  5
1F4D
330
1D
100
AcDbEntity
  8
0
100
AcDbLine
 10
171.86654
 20
1253.1305
 30
0.0
 11
174.41854
 21
1253.1305
 31
0.0
  0
LINE
  5
1F4E
330
1D
100
AcDbEntity
  8
0
100
AcDbLine
 10
171.73454
 20
1252.7505
 30
0.0
 11
174.37454
 21
1252.7505
 31
0.0
  0
LINE
  5
1F4F
330
1D
100
AcDbEntity
  8
0
100
AcDbLine
 10
171.73454
 20
1183.5155
 30
0.0
 11
174.37454
 21
1183.5155
 31
0.0
  0
LINE
  5
1F50
330
1D
100
AcDbEntity
  8
0
100
AcDbLine
 10
171.86654
 20
1183.1305
 30
0.0
 11
174.41854
 21
1183.1305
 31
0.0
  0
LINE
  5
1F51
330
1D
100
AcDbEntity
  8
0
100
AcDbLine
 10
187.53054
 20
1183.1305
 30
0.0
 11
187.92654
 21
1183.1305
 31
0.0
  0
LINE
  5
1F52
330
1D
100
AcDbEntity
  8
0
100
AcDbLine
 10
186.47454
 20
1183.1305
 30
0.0
 11
187.53054
 21
1183.1305
 31
0.0
  0
LINE
  5
1F53
330
1D
100
AcDbEntity
  8
0
100
AcDbLine
 10
184.75854
 20
1183.1305
 30
0.0
 11
186.47454
 21
1183.1305
 31
0.0
  0
LINE
  5
1F54
330
1D
100
AcDbEntity
  8
0
100
AcDbLine
 10
182.51454
 20
1183.1305
 30
0.0
 11
184.75854
 21
1183.1305
 31
0.0
  0
LINE
  5
1F55
330
1D
100
AcDbEntity
  8
0
100
AcDbLine
 10
179.96254
 20
1183.1305
 30
0.0
 11
182.51454
 21
1183.1305
 31
0.0
  0
LINE
  5
1F56
330
1D
100
AcDbEntity
  8
0
100
AcDbLine
 10
179.96254
 20
1183.1305
 30
0.0
 11
212.19054
 21
1183.1305
 31
0.0
  0
LINE
  5
1F57
330
1D
100
AcDbEntity
  8
0
100
AcDbLine
 10
177.19054
 20
1183.1305
 30
0.0
 11
179.96254
 21
1183.1305
 31
0.0
  0
LINE
  5
1F58
330
1D
100
AcDbEntity
  8
0
100
AcDbLine
 10
187.92654
 20
1183.1305
 30
0.0
 11
188.19054
 21
1182.5305
 31
0.0
  0
LINE
  5
1F59
330
1D
100
AcDbEntity
  8
0
100
AcDbLine
 10
187.92654
 20
1183.1305
 30
0.0
 11
212.19054
 21
1183.1305
 31
0.0
  0
LINE
  5
1F5A
330
1D
100
AcDbEntity
  8
0
100
AcDbLine
 10
174.37454
 20
1252.7505
 30
0.0
 11
177.19054
 21
1252.7505
 31
0.0
  0
LINE
  5
1F5B
330
1D
100
AcDbEntity
  8
0
100
AcDbLine
 10
180.00654
 20
1183.5155
 30
0.0
 11
182.64654
 21
1183.5155
 31
0.0
  0
LINE
  5
1F5C
330
1D
100
AcDbEntity
  8
0
100
AcDbLine
 10
180.945325296454
 20
1228.1305
 30
0.0
 11
212.19054
 21
1228.1305
 31
0.0
  0
LINE
  5
1F5D
330
1D
100
AcDbEntity
  8
0
100
AcDbLine
 10
188.19054
 20
1252.7505
 30
0.0
 11
188.19054
 21
1228.1305
 31
0.0
  0
LINE
  5
1F5E
330
1D
100
AcDbEntity
  8
0
100
AcDbLine
 10
187.79454
 20
1252.7505
 30
0.0
 11
188.19054
 21
1252.7505
 31
0.0
  0
LINE
  5
1F5F
330
1D
100
AcDbEntity
  8
0
100
AcDbLine
 10
188.19054
 20
1228.1305
 30
0.0
 11
188.19054
 21
1252.7505
 31
0.0
  0
LINE
  5
1F60
330
1D
100
AcDbEntity
  8
0
100
AcDbLine
 10
186.73854
 20
1252.7505
 30
0.0
 11
187.79454
 21
1252.7505
 31
0.0
  0
LINE
  5
1F61
330
1D
100
AcDbEntity
  8
0
100
AcDbLine
 10
184.97854
 20
1252.7505
 30
0.0
 11
186.73854
 21
1252.7505
 31
0.0
  0
LINE
  5
1F62
330
1D
100
AcDbEntity
  8
0
100
AcDbLine
 10
182.64654
 20
1252.7505
 30
0.0
 11
184.97854
 21
1252.7505
 31
0.0
  0
LINE
  5
1F63
330
1D
100
AcDbEntity
  8
0
100
AcDbLine
 10
180.00654
 20
1252.7505
 30
0.0
 11
182.64654
 21
1252.7505
 31
0.0
  0
LINE
  5
1F64
330
1D
100
AcDbEntity
  8
0
100
AcDbLine
 10
187.92654
 20
1253.1305
 30
0.0
 11
188.19054
 21
1252.7505
 31
0.0
  0
LINE
  5
1F65
330
1D
100
AcDbEntity
  8
0
100
AcDbLine
 10
187.53054
 20
1253.1305
 30
0.0
 11
187.92654
 21
1253.1305
 31
0.0
  0
LINE
  5
1F66
330
1D
100
AcDbEntity
  8
0
100
AcDbLine
 10
186.47454
 20
1253.1305
 30
0.0
 11
187.53054
 21
1253.1305
 31
0.0
  0
LINE
  5
1F67
330
1D
100
AcDbEntity
  8
0
100
AcDbLine
 10
184.75854
 20
1253.1305
 30
0.0
 11
186.47454
 21
1253.1305
 31
0.0
  0
LINE
  5
1F68
330
1D
100
AcDbEntity
  8
0
100
AcDbLine
 10
182.51454
 20
1253.1305
 30
0.0
 11
184.75854
 21
1253.1305
 31
0.0
  0
LINE
  5
1F69
330
1D
100
AcDbEntity
  8
0
100
AcDbLine
 10
179.96254
 20
1253.1305
 30
0.0
 11
182.51454
 21
1253.1305
 31
0.0
  0
LINE
  5
1F6A
330
1D
100
AcDbEntity
  8
0
100
AcDbLine
 10
177.19054
 20
1253.1305
 30
0.0
 11
179.96254
 21
1253.1305
 31
0.0
  0
LINE
  5
1F6B
330
1D
100
AcDbEntity
  8
0
100
AcDbLine
 10
177.19054
 20
1252.7505
 30
0.0
 11
180.00654
 21
1252.7505
 31
0.0
  0
LINE
  5
1F6C
330
1D
100
AcDbEntity
  8
0
100
AcDbLine
 10
174.41854
 20
1253.1305
 30
0.0
 11
177.19054
 21
1253.1305
 31
0.0
  0
LINE
  5
1F6D
330
1D
100
AcDbEntity
  8
0
100
AcDbLine
 10
177.19054
 20
1183.5155
 30
0.0
 11
180.00654
 21
1183.5155
 31
0.0
  0
LINE
  5
1F6E
330
1D
100
AcDbEntity
  8
0
100
AcDbLine
 10
174.37454
 20
1183.5155
 30
0.0
 11
177.19054
 21
1183.5155
 31
0.0
  0
LINE
  5
1F6F
330
1D
100
AcDbEntity
  8
0
100
AcDbLine
 10
174.41854
 20
1183.1305
 30
0.0
 11
177.19054
 21
1183.1305
 31
0.0
  0
LINE
  5
1F70
330
1D
100
AcDbEntity
  8
0
100
AcDbLine
 10
122.69054
 20
383.1305
 30
0.0
 11
131.19054
 21
383.1305
 31
0.0
  0
LINE
  5
1F71
330
1D
100
AcDbEntity
  8
0
100
AcDbLine
 10
66.69054
 20
358.6305
 30
0.0
 11
67.69054
 21
357.6305
 31
0.0
  0
LINE
  5
1F72
330
1D
100
AcDbEntity
  8
0
100
AcDbLine
 10
67.69054
 20
357.6305
 30
0.0
 11
69.19054
 21
357.1305
 31
0.0
  0
LINE
  5
1F73
330
1D
100
AcDbEntity
  8
0
100
AcDbLine
 10
67.69054
 20
357.6305
 30
0.0
 11
68.29054
 21
357.6305
 31
0.0
  0
LINE
  5
1F74
330
1D
100
AcDbEntity
  8
0
100
AcDbLine
 10
213.86554
 20
245.852886
 30
0.0
 11
216.25754
 21
246.80389
 31
0.0
  0
LINE
  5
1F75
330
1D
100
AcDbEntity
  8
0
100
AcDbLine
 10
210.95954
 20
245.344586
 30
0.0
 11
213.86554
 21
245.852886
 31
0.0
  0
LINE
  5
1F76
330
1D
100
AcDbEntity
  8
0
100
AcDbLine
 10
207.81654
 20
245.473486
 30
0.0
 11
210.95954
 21
245.344586
 31
0.0
  0
LINE
  5
1F77
330
1D
100
AcDbEntity
  8
0
100
AcDbLine
 10
217.68654
 20
248.17769
 30
0.0
 11
217.94954
 21
249.71949
 31
0.0
  0
LINE
  5
1F78
330
1D
100
AcDbEntity
  8
0
100
AcDbLine
 10
216.25754
 20
246.80389
 30
0.0
 11
217.68654
 21
248.17769
 31
0.0
  0
LINE
  5
1F79
330
1D
100
AcDbEntity
  8
0
100
AcDbLine
 10
205.01754
 20
246.17619
 30
0.0
 11
207.81654
 21
245.473486
 31
0.0
  0
LINE
  5
1F7A
330
1D
100
AcDbEntity
  8
0
100
AcDbLine
 10
203.07754
 20
247.35239
 30
0.0
 11
205.01754
 21
246.17619
 31
0.0
  0
LINE
  5
1F7B
330
1D
100
AcDbEntity
  8
0
100
AcDbLine
 10
216.91954
 20
251.14709
 30
0.0
 11
217.94954
 21
249.71949
 31
0.0
  0
LINE
  5
1F7C
330
1D
100
AcDbEntity
  8
0
100
AcDbLine
 10
214.98354
 20
252.32319
 30
0.0
 11
216.91954
 21
251.14709
 31
0.0
  0
LINE
  5
1F7D
330
1D
100
AcDbEntity
  8
0
100
AcDbLine
 10
212.18954
 20
253.02699
 30
0.0
 11
214.98354
 21
252.32319
 31
0.0
  0
LINE
  5
1F7E
330
1D
100
AcDbEntity
  8
0
100
AcDbLine
 10
209.04654
 20
253.15809
 30
0.0
 11
212.18954
 21
253.02699
 31
0.0
  0
LINE
  5
1F7F
330
1D
100
AcDbEntity
  8
0
100
AcDbLine
 10
206.13654
 20
252.65289
 30
0.0
 11
209.04654
 21
253.15809
 31
0.0
  0
LINE
  5
1F80
330
1D
100
AcDbEntity
  8
0
100
AcDbLine
 10
203.74154
 20
251.70079
 30
0.0
 11
206.13654
 21
252.65289
 31
0.0
  0
LINE
  5
1F81
330
1D
100
AcDbEntity
  8
0
100
AcDbLine
 10
202.30854
 20
250.32709
 30
0.0
 11
203.74154
 21
251.70079
 31
0.0
  0
LINE
  5
1F82
330
1D
100
AcDbEntity
  8
0
100
AcDbLine
 10
202.04354
 20
248.78209
 30
0.0
 11
203.07754
 21
247.35239
 31
0.0
  0
LINE
  5
1F83
330
1D
100
AcDbEntity
  8
0
100
AcDbLine
 10
202.04354
 20
248.78209
 30
0.0
 11
202.30854
 21
250.32709
 31
0.0
  0
LINE
  5
1F84
330
1D
100
AcDbEntity
  8
0
100
AcDbLine
 10
194.09054
 20
357.6305
 30
0.0
 11
194.69054
 21
357.6305
 31
0.0
  0
LINE
  5
1F85
330
1D
100
AcDbEntity
  8
0
100
AcDbLine
 10
193.89054
 20
383.1305
 30
0.0
 11
195.49054
 21
383.1305
 31
0.0
  0
LINE
  5
1F86
330
1D
100
AcDbEntity
  8
0
100
AcDbLine
 10
195.49054
 20
383.1305
 30
0.0
 11
196.19054
 21
383.1305
 31
0.0
  0
LINE
  5
1F87
330
1D
100
AcDbEntity
  8
0
100
AcDbLine
 10
196.19054
 20
360.1305
 30
0.0
 11
196.19054
 21
383.1305
 31
0.0
  0
LINE
  5
1F88
330
1D
100
AcDbEntity
  8
0
100
AcDbLine
 10
199.84054
 20
802.2875
 30
0.0
 11
201.64154
 21
770.6865
 31
0.0
  0
LINE
  5
1F89
330
1D
100
AcDbEntity
  8
0
100
AcDbLine
 10
196.94154
 20
823.9845
 30
0.0
 11
199.84054
 21
802.2875
 31
0.0
  0
LINE
  5
1F8A
330
1D
100
AcDbEntity
  8
0
100
AcDbLine
 10
201.64154
 20
770.6865
 30
0.0
 11
202.04354
 21
248.78209
 31
0.0
  0
LINE
  5
1F8B
330
1D
100
AcDbEntity
  8
0
100
AcDbLine
 10
201.64154
 20
770.6865
 30
0.0
 11
202.04354
 21
248.78209
 31
0.0
  0
LINE
  5
1F8C
330
1D
100
AcDbEntity
  8
0
100
AcDbLine
 10
217.64154
 20
770.6905
 30
0.0
 11
217.94954
 21
249.71949
 31
0.0
  0
LINE
  5
1F8D
330
1D
100
AcDbEntity
  8
0
100
AcDbLine
 10
217.64154
 20
770.6905
 30
0.0
 11
217.94954
 21
249.71949
 31
0.0
  0
LINE
  5
1F8E
330
1D
100
AcDbEntity
  8
0
100
AcDbLine
 10
215.64154
 20
805.0915
 30
0.0
 11
217.64154
 21
770.6905
 31
0.0
  0
LINE
  5
1F8F
330
1D
100
AcDbEntity
  8
0
100
AcDbLine
 10
211.94154
 20
829.4895
 30
0.0
 11
215.64154
 21
805.0915
 31
0.0
  0
LINE
  5
1F90
330
1D
100
AcDbEntity
  8
0
100
AcDbLine
 10
212.19054
 20
1228.1305
 30
0.0
 11
212.19054
 21
1183.1305
 31
0.0
  0
LINE
  5
1F91
330
1D
100
AcDbEntity
  8
0
100
AcDbLine
 10
212.19054
 20
1183.1305
 30
0.0
 11
212.19054
 21
1228.1305
 31
0.0
  0
LINE
  5
1F92
330
1D
100
AcDbEntity
  8
0
100
AcDbLine
 10
206.84154
 20
854.8865
 30
0.0
 11
211.94154
 21
829.4895
 31
0.0
  0
LINE
  5
1F93
330
1D
100
AcDbEntity
  8
0
100
AcDbLine
 10
200.04154
 20
880.5945
 30
0.0
 11
206.84154
 21
854.8865
 31
0.0
  0
LINE
  5
1F94
330
1D
100
AcDbEntity
  8
0
100
AcDbLine
 10
196.19054
 20
383.1305
 30
0.0
 11
196.19054
 21
360.1305
 31
0.0
  0
LINE
  5
1F95
330
1D
100
AcDbEntity
  8
0
100
AcDbLine
 10
195.69054
 20
358.6305
 30
0.0
 11
196.19054
 21
360.1305
 31
0.0
  0
LINE
  5
1F96
330
1D
100
AcDbEntity
  8
0
100
AcDbLine
 10
194.69054
 20
357.6305
 30
0.0
 11
195.69054
 21
358.6305
 31
0.0
  0
LINE
  5
1F97
330
1D
100
AcDbEntity
  8
0
100
AcDbLine
 10
193.19054
 20
357.1305
 30
0.0
 11
194.69054
 21
357.6305
 31
0.0
  0
LINE
  5
1F98
330
1D
100
AcDbEntity
  8
0
100
AcDbLine
 10
193.19054
 20
357.1305
 30
0.0
 11
193.19054
 21
357.273357142857
 31
0.0
  0
LINE
  5
1F99
330
1D
100
AcDbEntity
  8
0
100
AcDbLine
 10
148.687146049142
 20
942.005924718137
 30
0.0
 11
149.575690560626
 21
941.49823693823
 31
0.0
  0
LINE
  5
1F9A
330
1D
100
AcDbEntity
  8
0
100
AcDbLine
 10
149.575690560626
 20
941.49823693823
 30
0.0
 11
150.584766647702
 21
941.30998988899
 31
0.0
  0
LINE
  5
1F9B
330
1D
100
AcDbEntity
  8
0
100
AcDbLine
 10
148.211088624611
 20
942.468470745552
 30
0.0
 11
148.687146049142
 21
942.005924718137
 31
0.0
  0
LINE
  5
1F9C
330
1D
100
AcDbEntity
  8
0
100
AcDbLine
 10
148.211088624611
 20
942.468470745552
 30
0.0
 11
148.687146049142
 21
942.005924718137
 31
0.0
  0
LINE
  5
1F9D
330
1D
100
AcDbEntity
  8
0
100
AcDbLine
 10
148.687146049142
 20
942.005924718137
 30
0.0
 11
149.575690560626
 21
941.49823693823
 31
0.0
  0
LINE
  5
1F9E
330
1D
100
AcDbEntity
  8
0
100
AcDbLine
 10
147.46441812225
 20
943.566838542608
 30
0.0
 11
148.211088624611
 21
942.468470745552
 31
0.0
  0
LINE
  5
1F9F
330
1D
100
AcDbEntity
  8
0
100
AcDbLine
 10
147.46441812225
 20
943.566838542608
 30
0.0
 11
148.211088624611
 21
942.468470745552
 31
0.0
  0
LINE
  5
1FA0
330
1D
100
AcDbEntity
  8
0
100
AcDbLine
 10
145.113208032296
 20
947.718860977027
 30
0.0
 11
145.118623748836
 21
947.569742793983
 31
0.0
  0
LINE
  5
1FA1
330
1D
100
AcDbEntity
  8
0
100
AcDbLine
 10
151.672892367059
 20
941.477312125928
 30
0.0
 11
151.807040984945
 21
941.55006368893
 31
0.0
  0
LINE
  5
1FA2
330
1D
100
AcDbEntity
  8
0
100
AcDbLine
 10
145.147063233244
 20
947.502513602953
 30
0.0
 11
147.46441812225
 21
943.566838542608
 31
0.0
  0
LINE
  5
1FA3
330
1D
100
AcDbEntity
  8
0
100
AcDbLine
 10
145.147063233244
 20
947.502513602953
 30
0.0
 11
147.46441812225
 21
943.566838542608
 31
0.0
  0
LINE
  5
1FA4
330
1D
100
AcDbEntity
  8
0
100
AcDbLine
 10
145.118623748836
 20
947.569742793983
 30
0.0
 11
145.161417807756
 21
947.518064994871
 31
0.0
  0
LINE
  5
1FA5
330
1D
100
AcDbEntity
  8
0
100
AcDbLine
 10
150.584766647702
 20
941.30998988899
 30
0.0
 11
151.672892367059
 21
941.477312125928
 31
0.0
  0
LINE
  5
1FA6
330
1D
100
AcDbEntity
  8
0
100
AcDbLine
 10
151.807040984945
 20
941.55006368893
 30
0.0
 11
152.131671213452
 21
941.728475937219
 31
0.0
  0
LINE
  5
1FA7
330
1D
100
AcDbEntity
  8
0
100
AcDbLine
 10
145.181003084369
 20
947.852550584008
 30
0.0
 11
145.457531776493
 21
948.171214579514
 31
0.0
  0
LINE
  5
1FA8
330
1D
100
AcDbEntity
  8
0
100
AcDbLine
 10
145.181003084369
 20
947.852550584008
 30
0.0
 11
145.113208032296
 21
947.718860977027
 31
0.0
  0
LINE
  5
1FA9
330
1D
100
AcDbEntity
  8
0
100
AcDbLine
 10
152.131671213452
 20
941.728475937219
 30
0.0
 11
152.634590955501
 21
942.013576133567
 31
0.0
  0
LINE
  5
1FAA
330
1D
100
AcDbEntity
  8
0
100
AcDbLine
 10
152.634590955501
 20
942.013576133567
 30
0.0
 11
153.290954672291
 21
942.395978927596
 31
0.0
  0
LINE
  5
1FAB
330
1D
100
AcDbEntity
  8
0
100
AcDbLine
 10
152.131671213452
 20
941.728475937219
 30
0.0
 11
152.634590955501
 21
942.013576133567
 31
0.0
  0
LINE
  5
1FAC
330
1D
100
AcDbEntity
  8
0
100
AcDbLine
 10
-0.354227104536
 20
1141.842826309075
 30
0.0
 11
-1.723076945083
 21
1139.80545067507
 31
0.0
  0
LINE
  5
1FAD
330
1D
100
AcDbEntity
  8
0
100
AcDbLine
 10
0.2386987707
 20
1142.479440278821
 30
0.0
 11
0.617239809842
 21
1142.686319281345
 31
0.0
  0
LINE
  5
1FAE
330
1D
100
AcDbEntity
  8
0
100
AcDbLine
 10
0.2386987707
 20
1142.479440278821
 30
0.0
 11
0.617239809842
 21
1142.686319281345
 31
0.0
  0
LINE
  5
1FAF
330
1D
100
AcDbEntity
  8
0
100
AcDbLine
 10
-0.354227104536
 20
1141.842826309075
 30
0.0
 11
0.2386987707
 21
1142.479440278821
 31
0.0
  0
LINE
  5
1FB0
330
1D
100
AcDbEntity
  8
0
100
AcDbLine
 10
-0.354227104536
 20
1141.842826309075
 30
0.0
 11
-1.723076945083
 21
1139.80545067507
 31
0.0
  0
LINE
  5
1FB1
330
1D
100
AcDbEntity
  8
0
100
AcDbLine
 10
-4.027804229847
 20
1133.483559169756
 30
0.0
 11
-4.033175389766
 21
1133.351128883412
 31
0.0
  0
LINE
  5
1FB2
330
1D
100
AcDbEntity
  8
0
100
AcDbLine
 10
-3.828335292186
 20
1133.687051068633
 30
0.0
 11
-3.680542366029
 21
1133.693578807737
 31
0.0
  0
LINE
  5
1FB3
330
1D
100
AcDbEntity
  8
0
100
AcDbLine
 10
-3.954203448603
 20
1133.611737541958
 30
0.0
 11
-3.828335292186
 21
1133.687051068633
 31
0.0
  0
LINE
  5
1FB4
330
1D
100
AcDbEntity
  8
0
100
AcDbLine
 10
-3.954203448603
 20
1133.611737541958
 30
0.0
 11
-4.027804229847
 21
1133.483559169756
 31
0.0
  0
LINE
  5
1FB5
330
1D
100
AcDbEntity
  8
0
100
AcDbLine
 10
-4.033175389766
 20
1133.351128883412
 30
0.0
 11
-3.763577097257
 21
1132.041029383269
 31
0.0
  0
LINE
  5
1FB6
330
1D
100
AcDbEntity
  8
0
100
AcDbLine
 10
-3.763577097257
 20
1132.041029383269
 30
0.0
 11
-1.658962217254
 21
1128.025439431983
 31
0.0
  0
LINE
  5
1FB7
330
1D
100
AcDbEntity
  8
0
100
AcDbLine
 10
-3.763577097257
 20
1132.041029383269
 30
0.0
 11
-1.658962217254
 21
1128.025439431983
 31
0.0
  0
LINE
  5
1FB8
330
1D
100
AcDbEntity
  8
0
100
AcDbLine
 10
-1.81842828924
 20
1127.602752226728
 30
0.0
 11
4.770830217801
 21
1117.025175692976
 31
0.0
  0
LINE
  5
1FB9
330
1D
100
AcDbEntity
  8
0
100
AcDbLine
 10
-1.689241291319
 20
1127.958815377965
 30
0.0
 11
-1.81842828924
 21
1127.602752226728
 31
0.0
  0
LINE
  5
1FBA
330
1D
100
AcDbEntity
  8
0
100
AcDbLine
 10
-1.658962217254
 20
1128.025439431983
 30
0.0
 11
-1.567787607634
 21
1127.948934850678
 31
0.0
  0
LINE
  5
1FBB
330
1D
100
AcDbEntity
  8
0
100
AcDbLine
 10
4.424777703615
 20
1118.421077623158
 30
0.0
 11
4.541424908963
 21
1118.067861330379
 31
0.0
  0
LINE
  5
1FBC
330
1D
100
AcDbEntity
  8
0
100
AcDbLine
 10
4.541424908963
 20
1118.067861330379
 30
0.0
 11
5.344081579479
 21
1116.585522057717
 31
0.0
  0
LINE
  5
1FBD
330
1D
100
AcDbEntity
  8
0
100
AcDbLine
 10
4.497774202971
 20
1118.316095143278
 30
0.0
 11
5.033489484202
 21
1117.253818466769
 31
0.0
  0
LINE
  5
1FBE
330
1D
100
AcDbEntity
  8
0
100
AcDbLine
 10
4.5142944529
 20
1118.781186942112
 30
0.0
 11
5.113264795211
 21
1118.452210318274
 31
0.0
  0
LINE
  5
1FBF
330
1D
100
AcDbEntity
  8
0
100
AcDbLine
 10
4.87919779208
 20
1118.58076855731
 30
0.0
 11
4.937715508828
 21
1118.592725541827
 31
0.0
  0
LINE
  5
1FC0
330
1D
100
AcDbEntity
  8
0
100
AcDbLine
 10
4.413383375399
 20
1118.462882159808
 30
0.0
 11
4.497774202971
 21
1118.316095143278
 31
0.0
  0
LINE
  5
1FC1
330
1D
100
AcDbEntity
  8
0
100
AcDbLine
 10
4.429804698692
 20
1118.430957872168
 30
0.0
 11
4.684832469801
 21
1117.945174915757
 31
0.0
  0
LINE
  5
1FC2
330
1D
100
AcDbEntity
  8
0
100
AcDbLine
 10
5.395960228234
 20
1117.935643524772
 30
0.0
 11
5.542464165514
 21
1117.042391283599
 31
0.0
  0
LINE
  5
1FC3
330
1D
100
AcDbEntity
  8
0
100
AcDbLine
 10
5.181215363169
 20
1118.32804486349
 30
0.0
 11
5.556810658386
 21
1117.998834814678
 31
0.0
  0
LINE
  5
1FC4
330
1D
100
AcDbEntity
  8
0
100
AcDbLine
 10
5.656858483294
 20
1116.251665294359
 30
0.0
 11
5.98858810684
 21
1116.190400321807
 31
0.0
  0
LINE
  5
1FC5
330
1D
100
AcDbEntity
  8
0
100
AcDbLine
 10
5.656858483294
 20
1116.251665294359
 30
0.0
 11
5.706349768582
 21
1116.262189894162
 31
0.0
  0
LINE
  5
1FC6
330
1D
100
AcDbEntity
  8
0
100
AcDbLine
 10
5.531158828401
 20
1116.30675110705
 30
0.0
 11
5.656858483294
 21
1116.251665294359
 31
0.0
  0
LINE
  5
1FC7
330
1D
100
AcDbEntity
  8
0
100
AcDbLine
 10
5.531158828401
 20
1116.30675110705
 30
0.0
 11
5.98858810684
 21
1116.190400321807
 31
0.0
  0
LINE
  5
1FC8
330
1D
100
AcDbEntity
  8
0
100
AcDbLine
 10
5.545136288872
 20
1117.228752896034
 30
0.0
 11
5.596223690133
 21
1117.226250124868
 31
0.0
  0
LINE
  5
1FC9
330
1D
100
AcDbEntity
  8
0
100
AcDbLine
 10
5.544935307349
 20
1117.215495457492
 30
0.0
 11
5.596223690133
 21
1117.226250124868
 31
0.0
  0
LINE
  5
1FCA
330
1D
100
AcDbEntity
  8
0
100
AcDbLine
 10
5.596223690133
 20
1117.226250124868
 30
0.0
 11
5.542778425427
 21
1117.073220042353
 31
0.0
  0
LINE
  5
1FCB
330
1D
100
AcDbEntity
  8
0
100
AcDbLine
 10
5.033489484202
 20
1117.253818466769
 30
0.0
 11
5.531158828401
 21
1116.30675110705
 31
0.0
  0
LINE
  5
1FCC
330
1D
100
AcDbEntity
  8
0
100
AcDbLine
 10
5.542464165514
 20
1117.042391283599
 30
0.0
 11
5.531158828401
 21
1116.30675110705
 31
0.0
  0
LINE
  5
1FCD
330
1D
100
AcDbEntity
  8
0
100
AcDbLine
 10
5.542464165514
 20
1117.042391283599
 30
0.0
 11
5.98858810684
 21
1116.190400321807
 31
0.0
  0
LINE
  5
1FCE
330
1D
100
AcDbEntity
  8
0
100
AcDbLine
 10
5.709231753362
 20
1117.147766600383
 30
0.0
 11
5.99489042858
 21
1116.621379162054
 31
0.0
  0
LINE
  5
1FCF
330
1D
100
AcDbEntity
  8
0
100
AcDbLine
 10
5.344081579479
 20
1116.585522057717
 30
0.0
 11
5.3978361632
 21
1116.560464834837
 31
0.0
  0
LINE
  5
1FD0
330
1D
100
AcDbEntity
  8
0
100
AcDbLine
 10
5.926484832737
 20
1116.309002852029
 30
0.0
 11
6.154195389191
 21
1116.357426780885
 31
0.0
  0
LINE
  5
1FD1
330
1D
100
AcDbEntity
  8
0
100
AcDbLine
 10
5.98858810684
 20
1116.190400321807
 30
0.0
 11
6.154195389191
 21
1116.357426780885
 31
0.0
  0
LINE
  5
1FD2
330
1D
100
AcDbEntity
  8
0
100
AcDbLine
 10
5.960548290714
 20
1116.583818319676
 30
0.0
 11
6.055821328823
 21
1116.53017606235
 31
0.0
  0
LINE
  5
1FD3
330
1D
100
AcDbEntity
  8
0
100
AcDbLine
 10
6.055821328823
 20
1116.53017606235
 30
0.0
 11
6.0539800671
 21
1116.336115429743
 31
0.0
  0
LINE
  5
1FD4
330
1D
100
AcDbEntity
  8
0
100
AcDbLine
 10
5.847390306985
 20
1116.460054644648
 30
0.0
 11
5.99489042858
 21
1116.621379162054
 31
0.0
  0
LINE
  5
1FD5
330
1D
100
AcDbEntity
  8
0
100
AcDbLine
 10
5.624050404837
 20
1117.041711518376
 30
0.0
 11
5.631047384733
 21
1116.873218336018
 31
0.0
  0
LINE
  5
1FD6
330
1D
100
AcDbEntity
  8
0
100
AcDbLine
 10
6.185920990026
 20
1114.686713037838
 30
0.0
 11
6.067740996073
 21
1114.543938218811
 31
0.0
  0
LINE
  5
1FD7
330
1D
100
AcDbEntity
  8
0
100
AcDbLine
 10
6.024602571975
 20
1114.697883392059
 30
0.0
 11
6.065561036165
 21
1114.60651211443
 31
0.0
  0
LINE
  5
1FD8
330
1D
100
AcDbEntity
  8
0
100
AcDbLine
 10
6.024602571975
 20
1114.697883392059
 30
0.0
 11
6.066526512601
 21
1114.57879893425
 31
0.0
  0
LINE
  5
1FD9
330
1D
100
AcDbEntity
  8
0
100
AcDbLine
 10
6.406466432512
 20
1113.786112065455
 30
0.0
 11
7.188712825218
 21
1112.552478302502
 31
0.0
  0
LINE
  5
1FDA
330
1D
100
AcDbEntity
  8
0
100
AcDbLine
 10
6.406466432512
 20
1113.786112065455
 30
0.0
 11
6.543239776687
 21
1113.817755970408
 31
0.0
  0
LINE
  5
1FDB
330
1D
100
AcDbEntity
  8
0
100
AcDbLine
 10
6.406466432512
 20
1113.786112065455
 30
0.0
 11
6.504879880708
 21
1113.892950310179
 31
0.0
  0
LINE
  5
1FDC
330
1D
100
AcDbEntity
  8
0
100
AcDbLine
 10
6.820466514438
 20
1113.492768611182
 30
0.0
 11
7.263598480789
 21
1113.973889864503
 31
0.0
  0
LINE
  5
1FDD
330
1D
100
AcDbEntity
  8
0
100
AcDbLine
 10
6.820466514438
 20
1113.492768611182
 30
0.0
 11
7.188712825218
 21
1112.552478302502
 31
0.0
  0
LINE
  5
1FDE
330
1D
100
AcDbEntity
  8
0
100
AcDbLine
 10
6.360163914144
 20
1114.176627345339
 30
0.0
 11
6.406466432512
 21
1113.786112065455
 31
0.0
  0
LINE
  5
1FDF
330
1D
100
AcDbEntity
  8
0
100
AcDbLine
 10
6.415027726156
 20
1114.069081482236
 30
0.0
 11
6.406466432512
 21
1113.786112065455
 31
0.0
  0
LINE
  5
1FE0
330
1D
100
AcDbEntity
  8
0
100
AcDbLine
 10
6.333604048069
 20
1114.228690875311
 30
0.0
 11
6.820466514438
 21
1113.492768611182
 31
0.0
  0
LINE
  5
1FE1
330
1D
100
AcDbEntity
  8
0
100
AcDbLine
 10
6.333604048069
 20
1114.228690875311
 30
0.0
 11
7.188712825218
 21
1112.552478302502
 31
0.0
  0
LINE
  5
1FE2
330
1D
100
AcDbEntity
  8
0
100
AcDbLine
 10
6.146062541127
 20
1114.174450363015
 30
0.0
 11
6.406466432512
 21
1113.786112065455
 31
0.0
  0
LINE
  5
1FE3
330
1D
100
AcDbEntity
  8
0
100
AcDbLine
 10
6.146062541127
 20
1114.174450363015
 30
0.0
 11
6.209115814855
 21
1114.227642117091
 31
0.0
  0
LINE
  5
1FE4
330
1D
100
AcDbEntity
  8
0
100
AcDbLine
 10
6.067740996073
 20
1114.543938218811
 30
0.0
 11
6.146062541127
 21
1114.174450363015
 31
0.0
  0
LINE
  5
1FE5
330
1D
100
AcDbEntity
  8
0
100
AcDbLine
 10
6.067740996073
 20
1114.543938218811
 30
0.0
 11
6.219387001496
 21
1114.582922019774
 31
0.0
  0
LINE
  5
1FE6
330
1D
100
AcDbEntity
  8
0
100
AcDbLine
 10
6.067740996073
 20
1114.543938218811
 30
0.0
 11
6.406466432512
 21
1113.786112065455
 31
0.0
  0
LINE
  5
1FE7
330
1D
100
AcDbEntity
  8
0
100
AcDbLine
 10
6.028076441833
 20
1117.571805013198
 30
0.0
 11
5.998719217172
 21
1117.508193116825
 31
0.0
  0
LINE
  5
1FE8
330
1D
100
AcDbEntity
  8
0
100
AcDbLine
 10
6.01828937687
 20
1117.629525628755
 30
0.0
 11
6.028076441833
 21
1117.571805013198
 31
0.0
  0
LINE
  5
1FE9
330
1D
100
AcDbEntity
  8
0
100
AcDbLine
 10
5.998719217172
 20
1117.508193116825
 30
0.0
 11
5.574877731844
 21
1116.980489056451
 31
0.0
  0
LINE
  5
1FEA
330
1D
100
AcDbEntity
  8
0
100
AcDbLine
 10
6.003660201884
 20
1115.124682291542
 30
0.0
 11
6.024602571975
 21
1114.697883392059
 31
0.0
  0
LINE
  5
1FEB
330
1D
100
AcDbEntity
  8
0
100
AcDbLine
 10
7.263598480789
 20
1113.973889864503
 30
0.0
 11
7.785852710345
 21
1112.940531349896
 31
0.0
  0
LINE
  5
1FEC
330
1D
100
AcDbEntity
  8
0
100
AcDbLine
 10
6.168977362603
 20
1114.739261766013
 30
0.0
 11
6.067740996073
 21
1114.543938218811
 31
0.0
  0
LINE
  5
1FED
330
1D
100
AcDbEntity
  8
0
100
AcDbLine
 10
6.168977362603
 20
1114.739261766013
 30
0.0
 11
6.333604048069
 21
1114.228690875311
 31
0.0
  0
LINE
  5
1FEE
330
1D
100
AcDbEntity
  8
0
100
AcDbLine
 10
5.556810658386
 20
1117.998834814678
 30
0.0
 11
5.776631310743
 21
1117.913724881078
 31
0.0
  0
LINE
  5
1FEF
330
1D
100
AcDbEntity
  8
0
100
AcDbLine
 10
5.556810658386
 20
1117.998834814678
 30
0.0
 11
5.54232401839
 21
1117.043245777581
 31
0.0
  0
LINE
  5
1FF0
330
1D
100
AcDbEntity
  8
0
100
AcDbLine
 10
5.556810658386
 20
1117.998834814678
 30
0.0
 11
5.418005948452
 21
1117.801228099778
 31
0.0
  0
LINE
  5
1FF1
330
1D
100
AcDbEntity
  8
0
100
AcDbLine
 10
4.937715508828
 20
1118.592725541827
 30
0.0
 11
5.005361735575
 21
1118.54484038748
 31
0.0
  0
LINE
  5
1FF2
330
1D
100
AcDbEntity
  8
0
100
AcDbLine
 10
5.115122974319
 20
1118.448814884491
 30
0.0
 11
5.18070732876
 21
1118.378257396299
 31
0.0
  0
LINE
  5
1FF3
330
1D
100
AcDbEntity
  8
0
100
AcDbLine
 10
5.107366252999
 20
1118.457159782868
 30
0.0
 11
5.638261012794
 21
1118.049542997121
 31
0.0
  0
LINE
  5
1FF4
330
1D
100
AcDbEntity
  8
0
100
AcDbLine
 10
4.960308646981
 20
1118.583558202606
 30
0.0
 11
5.039684358548
 21
1118.543584381008
 31
0.0
  0
LINE
  5
1FF5
330
1D
100
AcDbEntity
  8
0
100
AcDbLine
 10
5.288320116008
 20
1118.315154751659
 30
0.0
 11
5.638261012794
 21
1118.049542997121
 31
0.0
  0
LINE
  5
1FF6
330
1D
100
AcDbEntity
  8
0
100
AcDbLine
 10
4.963563010692
 20
1118.580435845029
 30
0.0
 11
5.039684358548
 21
1118.543584381008
 31
0.0
  0
LINE
  5
1FF7
330
1D
100
AcDbEntity
  8
0
100
AcDbLine
 10
5.039684358548
 20
1118.543584381008
 30
0.0
 11
5.188220376069
 21
1118.418947863489
 31
0.0
  0
LINE
  5
1FF8
330
1D
100
AcDbEntity
  8
0
100
AcDbLine
 10
5.652673121932
 20
1118.029225735736
 30
0.0
 11
5.795846828351
 21
1117.909088731486
 31
0.0
  0
LINE
  5
1FF9
330
1D
100
AcDbEntity
  8
0
100
AcDbLine
 10
5.087179114022
 20
1118.503731549207
 30
0.0
 11
5.579305479426
 21
1118.251223053362
 31
0.0
  0
LINE
  5
1FFA
330
1D
100
AcDbEntity
  8
0
100
AcDbLine
 10
5.087179114022
 20
1118.503731549207
 30
0.0
 11
5.522928702907
 21
1118.138094229887
 31
0.0
  0
LINE
  5
1FFB
330
1D
100
AcDbEntity
  8
0
100
AcDbLine
 10
5.087179114022
 20
1118.503731549207
 30
0.0
 11
5.525733331568
 21
1118.135940858247
 31
0.0
  0
LINE
  5
1FFC
330
1D
100
AcDbEntity
  8
0
100
AcDbLine
 10
5.694048978554
 20
1117.994784016908
 30
0.0
 11
5.945954562152
 21
1117.783525009603
 31
0.0
  0
LINE
  5
1FFD
330
1D
100
AcDbEntity
  8
0
100
AcDbLine
 10
5.638261012794
 20
1118.049542997121
 30
0.0
 11
5.945954562152
 21
1117.783525009603
 31
0.0
  0
LINE
  5
1FFE
330
1D
100
AcDbEntity
  8
0
100
AcDbLine
 10
5.638261012794
 20
1118.049542997121
 30
0.0
 11
5.795846828351
 21
1117.909088731486
 31
0.0
  0
LINE
  5
1FFF
330
1D
100
AcDbEntity
  8
0
100
AcDbLine
 10
5.188220376069
 20
1118.418947863489
 30
0.0
 11
5.258645929101
 21
1118.341008447442
 31
0.0
  0
LINE
  5
2000
330
1D
100
AcDbEntity
  8
0
100
AcDbLine
 10
5.188220376069
 20
1118.418947863489
 30
0.0
 11
5.406423103444
 21
1118.227546305084
 31
0.0
  0
LINE
  5
2001
330
1D
100
AcDbEntity
  8
0
100
AcDbLine
 10
5.188220376069
 20
1118.418947863489
 30
0.0
 11
5.522928702907
 21
1118.138094229887
 31
0.0
  0
LINE
  5
2002
330
1D
100
AcDbEntity
  8
0
100
AcDbLine
 10
5.200721123448
 20
1118.405113382836
 30
0.0
 11
5.274676265178
 21
1118.341218767507
 31
0.0
  0
LINE
  5
2003
330
1D
100
AcDbEntity
  8
0
100
AcDbLine
 10
6.030932616223
 20
1117.70791211172
 30
0.0
 11
6.028076441833
 21
1117.571805013198
 31
0.0
  0
LINE
  5
2004
330
1D
100
AcDbEntity
  8
0
100
AcDbLine
 10
5.945954562152
 20
1117.783525009603
 30
0.0
 11
6.030932616223
 21
1117.70791211172
 31
0.0
  0
LINE
  5
2005
330
1D
100
AcDbEntity
  8
0
100
AcDbLine
 10
5.776631310743
 20
1117.913724881078
 30
0.0
 11
5.596223690133
 21
1117.226250124868
 31
0.0
  0
LINE
  5
2006
330
1D
100
AcDbEntity
  8
0
100
AcDbLine
 10
5.776631310743
 20
1117.913724881078
 30
0.0
 11
6.030932616223
 21
1117.70791211172
 31
0.0
  0
LINE
  5
2007
330
1D
100
AcDbEntity
  8
0
100
AcDbLine
 10
5.776631310743
 20
1117.913724881078
 30
0.0
 11
5.945954562152
 21
1117.783525009603
 31
0.0
  0
LINE
  5
2008
330
1D
100
AcDbEntity
  8
0
100
AcDbLine
 10
4.772118532636
 20
1118.754594898131
 30
0.0
 11
4.959684068511
 21
1118.583477778881
 31
0.0
  0
LINE
  5
2009
330
1D
100
AcDbEntity
  8
0
100
AcDbLine
 10
5.113264795211
 20
1118.452210318274
 30
0.0
 11
5.395960228234
 21
1117.935643524772
 31
0.0
  0
LINE
  5
200A
330
1D
100
AcDbEntity
  8
0
100
AcDbLine
 10
4.234582505746
 20
1119.244992113083
 30
0.0
 11
4.412487847396
 21
1118.45932575297
 31
0.0
  0
LINE
  5
200B
330
1D
100
AcDbEntity
  8
0
100
AcDbLine
 10
4.270302285364
 20
1119.225565808572
 30
0.0
 11
4.40524896945
 21
1119.152174667703
 31
0.0
  0
LINE
  5
200C
330
1D
100
AcDbEntity
  8
0
100
AcDbLine
 10
4.432619961002
 20
1119.09767331704
 30
0.0
 11
4.974374818566
 21
1118.576474440805
 31
0.0
  0
LINE
  5
200D
330
1D
100
AcDbEntity
  8
0
100
AcDbLine
 10
4.770830217801
 20
1117.025175692976
 30
0.0
 11
6.049997502654
 21
1115.053250110713
 31
0.0
  0
LINE
  5
200E
330
1D
100
AcDbEntity
  8
0
100
AcDbLine
 10
5.579305479426
 20
1118.251223053362
 30
0.0
 11
5.865267043862
 21
1117.853283804606
 31
0.0
  0
LINE
  5
200F
330
1D
100
AcDbEntity
  8
0
100
AcDbLine
 10
5.579305479426
 20
1118.251223053362
 30
0.0
 11
5.830040142867
 21
1117.883739396961
 31
0.0
  0
LINE
  5
2010
330
1D
100
AcDbEntity
  8
0
100
AcDbLine
 10
4.40524896945
 20
1119.152174667703
 30
0.0
 11
4.433766418865
 21
1119.095390480415
 31
0.0
  0
LINE
  5
2011
330
1D
100
AcDbEntity
  8
0
100
AcDbLine
 10
4.368787648763
 20
1119.160838505983
 30
0.0
 11
4.436006896043
 21
1118.921220150225
 31
0.0
  0
LINE
  5
2012
330
1D
100
AcDbEntity
  8
0
100
AcDbLine
 10
4.368787648763
 20
1119.160838505983
 30
0.0
 11
4.933651709346
 21
1118.591895181551
 31
0.0
  0
LINE
  5
2013
330
1D
100
AcDbEntity
  8
0
100
AcDbLine
 10
4.263276697733
 20
1119.230183218924
 30
0.0
 11
4.413383375399
 21
1118.462882159808
 31
0.0
  0
LINE
  5
2014
330
1D
100
AcDbEntity
  8
0
100
AcDbLine
 10
4.263276697733
 20
1119.230183218924
 30
0.0
 11
4.368787648763
 21
1119.160838505983
 31
0.0
  0
LINE
  5
2015
330
1D
100
AcDbEntity
  8
0
100
AcDbLine
 10
4.263276697733
 20
1119.230183218924
 30
0.0
 11
4.5142944529
 21
1118.781186942112
 31
0.0
  0
LINE
  5
2016
330
1D
100
AcDbEntity
  8
0
100
AcDbLine
 10
6.94841850804
 20
1114.533129562776
 30
0.0
 11
6.993238343147
 21
1114.499556684812
 31
0.0
  0
LINE
  5
2017
330
1D
100
AcDbEntity
  8
0
100
AcDbLine
 10
6.947115699331
 20
1114.53544120188
 30
0.0
 11
6.993238343147
 21
1114.499556684812
 31
0.0
  0
LINE
  5
2018
330
1D
100
AcDbEntity
  8
0
100
AcDbLine
 10
6.145972818551
 20
1115.747802514299
 30
0.0
 11
6.190773182329
 21
1115.627315869833
 31
0.0
  0
LINE
  5
2019
330
1D
100
AcDbEntity
  8
0
100
AcDbLine
 10
6.561659091474
 20
1115.219376272991
 30
0.0
 11
7.263598480789
 21
1113.973889864503
 31
0.0
  0
LINE
  5
201A
330
1D
100
AcDbEntity
  8
0
100
AcDbLine
 10
6.0235919339
 20
1115.811199510064
 30
0.0
 11
6.067740996073
 21
1114.543938218811
 31
0.0
  0
LINE
  5
201B
330
1D
100
AcDbEntity
  8
0
100
AcDbLine
 10
6.0235919339
 20
1115.811199510064
 30
0.0
 11
6.333604048069
 21
1114.228690875311
 31
0.0
  0
LINE
  5
201C
330
1D
100
AcDbEntity
  8
0
100
AcDbLine
 10
6.0235919339
 20
1115.811199510064
 30
0.0
 11
6.561659091474
 21
1115.219376272991
 31
0.0
  0
LINE
  5
201D
330
1D
100
AcDbEntity
  8
0
100
AcDbLine
 10
6.0235919339
 20
1115.811199510064
 30
0.0
 11
6.145972818551
 21
1115.747802514299
 31
0.0
  0
LINE
  5
201E
330
1D
100
AcDbEntity
  8
0
100
AcDbLine
 10
5.18070732876
 20
1118.378257396299
 30
0.0
 11
5.776631310743
 21
1117.913724881078
 31
0.0
  0
LINE
  5
201F
330
1D
100
AcDbEntity
  8
0
100
AcDbLine
 10
7.635366713152
 20
1112.673421885249
 30
0.0
 11
8.308437976229
 21
1111.668919313982
 31
0.0
  0
LINE
  5
2020
330
1D
100
AcDbEntity
  8
0
100
AcDbLine
 10
7.188712825218
 20
1112.552478302502
 30
0.0
 11
7.785852710345
 21
1112.940531349896
 31
0.0
  0
LINE
  5
2021
330
1D
100
AcDbEntity
  8
0
100
AcDbLine
 10
7.188712825218
 20
1112.552478302502
 30
0.0
 11
7.761862106969
 21
1112.707673923668
 31
0.0
  0
LINE
  5
2022
330
1D
100
AcDbEntity
  8
0
100
AcDbLine
 10
7.785852710345
 20
1112.940531349896
 30
0.0
 11
7.761862106969
 21
1112.707673923668
 31
0.0
  0
LINE
  5
2023
330
1D
100
AcDbEntity
  8
0
100
AcDbLine
 10
8.066357067139
 20
1109.654031790209
 30
0.0
 11
8.2290232035
 21
1109.410886919646
 31
0.0
  0
LINE
  5
2024
330
1D
100
AcDbEntity
  8
0
100
AcDbLine
 10
8.2290232035
 20
1109.410886919646
 30
0.0
 11
8.92672368089
 21
1108.398882324493
 31
0.0
  0
LINE
  5
2025
330
1D
100
AcDbEntity
  8
0
100
AcDbLine
 10
8.308437976229
 20
1111.668919313982
 30
0.0
 11
8.495664343578
 21
1111.42282484067
 31
0.0
  0
LINE
  5
2026
330
1D
100
AcDbEntity
  8
0
100
AcDbLine
 10
8.308437976229
 20
1111.668919313982
 30
0.0
 11
8.668248570788
 21
1111.195976319822
 31
0.0
  0
LINE
  5
2027
330
1D
100
AcDbEntity
  8
0
100
AcDbLine
 10
8.495664343578
 20
1111.42282484067
 30
0.0
 11
7.775209217345
 21
1110.377548859504
 31
0.0
  0
LINE
  5
2028
330
1D
100
AcDbEntity
  8
0
100
AcDbLine
 10
9.21854541975
 20
1110.389781316183
 30
0.0
 11
8.431412497029
 21
1109.350585809666
 31
0.0
  0
LINE
  5
2029
330
1D
100
AcDbEntity
  8
0
100
AcDbLine
 10
10.972246702619
 20
1112.34020772384
 30
0.0
 11
10.800397766926
 21
1111.186570175343
 31
0.0
  0
LINE
  5
202A
330
1D
100
AcDbEntity
  8
0
100
AcDbLine
 10
10.972246702619
 20
1112.34020772384
 30
0.0
 11
11.351031028374
 21
1112.02263101726
 31
0.0
  0
LINE
  5
202B
330
1D
100
AcDbEntity
  8
0
100
AcDbLine
 10
7.775209217345
 20
1110.377548859504
 30
0.0
 11
8.431412497029
 21
1109.350585809666
 31
0.0
  0
LINE
  5
202C
330
1D
100
AcDbEntity
  8
0
100
AcDbLine
 10
7.775209217345
 20
1110.377548859504
 30
0.0
 11
8.066357067139
 21
1109.654031790209
 31
0.0
  0
LINE
  5
202D
330
1D
100
AcDbEntity
  8
0
100
AcDbLine
 10
8.431412497029
 20
1109.350585809666
 30
0.0
 11
9.037608369447
 21
1108.238045664654
 31
0.0
  0
LINE
  5
202E
330
1D
100
AcDbEntity
  8
0
100
AcDbLine
 10
8.431412497029
 20
1109.350585809666
 30
0.0
 11
9.190540089035
 21
1107.891978779292
 31
0.0
  0
LINE
  5
202F
330
1D
100
AcDbEntity
  8
0
100
AcDbLine
 10
9.581473324501
 20
1107.687046752981
 30
0.0
 11
9.711502847306
 21
1107.803420162811
 31
0.0
  0
LINE
  5
2030
330
1D
100
AcDbEntity
  8
0
100
AcDbLine
 10
10.422009825424
 20
1106.821579410665
 30
0.0
 11
10.703863568412
 21
1106.547480308945
 31
0.0
  0
LINE
  5
2031
330
1D
100
AcDbEntity
  8
0
100
AcDbLine
 10
11.242236441614
 20
1106.049520411563
 30
0.0
 11
11.967616996395
 21
1106.724067037248
 31
0.0
  0
LINE
  5
2032
330
1D
100
AcDbEntity
  8
0
100
AcDbLine
 10
11.054868325323
 20
1106.223711223599
 30
0.0
 11
12.059800909136
 21
1107.078804075593
 31
0.0
  0
LINE
  5
2033
330
1D
100
AcDbEntity
  8
0
100
AcDbLine
 10
11.081045378128
 20
1106.245985166249
 30
0.0
 11
11.242236441614
 21
1106.049520411563
 31
0.0
  0
LINE
  5
2034
330
1D
100
AcDbEntity
  8
0
100
AcDbLine
 10
10.703863568412
 20
1106.547480308945
 30
0.0
 11
11.242236441614
 21
1106.049520411563
 31
0.0
  0
LINE
  5
2035
330
1D
100
AcDbEntity
  8
0
100
AcDbLine
 10
10.145535828837
 20
1107.232148356412
 30
0.0
 11
11.054868325323
 21
1106.223711223599
 31
0.0
  0
LINE
  5
2036
330
1D
100
AcDbEntity
  8
0
100
AcDbLine
 10
10.145535828837
 20
1107.232148356412
 30
0.0
 11
10.22238841115
 21
1107.2423843364
 31
0.0
  0
LINE
  5
2037
330
1D
100
AcDbEntity
  8
0
100
AcDbLine
 10
10.145535828837
 20
1107.232148356412
 30
0.0
 11
10.205507033878
 21
1107.263041417539
 31
0.0
  0
LINE
  5
2038
330
1D
100
AcDbEntity
  8
0
100
AcDbLine
 10
9.190540089035
 20
1107.891978779292
 30
0.0
 11
9.581473324501
 21
1107.687046752981
 31
0.0
  0
LINE
  5
2039
330
1D
100
AcDbEntity
  8
0
100
AcDbLine
 10
9.89060016011
 20
1107.567693271629
 30
0.0
 11
9.951625839995
 21
1107.440547411657
 31
0.0
  0
LINE
  5
203A
330
1D
100
AcDbEntity
  8
0
100
AcDbLine
 10
9.037608369447
 20
1108.238045664654
 30
0.0
 11
9.190540089035
 21
1107.891978779292
 31
0.0
  0
LINE
  5
203B
330
1D
100
AcDbEntity
  8
0
100
AcDbLine
 10
9.951625839995
 20
1107.440547411657
 30
0.0
 11
10.422009825424
 21
1106.821579410665
 31
0.0
  0
LINE
  5
203C
330
1D
100
AcDbEntity
  8
0
100
AcDbLine
 10
8.808612309271
 20
1108.570201185081
 30
0.0
 11
8.948854758277
 21
1108.356359110469
 31
0.0
  0
LINE
  5
203D
330
1D
100
AcDbEntity
  8
0
100
AcDbLine
 10
9.492961919586
 20
1108.091062521486
 30
0.0
 11
9.716402522576
 21
1107.86153947921
 31
0.0
  0
LINE
  5
203E
330
1D
100
AcDbEntity
  8
0
100
AcDbLine
 10
9.492961919586
 20
1108.091062521486
 30
0.0
 11
10.145535828837
 21
1107.232148356412
 31
0.0
  0
LINE
  5
203F
330
1D
100
AcDbEntity
  8
0
100
AcDbLine
 10
9.716402522576
 20
1107.86153947921
 30
0.0
 11
11.054868325323
 21
1106.223711223599
 31
0.0
  0
LINE
  5
2040
330
1D
100
AcDbEntity
  8
0
100
AcDbLine
 10
9.716402522576
 20
1107.86153947921
 30
0.0
 11
10.540605002146
 21
1107.117865731743
 31
0.0
  0
LINE
  5
2041
330
1D
100
AcDbEntity
  8
0
100
AcDbLine
 10
10.540605002146
 20
1107.117865731743
 30
0.0
 11
11.054868325323
 21
1106.223711223599
 31
0.0
  0
LINE
  5
2042
330
1D
100
AcDbEntity
  8
0
100
AcDbLine
 10
10.540605002146
 20
1107.117865731743
 30
0.0
 11
11.354852101389
 21
1108.068947827044
 31
0.0
  0
LINE
  5
2043
330
1D
100
AcDbEntity
  8
0
100
AcDbLine
 10
14.535460026831
 20
1101.433152068616
 30
0.0
 11
15.106789959196
 21
1101.101260356782
 31
0.0
  0
LINE
  5
2044
330
1D
100
AcDbEntity
  8
0
100
AcDbLine
 10
14.66340473699
 20
1101.358827608319
 30
0.0
 11
14.822699646829
 21
1101.214321333335
 31
0.0
  0
LINE
  5
2045
330
1D
100
AcDbEntity
  8
0
100
AcDbLine
 10
14.395366911328
 20
1101.600831790075
 30
0.0
 11
14.535460026831
 21
1101.433152068616
 31
0.0
  0
LINE
  5
2046
330
1D
100
AcDbEntity
  8
0
100
AcDbLine
 10
13.979263448898
 20
1102.066687463598
 30
0.0
 11
14.061971297217
 21
1101.983103940877
 31
0.0
  0
LINE
  5
2047
330
1D
100
AcDbEntity
  8
0
100
AcDbLine
 10
13.979263448898
 20
1102.066687463598
 30
0.0
 11
14.061971297217
 21
1101.983103940877
 31
0.0
  0
LINE
  5
2048
330
1D
100
AcDbEntity
  8
0
100
AcDbLine
 10
14.701747928559
 20
1101.33655363532
 30
0.0
 11
14.822699646829
 21
1101.214321333335
 31
0.0
  0
LINE
  5
2049
330
1D
100
AcDbEntity
  8
0
100
AcDbLine
 10
15.106789959196
 20
1101.101260356782
 30
0.0
 11
15.389232535274
 21
1101.382365734031
 31
0.0
  0
LINE
  5
204A
330
1D
100
AcDbEntity
  8
0
100
AcDbLine
 10
15.67578190695
 20
1100.672772196629
 30
0.0
 11
15.816454585109
 21
1100.521184836933
 31
0.0
  0
LINE
  5
204B
330
1D
100
AcDbEntity
  8
0
100
AcDbLine
 10
14.760059169126
 20
1101.30268000757
 30
0.0
 11
14.822699646829
 21
1101.214321333335
 31
0.0
  0
LINE
  5
204C
330
1D
100
AcDbEntity
  8
0
100
AcDbLine
 10
12.913664501871
 20
1104.811768142576
 30
0.0
 11
13.091887278763
 21
1104.770993597694
 31
0.0
  0
LINE
  5
204D
330
1D
100
AcDbEntity
  8
0
100
AcDbLine
 10
12.913664501871
 20
1104.811768142576
 30
0.0
 11
13.259493585319
 21
1104.5832539336
 31
0.0
  0
LINE
  5
204E
330
1D
100
AcDbEntity
  8
0
100
AcDbLine
 10
12.624896037644
 20
1105.389653665983
 30
0.0
 11
12.913664501871
 21
1104.811768142576
 31
0.0
  0
LINE
  5
204F
330
1D
100
AcDbEntity
  8
0
100
AcDbLine
 10
12.370789275149
 20
1105.756300115677
 30
0.0
 11
12.606731603587
 21
1105.747542143603
 31
0.0
  0
LINE
  5
2050
330
1D
100
AcDbEntity
  8
0
100
AcDbLine
 10
12.370789275149
 20
1105.756300115677
 30
0.0
 11
12.606731603587
 21
1105.747542143603
 31
0.0
  0
LINE
  5
2051
330
1D
100
AcDbEntity
  8
0
100
AcDbLine
 10
12.976949641612
 20
1105.24453819825
 30
0.0
 11
13.758294823483
 21
1104.284882386634
 31
0.0
  0
LINE
  5
2052
330
1D
100
AcDbEntity
  8
0
100
AcDbLine
 10
13.399014454922
 20
1102.827185756308
 30
0.0
 11
13.410601804835
 21
1102.739662332796
 31
0.0
  0
LINE
  5
2053
330
1D
100
AcDbEntity
  8
0
100
AcDbLine
 10
13.410601804835
 20
1102.739662332796
 30
0.0
 11
14.535460026831
 21
1101.433152068616
 31
0.0
  0
LINE
  5
2054
330
1D
100
AcDbEntity
  8
0
100
AcDbLine
 10
13.767930563339
 20
1102.347666148699
 30
0.0
 11
14.395366911328
 21
1101.600831790075
 31
0.0
  0
LINE
  5
2055
330
1D
100
AcDbEntity
  8
0
100
AcDbLine
 10
13.472142347559
 20
1102.677188805592
 30
0.0
 11
13.767930563339
 21
1102.347666148699
 31
0.0
  0
LINE
  5
2056
330
1D
100
AcDbEntity
  8
0
100
AcDbLine
 10
14.064164005302
 20
1102.224807498769
 30
0.0
 11
15.106789959196
 21
1101.101260356782
 31
0.0
  0
LINE
  5
2057
330
1D
100
AcDbEntity
  8
0
100
AcDbLine
 10
15.443607567388
 20
1100.992386536184
 30
0.0
 11
15.67578190695
 21
1100.672772196629
 31
0.0
  0
LINE
  5
2058
330
1D
100
AcDbEntity
  8
0
100
AcDbLine
 10
15.443607567388
 20
1100.992386536184
 30
0.0
 11
15.681531083863
 21
1100.745532283829
 31
0.0
  0
LINE
  5
2059
330
1D
100
AcDbEntity
  8
0
100
AcDbLine
 10
15.443607567388
 20
1100.992386536184
 30
0.0
 11
15.542882359613
 21
1101.108731225118
 31
0.0
  0
LINE
  5
205A
330
1D
100
AcDbEntity
  8
0
100
AcDbLine
 10
13.460644400378
 20
1102.665819671473
 30
0.0
 11
13.979263448898
 21
1102.066687463598
 31
0.0
  0
LINE
  5
205B
330
1D
100
AcDbEntity
  8
0
100
AcDbLine
 10
13.481214713154
 20
1104.339716082047
 30
0.0
 11
12.958789783952
 21
1103.598253730252
 31
0.0
  0
LINE
  5
205C
330
1D
100
AcDbEntity
  8
0
100
AcDbLine
 10
13.087239872581
 20
1103.354156326905
 30
0.0
 11
13.00021477748
 21
1103.21481974648
 31
0.0
  0
LINE
  5
205D
330
1D
100
AcDbEntity
  8
0
100
AcDbLine
 10
15.527977344007
 20
1101.135275522471
 30
0.0
 11
15.443607567388
 21
1100.992386536184
 31
0.0
  0
LINE
  5
205E
330
1D
100
AcDbEntity
  8
0
100
AcDbLine
 10
15.385060155384
 20
1101.389796312797
 30
0.0
 11
15.64445519281
 21
1101.021102409188
 31
0.0
  0
LINE
  5
205F
330
1D
100
AcDbEntity
  8
0
100
AcDbLine
 10
15.385060155384
 20
1101.389796312797
 30
0.0
 11
15.660956767581
 21
1100.898452867957
 31
0.0
  0
LINE
  5
2060
330
1D
100
AcDbEntity
  8
0
100
AcDbLine
 10
15.385060155384
 20
1101.389796312797
 30
0.0
 11
15.660956767581
 21
1100.898452867957
 31
0.0
  0
LINE
  5
2061
330
1D
100
AcDbEntity
  8
0
100
AcDbLine
 10
13.694766571525
 20
1104.130083407917
 30
0.0
 11
13.140744593753
 21
1103.356938361512
 31
0.0
  0
LINE
  5
2062
330
1D
100
AcDbEntity
  8
0
100
AcDbLine
 10
15.820015632058
 20
1102.034060331444
 30
0.0
 11
15.106789959196
 21
1101.101260356782
 31
0.0
  0
LINE
  5
2063
330
1D
100
AcDbEntity
  8
0
100
AcDbLine
 10
13.903395933878
 20
1103.925282890302
 30
0.0
 11
14.99870799965
 21
1104.906424986639
 31
0.0
  0
LINE
  5
2064
330
1D
100
AcDbEntity
  8
0
100
AcDbLine
 10
13.140744593753
 20
1103.356938361512
 30
0.0
 11
13.472142347559
 21
1102.677188805592
 31
0.0
  0
LINE
  5
2065
330
1D
100
AcDbEntity
  8
0
100
AcDbLine
 10
13.140744593753
 20
1103.356938361512
 30
0.0
 11
14.064164005302
 21
1102.224807498769
 31
0.0
  0
LINE
  5
2066
330
1D
100
AcDbEntity
  8
0
100
AcDbLine
 10
12.958789783952
 20
1103.598253730252
 30
0.0
 11
13.140744593753
 21
1103.356938361512
 31
0.0
  0
LINE
  5
2067
330
1D
100
AcDbEntity
  8
0
100
AcDbLine
 10
12.958789783952
 20
1103.598253730252
 30
0.0
 11
13.410601804835
 21
1102.739662332796
 31
0.0
  0
LINE
  5
2068
330
1D
100
AcDbEntity
  8
0
100
AcDbLine
 10
13.00021477748
 20
1103.21481974648
 30
0.0
 11
13.460644400378
 21
1102.665819671473
 31
0.0
  0
LINE
  5
2069
330
1D
100
AcDbEntity
  8
0
100
AcDbLine
 10
13.00021477748
 20
1103.21481974648
 30
0.0
 11
13.319534097786
 21
1102.91272091965
 31
0.0
  0
LINE
  5
206A
330
1D
100
AcDbEntity
  8
0
100
AcDbLine
 10
15.64445519281
 20
1101.021102409188
 30
0.0
 11
15.686467412837
 21
1100.708842544062
 31
0.0
  0
LINE
  5
206B
330
1D
100
AcDbEntity
  8
0
100
AcDbLine
 10
15.64445519281
 20
1101.021102409188
 30
0.0
 11
17.025614514641
 21
1099.520808125482
 31
0.0
  0
LINE
  5
206C
330
1D
100
AcDbEntity
  8
0
100
AcDbLine
 10
16.04465774295
 20
1102.366804340619
 30
0.0
 11
15.385060155384
 21
1101.389796312797
 31
0.0
  0
LINE
  5
206D
330
1D
100
AcDbEntity
  8
0
100
AcDbLine
 10
16.258025254707
 20
1102.150481393892
 30
0.0
 11
15.64445519281
 21
1101.021102409188
 31
0.0
  0
LINE
  5
206E
330
1D
100
AcDbEntity
  8
0
100
AcDbLine
 10
13.758294823483
 20
1104.284882386634
 30
0.0
 11
13.903395933878
 21
1103.925282890302
 31
0.0
  0
LINE
  5
206F
330
1D
100
AcDbEntity
  8
0
100
AcDbLine
 10
13.446428263114
 20
1104.373864118038
 30
0.0
 11
13.903395933878
 21
1103.925282890302
 31
0.0
  0
LINE
  5
2070
330
1D
100
AcDbEntity
  8
0
100
AcDbLine
 10
13.446428263114
 20
1104.373864118038
 30
0.0
 11
13.758294823483
 21
1104.284882386634
 31
0.0
  0
LINE
  5
2071
330
1D
100
AcDbEntity
  8
0
100
AcDbLine
 10
13.446428263114
 20
1104.373864118038
 30
0.0
 11
13.595437923862
 21
1104.484904827175
 31
0.0
  0
LINE
  5
2072
330
1D
100
AcDbEntity
  8
0
100
AcDbLine
 10
13.039509382968
 20
1104.829663278832
 30
0.0
 11
13.446428263114
 21
1104.373864118038
 31
0.0
  0
LINE
  5
2073
330
1D
100
AcDbEntity
  8
0
100
AcDbLine
 10
13.039509382968
 20
1104.829663278832
 30
0.0
 11
13.285409620956
 21
1104.865684627898
 31
0.0
  0
LINE
  5
2074
330
1D
100
AcDbEntity
  8
0
100
AcDbLine
 10
13.039509382968
 20
1104.829663278832
 30
0.0
 11
13.318855379105
 21
1104.824606219883
 31
0.0
  0
LINE
  5
2075
330
1D
100
AcDbEntity
  8
0
100
AcDbLine
 10
15.686467412837
 20
1100.708842544062
 30
0.0
 11
16.102622381734
 21
1100.360038685335
 31
0.0
  0
LINE
  5
2076
330
1D
100
AcDbEntity
  8
0
100
AcDbLine
 10
15.686467412837
 20
1100.708842544062
 30
0.0
 11
16.563310365719
 21
1100.000366958046
 31
0.0
  0
LINE
  5
2077
330
1D
100
AcDbEntity
  8
0
100
AcDbLine
 10
12.181543663648
 20
1105.98845992815
 30
0.0
 11
12.471941756701
 21
1105.930676993376
 31
0.0
  0
LINE
  5
2078
330
1D
100
AcDbEntity
  8
0
100
AcDbLine
 10
12.181543663648
 20
1105.98845992815
 30
0.0
 11
12.370789275149
 21
1105.756300115677
 31
0.0
  0
LINE
  5
2079
330
1D
100
AcDbEntity
  8
0
100
AcDbLine
 10
12.181543663648
 20
1105.98845992815
 30
0.0
 11
13.039509382968
 21
1104.829663278832
 31
0.0
  0
LINE
  5
207A
330
1D
100
AcDbEntity
  8
0
100
AcDbLine
 10
12.181543663648
 20
1105.98845992815
 30
0.0
 11
12.431952034201
 21
1106.159782366718
 31
0.0
  0
LINE
  5
207B
330
1D
100
AcDbEntity
  8
0
100
AcDbLine
 10
10.07162914415
 20
1109.775597919386
 30
0.0
 11
9.280589271488
 21
1108.774979116064
 31
0.0
  0
LINE
  5
207C
330
1D
100
AcDbEntity
  8
0
100
AcDbLine
 10
10.035042670381
 20
1109.822236475087
 30
0.0
 11
9.280589271488
 21
1108.774979116064
 31
0.0
  0
LINE
  5
207D
330
1D
100
AcDbEntity
  8
0
100
AcDbLine
 10
10.181299692144
 20
1109.646417518059
 30
0.0
 11
10.242694701015
 21
1109.557532342672
 31
0.0
  0
LINE
  5
207E
330
1D
100
AcDbEntity
  8
0
100
AcDbLine
 10
10.242694701015
 20
1109.557532342672
 30
0.0
 11
10.627530457866
 21
1109.049901669594
 31
0.0
  0
LINE
  5
207F
330
1D
100
AcDbEntity
  8
0
100
AcDbLine
 10
10.76661497495
 20
1108.924580214498
 30
0.0
 11
11.392420564119
 21
1108.017896424765
 31
0.0
  0
LINE
  5
2080
330
1D
100
AcDbEntity
  8
0
100
AcDbLine
 10
11.056895940614
 20
1108.473837426454
 30
0.0
 11
11.392420564119
 21
1108.017896424765
 31
0.0
  0
LINE
  5
2081
330
1D
100
AcDbEntity
  8
0
100
AcDbLine
 10
10.725759238555
 20
1108.961393085128
 30
0.0
 11
10.950741667245
 21
1108.657812563249
 31
0.0
  0
LINE
  5
2082
330
1D
100
AcDbEntity
  8
0
100
AcDbLine
 10
10.627530457866
 20
1109.049901669594
 30
0.0
 11
11.056895940614
 21
1108.473837426454
 31
0.0
  0
LINE
  5
2083
330
1D
100
AcDbEntity
  8
0
100
AcDbLine
 10
10.627530457866
 20
1109.049901669594
 30
0.0
 11
10.76661497495
 21
1108.924580214498
 31
0.0
  0
LINE
  5
2084
330
1D
100
AcDbEntity
  8
0
100
AcDbLine
 10
9.280589271488
 20
1108.774979116064
 30
0.0
 11
9.492961919586
 21
1108.091062521486
 31
0.0
  0
LINE
  5
2085
330
1D
100
AcDbEntity
  8
0
100
AcDbLine
 10
9.280589271488
 20
1108.774979116064
 30
0.0
 11
9.716402522576
 21
1107.86153947921
 31
0.0
  0
LINE
  5
2086
330
1D
100
AcDbEntity
  8
0
100
AcDbLine
 10
10.800397766926
 20
1111.186570175343
 30
0.0
 11
11.124964507447
 21
1111.059518174383
 31
0.0
  0
LINE
  5
2087
330
1D
100
AcDbEntity
  8
0
100
AcDbLine
 10
10.800397766926
 20
1111.186570175343
 30
0.0
 11
11.150765805194
 21
1111.010433633751
 31
0.0
  0
LINE
  5
2088
330
1D
100
AcDbEntity
  8
0
100
AcDbLine
 10
10.800397766926
 20
1111.186570175343
 30
0.0
 11
12.143008702264
 21
1109.204421897259
 31
0.0
  0
LINE
  5
2089
330
1D
100
AcDbEntity
  8
0
100
AcDbLine
 10
11.351031028374
 20
1112.02263101726
 30
0.0
 11
11.935293986712
 21
1111.374160820941
 31
0.0
  0
LINE
  5
208A
330
1D
100
AcDbEntity
  8
0
100
AcDbLine
 10
11.935293986712
 20
1111.374160820941
 30
0.0
 11
12.7267464833
 21
1110.008527445673
 31
0.0
  0
LINE
  5
208B
330
1D
100
AcDbEntity
  8
0
100
AcDbLine
 10
11.124964507447
 20
1111.059518174383
 30
0.0
 11
11.853965062893
 21
1109.672663228774
 31
0.0
  0
LINE
  5
208C
330
1D
100
AcDbEntity
  8
0
100
AcDbLine
 10
11.853965062893
 20
1109.672663228774
 30
0.0
 11
12.143008702264
 21
1109.204421897259
 31
0.0
  0
LINE
  5
208D
330
1D
100
AcDbEntity
  8
0
100
AcDbLine
 10
12.158679715235
 20
1106.484368185946
 30
0.0
 11
12.340263880176
 21
1106.250364561269
 31
0.0
  0
LINE
  5
208E
330
1D
100
AcDbEntity
  8
0
100
AcDbLine
 10
12.158679715235
 20
1106.484368185946
 30
0.0
 11
12.340263880176
 21
1106.250364561269
 31
0.0
  0
LINE
  5
208F
330
1D
100
AcDbEntity
  8
0
100
AcDbLine
 10
11.836387125423
 20
1106.888702239342
 30
0.0
 11
12.158679715235
 21
1106.484368185946
 31
0.0
  0
LINE
  5
2090
330
1D
100
AcDbEntity
  8
0
100
AcDbLine
 10
11.836387125423
 20
1106.888702239342
 30
0.0
 11
12.158679715235
 21
1106.484368185946
 31
0.0
  0
LINE
  5
2091
330
1D
100
AcDbEntity
  8
0
100
AcDbLine
 10
11.392420564119
 20
1108.017896424765
 30
0.0
 11
11.837572405813
 21
1107.400127974748
 31
0.0
  0
LINE
  5
2092
330
1D
100
AcDbEntity
  8
0
100
AcDbLine
 10
12.158973058719
 20
1106.483990160481
 30
0.0
 11
12.088147072899
 21
1106.386653758887
 31
0.0
  0
LINE
  5
2093
330
1D
100
AcDbEntity
  8
0
100
AcDbLine
 10
13.068698673418
 20
1107.452356666921
 30
0.0
 11
12.181543663648
 21
1105.98845992815
 31
0.0
  0
LINE
  5
2094
330
1D
100
AcDbEntity
  8
0
100
AcDbLine
 10
12.088147072899
 20
1106.386653758887
 30
0.0
 11
12.248105579461
 21
1106.098293914785
 31
0.0
  0
LINE
  5
2095
330
1D
100
AcDbEntity
  8
0
100
AcDbLine
 10
12.088147072899
 20
1106.386653758887
 30
0.0
 11
12.262243225404
 21
1106.121622480324
 31
0.0
  0
LINE
  5
2096
330
1D
100
AcDbEntity
  8
0
100
AcDbLine
 10
12.431952034201
 20
1106.159782366718
 30
0.0
 11
13.284520989108
 21
1105.308499172283
 31
0.0
  0
LINE
  5
2097
330
1D
100
AcDbEntity
  8
0
100
AcDbLine
 10
13.284520989108
 20
1105.308499172283
 30
0.0
 11
13.758294823483
 21
1104.284882386634
 31
0.0
  0
LINE
  5
2098
330
1D
100
AcDbEntity
  8
0
100
AcDbLine
 10
12.7267464833
 20
1110.008527445673
 30
0.0
 11
12.143008702264
 21
1109.204421897259
 31
0.0
  0
LINE
  5
2099
330
1D
100
AcDbEntity
  8
0
100
AcDbLine
 10
12.471941756701
 20
1105.930676993376
 30
0.0
 11
12.370789275149
 21
1105.756300115677
 31
0.0
  0
LINE
  5
209A
330
1D
100
AcDbEntity
  8
0
100
AcDbLine
 10
12.471941756701
 20
1105.930676993376
 30
0.0
 11
12.976949641612
 21
1105.24453819825
 31
0.0
  0
LINE
  5
209B
330
1D
100
AcDbEntity
  8
0
100
AcDbLine
 10
16.737030471591
 20
1099.527581774986
 30
0.0
 11
16.893421490498
 21
1099.303682391476
 31
0.0
  0
LINE
  5
209C
330
1D
100
AcDbEntity
  8
0
100
AcDbLine
 10
17.514489452705
 20
1098.90629710448
 30
0.0
 11
18.380464088969
 21
1099.739704312121
 31
0.0
  0
LINE
  5
209D
330
1D
100
AcDbEntity
  8
0
100
AcDbLine
 10
16.655701295583
 20
1099.592573718672
 30
0.0
 11
17.118708839539
 21
1099.335388232613
 31
0.0
  0
LINE
  5
209E
330
1D
100
AcDbEntity
  8
0
100
AcDbLine
 10
16.655701295583
 20
1099.592573718672
 30
0.0
 11
17.514489452705
 21
1098.90629710448
 31
0.0
  0
LINE
  5
209F
330
1D
100
AcDbEntity
  8
0
100
AcDbLine
 10
16.655701295583
 20
1099.592573718672
 30
0.0
 11
16.820020285583
 21
1099.693008109645
 31
0.0
  0
LINE
  5
20A0
330
1D
100
AcDbEntity
  8
0
100
AcDbLine
 10
16.893421490498
 20
1099.303682391476
 30
0.0
 11
17.354262825158
 21
1099.034337747035
 31
0.0
  0
LINE
  5
20A1
330
1D
100
AcDbEntity
  8
0
100
AcDbLine
 10
17.60549882174
 20
1098.88749963795
 30
0.0
 11
18.157461089174
 21
1099.430809706106
 31
0.0
  0
LINE
  5
20A2
330
1D
100
AcDbEntity
  8
0
100
AcDbLine
 10
17.546261609924
 20
1098.936874379748
 30
0.0
 11
17.60549882174
 21
1098.88749963795
 31
0.0
  0
LINE
  5
20A3
330
1D
100
AcDbEntity
  8
0
100
AcDbLine
 10
18.875674745065
 20
1096.515504955451
 30
0.0
 11
19.739396877803
 21
1096.041800025667
 31
0.0
  0
LINE
  5
20A4
330
1D
100
AcDbEntity
  8
0
100
AcDbLine
 10
18.875674745065
 20
1096.515504955451
 30
0.0
 11
19.62693267952
 21
1096.190198383248
 31
0.0
  0
LINE
  5
20A5
330
1D
100
AcDbEntity
  8
0
100
AcDbLine
 10
18.875674745065
 20
1096.515504955451
 30
0.0
 11
19.739508996405
 21
1097.193093182349
 31
0.0
  0
LINE
  5
20A6
330
1D
100
AcDbEntity
  8
0
100
AcDbLine
 10
17.536724328603
 20
1098.9276957749
 30
0.0
 11
17.60549882174
 21
1098.88749963795
 31
0.0
  0
LINE
  5
20A7
330
1D
100
AcDbEntity
  8
0
100
AcDbLine
 10
15.841917279614
 20
1100.578550904113
 30
0.0
 11
16.655701295583
 21
1099.592573718672
 31
0.0
  0
LINE
  5
20A8
330
1D
100
AcDbEntity
  8
0
100
AcDbLine
 10
15.879639403311
 20
1100.464607393548
 30
0.0
 11
16.237914969491
 21
1100.098761819978
 31
0.0
  0
LINE
  5
20A9
330
1D
100
AcDbEntity
  8
0
100
AcDbLine
 10
16.027701814426
 20
1100.332028193024
 30
0.0
 11
16.237351128369
 21
1100.099444967437
 31
0.0
  0
LINE
  5
20AA
330
1D
100
AcDbEntity
  8
0
100
AcDbLine
 10
16.049493797344
 20
1100.312515045485
 30
0.0
 11
16.152413085256
 21
1100.202355532208
 31
0.0
  0
LINE
  5
20AB
330
1D
100
AcDbEntity
  8
0
100
AcDbLine
 10
16.682280219066
 20
1099.857924324203
 30
0.0
 11
16.655701295583
 21
1099.592573718672
 31
0.0
  0
LINE
  5
20AC
330
1D
100
AcDbEntity
  8
0
100
AcDbLine
 10
16.613218122232
 20
1099.933088688769
 30
0.0
 11
16.655701295583
 21
1099.592573718672
 31
0.0
  0
LINE
  5
20AD
330
1D
100
AcDbEntity
  8
0
100
AcDbLine
 10
16.102622381734
 20
1100.360038685335
 30
0.0
 11
16.655701295583
 21
1099.592573718672
 31
0.0
  0
LINE
  5
20AE
330
1D
100
AcDbEntity
  8
0
100
AcDbLine
 10
16.102622381734
 20
1100.360038685335
 30
0.0
 11
16.634052464137
 21
1099.915667426703
 31
0.0
  0
LINE
  5
20AF
330
1D
100
AcDbEntity
  8
0
100
AcDbLine
 10
15.816454585109
 20
1100.521184836933
 30
0.0
 11
16.024824980409
 21
1100.356940726859
 31
0.0
  0
LINE
  5
20B0
330
1D
100
AcDbEntity
  8
0
100
AcDbLine
 10
15.816454585109
 20
1100.521184836933
 30
0.0
 11
16.095472695992
 21
1100.271344260964
 31
0.0
  0
LINE
  5
20B1
330
1D
100
AcDbEntity
  8
0
100
AcDbLine
 10
16.563310365719
 20
1100.000366958046
 30
0.0
 11
17.118708839539
 21
1099.335388232613
 31
0.0
  0
LINE
  5
20B2
330
1D
100
AcDbEntity
  8
0
100
AcDbLine
 10
19.606467841325
 20
1097.389339741862
 30
0.0
 11
18.875674745065
 21
1096.515504955451
 31
0.0
  0
LINE
  5
20B3
330
1D
100
AcDbEntity
  8
0
100
AcDbLine
 10
19.497522146274
 20
1097.550043531712
 30
0.0
 11
18.875674745065
 21
1096.515504955451
 31
0.0
  0
LINE
  5
20B4
330
1D
100
AcDbEntity
  8
0
100
AcDbLine
 10
19.452033465936
 20
1097.605159430446
 30
0.0
 11
19.492915804125
 21
1097.54238017469
 31
0.0
  0
LINE
  5
20B5
330
1D
100
AcDbEntity
  8
0
100
AcDbLine
 10
19.452033465936
 20
1097.605159430446
 30
0.0
 11
19.485901686804
 21
1097.567184657625
 31
0.0
  0
LINE
  5
20B6
330
1D
100
AcDbEntity
  8
0
100
AcDbLine
 10
17.025614514641
 20
1099.520808125482
 30
0.0
 11
17.514489452705
 21
1098.90629710448
 31
0.0
  0
LINE
  5
20B7
330
1D
100
AcDbEntity
  8
0
100
AcDbLine
 10
17.025614514641
 20
1099.520808125482
 30
0.0
 11
18.018194150834
 21
1100.173673001592
 31
0.0
  0
LINE
  5
20B8
330
1D
100
AcDbEntity
  8
0
100
AcDbLine
 10
19.786358538467
 20
1097.123986285021
 30
0.0
 11
19.957850535764
 21
1097.074468360358
 31
0.0
  0
LINE
  5
20B9
330
1D
100
AcDbEntity
  8
0
100
AcDbLine
 10
19.786358538467
 20
1097.123986285021
 30
0.0
 11
21.253500745333
 21
1095.640442030598
 31
0.0
  0
LINE
  5
20BA
330
1D
100
AcDbEntity
  8
0
100
AcDbLine
 10
19.786358538467
 20
1097.123986285021
 30
0.0
 11
20.024520434529
 21
1097.000678081527
 31
0.0
  0
LINE
  5
20BB
330
1D
100
AcDbEntity
  8
0
100
AcDbLine
 10
19.336560236447
 20
1096.262734161397
 30
0.0
 11
19.408911353044
 21
1096.156572928583
 31
0.0
  0
LINE
  5
20BC
330
1D
100
AcDbEntity
  8
0
100
AcDbLine
 10
19.437231704482
 20
1096.207521299657
 30
0.0
 11
19.408911353044
 21
1096.156572928583
 31
0.0
  0
LINE
  5
20BD
330
1D
100
AcDbEntity
  8
0
100
AcDbLine
 10
19.408911353044
 20
1096.156572928583
 30
0.0
 11
20.200090610823
 21
1095.433907075097
 31
0.0
  0
LINE
  5
20BE
330
1D
100
AcDbEntity
  8
0
100
AcDbLine
 10
19.408911353044
 20
1096.156572928583
 30
0.0
 11
19.45427269408
 21
1096.198175237452
 31
0.0
  0
LINE
  5
20BF
330
1D
100
AcDbEntity
  8
0
100
AcDbLine
 10
20.666820063513
 20
1094.818049893246
 30
0.0
 11
21.055560928999
 21
1094.761957137914
 31
0.0
  0
LINE
  5
20C0
330
1D
100
AcDbEntity
  8
0
100
AcDbLine
 10
20.666820063513
 20
1094.818049893246
 30
0.0
 11
20.841884887635
 21
1094.978801296748
 31
0.0
  0
LINE
  5
20C1
330
1D
100
AcDbEntity
  8
0
100
AcDbLine
 10
21.62409902392
 20
1094.004745834507
 30
0.0
 11
21.918243090254
 21
1093.857932388473
 31
0.0
  0
LINE
  5
20C2
330
1D
100
AcDbEntity
  8
0
100
AcDbLine
 10
21.62409902392
 20
1094.004745834507
 30
0.0
 11
21.706629198979
 21
1094.045898490191
 31
0.0
  0
LINE
  5
20C3
330
1D
100
AcDbEntity
  8
0
100
AcDbLine
 10
22.359760082053
 20
1093.501545509043
 30
0.0
 11
23.265121374292
 21
1094.354508593152
 31
0.0
  0
LINE
  5
20C4
330
1D
100
AcDbEntity
  8
0
100
AcDbLine
 10
21.567833938134
 20
1094.16918342182
 30
0.0
 11
21.974191233652
 21
1093.808236433498
 31
0.0
  0
LINE
  5
20C5
330
1D
100
AcDbEntity
  8
0
100
AcDbLine
 10
21.567833938134
 20
1094.16918342182
 30
0.0
 11
21.960084880353
 21
1093.875687181602
 31
0.0
  0
LINE
  5
20C6
330
1D
100
AcDbEntity
  8
0
100
AcDbLine
 10
21.974191233652
 20
1093.808236433498
 30
0.0
 11
22.165376274451
 21
1093.683510971462
 31
0.0
  0
LINE
  5
20C7
330
1D
100
AcDbEntity
  8
0
100
AcDbLine
 10
24.552082109909
 20
1091.712488166145
 30
0.0
 11
24.680452016716
 21
1091.594526341228
 31
0.0
  0
LINE
  5
20C8
330
1D
100
AcDbEntity
  8
0
100
AcDbLine
 10
24.808316982789
 20
1091.42372606697
 30
0.0
 11
25.471168373846
 21
1090.805129240778
 31
0.0
  0
LINE
  5
20C9
330
1D
100
AcDbEntity
  8
0
100
AcDbLine
 10
24.808316982789
 20
1091.42372606697
 30
0.0
 11
24.854035685296
 21
1091.467889414159
 31
0.0
  0
LINE
  5
20CA
330
1D
100
AcDbEntity
  8
0
100
AcDbLine
 10
24.808316982789
 20
1091.42372606697
 30
0.0
 11
24.905629133613
 21
1091.425554205369
 31
0.0
  0
LINE
  5
20CB
330
1D
100
AcDbEntity
  8
0
100
AcDbLine
 10
25.724984133212
 20
1090.585840474258
 30
0.0
 11
25.879791743023
 21
1090.410167771566
 31
0.0
  0
LINE
  5
20CC
330
1D
100
AcDbEntity
  8
0
100
AcDbLine
 10
25.722960698834
 20
1090.587588657389
 30
0.0
 11
25.879791743023
 21
1090.410167771566
 31
0.0
  0
LINE
  5
20CD
330
1D
100
AcDbEntity
  8
0
100
AcDbLine
 10
25.471168373846
 20
1090.805129240778
 30
0.0
 11
25.948846259094
 21
1090.392430697112
 31
0.0
  0
LINE
  5
20CE
330
1D
100
AcDbEntity
  8
0
100
AcDbLine
 10
25.471168373846
 20
1090.805129240778
 30
0.0
 11
25.654913312406
 21
1090.810726098567
 31
0.0
  0
LINE
  5
20CF
330
1D
100
AcDbEntity
  8
0
100
AcDbLine
 10
22.394349608228
 20
1093.534133150217
 30
0.0
 11
22.567752771893
 21
1093.421008244543
 31
0.0
  0
LINE
  5
20D0
330
1D
100
AcDbEntity
  8
0
100
AcDbLine
 10
21.574424140254
 20
1094.236709716217
 30
0.0
 11
21.567833938134
 21
1094.16918342182
 31
0.0
  0
LINE
  5
20D1
330
1D
100
AcDbEntity
  8
0
100
AcDbLine
 10
20.911804232904
 20
1094.782700285593
 30
0.0
 11
21.62409902392
 21
1094.004745834507
 31
0.0
  0
LINE
  5
20D2
330
1D
100
AcDbEntity
  8
0
100
AcDbLine
 10
22.394349608228
 20
1093.534133150217
 30
0.0
 11
22.567752771893
 21
1093.421008244543
 31
0.0
  0
LINE
  5
20D3
330
1D
100
AcDbEntity
  8
0
100
AcDbLine
 10
24.64979043136
 20
1091.635483667922
 30
0.0
 11
24.808316982789
 21
1091.42372606697
 31
0.0
  0
LINE
  5
20D4
330
1D
100
AcDbEntity
  8
0
100
AcDbLine
 10
25.67628253778
 20
1090.793191495873
 30
0.0
 11
25.948846259094
 21
1090.392430697112
 31
0.0
  0
LINE
  5
20D5
330
1D
100
AcDbEntity
  8
0
100
AcDbLine
 10
25.67628253778
 20
1090.793191495873
 30
0.0
 11
26.570825620882
 21
1090.391907715395
 31
0.0
  0
LINE
  5
20D6
330
1D
100
AcDbEntity
  8
0
100
AcDbLine
 10
24.627489110861
 20
1091.653783104971
 30
0.0
 11
25.67628253778
 21
1090.793191495873
 31
0.0
  0
LINE
  5
20D7
330
1D
100
AcDbEntity
  8
0
100
AcDbLine
 10
31.00901241974
 20
1086.140383446303
 30
0.0
 11
31.60521072066
 21
1085.542658565564
 31
0.0
  0
LINE
  5
20D8
330
1D
100
AcDbEntity
  8
0
100
AcDbLine
 10
30.724996182887
 20
1086.400821567268
 30
0.0
 11
30.96084446799
 21
1086.281297678631
 31
0.0
  0
LINE
  5
20D9
330
1D
100
AcDbEntity
  8
0
100
AcDbLine
 10
30.724996182887
 20
1086.400821567268
 30
0.0
 11
31.98374786225
 21
1085.246567409943
 31
0.0
  0
LINE
  5
20DA
330
1D
100
AcDbEntity
  8
0
100
AcDbLine
 10
30.458386053819
 20
1086.680797082408
 30
0.0
 11
30.695122247727
 21
1086.457463174387
 31
0.0
  0
LINE
  5
20DB
330
1D
100
AcDbEntity
  8
0
100
AcDbLine
 10
30.637255794912
 20
1086.509421375794
 30
0.0
 11
30.701113188241
 21
1086.446104225621
 31
0.0
  0
LINE
  5
20DC
330
1D
100
AcDbEntity
  8
0
100
AcDbLine
 10
26.311332103431
 20
1090.146751205384
 30
0.0
 11
26.570825620882
 21
1090.391907715395
 31
0.0
  0
LINE
  5
20DD
330
1D
100
AcDbEntity
  8
0
100
AcDbLine
 10
26.311332103431
 20
1090.146751205384
 30
0.0
 11
27.007850972794
 21
1090.788043891975
 31
0.0
  0
LINE
  5
20DE
330
1D
100
AcDbEntity
  8
0
100
AcDbLine
 10
25.948846259094
 20
1090.392430697112
 30
0.0
 11
26.311332103431
 21
1090.146751205384
 31
0.0
  0
LINE
  5
20DF
330
1D
100
AcDbEntity
  8
0
100
AcDbLine
 10
32.00789773764
 20
1085.298638636056
 30
0.0
 11
31.98374786225
 21
1085.246567409943
 31
0.0
  0
LINE
  5
20E0
330
1D
100
AcDbEntity
  8
0
100
AcDbLine
 10
31.60521072066
 20
1085.542658565564
 30
0.0
 11
31.982182244926
 21
1085.241745704602
 31
0.0
  0
LINE
  5
20E1
330
1D
100
AcDbEntity
  8
0
100
AcDbLine
 10
31.131825143565
 20
1086.092086718645
 30
0.0
 11
31.77775432908
 21
1085.595515950981
 31
0.0
  0
LINE
  5
20E2
330
1D
100
AcDbEntity
  8
0
100
AcDbLine
 10
31.131825143565
 20
1086.092086718645
 30
0.0
 11
32.429245495904
 21
1085.232520758793
 31
0.0
  0
LINE
  5
20E3
330
1D
100
AcDbEntity
  8
0
100
AcDbLine
 10
31.77775432908
 20
1085.595515950981
 30
0.0
 11
32.115638969871
 21
1085.159656042848
 31
0.0
  0
LINE
  5
20E4
330
1D
100
AcDbEntity
  8
0
100
AcDbLine
 10
25.879791743023
 20
1090.410167771566
 30
0.0
 11
25.980957123491
 21
1090.370667141466
 31
0.0
  0
LINE
  5
20E5
330
1D
100
AcDbEntity
  8
0
100
AcDbLine
 10
21.549075916654
 20
1094.336549663107
 30
0.0
 11
21.557796073933
 21
1094.252275486918
 31
0.0
  0
LINE
  5
20E6
330
1D
100
AcDbEntity
  8
0
100
AcDbLine
 10
21.549050558713
 20
1094.261150669552
 30
0.0
 11
21.567833938134
 21
1094.16918342182
 31
0.0
  0
LINE
  5
20E7
330
1D
100
AcDbEntity
  8
0
100
AcDbLine
 10
21.551939777808
 20
1094.333816910721
 30
0.0
 11
22.359760082053
 21
1093.501545509043
 31
0.0
  0
LINE
  5
20E8
330
1D
100
AcDbEntity
  8
0
100
AcDbLine
 10
21.496569162196
 20
1094.386652636253
 30
0.0
 11
21.557796073933
 21
1094.252275486918
 31
0.0
  0
LINE
  5
20E9
330
1D
100
AcDbEntity
  8
0
100
AcDbLine
 10
21.475904155971
 20
1094.406371589799
 30
0.0
 11
21.557796073933
 21
1094.252275486918
 31
0.0
  0
LINE
  5
20EA
330
1D
100
AcDbEntity
  8
0
100
AcDbLine
 10
21.093973635189
 20
1094.72297489681
 30
0.0
 11
21.567833938134
 21
1094.16918342182
 31
0.0
  0
LINE
  5
20EB
330
1D
100
AcDbEntity
  8
0
100
AcDbLine
 10
22.567752771893
 20
1093.421008244543
 30
0.0
 11
23.260808614827
 21
1094.164307004858
 31
0.0
  0
LINE
  5
20EC
330
1D
100
AcDbEntity
  8
0
100
AcDbLine
 10
22.567752771893
 20
1093.421008244543
 30
0.0
 11
23.234368640306
 21
1094.190392549146
 31
0.0
  0
LINE
  5
20ED
330
1D
100
AcDbEntity
  8
0
100
AcDbLine
 10
22.436535666176
 20
1093.573877670336
 30
0.0
 11
22.567752771893
 21
1093.421008244543
 31
0.0
  0
LINE
  5
20EE
330
1D
100
AcDbEntity
  8
0
100
AcDbLine
 10
22.419890368233
 20
1093.558195726794
 30
0.0
 11
22.567752771893
 21
1093.421008244543
 31
0.0
  0
LINE
  5
20EF
330
1D
100
AcDbEntity
  8
0
100
AcDbLine
 10
22.404182758407
 20
1093.543397202231
 30
0.0
 11
22.567752771893
 21
1093.421008244543
 31
0.0
  0
LINE
  5
20F0
330
1D
100
AcDbEntity
  8
0
100
AcDbLine
 10
20.304590346043
 20
1095.52406216069
 30
0.0
 11
21.551939777808
 21
1094.333816910721
 31
0.0
  0
LINE
  5
20F1
330
1D
100
AcDbEntity
  8
0
100
AcDbLine
 10
20.304590346043
 20
1095.52406216069
 30
0.0
 11
20.588977113659
 21
1095.46440466824
 31
0.0
  0
LINE
  5
20F2
330
1D
100
AcDbEntity
  8
0
100
AcDbLine
 10
20.304590346043
 20
1095.52406216069
 30
0.0
 11
21.557796073933
 21
1094.252275486918
 31
0.0
  0
LINE
  5
20F3
330
1D
100
AcDbEntity
  8
0
100
AcDbLine
 10
24.342068839084
 20
1092.046533965516
 30
0.0
 11
24.81786945301
 21
1091.789970862581
 31
0.0
  0
LINE
  5
20F4
330
1D
100
AcDbEntity
  8
0
100
AcDbLine
 10
24.342068839084
 20
1092.046533965516
 30
0.0
 11
24.627489110861
 21
1091.653783104971
 31
0.0
  0
LINE
  5
20F5
330
1D
100
AcDbEntity
  8
0
100
AcDbLine
 10
20.588977113659
 20
1095.46440466824
 30
0.0
 11
21.551939777808
 21
1094.333816910721
 31
0.0
  0
LINE
  5
20F6
330
1D
100
AcDbEntity
  8
0
100
AcDbLine
 10
20.588977113659
 20
1095.46440466824
 30
0.0
 11
20.971608853142
 21
1095.900367339972
 31
0.0
  0
LINE
  5
20F7
330
1D
100
AcDbEntity
  8
0
100
AcDbLine
 10
24.195444292987
 20
1092.315641643745
 30
0.0
 11
24.348253747405
 21
1092.057207037348
 31
0.0
  0
LINE
  5
20F8
330
1D
100
AcDbEntity
  8
0
100
AcDbLine
 10
24.195444292987
 20
1092.315641643745
 30
0.0
 11
24.37881741391
 21
1092.109949647452
 31
0.0
  0
LINE
  5
20F9
330
1D
100
AcDbEntity
  8
0
100
AcDbLine
 10
26.514682896379
 20
1090.16227070948
 30
0.0
 11
26.627151697213
 21
1090.264680797005
 31
0.0
  0
LINE
  5
20FA
330
1D
100
AcDbEntity
  8
0
100
AcDbLine
 10
26.534080027926
 20
1090.351837702269
 30
0.0
 11
30.697447036607
 21
1086.45305532595
 31
0.0
  0
LINE
  5
20FB
330
1D
100
AcDbEntity
  8
0
100
AcDbLine
 10
26.534080027926
 20
1090.351837702269
 30
0.0
 11
30.697447036607
 21
1086.45305532595
 31
0.0
  0
LINE
  5
20FC
330
1D
100
AcDbEntity
  8
0
100
AcDbLine
 10
26.570825620882
 20
1090.391907715395
 30
0.0
 11
27.005204998768
 21
1090.790924143039
 31
0.0
  0
LINE
  5
20FD
330
1D
100
AcDbEntity
  8
0
100
AcDbLine
 10
24.81786945301
 20
1091.789970862581
 30
0.0
 11
25.67628253778
 21
1090.793191495873
 31
0.0
  0
LINE
  5
20FE
330
1D
100
AcDbEntity
  8
0
100
AcDbLine
 10
26.383724888725
 20
1090.213404049712
 30
0.0
 11
26.514682896379
 21
1090.16227070948
 31
0.0
  0
LINE
  5
20FF
330
1D
100
AcDbEntity
  8
0
100
AcDbLine
 10
24.409120373343
 20
1091.954268102208
 30
0.0
 11
24.552082109909
 21
1091.712488166145
 31
0.0
  0
LINE
  5
2100
330
1D
100
AcDbEntity
  8
0
100
AcDbLine
 10
21.557796073933
 20
1094.252275486918
 30
0.0
 11
22.359760082053
 21
1093.501545509043
 31
0.0
  0
LINE
  5
2101
330
1D
100
AcDbEntity
  8
0
100
AcDbLine
 10
35.711271201878
 20
1081.840230034913
 30
0.0
 11
43.769791536982
 21
1074.806934418439
 31
0.0
  0
LINE
  5
2102
330
1D
100
AcDbEntity
  8
0
100
AcDbLine
 10
38.220954235108
 20
1079.962671662261
 30
0.0
 11
38.624510311316
 21
1079.576139460037
 31
0.0
  0
LINE
  5
2103
330
1D
100
AcDbEntity
  8
0
100
AcDbLine
 10
38.220954235108
 20
1079.962671662261
 30
0.0
 11
38.353463319552
 21
1079.940903737696
 31
0.0
  0
LINE
  5
2104
330
1D
100
AcDbEntity
  8
0
100
AcDbLine
 10
32.024365206508
 20
1085.219802080718
 30
0.0
 11
35.711271201878
 21
1081.840230034913
 31
0.0
  0
LINE
  5
2105
330
1D
100
AcDbEntity
  8
0
100
AcDbLine
 10
32.140308061124
 20
1085.145478757233
 30
0.0
 11
32.387425183794
 21
1084.914630036225
 31
0.0
  0
LINE
  5
2106
330
1D
100
AcDbEntity
  8
0
100
AcDbLine
 10
32.387425183794
 20
1084.914630036225
 30
0.0
 11
32.457927073853
 21
1084.957424235576
 31
0.0
  0
LINE
  5
2107
330
1D
100
AcDbEntity
  8
0
100
AcDbLine
 10
32.320226581282
 20
1084.990068920263
 30
0.0
 11
32.395902586377
 21
1084.919775765733
 31
0.0
  0
LINE
  5
2108
330
1D
100
AcDbEntity
  8
0
100
AcDbLine
 10
32.225303497971
 20
1085.096632021382
 30
0.0
 11
32.320226581282
 21
1084.990068920263
 31
0.0
  0
LINE
  5
2109
330
1D
100
AcDbEntity
  8
0
100
AcDbLine
 10
32.225303497971
 20
1085.096632021382
 30
0.0
 11
32.387425183794
 21
1084.914630036225
 31
0.0
  0
LINE
  5
210A
330
1D
100
AcDbEntity
  8
0
100
AcDbLine
 10
32.395902586377
 20
1084.919775765733
 30
0.0
 11
32.457927073853
 21
1084.957424235576
 31
0.0
  0
LINE
  5
210B
330
1D
100
AcDbEntity
  8
0
100
AcDbLine
 10
32.693293670446
 20
1084.827678849499
 30
0.0
 11
33.531367275838
 21
1085.617041769493
 31
0.0
  0
LINE
  5
210C
330
1D
100
AcDbEntity
  8
0
100
AcDbLine
 10
32.115638969871
 20
1085.159656042848
 30
0.0
 11
32.693293670446
 21
1084.827678849499
 31
0.0
  0
LINE
  5
210D
330
1D
100
AcDbEntity
  8
0
100
AcDbLine
 10
32.429245495904
 20
1085.232520758793
 30
0.0
 11
32.693293670446
 21
1084.827678849499
 31
0.0
  0
LINE
  5
210E
330
1D
100
AcDbEntity
  8
0
100
AcDbLine
 10
38.069289475028
 20
1080.455708628978
 30
0.0
 11
39.669837636503
 21
1079.229784290856
 31
0.0
  0
LINE
  5
210F
330
1D
100
AcDbEntity
  8
0
100
AcDbLine
 10
38.069289475028
 20
1080.455708628978
 30
0.0
 11
38.220954235108
 21
1079.962671662261
 31
0.0
  0
LINE
  5
2110
330
1D
100
AcDbEntity
  8
0
100
AcDbLine
 10
38.069289475028
 20
1080.455708628978
 30
0.0
 11
38.786442142426
 21
1081.308412814944
 31
0.0
  0
LINE
  5
2111
330
1D
100
AcDbEntity
  8
0
100
AcDbLine
 10
31.98374786225
 20
1085.246567409943
 30
0.0
 11
32.115638969871
 21
1085.159656042848
 31
0.0
  0
LINE
  5
2112
330
1D
100
AcDbEntity
  8
0
100
AcDbLine
 10
31.975778349697
 20
1085.252471380613
 30
0.0
 11
32.115638969871
 21
1085.159656042848
 31
0.0
  0
LINE
  5
2113
330
1D
100
AcDbEntity
  8
0
100
AcDbLine
 10
24.563548300725
 20
1092.858261126185
 30
0.0
 11
24.195444292987
 21
1092.315641643745
 31
0.0
  0
LINE
  5
2114
330
1D
100
AcDbEntity
  8
0
100
AcDbLine
 10
21.298734088988
 20
1095.579381039599
 30
0.0
 11
22.372586516417
 21
1096.476334841246
 31
0.0
  0
LINE
  5
2115
330
1D
100
AcDbEntity
  8
0
100
AcDbLine
 10
21.253500745333
 20
1095.640442030598
 30
0.0
 11
22.339803208948
 21
1096.516845080061
 31
0.0
  0
LINE
  5
2116
330
1D
100
AcDbEntity
  8
0
100
AcDbLine
 10
21.253500745333
 20
1095.640442030598
 30
0.0
 11
21.298734088988
 21
1095.579381039599
 31
0.0
  0
LINE
  5
2117
330
1D
100
AcDbEntity
  8
0
100
AcDbLine
 10
34.878336987795
 20
1083.864934456778
 30
0.0
 11
34.816369498202
 21
1083.784675609044
 31
0.0
  0
LINE
  5
2118
330
1D
100
AcDbEntity
  8
0
100
AcDbLine
 10
34.830656104104
 20
1083.907358331107
 30
0.0
 11
34.816369498202
 21
1083.784675609044
 31
0.0
  0
LINE
  5
2119
330
1D
100
AcDbEntity
  8
0
100
AcDbLine
 10
34.33999554951
 20
1084.34392158445
 30
0.0
 11
35.438008688723
 21
1083.366968813782
 31
0.0
  0
LINE
  5
211A
330
1D
100
AcDbEntity
  8
0
100
AcDbLine
 10
34.33999554951
 20
1084.34392158445
 30
0.0
 11
34.411046750967
 21
1084.356710645022
 31
0.0
  0
LINE
  5
211B
330
1D
100
AcDbEntity
  8
0
100
AcDbLine
 10
34.810034512403
 20
1083.925706309313
 30
0.0
 11
34.816369498202
 21
1083.784675609044
 31
0.0
  0
LINE
  5
211C
330
1D
100
AcDbEntity
  8
0
100
AcDbLine
 10
36.17042774048
 20
1082.791297394808
 30
0.0
 11
37.112743988838
 21
1083.70417473995
 31
0.0
  0
LINE
  5
211D
330
1D
100
AcDbEntity
  8
0
100
AcDbLine
 10
35.438008688723
 20
1083.366968813782
 30
0.0
 11
35.902195634708
 21
1083.144170229457
 31
0.0
  0
LINE
  5
211E
330
1D
100
AcDbEntity
  8
0
100
AcDbLine
 10
35.438008688723
 20
1083.366968813782
 30
0.0
 11
35.584108531891
 21
1083.467595691334
 31
0.0
  0
LINE
  5
211F
330
1D
100
AcDbEntity
  8
0
100
AcDbLine
 10
35.902195634708
 20
1083.144170229457
 30
0.0
 11
36.17042774048
 21
1082.791297394808
 31
0.0
  0
LINE
  5
2120
330
1D
100
AcDbEntity
  8
0
100
AcDbLine
 10
34.097862280531
 20
1084.562368786431
 30
0.0
 11
34.305962070763
 21
1084.766189902376
 31
0.0
  0
LINE
  5
2121
330
1D
100
AcDbEntity
  8
0
100
AcDbLine
 10
34.097862280531
 20
1084.562368786431
 30
0.0
 11
35.254205218657
 21
1083.803035671491
 31
0.0
  0
LINE
  5
2122
330
1D
100
AcDbEntity
  8
0
100
AcDbLine
 10
34.097862280531
 20
1084.562368786431
 30
0.0
 11
34.816369498202
 21
1083.784675609044
 31
0.0
  0
LINE
  5
2123
330
1D
100
AcDbEntity
  8
0
100
AcDbLine
 10
35.186626795989
 20
1083.847412242226
 30
0.0
 11
35.438008688723
 21
1083.366968813782
 31
0.0
  0
LINE
  5
2124
330
1D
100
AcDbEntity
  8
0
100
AcDbLine
 10
35.297054352801
 20
1083.759467413367
 30
0.0
 11
35.438008688723
 21
1083.366968813782
 31
0.0
  0
LINE
  5
2125
330
1D
100
AcDbEntity
  8
0
100
AcDbLine
 10
35.452049088705
 20
1083.601871447971
 30
0.0
 11
35.438008688723
 21
1083.366968813782
 31
0.0
  0
LINE
  5
2126
330
1D
100
AcDbEntity
  8
0
100
AcDbLine
 10
35.254205218657
 20
1083.803035671491
 30
0.0
 11
35.902195634708
 21
1083.144170229457
 31
0.0
  0
LINE
  5
2127
330
1D
100
AcDbEntity
  8
0
100
AcDbLine
 10
27.475565717773
 20
1090.278917242002
 30
0.0
 11
28.017346803586
 21
1090.147658318285
 31
0.0
  0
LINE
  5
2128
330
1D
100
AcDbEntity
  8
0
100
AcDbLine
 10
34.816369498202
 20
1083.784675609044
 30
0.0
 11
35.438008688723
 21
1083.366968813782
 31
0.0
  0
LINE
  5
2129
330
1D
100
AcDbEntity
  8
0
100
AcDbLine
 10
34.816369498202
 20
1083.784675609044
 30
0.0
 11
36.17042774048
 21
1082.791297394808
 31
0.0
  0
LINE
  5
212A
330
1D
100
AcDbEntity
  8
0
100
AcDbLine
 10
19.62693267952
 20
1096.190198383248
 30
0.0
 11
20.666820063513
 21
1094.818049893246
 31
0.0
  0
LINE
  5
212B
330
1D
100
AcDbEntity
  8
0
100
AcDbLine
 10
19.62693267952
 20
1096.190198383248
 30
0.0
 11
20.114655312952
 21
1096.730351065465
 31
0.0
  0
LINE
  5
212C
330
1D
100
AcDbEntity
  8
0
100
AcDbLine
 10
20.699879856061
 20
1096.164978194285
 30
0.0
 11
20.304590346043
 21
1095.52406216069
 31
0.0
  0
LINE
  5
212D
330
1D
100
AcDbEntity
  8
0
100
AcDbLine
 10
20.833088114995
 20
1096.036288554206
 30
0.0
 11
21.298734088988
 21
1095.579381039599
 31
0.0
  0
LINE
  5
212E
330
1D
100
AcDbEntity
  8
0
100
AcDbLine
 10
23.164299797791
 20
1094.259522112534
 30
0.0
 11
23.757211984402
 21
1093.674557967038
 31
0.0
  0
LINE
  5
212F
330
1D
100
AcDbEntity
  8
0
100
AcDbLine
 10
23.757211984402
 20
1093.674557967038
 30
0.0
 11
24.720423939504
 21
1092.699447631433
 31
0.0
  0
LINE
  5
2130
330
1D
100
AcDbEntity
  8
0
100
AcDbLine
 10
26.442507496154
 20
1091.403443413661
 30
0.0
 11
27.267429910508
 21
1090.630446608818
 31
0.0
  0
LINE
  5
2131
330
1D
100
AcDbEntity
  8
0
100
AcDbLine
 10
26.442507496154
 20
1091.403443413661
 30
0.0
 11
28.017346803586
 21
1090.147658318285
 31
0.0
  0
LINE
  5
2132
330
1D
100
AcDbEntity
  8
0
100
AcDbLine
 10
26.442507496154
 20
1091.403443413661
 30
0.0
 11
27.475565717773
 21
1090.278917242002
 31
0.0
  0
LINE
  5
2133
330
1D
100
AcDbEntity
  8
0
100
AcDbLine
 10
28.017346803586
 20
1090.147658318285
 30
0.0
 11
28.793522775636
 21
1090.843729896631
 31
0.0
  0
LINE
  5
2134
330
1D
100
AcDbEntity
  8
0
100
AcDbLine
 10
34.305962070763
 20
1084.766189902376
 30
0.0
 11
35.254205218657
 21
1083.803035671491
 31
0.0
  0
LINE
  5
2135
330
1D
100
AcDbEntity
  8
0
100
AcDbLine
 10
27.267429910508
 20
1090.630446608818
 30
0.0
 11
27.475565717773
 21
1090.278917242002
 31
0.0
  0
LINE
  5
2136
330
1D
100
AcDbEntity
  8
0
100
AcDbLine
 10
26.057246821488
 20
1091.631159690101
 30
0.0
 11
26.442507496154
 21
1091.403443413661
 31
0.0
  0
LINE
  5
2137
330
1D
100
AcDbEntity
  8
0
100
AcDbLine
 10
26.057246821488
 20
1091.631159690101
 30
0.0
 11
26.999175986628
 21
1090.797486969605
 31
0.0
  0
LINE
  5
2138
330
1D
100
AcDbEntity
  8
0
100
AcDbLine
 10
19.953076887113
 20
1096.88644851492
 30
0.0
 11
20.833088114995
 21
1096.036288554206
 31
0.0
  0
LINE
  5
2139
330
1D
100
AcDbEntity
  8
0
100
AcDbLine
 10
19.953076887113
 20
1096.88644851492
 30
0.0
 11
20.045720453731
 21
1096.861724810022
 31
0.0
  0
LINE
  5
213A
330
1D
100
AcDbEntity
  8
0
100
AcDbLine
 10
19.957850535764
 20
1097.074468360358
 30
0.0
 11
21.253500745333
 21
1095.640442030598
 31
0.0
  0
LINE
  5
213B
330
1D
100
AcDbEntity
  8
0
100
AcDbLine
 10
19.957850535764
 20
1097.074468360358
 30
0.0
 11
20.925984496321
 21
1096.335863022972
 31
0.0
  0
LINE
  5
213C
330
1D
100
AcDbEntity
  8
0
100
AcDbLine
 10
20.925984496321
 20
1096.335863022972
 30
0.0
 11
21.253500745333
 21
1095.640442030598
 31
0.0
  0
LINE
  5
213D
330
1D
100
AcDbEntity
  8
0
100
AcDbLine
 10
30.687199032378
 20
1088.045759470477
 30
0.0
 11
31.067702451914
 21
1087.640490983654
 31
0.0
  0
LINE
  5
213E
330
1D
100
AcDbEntity
  8
0
100
AcDbLine
 10
30.486842838917
 20
1088.33919737829
 30
0.0
 11
30.599503037942
 21
1088.297663782786
 31
0.0
  0
LINE
  5
213F
330
1D
100
AcDbEntity
  8
0
100
AcDbLine
 10
32.828072538521
 20
1086.353916424951
 30
0.0
 11
33.328857695892
 21
1085.84585387353
 31
0.0
  0
LINE
  5
2140
330
1D
100
AcDbEntity
  8
0
100
AcDbLine
 10
30.841829685934
 20
1088.049421571079
 30
0.0
 11
31.128221743956
 21
1087.744836341421
 31
0.0
  0
LINE
  5
2141
330
1D
100
AcDbEntity
  8
0
100
AcDbLine
 10
30.618255256385
 20
1088.201776795643
 30
0.0
 11
30.77407150588
 21
1088.007719184627
 31
0.0
  0
LINE
  5
2142
330
1D
100
AcDbEntity
  8
0
100
AcDbLine
 10
30.52264550158
 20
1088.249628804861
 30
0.0
 11
30.77407150588
 21
1088.007719184627
 31
0.0
  0
LINE
  5
2143
330
1D
100
AcDbEntity
  8
0
100
AcDbLine
 10
30.52264550158
 20
1088.249628804861
 30
0.0
 11
30.687199032378
 21
1088.045759470477
 31
0.0
  0
LINE
  5
2144
330
1D
100
AcDbEntity
  8
0
100
AcDbLine
 10
33.376793879248
 20
1085.912490121335
 30
0.0
 11
33.459124464912
 21
1085.814398575977
 31
0.0
  0
LINE
  5
2145
330
1D
100
AcDbEntity
  8
0
100
AcDbLine
 10
38.968665986614
 20
1081.173149929997
 30
0.0
 11
39.83994012543
 21
1080.506420700826
 31
0.0
  0
LINE
  5
2146
330
1D
100
AcDbEntity
  8
0
100
AcDbLine
 10
38.653413182246
 20
1081.407158843574
 30
0.0
 11
38.069289475028
 21
1080.455708628978
 31
0.0
  0
LINE
  5
2147
330
1D
100
AcDbEntity
  8
0
100
AcDbLine
 10
33.008403745359
 20
1086.170964650725
 30
0.0
 11
32.429245495904
 21
1085.232520758793
 31
0.0
  0
LINE
  5
2148
330
1D
100
AcDbEntity
  8
0
100
AcDbLine
 10
32.54194178598
 20
1086.656321897877
 30
0.0
 11
32.812729105907
 21
1086.397859787085
 31
0.0
  0
LINE
  5
2149
330
1D
100
AcDbEntity
  8
0
100
AcDbLine
 10
30.584809705123
 20
1088.287931569746
 30
0.0
 11
30.618255256385
 21
1088.201776795643
 31
0.0
  0
LINE
  5
214A
330
1D
100
AcDbEntity
  8
0
100
AcDbLine
 10
30.584809705123
 20
1088.287931569746
 30
0.0
 11
30.644143711768
 21
1088.265944708995
 31
0.0
  0
LINE
  5
214B
330
1D
100
AcDbEntity
  8
0
100
AcDbLine
 10
30.584809705123
 20
1088.287931569746
 30
0.0
 11
30.636367157598
 21
1088.271470277372
 31
0.0
  0
LINE
  5
214C
330
1D
100
AcDbEntity
  8
0
100
AcDbLine
 10
25.818066385336
 20
1092.20285265749
 30
0.0
 11
26.442507496154
 21
1091.403443413661
 31
0.0
  0
LINE
  5
214D
330
1D
100
AcDbEntity
  8
0
100
AcDbLine
 10
25.818066385336
 20
1092.20285265749
 30
0.0
 11
26.057246821488
 21
1091.631159690101
 31
0.0
  0
LINE
  5
214E
330
1D
100
AcDbEntity
  8
0
100
AcDbLine
 10
19.801636913856
 20
1097.108537103668
 30
0.0
 11
19.953076887113
 21
1096.88644851492
 31
0.0
  0
LINE
  5
214F
330
1D
100
AcDbEntity
  8
0
100
AcDbLine
 10
18.111624689596
 20
1099.48097537971
 30
0.0
 11
19.352665656571
 21
1098.122717387067
 31
0.0
  0
LINE
  5
2150
330
1D
100
AcDbEntity
  8
0
100
AcDbLine
 10
18.399874312275
 20
1099.740980289462
 30
0.0
 11
18.475929582522
 21
1099.643719328703
 31
0.0
  0
LINE
  5
2151
330
1D
100
AcDbEntity
  8
0
100
AcDbLine
 10
18.345615204679
 20
1099.784004227845
 30
0.0
 11
18.525066846954
 21
1099.555885228012
 31
0.0
  0
LINE
  5
2152
330
1D
100
AcDbEntity
  8
0
100
AcDbLine
 10
18.091203191936
 20
1100.089251386345
 30
0.0
 11
18.345615204679
 21
1099.784004227845
 31
0.0
  0
LINE
  5
2153
330
1D
100
AcDbEntity
  8
0
100
AcDbLine
 10
18.091203191936
 20
1100.089251386345
 30
0.0
 11
19.711270093395
 21
1098.261343170707
 31
0.0
  0
LINE
  5
2154
330
1D
100
AcDbEntity
  8
0
100
AcDbLine
 10
18.304276202664
 20
1099.666381687043
 30
0.0
 11
18.4496800266
 21
1099.529982963305
 31
0.0
  0
LINE
  5
2155
330
1D
100
AcDbEntity
  8
0
100
AcDbLine
 10
18.4496800266
 20
1099.529982963305
 30
0.0
 11
18.603350521735
 21
1099.420488676126
 31
0.0
  0
LINE
  5
2156
330
1D
100
AcDbEntity
  8
0
100
AcDbLine
 10
18.403313773885
 20
1099.619408130955
 30
0.0
 11
18.548461861529
 21
1099.515422075081
 31
0.0
  0
LINE
  5
2157
330
1D
100
AcDbEntity
  8
0
100
AcDbLine
 10
18.403313773885
 20
1099.619408130955
 30
0.0
 11
18.603350521735
 21
1099.420488676126
 31
0.0
  0
LINE
  5
2158
330
1D
100
AcDbEntity
  8
0
100
AcDbLine
 10
18.475929582522
 20
1099.643719328703
 30
0.0
 11
18.525066846954
 21
1099.555885228012
 31
0.0
  0
LINE
  5
2159
330
1D
100
AcDbEntity
  8
0
100
AcDbLine
 10
18.56813000841
 20
1099.551138765622
 30
0.0
 11
19.487011096971
 21
1098.514372759563
 31
0.0
  0
LINE
  5
215A
330
1D
100
AcDbEntity
  8
0
100
AcDbLine
 10
18.470734908351
 20
1099.650362379199
 30
0.0
 11
18.56813000841
 21
1099.551138765622
 31
0.0
  0
LINE
  5
215B
330
1D
100
AcDbEntity
  8
0
100
AcDbLine
 10
18.525066846954
 20
1099.555885228012
 30
0.0
 11
18.603350521735
 21
1099.420488676126
 31
0.0
  0
LINE
  5
215C
330
1D
100
AcDbEntity
  8
0
100
AcDbLine
 10
18.525066846954
 20
1099.555885228012
 30
0.0
 11
19.711270093395
 21
1098.261343170707
 31
0.0
  0
LINE
  5
215D
330
1D
100
AcDbEntity
  8
0
100
AcDbLine
 10
18.351643335894
 20
1099.621948079006
 30
0.0
 11
18.42009444246
 21
1099.689326190823
 31
0.0
  0
LINE
  5
215E
330
1D
100
AcDbEntity
  8
0
100
AcDbLine
 10
21.713204644572
 20
1095.925574735312
 30
0.0
 11
22.085597444686
 21
1095.555379800867
 31
0.0
  0
LINE
  5
215F
330
1D
100
AcDbEntity
  8
0
100
AcDbLine
 10
22.085597444686
 20
1095.555379800867
 30
0.0
 11
22.477601896329
 21
1095.160525941962
 31
0.0
  0
LINE
  5
2160
330
1D
100
AcDbEntity
  8
0
100
AcDbLine
 10
21.73154698447
 20
1095.940895491761
 30
0.0
 11
22.477601896329
 21
1095.160525941962
 31
0.0
  0
LINE
  5
2161
330
1D
100
AcDbEntity
  8
0
100
AcDbLine
 10
19.352665656571
 20
1098.122717387067
 30
0.0
 11
19.565670523017
 21
1097.895642573502
 31
0.0
  0
LINE
  5
2162
330
1D
100
AcDbEntity
  8
0
100
AcDbLine
 10
19.295985386229
 20
1098.198279229466
 30
0.0
 11
19.352665656571
 21
1098.122717387067
 31
0.0
  0
LINE
  5
2163
330
1D
100
AcDbEntity
  8
0
100
AcDbLine
 10
19.330417766485
 20
1098.45246414048
 30
0.0
 11
19.687581986744
 21
1098.078872227421
 31
0.0
  0
LINE
  5
2164
330
1D
100
AcDbEntity
  8
0
100
AcDbLine
 10
19.330417766485
 20
1098.45246414048
 30
0.0
 11
19.684517724667
 21
1098.074266723864
 31
0.0
  0
LINE
  5
2165
330
1D
100
AcDbEntity
  8
0
100
AcDbLine
 10
22.339726092292
 20
1095.299403939508
 30
0.0
 11
21.551939777808
 21
1094.333816910721
 31
0.0
  0
LINE
  5
2166
330
1D
100
AcDbEntity
  8
0
100
AcDbLine
 10
25.144654630116
 20
1093.029776915165
 30
0.0
 11
25.888562966067
 21
1092.313574768299
 31
0.0
  0
LINE
  5
2167
330
1D
100
AcDbEntity
  8
0
100
AcDbLine
 10
25.438078635737
 20
1092.747281219645
 30
0.0
 11
24.81786945301
 21
1091.789970862581
 31
0.0
  0
LINE
  5
2168
330
1D
100
AcDbEntity
  8
0
100
AcDbLine
 10
24.990742593675
 20
1093.165926722807
 30
0.0
 11
24.342068839084
 21
1092.046533965516
 31
0.0
  0
LINE
  5
2169
330
1D
100
AcDbEntity
  8
0
100
AcDbLine
 10
28.974710083243
 20
1090.691121184299
 30
0.0
 11
29.091954392812
 21
1090.600416330767
 31
0.0
  0
LINE
  5
216A
330
1D
100
AcDbEntity
  8
0
100
AcDbLine
 10
26.247320080018
 20
1093.038941280545
 30
0.0
 11
26.308479375571
 21
1092.973096559867
 31
0.0
  0
LINE
  5
216B
330
1D
100
AcDbEntity
  8
0
100
AcDbLine
 10
26.09830965204
 20
1093.336942341539
 30
0.0
 11
26.247320080018
 21
1093.038941280545
 31
0.0
  0
LINE
  5
216C
330
1D
100
AcDbEntity
  8
0
100
AcDbLine
 10
29.05715955631
 20
1090.662436774816
 30
0.0
 11
29.091209430971
 21
1090.604442258996
 31
0.0
  0
LINE
  5
216D
330
1D
100
AcDbEntity
  8
0
100
AcDbLine
 10
29.05715955631
 20
1090.662436774816
 30
0.0
 11
29.104476752372
 21
1090.581845057434
 31
0.0
  0
LINE
  5
216E
330
1D
100
AcDbEntity
  8
0
100
AcDbLine
 10
22.375999200801
 20
1096.479185344866
 30
0.0
 11
22.420135784867
 21
1096.516051189612
 31
0.0
  0
LINE
  5
216F
330
1D
100
AcDbEntity
  8
0
100
AcDbLine
 10
22.342520531422
 20
1096.519037351352
 30
0.0
 11
22.385755289833
 21
1096.553918128467
 31
0.0
  0
LINE
  5
2170
330
1D
100
AcDbEntity
  8
0
100
AcDbLine
 10
27.754517311465
 20
1091.730390954605
 30
0.0
 11
28.589759708086
 21
1090.983850112529
 31
0.0
  0
LINE
  5
2171
330
1D
100
AcDbEntity
  8
0
100
AcDbLine
 10
28.589759708086
 20
1090.983850112529
 30
0.0
 11
29.094037058001
 21
1090.637077500631
 31
0.0
  0
LINE
  5
2172
330
1D
100
AcDbEntity
  8
0
100
AcDbLine
 10
28.589759708086
 20
1090.983850112529
 30
0.0
 11
29.139297160638
 21
1090.606540586751
 31
0.0
  0
LINE
  5
2173
330
1D
100
AcDbEntity
  8
0
100
AcDbLine
 10
29.094037058001
 20
1090.637077500631
 30
0.0
 11
29.139297160638
 21
1090.606540586751
 31
0.0
  0
LINE
  5
2174
330
1D
100
AcDbEntity
  8
0
100
AcDbLine
 10
26.266762410122
 20
1093.236975105434
 30
0.0
 11
26.38800886911
 21
1093.098005786739
 31
0.0
  0
LINE
  5
2175
330
1D
100
AcDbEntity
  8
0
100
AcDbLine
 10
20.28832996926
 20
1098.278539381534
 30
0.0
 11
21.445631810943
 21
1099.330073742385
 31
0.0
  0
LINE
  5
2176
330
1D
100
AcDbEntity
  8
0
100
AcDbLine
 10
19.98316028051
 20
1098.52311846003
 30
0.0
 11
19.41586687619
 21
1097.670491717916
 31
0.0
  0
LINE
  5
2177
330
1D
100
AcDbEntity
  8
0
100
AcDbLine
 10
19.539349509274
 20
1098.878811811818
 30
0.0
 11
20.28832996926
 21
1098.278539381534
 31
0.0
  0
LINE
  5
2178
330
1D
100
AcDbEntity
  8
0
100
AcDbLine
 10
19.343050604899
 20
1099.081252420741
 30
0.0
 11
19.539349509274
 21
1098.878811811818
 31
0.0
  0
LINE
  5
2179
330
1D
100
AcDbEntity
  8
0
100
AcDbLine
 10
17.586270761544
 20
1100.673113476858
 30
0.0
 11
18.091203191936
 21
1100.089251386345
 31
0.0
  0
LINE
  5
217A
330
1D
100
AcDbEntity
  8
0
100
AcDbLine
 10
17.626836589568
 20
1100.626206509255
 30
0.0
 11
17.025614514641
 21
1099.520808125482
 31
0.0
  0
LINE
  5
217B
330
1D
100
AcDbEntity
  8
0
100
AcDbLine
 10
26.169185911138
 20
1093.471192540408
 30
0.0
 11
26.565273677047
 21
1093.185438482349
 31
0.0
  0
LINE
  5
217C
330
1D
100
AcDbEntity
  8
0
100
AcDbLine
 10
27.149947566513
 20
1092.669383395197
 30
0.0
 11
27.709599283977
 21
1092.146354550467
 31
0.0
  0
LINE
  5
217D
330
1D
100
AcDbEntity
  8
0
100
AcDbLine
 10
26.229728017378
 20
1093.427514966823
 30
0.0
 11
26.266762410122
 21
1093.236975105434
 31
0.0
  0
LINE
  5
217E
330
1D
100
AcDbEntity
  8
0
100
AcDbLine
 10
26.049991151746
 20
1093.492492759505
 30
0.0
 11
26.09830965204
 21
1093.336942341539
 31
0.0
  0
LINE
  5
217F
330
1D
100
AcDbEntity
  8
0
100
AcDbLine
 10
26.049991151746
 20
1093.492492759505
 30
0.0
 11
26.169185911138
 21
1093.471192540408
 31
0.0
  0
LINE
  5
2180
330
1D
100
AcDbEntity
  8
0
100
AcDbLine
 10
19.663542445831
 20
1099.102524818202
 30
0.0
 11
19.539349509274
 21
1098.878811811818
 31
0.0
  0
LINE
  5
2181
330
1D
100
AcDbEntity
  8
0
100
AcDbLine
 10
21.278941156137
 20
1097.715448557214
 30
0.0
 11
21.783504869837
 21
1097.151215884624
 31
0.0
  0
LINE
  5
2182
330
1D
100
AcDbEntity
  8
0
100
AcDbLine
 10
19.673292047074
 20
1099.089666799858
 30
0.0
 11
19.539349509274
 21
1098.878811811818
 31
0.0
  0
LINE
  5
2183
330
1D
100
AcDbEntity
  8
0
100
AcDbLine
 10
20.819760035291
 20
1098.179593866636
 30
0.0
 11
21.278941156137
 21
1097.715448557214
 31
0.0
  0
LINE
  5
2184
330
1D
100
AcDbEntity
  8
0
100
AcDbLine
 10
20.489240804751
 20
1098.461088686631
 30
0.0
 11
20.819760035291
 21
1098.179593866636
 31
0.0
  0
LINE
  5
2185
330
1D
100
AcDbEntity
  8
0
100
AcDbLine
 10
19.562271761032
 20
1099.23608313412
 30
0.0
 11
19.539349509274
 21
1098.878811811818
 31
0.0
  0
LINE
  5
2186
330
1D
100
AcDbEntity
  8
0
100
AcDbLine
 10
19.58014119481
 20
1099.212516477228
 30
0.0
 11
19.539349509274
 21
1098.878811811818
 31
0.0
  0
LINE
  5
2187
330
1D
100
AcDbEntity
  8
0
100
AcDbLine
 10
26.565273677047
 20
1093.185438482349
 30
0.0
 11
27.149947566513
 21
1092.669383395197
 31
0.0
  0
LINE
  5
2188
330
1D
100
AcDbEntity
  8
0
100
AcDbLine
 10
26.481950721142
 20
1093.245551100886
 30
0.0
 11
25.818066385336
 21
1092.20285265749
 31
0.0
  0
LINE
  5
2189
330
1D
100
AcDbEntity
  8
0
100
AcDbLine
 10
21.691101326792
 20
1097.25454693407
 30
0.0
 11
20.925984496321
 21
1096.335863022972
 31
0.0
  0
LINE
  5
218A
330
1D
100
AcDbEntity
  8
0
100
AcDbLine
 10
21.691101326792
 20
1097.25454693407
 30
0.0
 11
20.925984496321
 21
1096.335863022972
 31
0.0
  0
LINE
  5
218B
330
1D
100
AcDbEntity
  8
0
100
AcDbLine
 10
19.07923786322
 20
1099.359272271341
 30
0.0
 11
19.343050604899
 21
1099.081252420741
 31
0.0
  0
LINE
  5
218C
330
1D
100
AcDbEntity
  8
0
100
AcDbLine
 10
19.07923786322
 20
1099.359272271341
 30
0.0
 11
19.539349509274
 21
1098.878811811818
 31
0.0
  0
LINE
  5
218D
330
1D
100
AcDbEntity
  8
0
100
AcDbLine
 10
19.07923786322
 20
1099.359272271341
 30
0.0
 11
19.39280298837
 21
1099.459582796657
 31
0.0
  0
LINE
  5
218E
330
1D
100
AcDbEntity
  8
0
100
AcDbLine
 10
19.265953888745
 20
1099.60518513406
 30
0.0
 11
19.07923786322
 21
1099.359272271341
 31
0.0
  0
LINE
  5
218F
330
1D
100
AcDbEntity
  8
0
100
AcDbLine
 10
19.094757335384
 20
1099.728821612887
 30
0.0
 11
19.07923786322
 21
1099.359272271341
 31
0.0
  0
LINE
  5
2190
330
1D
100
AcDbEntity
  8
0
100
AcDbLine
 10
20.330965596895
 20
1098.670676351554
 30
0.0
 11
20.28832996926
 21
1098.278539381534
 31
0.0
  0
LINE
  5
2191
330
1D
100
AcDbEntity
  8
0
100
AcDbLine
 10
20.330965596895
 20
1098.670676351554
 30
0.0
 11
21.231221368702
 21
1099.566849751761
 31
0.0
  0
LINE
  5
2192
330
1D
100
AcDbEntity
  8
0
100
AcDbLine
 10
19.216739074469
 20
1099.691780296665
 30
0.0
 11
20.28832996926
 21
1098.278539381534
 31
0.0
  0
LINE
  5
2193
330
1D
100
AcDbEntity
  8
0
100
AcDbLine
 10
19.216739074469
 20
1099.691780296665
 30
0.0
 11
20.330965596895
 21
1098.670676351554
 31
0.0
  0
LINE
  5
2194
330
1D
100
AcDbEntity
  8
0
100
AcDbLine
 10
27.661402424988
 20
1092.592681780206
 30
0.0
 11
29.255262465552
 21
1091.2371292467
 31
0.0
  0
LINE
  5
2195
330
1D
100
AcDbEntity
  8
0
100
AcDbLine
 10
27.661402424988
 20
1092.592681780206
 30
0.0
 11
27.754517311465
 21
1091.730390954605
 31
0.0
  0
LINE
  5
2196
330
1D
100
AcDbEntity
  8
0
100
AcDbLine
 10
18.751214440766
 20
1099.976924936131
 30
0.0
 11
19.302306833836
 21
1099.57893139216
 31
0.0
  0
LINE
  5
2197
330
1D
100
AcDbEntity
  8
0
100
AcDbLine
 10
18.458097992389
 20
1100.252381044596
 30
0.0
 11
18.580877450834
 21
1100.396992609085
 31
0.0
  0
LINE
  5
2198
330
1D
100
AcDbEntity
  8
0
100
AcDbLine
 10
18.458097992389
 20
1100.252381044596
 30
0.0
 11
18.689751715715
 21
1099.990641474662
 31
0.0
  0
LINE
  5
2199
330
1D
100
AcDbEntity
  8
0
100
AcDbLine
 10
18.458097992389
 20
1100.252381044596
 30
0.0
 11
19.07923786322
 21
1099.359272271341
 31
0.0
  0
LINE
  5
219A
330
1D
100
AcDbEntity
  8
0
100
AcDbLine
 10
18.458097992389
 20
1100.252381044596
 30
0.0
 11
18.751214440766
 21
1099.976924936131
 31
0.0
  0
LINE
  5
219B
330
1D
100
AcDbEntity
  8
0
100
AcDbLine
 10
19.334203762496
 20
1101.695107723651
 30
0.0
 11
18.458097992389
 21
1100.252381044596
 31
0.0
  0
LINE
  5
219C
330
1D
100
AcDbEntity
  8
0
100
AcDbLine
 10
20.721559122838
 20
1102.002899885096
 30
0.0
 11
21.124680353844
 21
1102.254162940702
 31
0.0
  0
LINE
  5
219D
330
1D
100
AcDbEntity
  8
0
100
AcDbLine
 10
20.721559122838
 20
1102.002899885096
 30
0.0
 11
21.939884825542
 21
1100.651118437476
 31
0.0
  0
LINE
  5
219E
330
1D
100
AcDbEntity
  8
0
100
AcDbLine
 10
20.721559122838
 20
1102.002899885096
 30
0.0
 11
21.773526699827
 21
1100.8967085513
 31
0.0
  0
LINE
  5
219F
330
1D
100
AcDbEntity
  8
0
100
AcDbLine
 10
20.721559122838
 20
1102.002899885096
 30
0.0
 11
21.286138633944
 21
1102.057864892149
 31
0.0
  0
LINE
  5
21A0
330
1D
100
AcDbEntity
  8
0
100
AcDbLine
 10
22.080099513371
 20
1102.602012735308
 30
0.0
 11
22.662151448083
 21
1101.871721200852
 31
0.0
  0
LINE
  5
21A1
330
1D
100
AcDbEntity
  8
0
100
AcDbLine
 10
21.504063373702
 20
1103.105337179176
 30
0.0
 11
22.080099513371
 21
1102.602012735308
 31
0.0
  0
LINE
  5
21A2
330
1D
100
AcDbEntity
  8
0
100
AcDbLine
 10
20.695844971598
 20
1102.910978710103
 30
0.0
 11
20.721559122838
 21
1102.002899885096
 31
0.0
  0
LINE
  5
21A3
330
1D
100
AcDbEntity
  8
0
100
AcDbLine
 10
20.695844971598
 20
1102.910978710103
 30
0.0
 11
21.504063373702
 21
1103.105337179176
 31
0.0
  0
LINE
  5
21A4
330
1D
100
AcDbEntity
  8
0
100
AcDbLine
 10
21.124680353844
 20
1102.254162940702
 30
0.0
 11
21.917942428359
 21
1101.28972929802
 31
0.0
  0
LINE
  5
21A5
330
1D
100
AcDbEntity
  8
0
100
AcDbLine
 10
28.352962057917
 20
1093.668436757743
 30
0.0
 11
27.661402424988
 21
1092.592681780206
 31
0.0
  0
LINE
  5
21A6
330
1D
100
AcDbEntity
  8
0
100
AcDbLine
 10
21.939884825542
 20
1100.651118437476
 30
0.0
 11
22.643926546209
 21
1100.47038571891
 31
0.0
  0
LINE
  5
21A7
330
1D
100
AcDbEntity
  8
0
100
AcDbLine
 10
22.973310333721
 20
1101.336492363916
 30
0.0
 11
22.643926546209
 21
1100.47038571891
 31
0.0
  0
LINE
  5
21A8
330
1D
100
AcDbEntity
  8
0
100
AcDbLine
 10
22.662151448083
 20
1101.871721200852
 30
0.0
 11
22.973310333721
 21
1101.336492363916
 31
0.0
  0
LINE
  5
21A9
330
1D
100
AcDbEntity
  8
0
100
AcDbLine
 10
21.773526699827
 20
1100.8967085513
 30
0.0
 11
22.012438080889
 21
1100.985255273425
 31
0.0
  0
LINE
  5
21AA
330
1D
100
AcDbEntity
  8
0
100
AcDbLine
 10
21.773526699827
 20
1100.8967085513
 30
0.0
 11
21.973323708576
 21
1101.111285519671
 31
0.0
  0
LINE
  5
21AB
330
1D
100
AcDbEntity
  8
0
100
AcDbLine
 10
21.917942428359
 20
1101.28972929802
 30
0.0
 11
22.012438080889
 21
1100.985255273425
 31
0.0
  0
LINE
  5
21AC
330
1D
100
AcDbEntity
  8
0
100
AcDbLine
 10
21.917942428359
 20
1101.28972929802
 30
0.0
 11
21.773526699827
 21
1100.8967085513
 31
0.0
  0
LINE
  5
21AD
330
1D
100
AcDbEntity
  8
0
100
AcDbLine
 10
18.580877450834
 20
1100.396992609085
 30
0.0
 11
19.216739074469
 21
1099.691780296665
 31
0.0
  0
LINE
  5
21AE
330
1D
100
AcDbEntity
  8
0
100
AcDbLine
 10
29.255262465552
 20
1091.2371292467
 30
0.0
 11
29.723558364182
 21
1090.349955131136
 31
0.0
  0
LINE
  5
21AF
330
1D
100
AcDbEntity
  8
0
100
AcDbLine
 10
30.612885035392
 20
1088.290517581598
 30
0.0
 11
30.69077439197
 21
1088.297691951315
 31
0.0
  0
LINE
  5
21B0
330
1D
100
AcDbEntity
  8
0
100
AcDbLine
 10
30.666671766551
 20
1088.26179460481
 30
0.0
 11
30.747124979489
 21
1088.23610745781
 31
0.0
  0
LINE
  5
21B1
330
1D
100
AcDbEntity
  8
0
100
AcDbLine
 10
30.860467461311
 20
1088.112237598724
 30
0.0
 11
31.250176398317
 21
1087.795545691001
 31
0.0
  0
LINE
  5
21B2
330
1D
100
AcDbEntity
  8
0
100
AcDbLine
 10
30.761860384018
 20
1088.182302068922
 30
0.0
 11
30.841829685934
 21
1088.049421571079
 31
0.0
  0
LINE
  5
21B3
330
1D
100
AcDbEntity
  8
0
100
AcDbLine
 10
30.692354106714
 20
1088.248079823404
 30
0.0
 11
30.860467461311
 21
1088.112237598724
 31
0.0
  0
LINE
  5
21B4
330
1D
100
AcDbEntity
  8
0
100
AcDbLine
 10
30.599503037942
 20
1088.297663782786
 30
0.0
 11
30.692354106714
 21
1088.248079823404
 31
0.0
  0
LINE
  5
21B5
330
1D
100
AcDbEntity
  8
0
100
AcDbLine
 10
30.599503037942
 20
1088.297663782786
 30
0.0
 11
30.860467461311
 21
1088.112237598724
 31
0.0
  0
LINE
  5
21B6
330
1D
100
AcDbEntity
  8
0
100
AcDbLine
 10
32.289234067466
 20
1086.86936784081
 30
0.0
 11
32.828072538521
 21
1086.353916424951
 31
0.0
  0
LINE
  5
21B7
330
1D
100
AcDbEntity
  8
0
100
AcDbLine
 10
31.724965315704
 20
1087.38422695337
 30
0.0
 11
32.289234067466
 21
1086.86936784081
 31
0.0
  0
LINE
  5
21B8
330
1D
100
AcDbEntity
  8
0
100
AcDbLine
 10
31.974207593502
 20
1087.156809330901
 30
0.0
 11
31.131825143565
 21
1086.092086718645
 31
0.0
  0
LINE
  5
21B9
330
1D
100
AcDbEntity
  8
0
100
AcDbLine
 10
31.187278030244
 20
1087.846659233151
 30
0.0
 11
30.545782656635
 21
1086.74061416873
 31
0.0
  0
LINE
  5
21BA
330
1D
100
AcDbEntity
  8
0
100
AcDbLine
 10
30.244751752722
 20
1088.785141675243
 30
0.0
 11
30.860467461311
 21
1088.112237598724
 31
0.0
  0
LINE
  5
21BB
330
1D
100
AcDbEntity
  8
0
100
AcDbLine
 10
30.244751752722
 20
1088.785141675243
 30
0.0
 11
30.486842838917
 21
1088.33919737829
 31
0.0
  0
LINE
  5
21BC
330
1D
100
AcDbEntity
  8
0
100
AcDbLine
 10
31.250176398317
 20
1087.795545691001
 30
0.0
 11
31.724965315704
 21
1087.38422695337
 31
0.0
  0
LINE
  5
21BD
330
1D
100
AcDbEntity
  8
0
100
AcDbLine
 10
31.26551791696
 20
1087.782255039407
 30
0.0
 11
30.545782656635
 21
1086.74061416873
 31
0.0
  0
LINE
  5
21BE
330
1D
100
AcDbEntity
  8
0
100
AcDbLine
 10
38.489049427841
 20
1082.467189186183
 30
0.0
 11
39.292965620237
 21
1081.801239093756
 31
0.0
  0
LINE
  5
21BF
330
1D
100
AcDbEntity
  8
0
100
AcDbLine
 10
38.489049427841
 20
1082.467189186183
 30
0.0
 11
39.010530164263
 21
1082.585629537847
 31
0.0
  0
LINE
  5
21C0
330
1D
100
AcDbEntity
  8
0
100
AcDbLine
 10
29.723558364182
 20
1090.349955131136
 30
0.0
 11
30.694386943793
 21
1091.277367664733
 31
0.0
  0
LINE
  5
21C1
330
1D
100
AcDbEntity
  8
0
100
AcDbLine
 10
32.954130996687
 20
1090.954917341613
 30
0.0
 11
33.405865395626
 21
1091.258203564208
 31
0.0
  0
LINE
  5
21C2
330
1D
100
AcDbEntity
  8
0
100
AcDbLine
 10
32.954130996687
 20
1090.954917341613
 30
0.0
 11
32.941399107359
 21
1090.757257661875
 31
0.0
  0
LINE
  5
21C3
330
1D
100
AcDbEntity
  8
0
100
AcDbLine
 10
32.954130996687
 20
1090.954917341613
 30
0.0
 11
33.111470456835
 21
1090.440017900673
 31
0.0
  0
LINE
  5
21C4
330
1D
100
AcDbEntity
  8
0
100
AcDbLine
 10
32.954130996687
 20
1090.954917341613
 30
0.0
 11
33.828820880696
 21
1089.759112283581
 31
0.0
  0
LINE
  5
21C5
330
1D
100
AcDbEntity
  8
0
100
AcDbLine
 10
32.941399107359
 20
1090.757257661875
 30
0.0
 11
33.111470456835
 21
1090.440017900673
 31
0.0
  0
LINE
  5
21C6
330
1D
100
AcDbEntity
  8
0
100
AcDbLine
 10
34.855459299887
 20
1085.834835394202
 30
0.0
 11
34.097862280531
 21
1084.562368786431
 31
0.0
  0
LINE
  5
21C7
330
1D
100
AcDbEntity
  8
0
100
AcDbLine
 10
34.960803698933
 20
1085.756184068096
 30
0.0
 11
34.305962070763
 21
1084.766189902376
 31
0.0
  0
LINE
  5
21C8
330
1D
100
AcDbEntity
  8
0
100
AcDbLine
 10
38.905304230553
 20
1084.528422065447
 30
0.0
 11
38.005092948509
 21
1083.070915553102
 31
0.0
  0
LINE
  5
21C9
330
1D
100
AcDbEntity
  8
0
100
AcDbLine
 10
33.967365557922
 20
1090.426948951334
 30
0.0
 11
33.828820880696
 21
1089.759112283581
 31
0.0
  0
LINE
  5
21CA
330
1D
100
AcDbEntity
  8
0
100
AcDbLine
 10
33.467023068138
 20
1090.10252904982
 30
0.0
 11
33.442468105941
 21
1090.042310965498
 31
0.0
  0
LINE
  5
21CB
330
1D
100
AcDbEntity
  8
0
100
AcDbLine
 10
33.86840344509
 20
1090.573454185554
 30
0.0
 11
33.828820880696
 21
1089.759112283581
 31
0.0
  0
LINE
  5
21CC
330
1D
100
AcDbEntity
  8
0
100
AcDbLine
 10
33.828820880696
 20
1089.759112283581
 30
0.0
 11
34.359907871905
 21
1089.845822477724
 31
0.0
  0
LINE
  5
21CD
330
1D
100
AcDbEntity
  8
0
100
AcDbLine
 10
33.442468105941
 20
1090.042310965498
 30
0.0
 11
34.342601588007
 21
1089.326432592823
 31
0.0
  0
LINE
  5
21CE
330
1D
100
AcDbEntity
  8
0
100
AcDbLine
 10
33.442468105941
 20
1090.042310965498
 30
0.0
 11
33.828820880696
 21
1089.759112283581
 31
0.0
  0
LINE
  5
21CF
330
1D
100
AcDbEntity
  8
0
100
AcDbLine
 10
33.111470456835
 20
1090.440017900673
 30
0.0
 11
33.442468105941
 21
1090.042310965498
 31
0.0
  0
LINE
  5
21D0
330
1D
100
AcDbEntity
  8
0
100
AcDbLine
 10
33.111470456835
 20
1090.440017900673
 30
0.0
 11
33.828820880696
 21
1089.759112283581
 31
0.0
  0
LINE
  5
21D1
330
1D
100
AcDbEntity
  8
0
100
AcDbLine
 10
32.79762250092
 20
1092.152369695885
 30
0.0
 11
33.405865395626
 21
1091.258203564208
 31
0.0
  0
LINE
  5
21D2
330
1D
100
AcDbEntity
  8
0
100
AcDbLine
 10
32.79762250092
 20
1092.152369695885
 30
0.0
 11
33.473780172206
 21
1092.070487014194
 31
0.0
  0
LINE
  5
21D3
330
1D
100
AcDbEntity
  8
0
100
AcDbLine
 10
32.79762250092
 20
1092.152369695885
 30
0.0
 11
32.941399107359
 21
1090.757257661875
 31
0.0
  0
LINE
  5
21D4
330
1D
100
AcDbEntity
  8
0
100
AcDbLine
 10
33.737857203497
 20
1090.766717113696
 30
0.0
 11
33.506610428271
 21
1090.1996122777
 31
0.0
  0
LINE
  5
21D5
330
1D
100
AcDbEntity
  8
0
100
AcDbLine
 10
34.742089905013
 20
1089.978632167015
 30
0.0
 11
34.342601588007
 21
1089.326432592823
 31
0.0
  0
LINE
  5
21D6
330
1D
100
AcDbEntity
  8
0
100
AcDbLine
 10
33.405865395626
 20
1091.258203564208
 30
0.0
 11
34.143228322934
 21
1090.42644013424
 31
0.0
  0
LINE
  5
21D7
330
1D
100
AcDbEntity
  8
0
100
AcDbLine
 10
33.405865395626
 20
1091.258203564208
 30
0.0
 11
34.359907871905
 21
1089.845822477724
 31
0.0
  0
LINE
  5
21D8
330
1D
100
AcDbEntity
  8
0
100
AcDbLine
 10
34.143228322934
 20
1090.42644013424
 30
0.0
 11
34.359907871905
 21
1089.845822477724
 31
0.0
  0
LINE
  5
21D9
330
1D
100
AcDbEntity
  8
0
100
AcDbLine
 10
38.71947020233
 20
1082.850825611653
 30
0.0
 11
38.489049427841
 21
1082.467189186183
 31
0.0
  0
LINE
  5
21DA
330
1D
100
AcDbEntity
  8
0
100
AcDbLine
 10
39.404534141178
 20
1082.226637160305
 30
0.0
 11
39.292965620237
 21
1081.801239093756
 31
0.0
  0
LINE
  5
21DB
330
1D
100
AcDbEntity
  8
0
100
AcDbLine
 10
38.939377645071
 20
1082.771133172415
 30
0.0
 11
40.011374490308
 21
1081.673721269891
 31
0.0
  0
LINE
  5
21DC
330
1D
100
AcDbEntity
  8
0
100
AcDbLine
 10
38.33158038918
 20
1083.204247136322
 30
0.0
 11
38.489049427841
 21
1082.467189186183
 31
0.0
  0
LINE
  5
21DD
330
1D
100
AcDbEntity
  8
0
100
AcDbLine
 10
38.33158038918
 20
1083.204247136322
 30
0.0
 11
38.939377645071
 21
1082.771133172415
 31
0.0
  0
LINE
  5
21DE
330
1D
100
AcDbEntity
  8
0
100
AcDbLine
 10
38.33158038918
 20
1083.204247136322
 30
0.0
 11
40.011374490308
 21
1081.673721269891
 31
0.0
  0
LINE
  5
21DF
330
1D
100
AcDbEntity
  8
0
100
AcDbLine
 10
39.599793019267
 20
1081.638422364872
 30
0.0
 11
39.704075617192
 21
1081.644777659518
 31
0.0
  0
LINE
  5
21E0
330
1D
100
AcDbEntity
  8
0
100
AcDbLine
 10
39.704075617192
 20
1081.644777659518
 30
0.0
 11
40.011374490308
 21
1081.673721269891
 31
0.0
  0
LINE
  5
21E1
330
1D
100
AcDbEntity
  8
0
100
AcDbLine
 10
39.338090140357
 20
1081.772251895134
 30
0.0
 11
39.599793019267
 21
1081.638422364872
 31
0.0
  0
LINE
  5
21E2
330
1D
100
AcDbEntity
  8
0
100
AcDbLine
 10
39.338090140357
 20
1081.772251895134
 30
0.0
 11
39.704075617192
 21
1081.644777659518
 31
0.0
  0
LINE
  5
21E3
330
1D
100
AcDbEntity
  8
0
100
AcDbLine
 10
38.005092948509
 20
1083.070915553102
 30
0.0
 11
38.489049427841
 21
1082.467189186183
 31
0.0
  0
LINE
  5
21E4
330
1D
100
AcDbEntity
  8
0
100
AcDbLine
 10
38.005092948509
 20
1083.070915553102
 30
0.0
 11
38.33158038918
 21
1083.204247136322
 31
0.0
  0
LINE
  5
21E5
330
1D
100
AcDbEntity
  8
0
100
AcDbLine
 10
39.292965620237
 20
1081.801239093756
 30
0.0
 11
39.807827922379
 21
1081.396762419727
 31
0.0
  0
LINE
  5
21E6
330
1D
100
AcDbEntity
  8
0
100
AcDbLine
 10
39.292965620237
 20
1081.801239093756
 30
0.0
 11
39.338090140357
 21
1081.772251895134
 31
0.0
  0
LINE
  5
21E7
330
1D
100
AcDbEntity
  8
0
100
AcDbLine
 10
39.292965620237
 20
1081.801239093756
 30
0.0
 11
39.704075617192
 21
1081.644777659518
 31
0.0
  0
LINE
  5
21E8
330
1D
100
AcDbEntity
  8
0
100
AcDbLine
 10
29.139297160638
 20
1090.606540586751
 30
0.0
 11
29.723558364182
 21
1090.349955131136
 31
0.0
  0
LINE
  5
21E9
330
1D
100
AcDbEntity
  8
0
100
AcDbLine
 10
19.41586687619
 20
1097.670491717916
 30
0.0
 11
19.786358538467
 21
1097.123986285021
 31
0.0
  0
LINE
  5
21EA
330
1D
100
AcDbEntity
  8
0
100
AcDbLine
 10
19.41586687619
 20
1097.670491717916
 30
0.0
 11
19.957850535764
 21
1097.074468360358
 31
0.0
  0
LINE
  5
21EB
330
1D
100
AcDbEntity
  8
0
100
AcDbLine
 10
38.624510311316
 20
1079.576139460037
 30
0.0
 11
39.533902758337
 21
1078.93530403167
 31
0.0
  0
LINE
  5
21EC
330
1D
100
AcDbEntity
  8
0
100
AcDbLine
 10
38.624510311316
 20
1079.576139460037
 30
0.0
 11
38.913848212518
 21
1079.496159099762
 31
0.0
  0
LINE
  5
21ED
330
1D
100
AcDbEntity
  8
0
100
AcDbLine
 10
39.807827922379
 20
1081.396762419727
 30
0.0
 11
41.267088109753
 21
1082.55080931456
 31
0.0
  0
LINE
  5
21EE
330
1D
100
AcDbEntity
  8
0
100
AcDbLine
 10
40.011374490308
 20
1081.673721269891
 30
0.0
 11
39.807827922379
 21
1081.396762419727
 31
0.0
  0
LINE
  5
21EF
330
1D
100
AcDbEntity
  8
0
100
AcDbLine
 10
40.011374490308
 20
1081.673721269891
 30
0.0
 11
41.089706119746
 21
1082.788908445803
 31
0.0
  0
LINE
  5
21F0
330
1D
100
AcDbEntity
  8
0
100
AcDbLine
 10
38.687294637835
 20
1079.69422801327
 30
0.0
 11
38.624510311316
 21
1079.576139460037
 31
0.0
  0
LINE
  5
21F1
330
1D
100
AcDbEntity
  8
0
100
AcDbLine
 10
38.663042793979
 20
1079.71543066421
 30
0.0
 11
38.624510311316
 21
1079.576139460037
 31
0.0
  0
LINE
  5
21F2
330
1D
100
AcDbEntity
  8
0
100
AcDbLine
 10
38.550632142874
 20
1079.813707884344
 30
0.0
 11
39.156751413175
 21
1079.327566433561
 31
0.0
  0
LINE
  5
21F3
330
1D
100
AcDbEntity
  8
0
100
AcDbLine
 10
38.550632142874
 20
1079.813707884344
 30
0.0
 11
39.567639387245
 21
1078.92456932096
 31
0.0
  0
LINE
  5
21F4
330
1D
100
AcDbEntity
  8
0
100
AcDbLine
 10
38.353463319552
 20
1079.940903737696
 30
0.0
 11
38.550632142874
 21
1079.813707884344
 31
0.0
  0
LINE
  5
21F5
330
1D
100
AcDbEntity
  8
0
100
AcDbLine
 10
0.617239809842
 20
1142.686319281345
 30
0.0
 11
1.571437256787
 21
1142.76092814304
 31
0.0
  0
LINE
  5
21F6
330
1D
100
AcDbEntity
  8
0
100
AcDbLine
 10
-3.158549855218
 20
1137.189289410112
 30
0.0
 11
-3.812394436275
 21
1135.692879097457
 31
0.0
  0
LINE
  5
21F7
330
1D
100
AcDbEntity
  8
0
100
AcDbLine
 10
-3.812394436275
 20
1135.692879097457
 30
0.0
 11
-4.113528779721
 21
1134.4130126563
 31
0.0
  0
LINE
  5
21F8
330
1D
100
AcDbEntity
  8
0
100
AcDbLine
 10
-1.723076945083
 20
1139.80545067507
 30
0.0
 11
-3.158549855218
 21
1137.189289410112
 31
0.0
  0
LINE
  5
21F9
330
1D
100
AcDbEntity
  8
0
100
AcDbLine
 10
1.571437256787
 20
1142.76092814304
 30
0.0
 11
2.455477579986
 21
1142.366107491403
 31
0.0
  0
LINE
  5
21FA
330
1D
100
AcDbEntity
  8
0
100
AcDbLine
 10
-4.113528779721
 20
1134.4130126563
 30
0.0
 11
-4.085748349305
 21
1134.260988948656
 31
0.0
  0
LINE
  5
21FB
330
1D
100
AcDbEntity
  8
0
100
AcDbLine
 10
2.455477579986
 20
1142.366107491403
 30
0.0
 11
9.771213257816
 21
1137.85323062048
 31
0.0
  0
LINE
  5
21FC
330
1D
100
AcDbEntity
  8
0
100
AcDbLine
 10
9.771213257816
 20
1137.85323062048
 30
0.0
 11
17.005402402228
 21
1133.193387212931
 31
0.0
  0
LINE
  5
21FD
330
1D
100
AcDbEntity
  8
0
100
AcDbLine
 10
17.005402402228
 20
1133.193387212931
 30
0.0
 11
24.008699491942
 21
1128.48395732459
 31
0.0
  0
LINE
  5
21FE
330
1D
100
AcDbEntity
  8
0
100
AcDbLine
 10
31.373164694986
 20
1123.408420233487
 30
0.0
 11
44.437523855393
 21
1114.044331424751
 31
0.0
  0
LINE
  5
21FF
330
1D
100
AcDbEntity
  8
0
100
AcDbLine
 10
24.008699491942
 20
1128.48395732459
 30
0.0
 11
31.373164694986
 21
1123.408420233487
 31
0.0
  0
LINE
  5
2200
330
1D
100
AcDbEntity
  8
0
100
AcDbLine
 10
2.455477579986
 20
1142.366107491403
 30
0.0
 11
9.771213257816
 21
1137.85323062048
 31
0.0
  0
LINE
  5
2201
330
1D
100
AcDbEntity
  8
0
100
AcDbLine
 10
-4.085748349305
 20
1134.260988948656
 30
0.0
 11
-4.008242661341
 21
1134.160446876202
 31
0.0
  0
LINE
  5
2202
330
1D
100
AcDbEntity
  8
0
100
AcDbLine
 10
0.617239809842
 20
1142.686319281345
 30
0.0
 11
1.571437256787
 21
1142.76092814304
 31
0.0
  0
LINE
  5
2203
330
1D
100
AcDbEntity
  8
0
100
AcDbLine
 10
57.134656379586
 20
1104.449510221985
 30
0.0
 11
63.429611871592
 21
1099.502643982266
 31
0.0
  0
LINE
  5
2204
330
1D
100
AcDbEntity
  8
0
100
AcDbLine
 10
44.437523855393
 20
1114.044331424751
 30
0.0
 11
57.134656379586
 21
1104.449510221985
 31
0.0
  0
LINE
  5
2205
330
1D
100
AcDbEntity
  8
0
100
AcDbLine
 10
43.769791536982
 20
1074.806934418439
 30
0.0
 11
49.656514120823
 21
1069.898456362982
 31
0.0
  0
LINE
  5
2206
330
1D
100
AcDbEntity
  8
0
100
AcDbLine
 10
39.786828587171
 20
1078.672244402183
 30
0.0
 11
40.429052947735
 21
1078.445999223896
 31
0.0
  0
LINE
  5
2207
330
1D
100
AcDbEntity
  8
0
100
AcDbLine
 10
47.023632750478
 20
1072.436146623768
 30
0.0
 11
47.333258239047
 21
1072.177253775609
 31
0.0
  0
LINE
  5
2208
330
1D
100
AcDbEntity
  8
0
100
AcDbLine
 10
47.023632750478
 20
1072.436146623768
 30
0.0
 11
47.273241100375
 21
1072.405671688798
 31
0.0
  0
LINE
  5
2209
330
1D
100
AcDbEntity
  8
0
100
AcDbLine
 10
47.333258239047
 20
1072.177253775609
 30
0.0
 11
47.524676172818
 21
1072.030602915977
 31
0.0
  0
LINE
  5
220A
330
1D
100
AcDbEntity
  8
0
100
AcDbLine
 10
47.333258239047
 20
1072.177253775609
 30
0.0
 11
47.749579253594
 21
1071.873608220978
 31
0.0
  0
LINE
  5
220B
330
1D
100
AcDbEntity
  8
0
100
AcDbLine
 10
49.656514120823
 20
1069.898456362982
 30
0.0
 11
52.022073666703
 21
1067.932836248388
 31
0.0
  0
LINE
  5
220C
330
1D
100
AcDbEntity
  8
0
100
AcDbLine
 10
52.338119080337
 20
1067.679260783248
 30
0.0
 11
52.734229389997
 21
1067.362419115249
 31
0.0
  0
LINE
  5
220D
330
1D
100
AcDbEntity
  8
0
100
AcDbLine
 10
52.096899508462
 20
1067.872660726745
 30
0.0
 11
52.338119080337
 21
1067.679260783248
 31
0.0
  0
LINE
  5
220E
330
1D
100
AcDbEntity
  8
0
100
AcDbLine
 10
52.734229389997
 20
1067.362419115249
 30
0.0
 11
53.265436538757
 21
1066.937439368547
 31
0.0
  0
LINE
  5
220F
330
1D
100
AcDbEntity
  8
0
100
AcDbLine
 10
53.265436538757
 20
1066.937439368547
 30
0.0
 11
53.906473385675
 21
1066.425392651056
 31
0.0
  0
LINE
  5
2210
330
1D
100
AcDbEntity
  8
0
100
AcDbLine
 10
53.906473385675
 20
1066.425392651056
 30
0.0
 11
54.987948139837
 21
1065.562833594464
 31
0.0
  0
LINE
  5
2211
330
1D
100
AcDbEntity
  8
0
100
AcDbLine
 10
53.906473385675
 20
1066.425392651056
 30
0.0
 11
54.194644104344
 21
1066.207963408764
 31
0.0
  0
LINE
  5
2212
330
1D
100
AcDbEntity
  8
0
100
AcDbLine
 10
52.295261475522
 20
1067.724128657655
 30
0.0
 11
52.338119080337
 21
1067.679260783248
 31
0.0
  0
LINE
  5
2213
330
1D
100
AcDbEntity
  8
0
100
AcDbLine
 10
52.022073666703
 20
1067.932836248388
 30
0.0
 11
52.096899508462
 21
1067.872660726745
 31
0.0
  0
LINE
  5
2214
330
1D
100
AcDbEntity
  8
0
100
AcDbLine
 10
54.987948139837
 20
1065.562833594464
 30
0.0
 11
56.15690251906
 21
1064.626087172374
 31
0.0
  0
LINE
  5
2215
330
1D
100
AcDbEntity
  8
0
100
AcDbLine
 10
56.893325150867
 20
1064.037918499831
 30
0.0
 11
57.893975989554
 21
1063.23756550956
 31
0.0
  0
LINE
  5
2216
330
1D
100
AcDbEntity
  8
0
100
AcDbLine
 10
56.15690251906
 20
1064.626087172374
 30
0.0
 11
56.893325150867
 21
1064.037918499831
 31
0.0
  0
LINE
  5
2217
330
1D
100
AcDbEntity
  8
0
100
AcDbLine
 10
53.986731469642
 20
1066.47187963803
 30
0.0
 11
54.723089694919
 21
1065.872277424836
 31
0.0
  0
LINE
  5
2218
330
1D
100
AcDbEntity
  8
0
100
AcDbLine
 10
53.986731469642
 20
1066.47187963803
 30
0.0
 11
54.055466528404
 21
1066.474336394928
 31
0.0
  0
LINE
  5
2219
330
1D
100
AcDbEntity
  8
0
100
AcDbLine
 10
57.893975989554
 20
1063.23756550956
 30
0.0
 11
58.570666505476
 21
1062.69769046322
 31
0.0
  0
LINE
  5
221A
330
1D
100
AcDbEntity
  8
0
100
AcDbLine
 10
58.570666505476
 20
1062.69769046322
 30
0.0
 11
58.888886795606
 21
1062.443595467304
 31
0.0
  0
LINE
  5
221B
330
1D
100
AcDbEntity
  8
0
100
AcDbLine
 10
58.888886795606
 20
1062.443595467304
 30
0.0
 11
58.997107800434
 21
1062.357878350495
 31
0.0
  0
LINE
  5
221C
330
1D
100
AcDbEntity
  8
0
100
AcDbLine
 10
58.997107800434
 20
1062.357878350495
 30
0.0
 11
59.497230601847
 21
1062.017658965055
 31
0.0
  0
LINE
  5
221D
330
1D
100
AcDbEntity
  8
0
100
AcDbLine
 10
53.983924247492
 20
1066.538852837922
 30
0.0
 11
54.544625927736
 21
1066.172670307247
 31
0.0
  0
LINE
  5
221E
330
1D
100
AcDbEntity
  8
0
100
AcDbLine
 10
53.983924247492
 20
1066.538852837922
 30
0.0
 11
53.986731469642
 21
1066.47187963803
 31
0.0
  0
LINE
  5
221F
330
1D
100
AcDbEntity
  8
0
100
AcDbLine
 10
53.983924247492
 20
1066.538852837922
 30
0.0
 11
54.723089694919
 21
1065.872277424836
 31
0.0
  0
LINE
  5
2220
330
1D
100
AcDbEntity
  8
0
100
AcDbLine
 10
54.723089694919
 20
1065.872277424836
 30
0.0
 11
55.298728911567
 21
1065.550013120837
 31
0.0
  0
LINE
  5
2221
330
1D
100
AcDbEntity
  8
0
100
AcDbLine
 10
54.723089694919
 20
1065.872277424836
 30
0.0
 11
54.816687532984
 21
1065.963190904062
 31
0.0
  0
LINE
  5
2222
330
1D
100
AcDbEntity
  8
0
100
AcDbLine
 10
60.620852386883
 20
1060.821384075212
 30
0.0
 11
61.357647822844
 21
1060.263840735598
 31
0.0
  0
LINE
  5
2223
330
1D
100
AcDbEntity
  8
0
100
AcDbLine
 10
60.160719058648
 20
1061.174716058264
 30
0.0
 11
60.6163823529
 21
1060.861892949094
 31
0.0
  0
LINE
  5
2224
330
1D
100
AcDbEntity
  8
0
100
AcDbLine
 10
60.160719058648
 20
1061.174716058264
 30
0.0
 11
60.254739153414
 21
1061.179852312417
 31
0.0
  0
LINE
  5
2225
330
1D
100
AcDbEntity
  8
0
100
AcDbLine
 10
60.160719058648
 20
1061.174716058264
 30
0.0
 11
60.227092807329
 21
1061.198106143103
 31
0.0
  0
LINE
  5
2226
330
1D
100
AcDbEntity
  8
0
100
AcDbLine
 10
60.160719058648
 20
1061.174716058264
 30
0.0
 11
60.210722008681
 21
1061.208915158726
 31
0.0
  0
LINE
  5
2227
330
1D
100
AcDbEntity
  8
0
100
AcDbLine
 10
59.930138212502
 20
1061.39417396628
 30
0.0
 11
60.606958456486
 21
1060.947295304588
 31
0.0
  0
LINE
  5
2228
330
1D
100
AcDbEntity
  8
0
100
AcDbLine
 10
59.930138212502
 20
1061.39417396628
 30
0.0
 11
60.160719058648
 21
1061.174716058264
 31
0.0
  0
LINE
  5
2229
330
1D
100
AcDbEntity
  8
0
100
AcDbLine
 10
54.544625927736
 20
1066.172670307247
 30
0.0
 11
54.835433354217
 21
1065.948757175199
 31
0.0
  0
LINE
  5
222A
330
1D
100
AcDbEntity
  8
0
100
AcDbLine
 10
54.544625927736
 20
1066.172670307247
 30
0.0
 11
54.999818273036
 21
1065.80727619623
 31
0.0
  0
LINE
  5
222B
330
1D
100
AcDbEntity
  8
0
100
AcDbLine
 10
54.835433354217
 20
1065.948757175199
 30
0.0
 11
55.458807591858
 21
1065.412238387228
 31
0.0
  0
LINE
  5
222C
330
1D
100
AcDbEntity
  8
0
100
AcDbLine
 10
47.682836774951
 20
1071.998219731799
 30
0.0
 11
47.749579253594
 21
1071.873608220978
 31
0.0
  0
LINE
  5
222D
330
1D
100
AcDbEntity
  8
0
100
AcDbLine
 10
54.848011459112
 20
1065.938855595665
 30
0.0
 11
55.851191842162
 21
1065.434926712723
 31
0.0
  0
LINE
  5
222E
330
1D
100
AcDbEntity
  8
0
100
AcDbLine
 10
59.497230601847
 20
1062.017658965055
 30
0.0
 11
60.579736795515
 21
1061.193986679943
 31
0.0
  0
LINE
  5
222F
330
1D
100
AcDbEntity
  8
0
100
AcDbLine
 10
60.0470599391
 20
1061.599297214068
 30
0.0
 11
59.930138212502
 21
1061.39417396628
 31
0.0
  0
LINE
  5
2230
330
1D
100
AcDbEntity
  8
0
100
AcDbLine
 10
55.458807591858
 20
1065.412238387228
 30
0.0
 11
56.077143754783
 21
1065.055002163394
 31
0.0
  0
LINE
  5
2231
330
1D
100
AcDbEntity
  8
0
100
AcDbLine
 10
55.083075659271
 20
1065.820775495807
 30
0.0
 11
55.458807591858
 21
1065.412238387228
 31
0.0
  0
LINE
  5
2232
330
1D
100
AcDbEntity
  8
0
100
AcDbLine
 10
47.749579253594
 20
1071.873608220978
 30
0.0
 11
48.366472385529
 21
1071.528809346603
 31
0.0
  0
LINE
  5
2233
330
1D
100
AcDbEntity
  8
0
100
AcDbLine
 10
47.749579253594
 20
1071.873608220978
 30
0.0
 11
47.841806214935
 21
1071.840082296654
 31
0.0
  0
LINE
  5
2234
330
1D
100
AcDbEntity
  8
0
100
AcDbLine
 10
47.524676172818
 20
1072.030602915977
 30
0.0
 11
47.749579253594
 21
1071.873608220978
 31
0.0
  0
LINE
  5
2235
330
1D
100
AcDbEntity
  8
0
100
AcDbLine
 10
47.301069493198
 20
1072.377988942569
 30
0.0
 11
47.319942433314
 21
1072.260293683394
 31
0.0
  0
LINE
  5
2236
330
1D
100
AcDbEntity
  8
0
100
AcDbLine
 10
47.273241100375
 20
1072.405671688798
 30
0.0
 11
47.841806214935
 21
1071.840082296654
 31
0.0
  0
LINE
  5
2237
330
1D
100
AcDbEntity
  8
0
100
AcDbLine
 10
47.273241100375
 20
1072.405671688798
 30
0.0
 11
47.333258239047
 21
1072.177253775609
 31
0.0
  0
LINE
  5
2238
330
1D
100
AcDbEntity
  8
0
100
AcDbLine
 10
46.961062087739
 20
1072.662921516921
 30
0.0
 11
47.273241100375
 21
1072.405671688798
 31
0.0
  0
LINE
  5
2239
330
1D
100
AcDbEntity
  8
0
100
AcDbLine
 10
46.961062087739
 20
1072.662921516921
 30
0.0
 11
47.333258239047
 21
1072.177253775609
 31
0.0
  0
LINE
  5
223A
330
1D
100
AcDbEntity
  8
0
100
AcDbLine
 10
46.961062087739
 20
1072.662921516921
 30
0.0
 11
47.524676172818
 21
1072.030602915977
 31
0.0
  0
LINE
  5
223B
330
1D
100
AcDbEntity
  8
0
100
AcDbLine
 10
46.898438353648
 20
1072.711813928689
 30
0.0
 11
46.961062087739
 21
1072.662921516921
 31
0.0
  0
LINE
  5
223C
330
1D
100
AcDbEntity
  8
0
100
AcDbLine
 10
46.898438353648
 20
1072.711813928689
 30
0.0
 11
47.023632750478
 21
1072.436146623768
 31
0.0
  0
LINE
  5
223D
330
1D
100
AcDbEntity
  8
0
100
AcDbLine
 10
39.156751413175
 20
1079.327566433561
 30
0.0
 11
39.567639387245
 21
1078.92456932096
 31
0.0
  0
LINE
  5
223E
330
1D
100
AcDbEntity
  8
0
100
AcDbLine
 10
39.156751413175
 20
1079.327566433561
 30
0.0
 11
39.786828587171
 21
1078.672244402183
 31
0.0
  0
LINE
  5
223F
330
1D
100
AcDbEntity
  8
0
100
AcDbLine
 10
48.366472385529
 20
1071.528809346603
 30
0.0
 11
49.196387934517
 21
1072.351530091248
 31
0.0
  0
LINE
  5
2240
330
1D
100
AcDbEntity
  8
0
100
AcDbLine
 10
56.077143754783
 20
1065.055002163394
 30
0.0
 11
56.835972850794
 21
1065.834530608261
 31
0.0
  0
LINE
  5
2241
330
1D
100
AcDbEntity
  8
0
100
AcDbLine
 10
40.429052947735
 20
1078.445999223896
 30
0.0
 11
41.140796808395
 21
1079.183601782789
 31
0.0
  0
LINE
  5
2242
330
1D
100
AcDbEntity
  8
0
100
AcDbLine
 10
48.267248875167
 20
1071.802135058879
 30
0.0
 11
48.366472385529
 21
1071.528809346603
 31
0.0
  0
LINE
  5
2243
330
1D
100
AcDbEntity
  8
0
100
AcDbLine
 10
48.267248875167
 20
1071.802135058879
 30
0.0
 11
49.059456729255
 21
1072.495262994438
 31
0.0
  0
LINE
  5
2244
330
1D
100
AcDbEntity
  8
0
100
AcDbLine
 10
47.007159188081
 20
1072.833759326963
 30
0.0
 11
48.267248875167
 21
1071.802135058879
 31
0.0
  0
LINE
  5
2245
330
1D
100
AcDbEntity
  8
0
100
AcDbLine
 10
47.007159188081
 20
1072.833759326963
 30
0.0
 11
47.784782814869
 21
1073.635947072665
 31
0.0
  0
LINE
  5
2246
330
1D
100
AcDbEntity
  8
0
100
AcDbLine
 10
60.846901566301
 20
1061.104002649415
 30
0.0
 11
62.227206170264
 21
1059.940437395431
 31
0.0
  0
LINE
  5
2247
330
1D
100
AcDbEntity
  8
0
100
AcDbLine
 10
60.67183838768
 20
1061.267520160784
 30
0.0
 11
60.846901566301
 21
1061.104002649415
 31
0.0
  0
LINE
  5
2248
330
1D
100
AcDbEntity
  8
0
100
AcDbLine
 10
60.552321523028
 20
1061.442432624602
 30
0.0
 11
61.357647822844
 21
1060.263840735598
 31
0.0
  0
LINE
  5
2249
330
1D
100
AcDbEntity
  8
0
100
AcDbLine
 10
60.552321523028
 20
1061.442432624602
 30
0.0
 11
60.620852386883
 21
1060.821384075212
 31
0.0
  0
LINE
  5
224A
330
1D
100
AcDbEntity
  8
0
100
AcDbLine
 10
55.851191842162
 20
1065.434926712723
 30
0.0
 11
56.077143754783
 21
1065.055002163394
 31
0.0
  0
LINE
  5
224B
330
1D
100
AcDbEntity
  8
0
100
AcDbLine
 10
53.855610080128
 20
1066.962951935367
 30
0.0
 11
55.851191842162
 21
1065.434926712723
 31
0.0
  0
LINE
  5
224C
330
1D
100
AcDbEntity
  8
0
100
AcDbLine
 10
53.855610080128
 20
1066.962951935367
 30
0.0
 11
53.986731469642
 21
1066.47187963803
 31
0.0
  0
LINE
  5
224D
330
1D
100
AcDbEntity
  8
0
100
AcDbLine
 10
53.855610080128
 20
1066.962951935367
 30
0.0
 11
54.507191861033
 21
1067.72167526733
 31
0.0
  0
LINE
  5
224E
330
1D
100
AcDbEntity
  8
0
100
AcDbLine
 10
39.567639387245
 20
1078.92456932096
 30
0.0
 11
39.786828587171
 21
1078.672244402183
 31
0.0
  0
LINE
  5
224F
330
1D
100
AcDbEntity
  8
0
100
AcDbLine
 10
46.167478075525
 20
1073.343829752705
 30
0.0
 11
46.898438353648
 21
1072.711813928689
 31
0.0
  0
LINE
  5
2250
330
1D
100
AcDbEntity
  8
0
100
AcDbLine
 10
46.167478075525
 20
1073.343829752705
 30
0.0
 11
47.007159188081
 21
1072.833759326963
 31
0.0
  0
LINE
  5
2251
330
1D
100
AcDbEntity
  8
0
100
AcDbLine
 10
46.167478075525
 20
1073.343829752705
 30
0.0
 11
47.023632750478
 21
1072.436146623768
 31
0.0
  0
LINE
  5
2252
330
1D
100
AcDbEntity
  8
0
100
AcDbLine
 10
65.289128847969
 20
1056.876137491712
 30
0.0
 11
65.609062028244
 21
1056.506413342538
 31
0.0
  0
LINE
  5
2253
330
1D
100
AcDbEntity
  8
0
100
AcDbLine
 10
64.374566815439
 20
1057.5756962469
 30
0.0
 11
64.437773742663
 21
1057.627647363641
 31
0.0
  0
LINE
  5
2254
330
1D
100
AcDbEntity
  8
0
100
AcDbLine
 10
64.374566815439
 20
1057.5756962469
 30
0.0
 11
64.517521319187
 21
1057.567695060909
 31
0.0
  0
LINE
  5
2255
330
1D
100
AcDbEntity
  8
0
100
AcDbLine
 10
64.259707247971
 20
1057.553935507915
 30
0.0
 11
64.374566815439
 21
1057.5756962469
 31
0.0
  0
LINE
  5
2256
330
1D
100
AcDbEntity
  8
0
100
AcDbLine
 10
64.259707247971
 20
1057.553935507915
 30
0.0
 11
65.517619057724
 21
1056.725693581371
 31
0.0
  0
LINE
  5
2257
330
1D
100
AcDbEntity
  8
0
100
AcDbLine
 10
64.259707247971
 20
1057.553935507915
 30
0.0
 11
64.544179271228
 21
1057.547654256153
 31
0.0
  0
LINE
  5
2258
330
1D
100
AcDbEntity
  8
0
100
AcDbLine
 10
61.011677117656
 20
1060.520334577926
 30
0.0
 11
61.089436394188
 21
1060.466800048804
 31
0.0
  0
LINE
  5
2259
330
1D
100
AcDbEntity
  8
0
100
AcDbLine
 10
61.334029199689
 20
1060.29840649818
 30
0.0
 11
61.668563101862
 21
1060.068091663384
 31
0.0
  0
LINE
  5
225A
330
1D
100
AcDbEntity
  8
0
100
AcDbLine
 10
61.66907733195
 20
1060.068704498939
 30
0.0
 11
62.303845771202
 21
1059.792191445847
 31
0.0
  0
LINE
  5
225B
330
1D
100
AcDbEntity
  8
0
100
AcDbLine
 10
61.668563101862
 20
1060.068091663384
 30
0.0
 11
62.303845771202
 21
1059.792191445847
 31
0.0
  0
LINE
  5
225C
330
1D
100
AcDbEntity
  8
0
100
AcDbLine
 10
65.414349832218
 20
1056.92196797709
 30
0.0
 11
65.517619057724
 21
1056.725693581371
 31
0.0
  0
LINE
  5
225D
330
1D
100
AcDbEntity
  8
0
100
AcDbLine
 10
65.439988159573
 20
1056.776807788381
 30
0.0
 11
65.479703178633
 21
1056.739624701668
 31
0.0
  0
LINE
  5
225E
330
1D
100
AcDbEntity
  8
0
100
AcDbLine
 10
65.199794083848
 20
1057.054778868159
 30
0.0
 11
66.335598664906
 21
1056.351711159011
 31
0.0
  0
LINE
  5
225F
330
1D
100
AcDbEntity
  8
0
100
AcDbLine
 10
65.479703178633
 20
1056.739624701668
 30
0.0
 11
65.600169015479
 21
1056.526929539163
 31
0.0
  0
LINE
  5
2260
330
1D
100
AcDbEntity
  8
0
100
AcDbLine
 10
65.479703178633
 20
1056.739624701668
 30
0.0
 11
66.631431775953
 21
1055.786394274062
 31
0.0
  0
LINE
  5
2261
330
1D
100
AcDbEntity
  8
0
100
AcDbLine
 10
64.296871580384
 20
1057.733574207521
 30
0.0
 11
64.259707247971
 21
1057.553935507915
 31
0.0
  0
LINE
  5
2262
330
1D
100
AcDbEntity
  8
0
100
AcDbLine
 10
64.296871580384
 20
1057.733574207521
 30
0.0
 11
65.199794083848
 21
1057.054778868159
 31
0.0
  0
LINE
  5
2263
330
1D
100
AcDbEntity
  8
0
100
AcDbLine
 10
64.296871580384
 20
1057.733574207521
 30
0.0
 11
64.352138608733
 21
1057.719016109081
 31
0.0
  0
LINE
  5
2264
330
1D
100
AcDbEntity
  8
0
100
AcDbLine
 10
63.696341113675
 20
1058.232910175135
 30
0.0
 11
64.259707247971
 21
1057.553935507915
 31
0.0
  0
LINE
  5
2265
330
1D
100
AcDbEntity
  8
0
100
AcDbLine
 10
63.696341113675
 20
1058.232910175135
 30
0.0
 11
64.296871580384
 21
1057.733574207521
 31
0.0
  0
LINE
  5
2266
330
1D
100
AcDbEntity
  8
0
100
AcDbLine
 10
63.696341113675
 20
1058.232910175135
 30
0.0
 11
64.227289966977
 21
1058.094031360419
 31
0.0
  0
LINE
  5
2267
330
1D
100
AcDbEntity
  8
0
100
AcDbLine
 10
63.696341113675
 20
1058.232910175135
 30
0.0
 11
64.309951889933
 21
1057.75207433913
 31
0.0
  0
LINE
  5
2268
330
1D
100
AcDbEntity
  8
0
100
AcDbLine
 10
65.609062028244
 20
1056.506413342538
 30
0.0
 11
67.25982876179
 21
1055.273596615925
 31
0.0
  0
LINE
  5
2269
330
1D
100
AcDbEntity
  8
0
100
AcDbLine
 10
65.609062028244
 20
1056.506413342538
 30
0.0
 11
66.922646620483
 21
1055.539164109387
 31
0.0
  0
LINE
  5
226A
330
1D
100
AcDbEntity
  8
0
100
AcDbLine
 10
65.600169015479
 20
1056.526929539163
 30
0.0
 11
66.631431775953
 21
1055.786394274062
 31
0.0
  0
LINE
  5
226B
330
1D
100
AcDbEntity
  8
0
100
AcDbLine
 10
65.600169015479
 20
1056.526929539163
 30
0.0
 11
67.25982876179
 21
1055.273596615925
 31
0.0
  0
LINE
  5
226C
330
1D
100
AcDbEntity
  8
0
100
AcDbLine
 10
65.600169015479
 20
1056.526929539163
 30
0.0
 11
66.922646620483
 21
1055.539164109387
 31
0.0
  0
LINE
  5
226D
330
1D
100
AcDbEntity
  8
0
100
AcDbLine
 10
67.019644675086
 20
1055.466519306384
 30
0.0
 11
67.25982876179
 21
1055.273596615925
 31
0.0
  0
LINE
  5
226E
330
1D
100
AcDbEntity
  8
0
100
AcDbLine
 10
67.25982876179
 20
1055.273596615925
 30
0.0
 11
67.620155823933
 21
1055.206741785974
 31
0.0
  0
LINE
  5
226F
330
1D
100
AcDbEntity
  8
0
100
AcDbLine
 10
66.631431775953
 20
1055.786394274062
 30
0.0
 11
67.620155823933
 21
1055.206741785974
 31
0.0
  0
LINE
  5
2270
330
1D
100
AcDbEntity
  8
0
100
AcDbLine
 10
66.631431775953
 20
1055.786394274062
 30
0.0
 11
66.922646620483
 21
1055.539164109387
 31
0.0
  0
LINE
  5
2271
330
1D
100
AcDbEntity
  8
0
100
AcDbLine
 10
66.922646620483
 20
1055.539164109387
 30
0.0
 11
67.019644675086
 21
1055.466519306384
 31
0.0
  0
LINE
  5
2272
330
1D
100
AcDbEntity
  8
0
100
AcDbLine
 10
65.517619057724
 20
1056.725693581371
 30
0.0
 11
66.335598664906
 21
1056.351711159011
 31
0.0
  0
LINE
  5
2273
330
1D
100
AcDbEntity
  8
0
100
AcDbLine
 10
67.620155823933
 20
1055.206741785974
 30
0.0
 11
68.285463633869
 21
1055.873962529395
 31
0.0
  0
LINE
  5
2274
330
1D
100
AcDbEntity
  8
0
100
AcDbLine
 10
67.620155823933
 20
1055.206741785974
 30
0.0
 11
68.308239092351
 21
1055.856878950249
 31
0.0
  0
LINE
  5
2275
330
1D
100
AcDbEntity
  8
0
100
AcDbLine
 10
67.620155823933
 20
1055.206741785974
 30
0.0
 11
68.285463633869
 21
1055.873962529395
 31
0.0
  0
LINE
  5
2276
330
1D
100
AcDbEntity
  8
0
100
AcDbLine
 10
61.136092381699
 20
1060.588086256895
 30
0.0
 11
61.850425023009
 21
1060.101250849697
 31
0.0
  0
LINE
  5
2277
330
1D
100
AcDbEntity
  8
0
100
AcDbLine
 10
60.876239971779
 20
1060.96837924216
 30
0.0
 11
62.227206170264
 21
1059.940437395431
 31
0.0
  0
LINE
  5
2278
330
1D
100
AcDbEntity
  8
0
100
AcDbLine
 10
62.227206170264
 20
1059.940437395431
 30
0.0
 11
62.861683008345
 21
1059.728917226325
 31
0.0
  0
LINE
  5
2279
330
1D
100
AcDbEntity
  8
0
100
AcDbLine
 10
62.303845771202
 20
1059.792191445847
 30
0.0
 11
62.391861498957
 21
1059.8855450481
 31
0.0
  0
LINE
  5
227A
330
1D
100
AcDbEntity
  8
0
100
AcDbLine
 10
66.335598664906
 20
1056.351711159011
 30
0.0
 11
66.777154286924
 21
1056.795342073583
 31
0.0
  0
LINE
  5
227B
330
1D
100
AcDbEntity
  8
0
100
AcDbLine
 10
61.850425023009
 20
1060.101250849697
 30
0.0
 11
62.303845771202
 21
1059.792191445847
 31
0.0
  0
LINE
  5
227C
330
1D
100
AcDbEntity
  8
0
100
AcDbLine
 10
64.227289966977
 20
1058.094031360419
 30
0.0
 11
65.199794083848
 21
1057.054778868159
 31
0.0
  0
LINE
  5
227D
330
1D
100
AcDbEntity
  8
0
100
AcDbLine
 10
72.5005028653
 20
1051.5283303903
 30
0.0
 11
73.424629377199
 21
1050.947924024031
 31
0.0
  0
LINE
  5
227E
330
1D
100
AcDbEntity
  8
0
100
AcDbLine
 10
72.5005028653
 20
1051.5283303903
 30
0.0
 11
73.408453002687
 21
1050.916199980977
 31
0.0
  0
LINE
  5
227F
330
1D
100
AcDbEntity
  8
0
100
AcDbLine
 10
72.5005028653
 20
1051.5283303903
 30
0.0
 11
74.255690781289
 21
1050.410623640045
 31
0.0
  0
LINE
  5
2280
330
1D
100
AcDbEntity
  8
0
100
AcDbLine
 10
65.559661311359
 20
1056.83201957359
 30
0.0
 11
65.517619057724
 21
1056.725693581371
 31
0.0
  0
LINE
  5
2281
330
1D
100
AcDbEntity
  8
0
100
AcDbLine
 10
51.751555503487
 20
1069.428752667089
 30
0.0
 11
51.902795378646
 21
1069.295382005418
 31
0.0
  0
LINE
  5
2282
330
1D
100
AcDbEntity
  8
0
100
AcDbLine
 10
51.965342636062
 20
1069.257910808616
 30
0.0
 11
52.008045597928
 21
1069.22799079071
 31
0.0
  0
LINE
  5
2283
330
1D
100
AcDbEntity
  8
0
100
AcDbLine
 10
51.965342636062
 20
1069.257910808616
 30
0.0
 11
52.439072726259
 21
1068.88546788461
 31
0.0
  0
LINE
  5
2284
330
1D
100
AcDbEntity
  8
0
100
AcDbLine
 10
51.064122641786
 20
1069.978094932237
 30
0.0
 11
51.516368556001
 21
1070.118950897946
 31
0.0
  0
LINE
  5
2285
330
1D
100
AcDbEntity
  8
0
100
AcDbLine
 10
51.064122641786
 20
1069.978094932237
 30
0.0
 11
51.352327752544
 21
1069.798530057798
 31
0.0
  0
LINE
  5
2286
330
1D
100
AcDbEntity
  8
0
100
AcDbLine
 10
51.064122641786
 20
1069.978094932237
 30
0.0
 11
51.965342636062
 21
1069.257910808616
 31
0.0
  0
LINE
  5
2287
330
1D
100
AcDbEntity
  8
0
100
AcDbLine
 10
51.064122641786
 20
1069.978094932237
 30
0.0
 11
52.439072726259
 21
1068.88546788461
 31
0.0
  0
LINE
  5
2288
330
1D
100
AcDbEntity
  8
0
100
AcDbLine
 10
52.439072726259
 20
1068.88546788461
 30
0.0
 11
53.27032339025
 21
1068.343570307927
 31
0.0
  0
LINE
  5
2289
330
1D
100
AcDbEntity
  8
0
100
AcDbLine
 10
52.439072726259
 20
1068.88546788461
 30
0.0
 11
52.540449086345
 21
1068.981017082667
 31
0.0
  0
LINE
  5
228A
330
1D
100
AcDbEntity
  8
0
100
AcDbLine
 10
52.439072726259
 20
1068.88546788461
 30
0.0
 11
52.597234063265
 21
1068.931423063261
 31
0.0
  0
LINE
  5
228B
330
1D
100
AcDbEntity
  8
0
100
AcDbLine
 10
52.439072726259
 20
1068.88546788461
 30
0.0
 11
52.610653180638
 21
1068.919703273918
 31
0.0
  0
LINE
  5
228C
330
1D
100
AcDbEntity
  8
0
100
AcDbLine
 10
59.405271227596
 20
1063.030995440404
 30
0.0
 11
59.852170283836
 21
1062.671536953883
 31
0.0
  0
LINE
  5
228D
330
1D
100
AcDbEntity
  8
0
100
AcDbLine
 10
59.405271227596
 20
1063.030995440404
 30
0.0
 11
59.45528990459
 21
1063.066145813639
 31
0.0
  0
LINE
  5
228E
330
1D
100
AcDbEntity
  8
0
100
AcDbLine
 10
59.405271227596
 20
1063.030995440404
 30
0.0
 11
59.569307838749
 21
1062.989970365535
 31
0.0
  0
LINE
  5
228F
330
1D
100
AcDbEntity
  8
0
100
AcDbLine
 10
59.405271227596
 20
1063.030995440404
 30
0.0
 11
59.470110589752
 21
1063.056244105265
 31
0.0
  0
LINE
  5
2290
330
1D
100
AcDbEntity
  8
0
100
AcDbLine
 10
59.405271227596
 20
1063.030995440404
 30
0.0
 11
60.259238542113
 21
1062.501235564859
 31
0.0
  0
LINE
  5
2291
330
1D
100
AcDbEntity
  8
0
100
AcDbLine
 10
59.405271227596
 20
1063.030995440404
 30
0.0
 11
59.455409945697
 21
1063.066065614105
 31
0.0
  0
LINE
  5
2292
330
1D
100
AcDbEntity
  8
0
100
AcDbLine
 10
39.669837636503
 20
1079.229784290856
 30
0.0
 11
40.429052947735
 21
1078.445999223896
 31
0.0
  0
LINE
  5
2293
330
1D
100
AcDbEntity
  8
0
100
AcDbLine
 10
39.669837636503
 20
1079.229784290856
 30
0.0
 11
40.367530338718
 21
1079.952568505783
 31
0.0
  0
LINE
  5
2294
330
1D
100
AcDbEntity
  8
0
100
AcDbLine
 10
59.864837592057
 20
1062.74590277245
 30
0.0
 11
59.852170283836
 21
1062.671536953883
 31
0.0
  0
LINE
  5
2295
330
1D
100
AcDbEntity
  8
0
100
AcDbLine
 10
59.873148389081
 20
1062.740747157331
 30
0.0
 11
59.852170283836
 21
1062.671536953883
 31
0.0
  0
LINE
  5
2296
330
1D
100
AcDbEntity
  8
0
100
AcDbLine
 10
59.864122873647
 20
1062.746346149063
 30
0.0
 11
59.852170283836
 21
1062.671536953883
 31
0.0
  0
LINE
  5
2297
330
1D
100
AcDbEntity
  8
0
100
AcDbLine
 10
59.879523734904
 20
1062.736792202204
 30
0.0
 11
59.852170283836
 21
1062.671536953883
 31
0.0
  0
LINE
  5
2298
330
1D
100
AcDbEntity
  8
0
100
AcDbLine
 10
59.84557921012
 20
1062.757849737918
 30
0.0
 11
59.852170283836
 21
1062.671536953883
 31
0.0
  0
LINE
  5
2299
330
1D
100
AcDbEntity
  8
0
100
AcDbLine
 10
59.845517290582
 20
1062.757888149795
 30
0.0
 11
59.852170283836
 21
1062.671536953883
 31
0.0
  0
LINE
  5
229A
330
1D
100
AcDbEntity
  8
0
100
AcDbLine
 10
59.109706726192
 20
1063.36607417072
 30
0.0
 11
59.127958094038
 21
1063.284836386581
 31
0.0
  0
LINE
  5
229B
330
1D
100
AcDbEntity
  8
0
100
AcDbLine
 10
59.127958094038
 20
1063.284836386581
 30
0.0
 11
59.955484038505
 21
1062.731965821952
 31
0.0
  0
LINE
  5
229C
330
1D
100
AcDbEntity
  8
0
100
AcDbLine
 10
59.127958094038
 20
1063.284836386581
 30
0.0
 11
60.076489077975
 21
1063.017744880707
 31
0.0
  0
LINE
  5
229D
330
1D
100
AcDbEntity
  8
0
100
AcDbLine
 10
59.127958094038
 20
1063.284836386581
 30
0.0
 11
59.405271227596
 21
1063.030995440404
 31
0.0
  0
LINE
  5
229E
330
1D
100
AcDbEntity
  8
0
100
AcDbLine
 10
43.774255994399
 20
1076.235742253181
 30
0.0
 11
44.824809376507
 21
1075.591937965109
 31
0.0
  0
LINE
  5
229F
330
1D
100
AcDbEntity
  8
0
100
AcDbLine
 10
43.774255994399
 20
1076.235742253181
 30
0.0
 11
44.400756646589
 21
1076.141352355391
 31
0.0
  0
LINE
  5
22A0
330
1D
100
AcDbEntity
  8
0
100
AcDbLine
 10
43.774255994399
 20
1076.235742253181
 30
0.0
 11
44.049830824461
 21
1076.280862238066
 31
0.0
  0
LINE
  5
22A1
330
1D
100
AcDbEntity
  8
0
100
AcDbLine
 10
51.352327752544
 20
1069.798530057798
 30
0.0
 11
52.062653910713
 21
1069.398306733863
 31
0.0
  0
LINE
  5
22A2
330
1D
100
AcDbEntity
  8
0
100
AcDbLine
 10
60.57547369391
 20
1062.050776011994
 30
0.0
 11
60.985182458187
 21
1061.787011005835
 31
0.0
  0
LINE
  5
22A3
330
1D
100
AcDbEntity
  8
0
100
AcDbLine
 10
60.57547369391
 20
1062.050776011994
 30
0.0
 11
60.659955630316
 21
1062.106560961707
 31
0.0
  0
LINE
  5
22A4
330
1D
100
AcDbEntity
  8
0
100
AcDbLine
 10
60.985182458187
 20
1061.787011005835
 30
0.0
 11
61.512447113747
 21
1061.717016127468
 31
0.0
  0
LINE
  5
22A5
330
1D
100
AcDbEntity
  8
0
100
AcDbLine
 10
60.033324051989
 20
1062.450735929692
 30
0.0
 11
60.57547369391
 21
1062.050776011994
 31
0.0
  0
LINE
  5
22A6
330
1D
100
AcDbEntity
  8
0
100
AcDbLine
 10
60.033324051989
 20
1062.450735929692
 30
0.0
 11
60.709377656535
 21
1062.119346696643
 31
0.0
  0
LINE
  5
22A7
330
1D
100
AcDbEntity
  8
0
100
AcDbLine
 10
60.033324051989
 20
1062.450735929692
 30
0.0
 11
60.235426501366
 21
1062.516007399247
 31
0.0
  0
LINE
  5
22A8
330
1D
100
AcDbEntity
  8
0
100
AcDbLine
 10
60.015432938726
 20
1062.464573489672
 30
0.0
 11
60.709377656535
 21
1062.119346696643
 31
0.0
  0
LINE
  5
22A9
330
1D
100
AcDbEntity
  8
0
100
AcDbLine
 10
60.015432938726
 20
1062.464573489672
 30
0.0
 11
60.221920566871
 21
1062.524385825512
 31
0.0
  0
LINE
  5
22AA
330
1D
100
AcDbEntity
  8
0
100
AcDbLine
 10
60.015432938726
 20
1062.464573489672
 30
0.0
 11
60.826852695328
 21
1062.013854776286
 31
0.0
  0
LINE
  5
22AB
330
1D
100
AcDbEntity
  8
0
100
AcDbLine
 10
59.852170283836
 20
1062.671536953883
 30
0.0
 11
60.015432938726
 21
1062.464573489672
 31
0.0
  0
LINE
  5
22AC
330
1D
100
AcDbEntity
  8
0
100
AcDbLine
 10
59.852170283836
 20
1062.671536953883
 30
0.0
 11
59.907072191696
 21
1062.719702476644
 31
0.0
  0
LINE
  5
22AD
330
1D
100
AcDbEntity
  8
0
100
AcDbLine
 10
44.824809376507
 20
1075.591937965109
 30
0.0
 11
45.775880642197
 21
1076.460221294543
 31
0.0
  0
LINE
  5
22AE
330
1D
100
AcDbEntity
  8
0
100
AcDbLine
 10
44.049830824461
 20
1076.280862238066
 30
0.0
 11
44.530648567053
 21
1076.174649487375
 31
0.0
  0
LINE
  5
22AF
330
1D
100
AcDbEntity
  8
0
100
AcDbLine
 10
44.049830824461
 20
1076.280862238066
 30
0.0
 11
44.400756646589
 21
1076.141352355391
 31
0.0
  0
LINE
  5
22B0
330
1D
100
AcDbEntity
  8
0
100
AcDbLine
 10
43.633992094984
 20
1076.789076100196
 30
0.0
 11
43.774255994399
 21
1076.235742253181
 31
0.0
  0
LINE
  5
22B1
330
1D
100
AcDbEntity
  8
0
100
AcDbLine
 10
43.301774919659
 20
1077.195092571893
 30
0.0
 11
44.049830824461
 21
1076.280862238066
 31
0.0
  0
LINE
  5
22B2
330
1D
100
AcDbEntity
  8
0
100
AcDbLine
 10
40.29767253129
 20
1080.019079891305
 30
0.0
 11
40.88916463126
 21
1079.455922235161
 31
0.0
  0
LINE
  5
22B3
330
1D
100
AcDbEntity
  8
0
100
AcDbLine
 10
39.83994012543
 20
1080.506420700826
 30
0.0
 11
40.29767253129
 21
1080.019079891305
 31
0.0
  0
LINE
  5
22B4
330
1D
100
AcDbEntity
  8
0
100
AcDbLine
 10
42.988514408311
 20
1077.510948887375
 30
0.0
 11
44.530648567053
 21
1076.174649487375
 31
0.0
  0
LINE
  5
22B5
330
1D
100
AcDbEntity
  8
0
100
AcDbLine
 10
48.588470602198
 20
1072.934344373486
 30
0.0
 11
49.101328894755
 21
1072.456227262566
 31
0.0
  0
LINE
  5
22B6
330
1D
100
AcDbEntity
  8
0
100
AcDbLine
 10
48.028687185945
 20
1073.446614709235
 30
0.0
 11
48.588470602198
 21
1072.934344373486
 31
0.0
  0
LINE
  5
22B7
330
1D
100
AcDbEntity
  8
0
100
AcDbLine
 10
47.309959126966
 20
1074.00453206623
 30
0.0
 11
48.028687185945
 21
1073.446614709235
 31
0.0
  0
LINE
  5
22B8
330
1D
100
AcDbEntity
  8
0
100
AcDbLine
 10
46.785247981634
 20
1074.400587301214
 30
0.0
 11
46.167478075525
 21
1073.343829752705
 31
0.0
  0
LINE
  5
22B9
330
1D
100
AcDbEntity
  8
0
100
AcDbLine
 10
44.530648567053
 20
1076.174649487375
 30
0.0
 11
44.824809376507
 21
1075.591937965109
 31
0.0
  0
LINE
  5
22BA
330
1D
100
AcDbEntity
  8
0
100
AcDbLine
 10
44.530648567053
 20
1076.174649487375
 30
0.0
 11
45.414678817895
 21
1076.872591921159
 31
0.0
  0
LINE
  5
22BB
330
1D
100
AcDbEntity
  8
0
100
AcDbLine
 10
42.551370587126
 20
1077.632339536108
 30
0.0
 11
42.988514408311
 21
1077.510948887375
 31
0.0
  0
LINE
  5
22BC
330
1D
100
AcDbEntity
  8
0
100
AcDbLine
 10
42.551370587126
 20
1077.632339536108
 30
0.0
 11
42.96540317417
 21
1076.941080665015
 31
0.0
  0
LINE
  5
22BD
330
1D
100
AcDbEntity
  8
0
100
AcDbLine
 10
49.350960654631
 20
1073.489117462181
 30
0.0
 11
49.803665713758
 21
1072.88237302715
 31
0.0
  0
LINE
  5
22BE
330
1D
100
AcDbEntity
  8
0
100
AcDbLine
 10
49.350960654631
 20
1073.489117462181
 30
0.0
 11
49.56298678226
 21
1073.611871429851
 31
0.0
  0
LINE
  5
22BF
330
1D
100
AcDbEntity
  8
0
100
AcDbLine
 10
49.350960654631
 20
1073.489117462181
 30
0.0
 11
49.6362379051
 21
1073.454168208039
 31
0.0
  0
LINE
  5
22C0
330
1D
100
AcDbEntity
  8
0
100
AcDbLine
 10
43.241189952262
 20
1078.672138973867
 30
0.0
 11
42.551370587126
 21
1077.632339536108
 31
0.0
  0
LINE
  5
22C1
330
1D
100
AcDbEntity
  8
0
100
AcDbLine
 10
45.150969033885
 20
1077.133990093139
 30
0.0
 11
44.530648567053
 21
1076.174649487375
 31
0.0
  0
LINE
  5
22C2
330
1D
100
AcDbEntity
  8
0
100
AcDbLine
 10
43.667511422503
 20
1078.383159497053
 30
0.0
 11
42.988514408311
 21
1077.510948887375
 31
0.0
  0
LINE
  5
22C3
330
1D
100
AcDbEntity
  8
0
100
AcDbLine
 10
45.042733041014
 20
1080.328244586988
 30
0.0
 11
45.538774023527
 21
1079.825729359688
 31
0.0
  0
LINE
  5
22C4
330
1D
100
AcDbEntity
  8
0
100
AcDbLine
 10
45.042733041014
 20
1080.328244586988
 30
0.0
 11
45.814282401583
 21
1079.364537616894
 31
0.0
  0
LINE
  5
22C5
330
1D
100
AcDbEntity
  8
0
100
AcDbLine
 10
45.814282401583
 20
1079.364537616894
 30
0.0
 11
46.587751089653
 21
1078.77400257257
 31
0.0
  0
LINE
  5
22C6
330
1D
100
AcDbEntity
  8
0
100
AcDbLine
 10
45.746130738256
 20
1079.690528427097
 30
0.0
 11
46.587751089653
 21
1078.77400257257
 31
0.0
  0
LINE
  5
22C7
330
1D
100
AcDbEntity
  8
0
100
AcDbLine
 10
45.538774023527
 20
1079.825729359688
 30
0.0
 11
46.587751089653
 21
1078.77400257257
 31
0.0
  0
LINE
  5
22C8
330
1D
100
AcDbEntity
  8
0
100
AcDbLine
 10
45.78623033369
 20
1081.277783688754
 30
0.0
 11
45.042733041014
 21
1080.328244586988
 31
0.0
  0
LINE
  5
22C9
330
1D
100
AcDbEntity
  8
0
100
AcDbLine
 10
49.801859946279
 20
1075.127913981074
 30
0.0
 11
48.904402853953
 21
1073.892542908395
 31
0.0
  0
LINE
  5
22CA
330
1D
100
AcDbEntity
  8
0
100
AcDbLine
 10
49.88005820821
 20
1075.235555751972
 30
0.0
 11
49.808552231452
 21
1075.137126071083
 31
0.0
  0
LINE
  5
22CB
330
1D
100
AcDbEntity
  8
0
100
AcDbLine
 10
46.587751089653
 20
1078.77400257257
 30
0.0
 11
47.997140130875
 21
1079.333059153322
 31
0.0
  0
LINE
  5
22CC
330
1D
100
AcDbEntity
  8
0
100
AcDbLine
 10
46.587751089653
 20
1078.77400257257
 30
0.0
 11
46.857588346352
 21
1078.965834725497
 31
0.0
  0
LINE
  5
22CD
330
1D
100
AcDbEntity
  8
0
100
AcDbLine
 10
49.375715323769
 20
1074.01505040121
 30
0.0
 11
49.6362379051
 21
1073.454168208039
 31
0.0
  0
LINE
  5
22CE
330
1D
100
AcDbEntity
  8
0
100
AcDbLine
 10
49.375715323769
 20
1074.01505040121
 30
0.0
 11
50.850794921379
 21
1072.957588401555
 31
0.0
  0
LINE
  5
22CF
330
1D
100
AcDbEntity
  8
0
100
AcDbLine
 10
49.814523730482
 20
1073.362110586181
 30
0.0
 11
50.712368580565
 21
1072.416599863628
 31
0.0
  0
LINE
  5
22D0
330
1D
100
AcDbEntity
  8
0
100
AcDbLine
 10
49.904341737734
 20
1073.267524212011
 30
0.0
 11
49.803665713758
 21
1072.88237302715
 31
0.0
  0
LINE
  5
22D1
330
1D
100
AcDbEntity
  8
0
100
AcDbLine
 10
49.6362379051
 20
1073.454168208039
 30
0.0
 11
50.090449317451
 21
1073.21963681805
 31
0.0
  0
LINE
  5
22D2
330
1D
100
AcDbEntity
  8
0
100
AcDbLine
 10
48.904402853953
 20
1073.892542908395
 30
0.0
 11
49.803665713758
 21
1072.88237302715
 31
0.0
  0
LINE
  5
22D3
330
1D
100
AcDbEntity
  8
0
100
AcDbLine
 10
48.904402853953
 20
1073.892542908395
 30
0.0
 11
49.350960654631
 21
1073.489117462181
 31
0.0
  0
LINE
  5
22D4
330
1D
100
AcDbEntity
  8
0
100
AcDbLine
 10
48.904402853953
 20
1073.892542908395
 30
0.0
 11
49.557048365014
 21
1073.608433342825
 31
0.0
  0
LINE
  5
22D5
330
1D
100
AcDbEntity
  8
0
100
AcDbLine
 10
48.904402853953
 20
1073.892542908395
 30
0.0
 11
49.375715323769
 21
1074.01505040121
 31
0.0
  0
LINE
  5
22D6
330
1D
100
AcDbEntity
  8
0
100
AcDbLine
 10
53.155459257059
 20
1068.463841713118
 30
0.0
 11
53.27032339025
 21
1068.343570307927
 31
0.0
  0
LINE
  5
22D7
330
1D
100
AcDbEntity
  8
0
100
AcDbLine
 10
53.27032339025
 20
1068.343570307927
 30
0.0
 11
54.236313280455
 21
1069.189632321807
 31
0.0
  0
LINE
  5
22D8
330
1D
100
AcDbEntity
  8
0
100
AcDbLine
 10
54.271180094217
 20
1067.762353000784
 30
0.0
 11
54.314168072879
 21
1067.724980443479
 31
0.0
  0
LINE
  5
22D9
330
1D
100
AcDbEntity
  8
0
100
AcDbLine
 10
52.19751959548
 20
1069.327697265148
 30
0.0
 11
53.155459257059
 21
1068.463841713118
 31
0.0
  0
LINE
  5
22DA
330
1D
100
AcDbEntity
  8
0
100
AcDbLine
 10
54.371261767199
 20
1067.819858350729
 30
0.0
 11
53.855610080128
 21
1066.962951935367
 31
0.0
  0
LINE
  5
22DB
330
1D
100
AcDbEntity
  8
0
100
AcDbLine
 10
51.692235249503
 20
1071.268042280786
 30
0.0
 11
52.167990296498
 21
1070.952774085025
 31
0.0
  0
LINE
  5
22DC
330
1D
100
AcDbEntity
  8
0
100
AcDbLine
 10
52.167990296498
 20
1070.952774085025
 30
0.0
 11
52.961942195485
 21
1070.334999949847
 31
0.0
  0
LINE
  5
22DD
330
1D
100
AcDbEntity
  8
0
100
AcDbLine
 10
53.548476177678
 20
1069.857721144814
 30
0.0
 11
53.980019379502
 21
1069.455537399544
 31
0.0
  0
LINE
  5
22DE
330
1D
100
AcDbEntity
  8
0
100
AcDbLine
 10
53.980019379502
 20
1069.455537399544
 30
0.0
 11
54.241231146457
 21
1069.184530032847
 31
0.0
  0
LINE
  5
22DF
330
1D
100
AcDbEntity
  8
0
100
AcDbLine
 10
52.961942195485
 20
1070.334999949847
 30
0.0
 11
53.548476177678
 21
1069.857721144814
 31
0.0
  0
LINE
  5
22E0
330
1D
100
AcDbEntity
  8
0
100
AcDbLine
 10
52.11621525343
 20
1070.98708380915
 30
0.0
 11
51.516368556001
 21
1070.118950897946
 31
0.0
  0
LINE
  5
22E1
330
1D
100
AcDbEntity
  8
0
100
AcDbLine
 10
51.805428225789
 20
1071.193032786652
 30
0.0
 11
51.064122641786
 21
1069.978094932237
 31
0.0
  0
LINE
  5
22E2
330
1D
100
AcDbEntity
  8
0
100
AcDbLine
 10
54.371261767199
 20
1067.819858350729
 30
0.0
 11
53.855610080128
 21
1066.962951935367
 31
0.0
  0
LINE
  5
22E3
330
1D
100
AcDbEntity
  8
0
100
AcDbLine
 10
51.420714518945
 20
1072.100670422802
 30
0.0
 11
52.330339931632
 21
1072.959957045098
 31
0.0
  0
LINE
  5
22E4
330
1D
100
AcDbEntity
  8
0
100
AcDbLine
 10
51.516368556001
 20
1070.118950897946
 30
0.0
 11
52.19751959548
 21
1069.327697265148
 31
0.0
  0
LINE
  5
22E5
330
1D
100
AcDbEntity
  8
0
100
AcDbLine
 10
50.873835836449
 20
1072.129554962476
 30
0.0
 11
51.420714518945
 21
1072.100670422802
 31
0.0
  0
LINE
  5
22E6
330
1D
100
AcDbEntity
  8
0
100
AcDbLine
 10
52.331526913457
 20
1072.961078339191
 30
0.0
 11
52.404960562646
 21
1073.030448160542
 31
0.0
  0
LINE
  5
22E7
330
1D
100
AcDbEntity
  8
0
100
AcDbLine
 10
50.850794921379
 20
1072.957588401555
 30
0.0
 11
51.420714518945
 21
1072.100670422802
 31
0.0
  0
LINE
  5
22E8
330
1D
100
AcDbEntity
  8
0
100
AcDbLine
 10
50.090449317451
 20
1073.21963681805
 30
0.0
 11
50.712368580565
 21
1072.416599863628
 31
0.0
  0
LINE
  5
22E9
330
1D
100
AcDbEntity
  8
0
100
AcDbLine
 10
52.062653910713
 20
1069.398306733863
 30
0.0
 11
52.19751959548
 21
1069.327697265148
 31
0.0
  0
LINE
  5
22EA
330
1D
100
AcDbEntity
  8
0
100
AcDbLine
 10
52.062653910713
 20
1069.398306733863
 30
0.0
 11
53.27032339025
 21
1068.343570307927
 31
0.0
  0
LINE
  5
22EB
330
1D
100
AcDbEntity
  8
0
100
AcDbLine
 10
52.062653910713
 20
1069.398306733863
 30
0.0
 11
53.155459257059
 21
1068.463841713118
 31
0.0
  0
LINE
  5
22EC
330
1D
100
AcDbEntity
  8
0
100
AcDbLine
 10
58.266090579015
 20
1069.198720105132
 30
0.0
 11
58.244500929665
 21
1069.024418937492
 31
0.0
  0
LINE
  5
22ED
330
1D
100
AcDbEntity
  8
0
100
AcDbLine
 10
58.266090579015
 20
1069.198720105132
 30
0.0
 11
59.056359684559
 21
1068.461588996834
 31
0.0
  0
LINE
  5
22EE
330
1D
100
AcDbEntity
  8
0
100
AcDbLine
 10
58.40123395706
 20
1069.454296051102
 30
0.0
 11
58.30584843514
 21
1069.192678869805
 31
0.0
  0
LINE
  5
22EF
330
1D
100
AcDbEntity
  8
0
100
AcDbLine
 10
58.207730478717
 20
1069.496631213843
 30
0.0
 11
58.471148768042
 21
1069.611739401428
 31
0.0
  0
LINE
  5
22F0
330
1D
100
AcDbEntity
  8
0
100
AcDbLine
 10
58.207730478717
 20
1069.496631213843
 30
0.0
 11
58.244500929665
 21
1069.024418937492
 31
0.0
  0
LINE
  5
22F1
330
1D
100
AcDbEntity
  8
0
100
AcDbLine
 10
58.207730478717
 20
1069.496631213843
 30
0.0
 11
58.266090579015
 21
1069.198720105132
 31
0.0
  0
LINE
  5
22F2
330
1D
100
AcDbEntity
  8
0
100
AcDbLine
 10
58.471148768042
 20
1069.611739401428
 30
0.0
 11
58.612362786927
 21
1069.600812330906
 31
0.0
  0
LINE
  5
22F3
330
1D
100
AcDbEntity
  8
0
100
AcDbLine
 10
56.796002483555
 20
1065.780712689753
 30
0.0
 11
56.847416741151
 21
1065.824091085813
 31
0.0
  0
LINE
  5
22F4
330
1D
100
AcDbEntity
  8
0
100
AcDbLine
 10
60.127771686464
 20
1064.139398046381
 30
0.0
 11
60.314811514737
 21
1064.006481099156
 31
0.0
  0
LINE
  5
22F5
330
1D
100
AcDbEntity
  8
0
100
AcDbLine
 10
59.746503497149
 20
1064.388870557539
 30
0.0
 11
59.109706726192
 21
1063.36607417072
 31
0.0
  0
LINE
  5
22F6
330
1D
100
AcDbEntity
  8
0
100
AcDbLine
 10
60.495688203665
 20
1063.833383232789
 30
0.0
 11
60.076489077975
 21
1063.017744880707
 31
0.0
  0
LINE
  5
22F7
330
1D
100
AcDbEntity
  8
0
100
AcDbLine
 10
59.819934571904
 20
1064.480075255627
 30
0.0
 11
60.001673938368
 21
1064.420522819258
 31
0.0
  0
LINE
  5
22F8
330
1D
100
AcDbEntity
  8
0
100
AcDbLine
 10
59.819934571904
 20
1064.480075255627
 30
0.0
 11
60.755578252728
 21
1063.584670072186
 31
0.0
  0
LINE
  5
22F9
330
1D
100
AcDbEntity
  8
0
100
AcDbLine
 10
60.076489077975
 20
1063.017744880707
 30
0.0
 11
61.512447113747
 21
1061.717016127468
 31
0.0
  0
LINE
  5
22FA
330
1D
100
AcDbEntity
  8
0
100
AcDbLine
 10
60.076489077975
 20
1063.017744880707
 30
0.0
 11
60.701164529501
 21
1063.636743666896
 31
0.0
  0
LINE
  5
22FB
330
1D
100
AcDbEntity
  8
0
100
AcDbLine
 10
59.955484038505
 20
1062.731965821952
 30
0.0
 11
60.259238542113
 21
1062.501235564859
 31
0.0
  0
LINE
  5
22FC
330
1D
100
AcDbEntity
  8
0
100
AcDbLine
 10
60.885420425813
 20
1063.951250660374
 30
0.0
 11
60.755578252728
 21
1063.584670072186
 31
0.0
  0
LINE
  5
22FD
330
1D
100
AcDbEntity
  8
0
100
AcDbLine
 10
60.841601446737
 20
1063.998299586184
 30
0.0
 11
60.755578252728
 21
1063.584670072186
 31
0.0
  0
LINE
  5
22FE
330
1D
100
AcDbEntity
  8
0
100
AcDbLine
 10
60.001673938368
 20
1064.420522819258
 30
0.0
 11
60.313215810534
 21
1064.497209386434
 31
0.0
  0
LINE
  5
22FF
330
1D
100
AcDbEntity
  8
0
100
AcDbLine
 10
60.001673938368
 20
1064.420522819258
 30
0.0
 11
60.558590030394
 21
1064.298339279089
 31
0.0
  0
LINE
  5
2300
330
1D
100
AcDbEntity
  8
0
100
AcDbLine
 10
60.001673938368
 20
1064.420522819258
 30
0.0
 11
60.361511319485
 21
1064.458066997902
 31
0.0
  0
LINE
  5
2301
330
1D
100
AcDbEntity
  8
0
100
AcDbLine
 10
60.083530600197
 20
1062.610236244228
 30
0.0
 11
60.015432938726
 21
1062.464573489672
 31
0.0
  0
LINE
  5
2302
330
1D
100
AcDbEntity
  8
0
100
AcDbLine
 10
60.755578252728
 20
1063.584670072186
 30
0.0
 11
61.849501469969
 21
1063.085273081023
 31
0.0
  0
LINE
  5
2303
330
1D
100
AcDbEntity
  8
0
100
AcDbLine
 10
60.755578252728
 20
1063.584670072186
 30
0.0
 11
61.381617585598
 21
1063.418478244168
 31
0.0
  0
LINE
  5
2304
330
1D
100
AcDbEntity
  8
0
100
AcDbLine
 10
60.755578252728
 20
1063.584670072186
 30
0.0
 11
61.095509105809
 21
1063.725676105075
 31
0.0
  0
LINE
  5
2305
330
1D
100
AcDbEntity
  8
0
100
AcDbLine
 10
60.755578252728
 20
1063.584670072186
 30
0.0
 11
61.033333745703
 21
1063.792434481617
 31
0.0
  0
LINE
  5
2306
330
1D
100
AcDbEntity
  8
0
100
AcDbLine
 10
60.755578252728
 20
1063.584670072186
 30
0.0
 11
61.400887834398
 21
1063.426197538902
 31
0.0
  0
LINE
  5
2307
330
1D
100
AcDbEntity
  8
0
100
AcDbLine
 10
58.244500929665
 20
1069.024418937492
 30
0.0
 11
59.056359684559
 21
1068.461588996834
 31
0.0
  0
LINE
  5
2308
330
1D
100
AcDbEntity
  8
0
100
AcDbLine
 10
58.244500929665
 20
1069.024418937492
 30
0.0
 11
58.359255217171
 21
1069.111819892918
 31
0.0
  0
LINE
  5
2309
330
1D
100
AcDbEntity
  8
0
100
AcDbLine
 10
61.300739428463
 20
1063.795061790844
 30
0.0
 11
61.396926852091
 21
1063.624810128179
 31
0.0
  0
LINE
  5
230A
330
1D
100
AcDbEntity
  8
0
100
AcDbLine
 10
60.573150502402
 20
1064.286538354637
 30
0.0
 11
61.540957864584
 21
1063.632797458175
 31
0.0
  0
LINE
  5
230B
330
1D
100
AcDbEntity
  8
0
100
AcDbLine
 10
60.573150502402
 20
1064.286538354637
 30
0.0
 11
61.381617585598
 21
1063.418478244168
 31
0.0
  0
LINE
  5
230C
330
1D
100
AcDbEntity
  8
0
100
AcDbLine
 10
60.573150502402
 20
1064.286538354637
 30
0.0
 11
61.396926852091
 21
1063.624810128179
 31
0.0
  0
LINE
  5
230D
330
1D
100
AcDbEntity
  8
0
100
AcDbLine
 10
60.317780820808
 20
1066.140552417013
 30
0.0
 11
59.565232044614
 21
1065.103432859729
 31
0.0
  0
LINE
  5
230E
330
1D
100
AcDbEntity
  8
0
100
AcDbLine
 10
59.056359684559
 20
1068.461588996834
 30
0.0
 11
60.161814729075
 21
1068.089191796851
 31
0.0
  0
LINE
  5
230F
330
1D
100
AcDbEntity
  8
0
100
AcDbLine
 10
59.056359684559
 20
1068.461588996834
 30
0.0
 11
59.492539005488
 21
1068.467240544788
 31
0.0
  0
LINE
  5
2310
330
1D
100
AcDbEntity
  8
0
100
AcDbLine
 10
59.565232044614
 20
1065.103432859729
 30
0.0
 11
60.573150502402
 21
1064.286538354637
 31
0.0
  0
LINE
  5
2311
330
1D
100
AcDbEntity
  8
0
100
AcDbLine
 10
59.565232044614
 20
1065.103432859729
 30
0.0
 11
59.819934571904
 21
1064.480075255627
 31
0.0
  0
LINE
  5
2312
330
1D
100
AcDbEntity
  8
0
100
AcDbLine
 10
60.826852695328
 20
1062.013854776286
 30
0.0
 11
60.985182458187
 21
1061.787011005835
 31
0.0
  0
LINE
  5
2313
330
1D
100
AcDbEntity
  8
0
100
AcDbLine
 10
60.709377656535
 20
1062.119346696643
 30
0.0
 11
60.826852695328
 21
1062.013854776286
 31
0.0
  0
LINE
  5
2314
330
1D
100
AcDbEntity
  8
0
100
AcDbLine
 10
61.081925887504
 20
1063.435686099352
 30
0.0
 11
61.520859110676
 21
1063.082854470138
 31
0.0
  0
LINE
  5
2315
330
1D
100
AcDbEntity
  8
0
100
AcDbLine
 10
61.325178659095
 20
1063.682444466092
 30
0.0
 11
61.381617585598
 21
1063.418478244168
 31
0.0
  0
LINE
  5
2316
330
1D
100
AcDbEntity
  8
0
100
AcDbLine
 10
61.396305636078
 20
1063.625309142469
 30
0.0
 11
61.400887834398
 21
1063.426197538902
 31
0.0
  0
LINE
  5
2317
330
1D
100
AcDbEntity
  8
0
100
AcDbLine
 10
61.38208702589
 20
1063.636730756729
 30
0.0
 11
61.381617585598
 21
1063.418478244168
 31
0.0
  0
LINE
  5
2318
330
1D
100
AcDbEntity
  8
0
100
AcDbLine
 10
61.393846441305
 20
1063.73216925208
 30
0.0
 11
61.396043864426
 21
1063.636683982642
 31
0.0
  0
LINE
  5
2319
330
1D
100
AcDbEntity
  8
0
100
AcDbLine
 10
61.382309067703
 20
1063.739962593251
 30
0.0
 11
61.382117765418
 21
1063.651022199712
 31
0.0
  0
LINE
  5
231A
330
1D
100
AcDbEntity
  8
0
100
AcDbLine
 10
61.394348797751
 20
1063.731829917037
 30
0.0
 11
61.396926852091
 21
1063.624810128179
 31
0.0
  0
LINE
  5
231B
330
1D
100
AcDbEntity
  8
0
100
AcDbLine
 10
61.540957864584
 20
1063.632797458175
 30
0.0
 11
61.849501469969
 21
1063.085273081023
 31
0.0
  0
LINE
  5
231C
330
1D
100
AcDbEntity
  8
0
100
AcDbLine
 10
61.540957864584
 20
1063.632797458175
 30
0.0
 11
62.407521336857
 21
1064.580729356819
 31
0.0
  0
LINE
  5
231D
330
1D
100
AcDbEntity
  8
0
100
AcDbLine
 10
61.396926852091
 20
1063.624810128179
 30
0.0
 11
61.400887834398
 21
1063.426197538902
 31
0.0
  0
LINE
  5
231E
330
1D
100
AcDbEntity
  8
0
100
AcDbLine
 10
61.396926852091
 20
1063.624810128179
 30
0.0
 11
61.849501469969
 21
1063.085273081023
 31
0.0
  0
LINE
  5
231F
330
1D
100
AcDbEntity
  8
0
100
AcDbLine
 10
61.396926852091
 20
1063.624810128179
 30
0.0
 11
61.540957864584
 21
1063.632797458175
 31
0.0
  0
LINE
  5
2320
330
1D
100
AcDbEntity
  8
0
100
AcDbLine
 10
61.520859110676
 20
1063.082854470138
 30
0.0
 11
61.945544346833
 21
1062.716057986798
 31
0.0
  0
LINE
  5
2321
330
1D
100
AcDbEntity
  8
0
100
AcDbLine
 10
61.945544346833
 20
1062.716057986798
 30
0.0
 11
62.224424694252
 21
1062.452416844668
 31
0.0
  0
LINE
  5
2322
330
1D
100
AcDbEntity
  8
0
100
AcDbLine
 10
61.849501469969
 20
1063.085273081023
 30
0.0
 11
62.94906266011
 21
1064.122997847039
 31
0.0
  0
LINE
  5
2323
330
1D
100
AcDbEntity
  8
0
100
AcDbLine
 10
60.54514235812
 20
1062.277390287954
 30
0.0
 11
60.709377656535
 21
1062.119346696643
 31
0.0
  0
LINE
  5
2324
330
1D
100
AcDbEntity
  8
0
100
AcDbLine
 10
60.259238542113
 20
1062.501235564859
 30
0.0
 11
60.54514235812
 21
1062.277390287954
 31
0.0
  0
LINE
  5
2325
330
1D
100
AcDbEntity
  8
0
100
AcDbLine
 10
58.731455559816
 20
1069.554900383471
 30
0.0
 11
58.9526599396
 21
1069.579511378805
 31
0.0
  0
LINE
  5
2326
330
1D
100
AcDbEntity
  8
0
100
AcDbLine
 10
59.492539005488
 20
1068.467240544788
 30
0.0
 11
59.864331605812
 21
1068.896479769865
 31
0.0
  0
LINE
  5
2327
330
1D
100
AcDbEntity
  8
0
100
AcDbLine
 10
58.297402418194
 20
1069.169513686009
 30
0.0
 11
58.244500929665
 21
1069.024418937492
 31
0.0
  0
LINE
  5
2328
330
1D
100
AcDbEntity
  8
0
100
AcDbLine
 10
58.612362786927
 20
1069.600812330906
 30
0.0
 11
58.949549508463
 21
1069.583341308392
 31
0.0
  0
LINE
  5
2329
330
1D
100
AcDbEntity
  8
0
100
AcDbLine
 10
58.612362786927
 20
1069.600812330906
 30
0.0
 11
59.081534833559
 21
1069.420825412882
 31
0.0
  0
LINE
  5
232A
330
1D
100
AcDbEntity
  8
0
100
AcDbLine
 10
59.309580960038
 20
1069.2555656793
 30
0.0
 11
59.385699959675
 21
1069.217732912459
 31
0.0
  0
LINE
  5
232B
330
1D
100
AcDbEntity
  8
0
100
AcDbLine
 10
59.828811545933
 20
1068.920320506166
 30
0.0
 11
59.492539005488
 21
1068.467240544788
 31
0.0
  0
LINE
  5
232C
330
1D
100
AcDbEntity
  8
0
100
AcDbLine
 10
60.600627726737
 20
1069.116203283195
 30
0.0
 11
60.161814729075
 21
1068.089191796851
 31
0.0
  0
LINE
  5
232D
330
1D
100
AcDbEntity
  8
0
100
AcDbLine
 10
59.302348792958
 20
1070.360409962209
 30
0.0
 11
60.101753242521
 21
1069.776047945974
 31
0.0
  0
LINE
  5
232E
330
1D
100
AcDbEntity
  8
0
100
AcDbLine
 10
60.101753242521
 20
1069.776047945974
 30
0.0
 11
60.600627726737
 21
1069.116203283195
 31
0.0
  0
LINE
  5
232F
330
1D
100
AcDbEntity
  8
0
100
AcDbLine
 10
58.603595650852
 20
1070.009320491565
 30
0.0
 11
58.207730478717
 21
1069.496631213843
 31
0.0
  0
LINE
  5
2330
330
1D
100
AcDbEntity
  8
0
100
AcDbLine
 10
58.603595650852
 20
1070.009320491565
 30
0.0
 11
59.081534833559
 21
1069.420825412882
 31
0.0
  0
LINE
  5
2331
330
1D
100
AcDbEntity
  8
0
100
AcDbLine
 10
58.603595650852
 20
1070.009320491565
 30
0.0
 11
59.302348792958
 21
1070.360409962209
 31
0.0
  0
LINE
  5
2332
330
1D
100
AcDbEntity
  8
0
100
AcDbLine
 10
59.09387875047
 20
1069.413600614249
 30
0.0
 11
59.864331605812
 21
1068.896479769865
 31
0.0
  0
LINE
  5
2333
330
1D
100
AcDbEntity
  8
0
100
AcDbLine
 10
49.803665713758
 20
1072.88237302715
 30
0.0
 11
50.712368580565
 21
1072.416599863628
 31
0.0
  0
LINE
  5
2334
330
1D
100
AcDbEntity
  8
0
100
AcDbLine
 10
49.803665713758
 20
1072.88237302715
 30
0.0
 11
50.873835836449
 21
1072.129554962476
 31
0.0
  0
LINE
  5
2335
330
1D
100
AcDbEntity
  8
0
100
AcDbLine
 10
49.803665713758
 20
1072.88237302715
 30
0.0
 11
50.24727900739
 21
1072.906380674136
 31
0.0
  0
LINE
  5
2336
330
1D
100
AcDbEntity
  8
0
100
AcDbLine
 10
42.96540317417
 20
1076.941080665015
 30
0.0
 11
43.774255994399
 21
1076.235742253181
 31
0.0
  0
LINE
  5
2337
330
1D
100
AcDbEntity
  8
0
100
AcDbLine
 10
42.96540317417
 20
1076.941080665015
 30
0.0
 11
43.301774919659
 21
1077.195092571893
 31
0.0
  0
LINE
  5
2338
330
1D
100
AcDbEntity
  8
0
100
AcDbLine
 10
42.96540317417
 20
1076.941080665015
 30
0.0
 11
43.525825408087
 21
1076.921271121498
 31
0.0
  0
LINE
  5
2339
330
1D
100
AcDbEntity
  8
0
100
AcDbLine
 10
42.96540317417
 20
1076.941080665015
 30
0.0
 11
43.328421161881
 21
1077.162527087462
 31
0.0
  0
LINE
  5
233A
330
1D
100
AcDbEntity
  8
0
100
AcDbLine
 10
63.001147387392
 20
1059.870232819863
 30
0.0
 11
63.023375289116
 21
1059.798712400506
 31
0.0
  0
LINE
  5
233B
330
1D
100
AcDbEntity
  8
0
100
AcDbLine
 10
63.001147387392
 20
1059.870232819863
 30
0.0
 11
63.134626656089
 21
1059.757055548169
 31
0.0
  0
LINE
  5
233C
330
1D
100
AcDbEntity
  8
0
100
AcDbLine
 10
62.794534727475
 20
1060.051825492518
 30
0.0
 11
63.023375289116
 21
1059.798712400506
 31
0.0
  0
LINE
  5
233D
330
1D
100
AcDbEntity
  8
0
100
AcDbLine
 10
62.794534727475
 20
1060.051825492518
 30
0.0
 11
64.219067042507
 21
1058.992756441941
 31
0.0
  0
LINE
  5
233E
330
1D
100
AcDbEntity
  8
0
100
AcDbLine
 10
62.794534727475
 20
1060.051825492518
 30
0.0
 11
62.906758992349
 21
1059.768635177759
 31
0.0
  0
LINE
  5
233F
330
1D
100
AcDbEntity
  8
0
100
AcDbLine
 10
62.728391275242
 20
1059.84076227041
 30
0.0
 11
62.906758992349
 21
1059.768635177759
 31
0.0
  0
LINE
  5
2340
330
1D
100
AcDbEntity
  8
0
100
AcDbLine
 10
62.728391275242
 20
1059.84076227041
 30
0.0
 11
62.861683008345
 21
1059.728917226325
 31
0.0
  0
LINE
  5
2341
330
1D
100
AcDbEntity
  8
0
100
AcDbLine
 10
63.728625788322
 20
1059.445957041412
 30
0.0
 11
63.812608015482
 21
1059.407224823752
 31
0.0
  0
LINE
  5
2342
330
1D
100
AcDbEntity
  8
0
100
AcDbLine
 10
63.728625788322
 20
1059.445957041412
 30
0.0
 11
63.827878229748
 21
1059.396223321754
 31
0.0
  0
LINE
  5
2343
330
1D
100
AcDbEntity
  8
0
100
AcDbLine
 10
63.827878229748
 20
1059.396223321754
 30
0.0
 11
64.178135462974
 21
1059.154016735194
 31
0.0
  0
LINE
  5
2344
330
1D
100
AcDbEntity
  8
0
100
AcDbLine
 10
63.831467981772
 20
1059.393740970207
 30
0.0
 11
63.849179054877
 21
1059.334488122322
 31
0.0
  0
LINE
  5
2345
330
1D
100
AcDbEntity
  8
0
100
AcDbLine
 10
63.134626656089
 20
1059.757055548169
 30
0.0
 11
64.191574939337
 21
1058.952793297187
 31
0.0
  0
LINE
  5
2346
330
1D
100
AcDbEntity
  8
0
100
AcDbLine
 10
63.134626656089
 20
1059.757055548169
 30
0.0
 11
64.193563277433
 21
1058.955683590544
 31
0.0
  0
LINE
  5
2347
330
1D
100
AcDbEntity
  8
0
100
AcDbLine
 10
63.134626656089
 20
1059.757055548169
 30
0.0
 11
64.192155004314
 21
1058.953636492797
 31
0.0
  0
LINE
  5
2348
330
1D
100
AcDbEntity
  8
0
100
AcDbLine
 10
63.849179054877
 20
1059.334488122322
 30
0.0
 11
64.139472123501
 21
1059.098605218514
 31
0.0
  0
LINE
  5
2349
330
1D
100
AcDbEntity
  8
0
100
AcDbLine
 10
64.178135462974
 20
1059.154016735194
 30
0.0
 11
64.725747873539
 21
1058.756522209704
 31
0.0
  0
LINE
  5
234A
330
1D
100
AcDbEntity
  8
0
100
AcDbLine
 10
64.139472123501
 20
1059.098605218514
 30
0.0
 11
64.23689189312
 21
1059.018667049102
 31
0.0
  0
LINE
  5
234B
330
1D
100
AcDbEntity
  8
0
100
AcDbLine
 10
64.725747873539
 20
1058.756522209704
 30
0.0
 11
65.312985856798
 21
1058.320686792353
 31
0.0
  0
LINE
  5
234C
330
1D
100
AcDbEntity
  8
0
100
AcDbLine
 10
64.675011030335
 20
1058.793350479161
 30
0.0
 11
64.227289966977
 21
1058.094031360419
 31
0.0
  0
LINE
  5
234D
330
1D
100
AcDbEntity
  8
0
100
AcDbLine
 10
64.279424874501
 20
1059.080493955586
 30
0.0
 11
63.696341113675
 21
1058.232910175135
 31
0.0
  0
LINE
  5
234E
330
1D
100
AcDbEntity
  8
0
100
AcDbLine
 10
70.250255201368
 20
1053.569767190931
 30
0.0
 11
70.357367865819
 21
1053.481929711185
 31
0.0
  0
LINE
  5
234F
330
1D
100
AcDbEntity
  8
0
100
AcDbLine
 10
69.800841546305
 20
1054.022061483005
 30
0.0
 11
70.081907658788
 21
1053.708286196512
 31
0.0
  0
LINE
  5
2350
330
1D
100
AcDbEntity
  8
0
100
AcDbLine
 10
70.081907658788
 20
1053.708286196512
 30
0.0
 11
70.24208464919
 21
1053.621199259961
 31
0.0
  0
LINE
  5
2351
330
1D
100
AcDbEntity
  8
0
100
AcDbLine
 10
70.081907658788
 20
1053.708286196512
 30
0.0
 11
70.356880165672
 21
1053.482518884365
 31
0.0
  0
LINE
  5
2352
330
1D
100
AcDbEntity
  8
0
100
AcDbLine
 10
70.081907658788
 20
1053.708286196512
 30
0.0
 11
70.250255201368
 21
1053.569767190931
 31
0.0
  0
LINE
  5
2353
330
1D
100
AcDbEntity
  8
0
100
AcDbLine
 10
70.517156772186
 20
1053.288894423481
 30
0.0
 11
71.431654170151
 21
1052.719653282204
 31
0.0
  0
LINE
  5
2354
330
1D
100
AcDbEntity
  8
0
100
AcDbLine
 10
70.517156772186
 20
1053.288894423481
 30
0.0
 11
70.783648755836
 21
1053.415918100082
 31
0.0
  0
LINE
  5
2355
330
1D
100
AcDbEntity
  8
0
100
AcDbLine
 10
70.517156772186
 20
1053.288894423481
 30
0.0
 11
70.951842550709
 21
1053.235198279895
 31
0.0
  0
LINE
  5
2356
330
1D
100
AcDbEntity
  8
0
100
AcDbLine
 10
69.898709647624
 20
1054.03601837178
 30
0.0
 11
70.247188214994
 21
1053.948820160309
 31
0.0
  0
LINE
  5
2357
330
1D
100
AcDbEntity
  8
0
100
AcDbLine
 10
69.898709647624
 20
1054.03601837178
 30
0.0
 11
70.517156772186
 21
1053.288894423481
 31
0.0
  0
LINE
  5
2358
330
1D
100
AcDbEntity
  8
0
100
AcDbLine
 10
71.218339188693
 20
1052.850393273218
 30
0.0
 11
71.703210164561
 21
1052.527475904902
 31
0.0
  0
LINE
  5
2359
330
1D
100
AcDbEntity
  8
0
100
AcDbLine
 10
67.044814332325
 20
1056.563741881049
 30
0.0
 11
67.643783461407
 21
1056.283457967122
 31
0.0
  0
LINE
  5
235A
330
1D
100
AcDbEntity
  8
0
100
AcDbLine
 10
67.044814332325
 20
1056.563741881049
 30
0.0
 11
67.708408171429
 21
1056.273354163157
 31
0.0
  0
LINE
  5
235B
330
1D
100
AcDbEntity
  8
0
100
AcDbLine
 10
72.403447717516
 20
1051.84826724077
 30
0.0
 11
72.574448425616
 21
1051.666881689015
 31
0.0
  0
LINE
  5
235C
330
1D
100
AcDbEntity
  8
0
100
AcDbLine
 10
72.403447717516
 20
1051.84826724077
 30
0.0
 11
72.598283695854
 21
1051.711541674452
 31
0.0
  0
LINE
  5
235D
330
1D
100
AcDbEntity
  8
0
100
AcDbLine
 10
72.144726058602
 20
1052.275792144383
 30
0.0
 11
72.965141526709
 21
1053.030176612647
 31
0.0
  0
LINE
  5
235E
330
1D
100
AcDbEntity
  8
0
100
AcDbLine
 10
71.703210164561
 20
1052.527475904902
 30
0.0
 11
71.790710561593
 21
1052.49544931136
 31
0.0
  0
LINE
  5
235F
330
1D
100
AcDbEntity
  8
0
100
AcDbLine
 10
71.434779857351
 20
1052.716294813307
 30
0.0
 11
71.839160414509
 21
1052.670826417769
 31
0.0
  0
LINE
  5
2360
330
1D
100
AcDbEntity
  8
0
100
AcDbLine
 10
71.434779857351
 20
1052.716294813307
 30
0.0
 11
72.144726058602
 21
1052.275792144383
 31
0.0
  0
LINE
  5
2361
330
1D
100
AcDbEntity
  8
0
100
AcDbLine
 10
67.184562626703
 20
1056.498347527632
 30
0.0
 11
66.631431775953
 21
1055.786394274062
 31
0.0
  0
LINE
  5
2362
330
1D
100
AcDbEntity
  8
0
100
AcDbLine
 10
70.323074310758
 20
1053.887900782721
 30
0.0
 11
70.517156772186
 21
1053.288894423481
 31
0.0
  0
LINE
  5
2363
330
1D
100
AcDbEntity
  8
0
100
AcDbLine
 10
70.247188214994
 20
1053.948820160309
 30
0.0
 11
71.839160414509
 21
1052.670826417769
 31
0.0
  0
LINE
  5
2364
330
1D
100
AcDbEntity
  8
0
100
AcDbLine
 10
67.57702909417
 20
1056.330845460056
 30
0.0
 11
67.643783461407
 21
1056.283457967122
 31
0.0
  0
LINE
  5
2365
330
1D
100
AcDbEntity
  8
0
100
AcDbLine
 10
67.643783461407
 20
1056.283457967122
 30
0.0
 11
67.954509193335
 21
1056.145044783075
 31
0.0
  0
LINE
  5
2366
330
1D
100
AcDbEntity
  8
0
100
AcDbLine
 10
66.251378055707
 20
1057.32275867228
 30
0.0
 11
66.790940691122
 21
1057.137059571603
 31
0.0
  0
LINE
  5
2367
330
1D
100
AcDbEntity
  8
0
100
AcDbLine
 10
72.214799503134
 20
1052.340225739614
 30
0.0
 11
72.356351057574
 21
1052.288415527853
 31
0.0
  0
LINE
  5
2368
330
1D
100
AcDbEntity
  8
0
100
AcDbLine
 10
72.356351057574
 20
1052.288415527853
 30
0.0
 11
72.733987912732
 21
1052.668078130181
 31
0.0
  0
LINE
  5
2369
330
1D
100
AcDbEntity
  8
0
100
AcDbLine
 10
72.356351057574
 20
1052.288415527853
 30
0.0
 11
72.712778286933
 21
1052.682893633732
 31
0.0
  0
LINE
  5
236A
330
1D
100
AcDbEntity
  8
0
100
AcDbLine
 10
72.241625984044
 20
1052.364893095754
 30
0.0
 11
72.356351057574
 21
1052.288415527853
 31
0.0
  0
LINE
  5
236B
330
1D
100
AcDbEntity
  8
0
100
AcDbLine
 10
71.839160414509
 20
1052.670826417769
 30
0.0
 11
72.144726058602
 21
1052.275792144383
 31
0.0
  0
LINE
  5
236C
330
1D
100
AcDbEntity
  8
0
100
AcDbLine
 10
72.712665789201
 20
1051.925858632972
 30
0.0
 11
73.513184977558
 21
1051.028568897674
 31
0.0
  0
LINE
  5
236D
330
1D
100
AcDbEntity
  8
0
100
AcDbLine
 10
72.712665789201
 20
1051.925858632972
 30
0.0
 11
72.5005028653
 21
1051.5283303903
 31
0.0
  0
LINE
  5
236E
330
1D
100
AcDbEntity
  8
0
100
AcDbLine
 10
70.407330798635
 20
1053.820261872753
 30
0.0
 11
71.434779857351
 21
1052.716294813307
 31
0.0
  0
LINE
  5
236F
330
1D
100
AcDbEntity
  8
0
100
AcDbLine
 10
66.183034195572
 20
1057.330461879418
 30
0.0
 11
67.044814332325
 21
1056.563741881049
 31
0.0
  0
LINE
  5
2370
330
1D
100
AcDbEntity
  8
0
100
AcDbLine
 10
66.183034195572
 20
1057.330461879418
 30
0.0
 11
66.790940691122
 21
1057.137059571603
 31
0.0
  0
LINE
  5
2371
330
1D
100
AcDbEntity
  8
0
100
AcDbLine
 10
66.183034195572
 20
1057.330461879418
 30
0.0
 11
66.933219571688
 21
1056.91924570578
 31
0.0
  0
LINE
  5
2372
330
1D
100
AcDbEntity
  8
0
100
AcDbLine
 10
66.11230166226
 20
1057.370624034879
 30
0.0
 11
66.183034195572
 21
1057.330461879418
 31
0.0
  0
LINE
  5
2373
330
1D
100
AcDbEntity
  8
0
100
AcDbLine
 10
66.11230166226
 20
1057.370624034879
 30
0.0
 11
67.044814332325
 21
1056.563741881049
 31
0.0
  0
LINE
  5
2374
330
1D
100
AcDbEntity
  8
0
100
AcDbLine
 10
66.11230166226
 20
1057.370624034879
 30
0.0
 11
66.201574932586
 21
1057.339899212725
 31
0.0
  0
LINE
  5
2375
330
1D
100
AcDbEntity
  8
0
100
AcDbLine
 10
65.312985856798
 20
1058.320686792353
 30
0.0
 11
65.889197685723
 21
1057.885839417938
 31
0.0
  0
LINE
  5
2376
330
1D
100
AcDbEntity
  8
0
100
AcDbLine
 10
61.512447113747
 20
1061.717016127468
 30
0.0
 11
62.252257131197
 21
1062.422850540779
 31
0.0
  0
LINE
  5
2377
330
1D
100
AcDbEntity
  8
0
100
AcDbLine
 10
62.169309239885
 20
1062.50452055679
 30
0.0
 11
61.512447113747
 21
1061.717016127468
 31
0.0
  0
LINE
  5
2378
330
1D
100
AcDbEntity
  8
0
100
AcDbLine
 10
65.878920396236
 20
1057.87035298608
 30
0.0
 11
66.11230166226
 21
1057.370624034879
 31
0.0
  0
LINE
  5
2379
330
1D
100
AcDbEntity
  8
0
100
AcDbLine
 10
65.878920396236
 20
1057.87035298608
 30
0.0
 11
66.790940691122
 21
1057.137059571603
 31
0.0
  0
LINE
  5
237A
330
1D
100
AcDbEntity
  8
0
100
AcDbLine
 10
67.711055887542
 20
1056.329597499548
 30
0.0
 11
67.708408171429
 21
1056.273354163157
 31
0.0
  0
LINE
  5
237B
330
1D
100
AcDbEntity
  8
0
100
AcDbLine
 10
67.702253126745
 20
1056.336270538602
 30
0.0
 11
67.708408171429
 21
1056.273354163157
 31
0.0
  0
LINE
  5
237C
330
1D
100
AcDbEntity
  8
0
100
AcDbLine
 10
68.707612402745
 20
1055.480611516316
 30
0.0
 11
70.16999579709
 21
1054.459096729698
 31
0.0
  0
LINE
  5
237D
330
1D
100
AcDbEntity
  8
0
100
AcDbLine
 10
67.880066466465
 20
1056.17820539321
 30
0.0
 11
68.009413249383
 21
1056.081351811489
 31
0.0
  0
LINE
  5
237E
330
1D
100
AcDbEntity
  8
0
100
AcDbLine
 10
68.009413249383
 20
1056.081351811489
 30
0.0
 11
68.288847167094
 21
1055.871420571239
 31
0.0
  0
LINE
  5
237F
330
1D
100
AcDbEntity
  8
0
100
AcDbLine
 10
68.009413249383
 20
1056.081351811489
 30
0.0
 11
68.816627903653
 21
1055.496963291811
 31
0.0
  0
LINE
  5
2380
330
1D
100
AcDbEntity
  8
0
100
AcDbLine
 10
67.708408171429
 20
1056.273354163157
 30
0.0
 11
67.954509193335
 21
1056.145044783075
 31
0.0
  0
LINE
  5
2381
330
1D
100
AcDbEntity
  8
0
100
AcDbLine
 10
68.606147346976
 20
1057.028981837802
 30
0.0
 11
69.009371013042
 21
1056.680324290738
 31
0.0
  0
LINE
  5
2382
330
1D
100
AcDbEntity
  8
0
100
AcDbLine
 10
68.606147346976
 20
1057.028981837802
 30
0.0
 11
68.640148863335
 21
1056.974604113637
 31
0.0
  0
LINE
  5
2383
330
1D
100
AcDbEntity
  8
0
100
AcDbLine
 10
68.558918532659
 20
1057.066857699385
 30
0.0
 11
68.606147346976
 21
1057.028981837802
 31
0.0
  0
LINE
  5
2384
330
1D
100
AcDbEntity
  8
0
100
AcDbLine
 10
68.288847167094
 20
1055.871420571239
 30
0.0
 11
68.490760835773
 21
1055.720009506913
 31
0.0
  0
LINE
  5
2385
330
1D
100
AcDbEntity
  8
0
100
AcDbLine
 10
68.570336737185
 20
1055.675267450959
 30
0.0
 11
68.613738800609
 21
1055.635834785681
 31
0.0
  0
LINE
  5
2386
330
1D
100
AcDbEntity
  8
0
100
AcDbLine
 10
68.490760835773
 20
1055.720009506913
 30
0.0
 11
68.707612402745
 21
1055.480611516316
 31
0.0
  0
LINE
  5
2387
330
1D
100
AcDbEntity
  8
0
100
AcDbLine
 10
68.490760835773
 20
1055.720009506913
 30
0.0
 11
68.816627903653
 21
1055.496963291811
 31
0.0
  0
LINE
  5
2388
330
1D
100
AcDbEntity
  8
0
100
AcDbLine
 10
68.816627903653
 20
1055.496963291811
 30
0.0
 11
70.197813444785
 21
1054.502479131383
 31
0.0
  0
LINE
  5
2389
330
1D
100
AcDbEntity
  8
0
100
AcDbLine
 10
68.613738800609
 20
1055.635834785681
 30
0.0
 11
68.816627903653
 21
1055.496963291811
 31
0.0
  0
LINE
  5
238A
330
1D
100
AcDbEntity
  8
0
100
AcDbLine
 10
68.544348641045
 20
1056.06748783671
 30
0.0
 11
69.801013343911
 21
1055.204616331833
 31
0.0
  0
LINE
  5
238B
330
1D
100
AcDbEntity
  8
0
100
AcDbLine
 10
68.556595323028
 20
1056.07996094429
 30
0.0
 11
70.00401774003
 21
1055.110511203619
 31
0.0
  0
LINE
  5
238C
330
1D
100
AcDbEntity
  8
0
100
AcDbLine
 10
68.640148863335
 20
1056.974604113637
 30
0.0
 11
68.94221688759
 21
1056.718528131315
 31
0.0
  0
LINE
  5
238D
330
1D
100
AcDbEntity
  8
0
100
AcDbLine
 10
68.94221688759
 20
1056.718528131315
 30
0.0
 11
69.009371013042
 21
1056.680324290738
 31
0.0
  0
LINE
  5
238E
330
1D
100
AcDbEntity
  8
0
100
AcDbLine
 10
68.94221688759
 20
1056.718528131315
 30
0.0
 11
69.136159706149
 21
1056.618981954689
 31
0.0
  0
LINE
  5
238F
330
1D
100
AcDbEntity
  8
0
100
AcDbLine
 10
69.009371013042
 20
1056.680324290738
 30
0.0
 11
69.215647047587
 21
1056.474994586184
 31
0.0
  0
LINE
  5
2390
330
1D
100
AcDbEntity
  8
0
100
AcDbLine
 10
69.045641732936
 20
1056.578049201248
 30
0.0
 11
69.198475394506
 21
1056.492087461087
 31
0.0
  0
LINE
  5
2391
330
1D
100
AcDbEntity
  8
0
100
AcDbLine
 10
69.01140350475
 20
1056.468056631926
 30
0.0
 11
69.212502081792
 21
1056.340565760443
 31
0.0
  0
LINE
  5
2392
330
1D
100
AcDbEntity
  8
0
100
AcDbLine
 10
69.01140350475
 20
1056.468056631926
 30
0.0
 11
69.260034612584
 21
1056.292979328379
 31
0.0
  0
LINE
  5
2393
330
1D
100
AcDbEntity
  8
0
100
AcDbLine
 10
68.704733557932
 20
1055.957361743188
 30
0.0
 11
69.801013343911
 21
1055.204616331833
 31
0.0
  0
LINE
  5
2394
330
1D
100
AcDbEntity
  8
0
100
AcDbLine
 10
69.107558642152
 20
1056.328518571172
 30
0.0
 11
69.151746152715
 21
1056.369232262794
 31
0.0
  0
LINE
  5
2395
330
1D
100
AcDbEntity
  8
0
100
AcDbLine
 10
69.339197594461
 20
1056.284644323859
 30
0.0
 11
70.668496604207
 21
1055.533699730238
 31
0.0
  0
LINE
  5
2396
330
1D
100
AcDbEntity
  8
0
100
AcDbLine
 10
69.260034612584
 20
1056.292979328379
 30
0.0
 11
69.339197594461
 21
1056.284644323859
 31
0.0
  0
LINE
  5
2397
330
1D
100
AcDbEntity
  8
0
100
AcDbLine
 10
69.158079784967
 20
1056.375067973997
 30
0.0
 11
69.214526006321
 21
1056.427076652924
 31
0.0
  0
LINE
  5
2398
330
1D
100
AcDbEntity
  8
0
100
AcDbLine
 10
69.542184140321
 20
1056.090951597615
 30
0.0
 11
70.334261548758
 21
1055.668674776447
 31
0.0
  0
LINE
  5
2399
330
1D
100
AcDbEntity
  8
0
100
AcDbLine
 10
69.365220810843
 20
1056.269943347249
 30
0.0
 11
69.542184140321
 21
1056.090951597615
 31
0.0
  0
LINE
  5
239A
330
1D
100
AcDbEntity
  8
0
100
AcDbLine
 10
69.215647047587
 20
1056.474994586184
 30
0.0
 11
69.212502081792
 21
1056.340565760443
 31
0.0
  0
LINE
  5
239B
330
1D
100
AcDbEntity
  8
0
100
AcDbLine
 10
69.305134484611
 20
1056.475941061326
 30
0.0
 11
69.212502081792
 21
1056.340565760443
 31
0.0
  0
LINE
  5
239C
330
1D
100
AcDbEntity
  8
0
100
AcDbLine
 10
69.214526006321
 20
1056.427076652924
 30
0.0
 11
69.212502081792
 21
1056.340565760443
 31
0.0
  0
LINE
  5
239D
330
1D
100
AcDbEntity
  8
0
100
AcDbLine
 10
69.580017545727
 20
1056.148600861016
 30
0.0
 11
69.542184140321
 21
1056.090951597615
 31
0.0
  0
LINE
  5
239E
330
1D
100
AcDbEntity
  8
0
100
AcDbLine
 10
68.47524832502
 20
1055.997109943596
 30
0.0
 11
69.078498743746
 21
1056.611513696461
 31
0.0
  0
LINE
  5
239F
330
1D
100
AcDbEntity
  8
0
100
AcDbLine
 10
68.627407714791
 20
1057.049651786045
 30
0.0
 11
69.51095092436
 21
1056.9233789195
 31
0.0
  0
LINE
  5
23A0
330
1D
100
AcDbEntity
  8
0
100
AcDbLine
 10
68.627407714791
 20
1057.049651786045
 30
0.0
 11
69.678023619703
 21
1056.484641635387
 31
0.0
  0
LINE
  5
23A1
330
1D
100
AcDbEntity
  8
0
100
AcDbLine
 10
68.627407714791
 20
1057.049651786045
 30
0.0
 11
69.876092631705
 21
1055.992612341051
 31
0.0
  0
LINE
  5
23A2
330
1D
100
AcDbEntity
  8
0
100
AcDbLine
 10
67.954509193335
 20
1056.145044783075
 30
0.0
 11
68.47524832502
 21
1055.997109943596
 31
0.0
  0
LINE
  5
23A3
330
1D
100
AcDbEntity
  8
0
100
AcDbLine
 10
69.801013343911
 20
1055.204616331833
 30
0.0
 11
69.896861770313
 21
1055.182281770271
 31
0.0
  0
LINE
  5
23A4
330
1D
100
AcDbEntity
  8
0
100
AcDbLine
 10
69.801013343911
 20
1055.204616331833
 30
0.0
 11
70.00401774003
 21
1055.110511203619
 31
0.0
  0
LINE
  5
23A5
330
1D
100
AcDbEntity
  8
0
100
AcDbLine
 10
72.641561893779
 20
1052.732640231606
 30
0.0
 11
73.031015709209
 21
1052.460596092768
 31
0.0
  0
LINE
  5
23A6
330
1D
100
AcDbEntity
  8
0
100
AcDbLine
 10
72.641561893779
 20
1052.732640231606
 30
0.0
 11
73.031015709209
 21
1052.460596092768
 31
0.0
  0
LINE
  5
23A7
330
1D
100
AcDbEntity
  8
0
100
AcDbLine
 10
72.658940033225
 20
1052.748619694447
 30
0.0
 11
73.040153037922
 21
1052.475944210165
 31
0.0
  0
LINE
  5
23A8
330
1D
100
AcDbEntity
  8
0
100
AcDbLine
 10
72.647909372285
 20
1052.738476834381
 30
0.0
 11
73.031818164219
 21
1052.461943989302
 31
0.0
  0
LINE
  5
23A9
330
1D
100
AcDbEntity
  8
0
100
AcDbLine
 10
72.647835570607
 20
1052.73840897262
 30
0.0
 11
73.031813587447
 21
1052.461936301622
 31
0.0
  0
LINE
  5
23AA
330
1D
100
AcDbEntity
  8
0
100
AcDbLine
 10
70.167515923901
 20
1054.863535184801
 30
0.0
 11
70.342275421629
 21
1054.727771635496
 31
0.0
  0
LINE
  5
23AB
330
1D
100
AcDbEntity
  8
0
100
AcDbLine
 10
72.666214954805
 20
1052.755309095197
 30
0.0
 11
73.060055324114
 21
1052.479876503652
 31
0.0
  0
LINE
  5
23AC
330
1D
100
AcDbEntity
  8
0
100
AcDbLine
 10
69.886897144053
 20
1055.101613114052
 30
0.0
 11
70.167515923901
 21
1054.863535184801
 31
0.0
  0
LINE
  5
23AD
330
1D
100
AcDbEntity
  8
0
100
AcDbLine
 10
70.127651290393
 20
1054.488675525444
 30
0.0
 11
69.800841546305
 21
1054.022061483005
 31
0.0
  0
LINE
  5
23AE
330
1D
100
AcDbEntity
  8
0
100
AcDbLine
 10
72.894518333685
 20
1052.555943241793
 30
0.0
 11
72.403447717516
 21
1051.84826724077
 31
0.0
  0
LINE
  5
23AF
330
1D
100
AcDbEntity
  8
0
100
AcDbLine
 10
70.190342803427
 20
1054.968525391826
 30
0.0
 11
70.396949363424
 21
1054.813037180977
 31
0.0
  0
LINE
  5
23B0
330
1D
100
AcDbEntity
  8
0
100
AcDbLine
 10
70.00401774003
 20
1055.110511203619
 30
0.0
 11
70.482293836463
 21
1054.806181669099
 31
0.0
  0
LINE
  5
23B1
330
1D
100
AcDbEntity
  8
0
100
AcDbLine
 10
69.914114211731
 20
1055.152187064926
 30
0.0
 11
69.886897144053
 21
1055.101613114052
 31
0.0
  0
LINE
  5
23B2
330
1D
100
AcDbEntity
  8
0
100
AcDbLine
 10
70.369367717735
 20
1054.833794608721
 30
0.0
 11
70.311730358552
 21
1054.751500853255
 31
0.0
  0
LINE
  5
23B3
330
1D
100
AcDbEntity
  8
0
100
AcDbLine
 10
70.482293836463
 20
1054.806181669099
 30
0.0
 11
70.968772451855
 21
1054.466511525038
 31
0.0
  0
LINE
  5
23B4
330
1D
100
AcDbEntity
  8
0
100
AcDbLine
 10
70.418558297478
 20
1054.846736919625
 30
0.0
 11
69.898709647624
 21
1054.03601837178
 31
0.0
  0
LINE
  5
23B5
330
1D
100
AcDbEntity
  8
0
100
AcDbLine
 10
71.859425631354
 20
1053.850880366106
 30
0.0
 11
72.468530335718
 21
1053.406878767998
 31
0.0
  0
LINE
  5
23B6
330
1D
100
AcDbEntity
  8
0
100
AcDbLine
 10
70.968772451855
 20
1054.466511525038
 30
0.0
 11
71.859425631354
 21
1053.850880366106
 31
0.0
  0
LINE
  5
23B7
330
1D
100
AcDbEntity
  8
0
100
AcDbLine
 10
70.709412801186
 20
1054.647602177574
 30
0.0
 11
70.247188214994
 21
1053.948820160309
 31
0.0
  0
LINE
  5
23B8
330
1D
100
AcDbEntity
  8
0
100
AcDbLine
 10
73.047656389057
 20
1052.48854770925
 30
0.0
 11
72.712665789201
 21
1051.925858632972
 31
0.0
  0
LINE
  5
23B9
330
1D
100
AcDbEntity
  8
0
100
AcDbLine
 10
69.876092631705
 20
1055.992612341051
 30
0.0
 11
70.516697888634
 21
1055.625044735303
 31
0.0
  0
LINE
  5
23BA
330
1D
100
AcDbEntity
  8
0
100
AcDbLine
 10
69.876092631705
 20
1055.992612341051
 30
0.0
 11
70.240426243084
 21
1055.785850014649
 31
0.0
  0
LINE
  5
23BB
330
1D
100
AcDbEntity
  8
0
100
AcDbLine
 10
69.876092631705
 20
1055.992612341051
 30
0.0
 11
70.474151927256
 21
1055.689463996169
 31
0.0
  0
LINE
  5
23BC
330
1D
100
AcDbEntity
  8
0
100
AcDbLine
 10
69.876092631705
 20
1055.992612341051
 30
0.0
 11
70.227302647864
 21
1056.068908897655
 31
0.0
  0
LINE
  5
23BD
330
1D
100
AcDbEntity
  8
0
100
AcDbLine
 10
69.876092631705
 20
1055.992612341051
 30
0.0
 11
70.53445271723
 21
1055.706877345316
 31
0.0
  0
LINE
  5
23BE
330
1D
100
AcDbEntity
  8
0
100
AcDbLine
 10
69.866718893952
 20
1056.34324142886
 30
0.0
 11
69.876092631705
 21
1055.992612341051
 31
0.0
  0
LINE
  5
23BF
330
1D
100
AcDbEntity
  8
0
100
AcDbLine
 10
69.678023619703
 20
1056.484641635387
 30
0.0
 11
70.047496913267
 21
1056.207774076177
 31
0.0
  0
LINE
  5
23C0
330
1D
100
AcDbEntity
  8
0
100
AcDbLine
 10
70.355696990647
 20
1055.710405781298
 30
0.0
 11
70.283691514827
 21
1055.570223886459
 31
0.0
  0
LINE
  5
23C1
330
1D
100
AcDbEntity
  8
0
100
AcDbLine
 10
70.367199443057
 20
1055.938556809847
 30
0.0
 11
70.53445271723
 21
1055.706877345316
 31
0.0
  0
LINE
  5
23C2
330
1D
100
AcDbEntity
  8
0
100
AcDbLine
 10
70.437358363419
 20
1055.873184606467
 30
0.0
 11
70.53445271723
 21
1055.706877345316
 31
0.0
  0
LINE
  5
23C3
330
1D
100
AcDbEntity
  8
0
100
AcDbLine
 10
70.35770562671
 20
1055.947402893707
 30
0.0
 11
70.53445271723
 21
1055.706877345316
 31
0.0
  0
LINE
  5
23C4
330
1D
100
AcDbEntity
  8
0
100
AcDbLine
 10
70.047496913267
 20
1056.207774076177
 30
0.0
 11
70.227302647864
 21
1056.068908897655
 31
0.0
  0
LINE
  5
23C5
330
1D
100
AcDbEntity
  8
0
100
AcDbLine
 10
69.328539219197
 20
1058.164011995556
 30
0.0
 11
68.627407714791
 21
1057.049651786045
 31
0.0
  0
LINE
  5
23C6
330
1D
100
AcDbEntity
  8
0
100
AcDbLine
 10
70.556276854557
 20
1059.270602321662
 30
0.0
 11
70.642361726877
 21
1058.491098867688
 31
0.0
  0
LINE
  5
23C7
330
1D
100
AcDbEntity
  8
0
100
AcDbLine
 10
70.915965215386
 20
1058.940068990386
 30
0.0
 11
70.80867933314
 21
1058.791986245035
 31
0.0
  0
LINE
  5
23C8
330
1D
100
AcDbEntity
  8
0
100
AcDbLine
 10
70.915965215386
 20
1058.940068990386
 30
0.0
 11
71.714287400784
 21
1058.659339052008
 31
0.0
  0
LINE
  5
23C9
330
1D
100
AcDbEntity
  8
0
100
AcDbLine
 10
70.915965215386
 20
1058.940068990386
 30
0.0
 11
72.248443069858
 21
1058.126016671833
 31
0.0
  0
LINE
  5
23CA
330
1D
100
AcDbEntity
  8
0
100
AcDbLine
 10
70.999463097877
 20
1058.811446021252
 30
0.0
 11
71.050929359474
 21
1058.857615181457
 31
0.0
  0
LINE
  5
23CB
330
1D
100
AcDbEntity
  8
0
100
AcDbLine
 10
72.192327097478
 20
1058.160299671186
 30
0.0
 11
72.360457255385
 21
1057.875246194621
 31
0.0
  0
LINE
  5
23CC
330
1D
100
AcDbEntity
  8
0
100
AcDbLine
 10
72.166988269155
 20
1058.175779952435
 30
0.0
 11
72.097189971216
 21
1057.642394101897
 31
0.0
  0
LINE
  5
23CD
330
1D
100
AcDbEntity
  8
0
100
AcDbLine
 10
70.642361726877
 20
1058.491098867688
 30
0.0
 11
72.097189971216
 21
1057.642394101897
 31
0.0
  0
LINE
  5
23CE
330
1D
100
AcDbEntity
  8
0
100
AcDbLine
 10
70.642361726877
 20
1058.491098867688
 30
0.0
 11
70.926029071144
 21
1058.745570100997
 31
0.0
  0
LINE
  5
23CF
330
1D
100
AcDbEntity
  8
0
100
AcDbLine
 10
69.51095092436
 20
1056.9233789195
 30
0.0
 11
70.574526710344
 21
1056.159123865564
 31
0.0
  0
LINE
  5
23D0
330
1D
100
AcDbEntity
  8
0
100
AcDbLine
 10
70.80867933314
 20
1058.791986245035
 30
0.0
 11
70.642361726877
 21
1058.491098867688
 31
0.0
  0
LINE
  5
23D1
330
1D
100
AcDbEntity
  8
0
100
AcDbLine
 10
70.80867933314
 20
1058.791986245035
 30
0.0
 11
71.800474187739
 21
1058.399694846599
 31
0.0
  0
LINE
  5
23D2
330
1D
100
AcDbEntity
  8
0
100
AcDbLine
 10
70.80867933314
 20
1058.791986245035
 30
0.0
 11
71.108325776171
 21
1058.822549918696
 31
0.0
  0
LINE
  5
23D3
330
1D
100
AcDbEntity
  8
0
100
AcDbLine
 10
72.640995955181
 20
1058.971883873127
 30
0.0
 11
73.286070325547
 21
1058.412065423362
 31
0.0
  0
LINE
  5
23D4
330
1D
100
AcDbEntity
  8
0
100
AcDbLine
 10
71.780327875227
 20
1059.500347699844
 30
0.0
 11
72.640995955181
 21
1058.971883873127
 31
0.0
  0
LINE
  5
23D5
330
1D
100
AcDbEntity
  8
0
100
AcDbLine
 10
70.563625582851
 20
1059.889203935136
 30
0.0
 11
71.780327875227
 21
1059.500347699844
 31
0.0
  0
LINE
  5
23D6
330
1D
100
AcDbEntity
  8
0
100
AcDbLine
 10
70.563625582851
 20
1059.889203935136
 30
0.0
 11
70.556276854557
 21
1059.270602321662
 31
0.0
  0
LINE
  5
23D7
330
1D
100
AcDbEntity
  8
0
100
AcDbLine
 10
71.714287400784
 20
1058.659339052008
 30
0.0
 11
72.248443069858
 21
1058.126016671833
 31
0.0
  0
LINE
  5
23D8
330
1D
100
AcDbEntity
  8
0
100
AcDbLine
 10
72.289005678867
 20
1057.996387580236
 30
0.0
 11
72.097189971216
 21
1057.642394101897
 31
0.0
  0
LINE
  5
23D9
330
1D
100
AcDbEntity
  8
0
100
AcDbLine
 10
72.233966053148
 20
1058.089703597157
 30
0.0
 11
72.097189971216
 21
1057.642394101897
 31
0.0
  0
LINE
  5
23DA
330
1D
100
AcDbEntity
  8
0
100
AcDbLine
 10
72.097189971216
 20
1057.642394101897
 30
0.0
 11
73.452681253794
 21
1057.705193328433
 31
0.0
  0
LINE
  5
23DB
330
1D
100
AcDbEntity
  8
0
100
AcDbLine
 10
72.097189971216
 20
1057.642394101897
 30
0.0
 11
72.360457255385
 21
1057.875246194621
 31
0.0
  0
LINE
  5
23DC
330
1D
100
AcDbEntity
  8
0
100
AcDbLine
 10
72.248443069858
 20
1058.126016671833
 30
0.0
 11
72.360457255385
 21
1057.875246194621
 31
0.0
  0
LINE
  5
23DD
330
1D
100
AcDbEntity
  8
0
100
AcDbLine
 10
70.574526710344
 20
1056.159123865564
 30
0.0
 11
70.828778104731
 21
1055.508470172381
 31
0.0
  0
LINE
  5
23DE
330
1D
100
AcDbEntity
  8
0
100
AcDbLine
 10
70.574526710344
 20
1056.159123865564
 30
0.0
 11
71.279513452311
 21
1056.753662813482
 31
0.0
  0
LINE
  5
23DF
330
1D
100
AcDbEntity
  8
0
100
AcDbLine
 10
70.227302647864
 20
1056.068908897655
 30
0.0
 11
70.828778104731
 21
1055.508470172381
 31
0.0
  0
LINE
  5
23E0
330
1D
100
AcDbEntity
  8
0
100
AcDbLine
 10
70.227302647864
 20
1056.068908897655
 30
0.0
 11
70.53445271723
 21
1055.706877345316
 31
0.0
  0
LINE
  5
23E1
330
1D
100
AcDbEntity
  8
0
100
AcDbLine
 10
70.516697888634
 20
1055.625044735303
 30
0.0
 11
70.828778104731
 21
1055.508470172381
 31
0.0
  0
LINE
  5
23E2
330
1D
100
AcDbEntity
  8
0
100
AcDbLine
 10
70.561338305172
 20
1055.757663416497
 30
0.0
 11
70.53445271723
 21
1055.706877345316
 31
0.0
  0
LINE
  5
23E3
330
1D
100
AcDbEntity
  8
0
100
AcDbLine
 10
72.301583450567
 20
1057.615608698829
 30
0.0
 11
72.34707236753
 21
1057.653971027116
 31
0.0
  0
LINE
  5
23E4
330
1D
100
AcDbEntity
  8
0
100
AcDbLine
 10
70.828778104731
 20
1055.508470172381
 30
0.0
 11
71.74954852491
 21
1056.334040555414
 31
0.0
  0
LINE
  5
23E5
330
1D
100
AcDbEntity
  8
0
100
AcDbLine
 10
73.286070325547
 20
1058.412065423362
 30
0.0
 11
73.452681253794
 21
1057.705193328433
 31
0.0
  0
LINE
  5
23E6
330
1D
100
AcDbEntity
  8
0
100
AcDbLine
 10
70.53445271723
 20
1055.706877345316
 30
0.0
 11
70.828778104731
 21
1055.508470172381
 31
0.0
  0
LINE
  5
23E7
330
1D
100
AcDbEntity
  8
0
100
AcDbLine
 10
70.474151927256
 20
1055.689463996169
 30
0.0
 11
70.53445271723
 21
1055.706877345316
 31
0.0
  0
LINE
  5
23E8
330
1D
100
AcDbEntity
  8
0
100
AcDbLine
 10
70.240426243084
 20
1055.785850014649
 30
0.0
 11
70.474151927256
 21
1055.689463996169
 31
0.0
  0
LINE
  5
23E9
330
1D
100
AcDbEntity
  8
0
100
AcDbLine
 10
66.790940691122
 20
1057.137059571603
 30
0.0
 11
67.954509193335
 21
1056.145044783075
 31
0.0
  0
LINE
  5
23EA
330
1D
100
AcDbEntity
  8
0
100
AcDbLine
 10
66.790940691122
 20
1057.137059571603
 30
0.0
 11
67.443086937739
 21
1057.893983288896
 31
0.0
  0
LINE
  5
23EB
330
1D
100
AcDbEntity
  8
0
100
AcDbLine
 10
66.933219571688
 20
1056.91924570578
 30
0.0
 11
67.954509193335
 21
1056.145044783075
 31
0.0
  0
LINE
  5
23EC
330
1D
100
AcDbEntity
  8
0
100
AcDbLine
 10
73.883627961819
 20
1051.968518106821
 30
0.0
 11
74.292408678947
 21
1051.684959873538
 31
0.0
  0
LINE
  5
23ED
330
1D
100
AcDbEntity
  8
0
100
AcDbLine
 10
73.408453002687
 20
1050.916199980977
 30
0.0
 11
74.278694658334
 21
1050.360252401815
 31
0.0
  0
LINE
  5
23EE
330
1D
100
AcDbEntity
  8
0
100
AcDbLine
 10
73.408453002687
 20
1050.916199980977
 30
0.0
 11
74.226229235512
 21
1050.387958527637
 31
0.0
  0
LINE
  5
23EF
330
1D
100
AcDbEntity
  8
0
100
AcDbLine
 10
73.408453002687
 20
1050.916199980977
 30
0.0
 11
74.401549347411
 21
1050.304420821396
 31
0.0
  0
LINE
  5
23F0
330
1D
100
AcDbEntity
  8
0
100
AcDbLine
 10
74.331171580973
 20
1050.334950677624
 30
0.0
 11
74.413607921529
 21
1050.292344365367
 31
0.0
  0
LINE
  5
23F1
330
1D
100
AcDbEntity
  8
0
100
AcDbLine
 10
74.278694658334
 20
1050.360252401815
 30
0.0
 11
74.401549347411
 21
1050.304420821396
 31
0.0
  0
LINE
  5
23F2
330
1D
100
AcDbEntity
  8
0
100
AcDbLine
 10
74.278694658334
 20
1050.360252401815
 30
0.0
 11
75.121659512276
 21
1049.953817283968
 31
0.0
  0
LINE
  5
23F3
330
1D
100
AcDbEntity
  8
0
100
AcDbLine
 10
74.226229235512
 20
1050.387958527637
 30
0.0
 11
74.278694658334
 21
1050.360252401815
 31
0.0
  0
LINE
  5
23F4
330
1D
100
AcDbEntity
  8
0
100
AcDbLine
 10
74.226229235512
 20
1050.387958527637
 30
0.0
 11
74.280263610482
 21
1050.361760451295
 31
0.0
  0
LINE
  5
23F5
330
1D
100
AcDbEntity
  8
0
100
AcDbLine
 10
74.077562265664
 20
1050.534374688208
 30
0.0
 11
74.255690781289
 21
1050.410623640045
 31
0.0
  0
LINE
  5
23F6
330
1D
100
AcDbEntity
  8
0
100
AcDbLine
 10
74.923540466067
 20
1051.24231754921
 30
0.0
 11
75.496951874032
 21
1050.825785909096
 31
0.0
  0
LINE
  5
23F7
330
1D
100
AcDbEntity
  8
0
100
AcDbLine
 10
74.292408678947
 20
1051.684959873538
 30
0.0
 11
74.923540466067
 21
1051.24231754921
 31
0.0
  0
LINE
  5
23F8
330
1D
100
AcDbEntity
  8
0
100
AcDbLine
 10
75.496951874032
 20
1050.825785909096
 30
0.0
 11
75.906130250617
 21
1050.534008072146
 31
0.0
  0
LINE
  5
23F9
330
1D
100
AcDbEntity
  8
0
100
AcDbLine
 10
75.744770050491
 20
1050.594189250215
 30
0.0
 11
75.883704152835
 21
1050.501859804602
 31
0.0
  0
LINE
  5
23FA
330
1D
100
AcDbEntity
  8
0
100
AcDbLine
 10
75.906130250617
 20
1050.534008072146
 30
0.0
 11
76.079673771459
 21
1050.398569944672
 31
0.0
  0
LINE
  5
23FB
330
1D
100
AcDbEntity
  8
0
100
AcDbLine
 10
75.906130250617
 20
1050.534008072146
 30
0.0
 11
78.1774842008
 21
1049.071129030028
 31
0.0
  0
LINE
  5
23FC
330
1D
100
AcDbEntity
  8
0
100
AcDbLine
 10
75.853345445487
 20
1050.505327515189
 30
0.0
 11
75.958231315734
 21
1050.493346970742
 31
0.0
  0
LINE
  5
23FD
330
1D
100
AcDbEntity
  8
0
100
AcDbLine
 10
75.853345445487
 20
1050.505327515189
 30
0.0
 11
78.127993603976
 21
1048.999697129744
 31
0.0
  0
LINE
  5
23FE
330
1D
100
AcDbEntity
  8
0
100
AcDbLine
 10
75.997226879839
 20
1050.47278689284
 30
0.0
 11
76.079673771459
 21
1050.398569944672
 31
0.0
  0
LINE
  5
23FF
330
1D
100
AcDbEntity
  8
0
100
AcDbLine
 10
75.736805973192
 20
1050.586004551792
 30
0.0
 11
75.853345445487
 21
1050.505327515189
 31
0.0
  0
LINE
  5
2400
330
1D
100
AcDbEntity
  8
0
100
AcDbLine
 10
75.121659512276
 20
1049.953817283968
 30
0.0
 11
75.776297171293
 21
1050.626589736324
 31
0.0
  0
LINE
  5
2401
330
1D
100
AcDbEntity
  8
0
100
AcDbLine
 10
74.413607921529
 20
1050.292344365367
 30
0.0
 11
75.015421888659
 21
1050.001449282962
 31
0.0
  0
LINE
  5
2402
330
1D
100
AcDbEntity
  8
0
100
AcDbLine
 10
74.353351942468
 20
1050.326324236807
 30
0.0
 11
75.121659512276
 21
1049.953817283968
 31
0.0
  0
LINE
  5
2403
330
1D
100
AcDbEntity
  8
0
100
AcDbLine
 10
74.255690781289
 20
1050.410623640045
 30
0.0
 11
74.401549347411
 21
1050.304420821396
 31
0.0
  0
LINE
  5
2404
330
1D
100
AcDbEntity
  8
0
100
AcDbLine
 10
75.709666246188
 20
1052.277898794752
 30
0.0
 11
75.21379154647
 21
1051.578890974074
 31
0.0
  0
LINE
  5
2405
330
1D
100
AcDbEntity
  8
0
100
AcDbLine
 10
75.982202298068
 20
1051.124054556414
 30
0.0
 11
77.165771969713
 21
1050.460798103478
 31
0.0
  0
LINE
  5
2406
330
1D
100
AcDbEntity
  8
0
100
AcDbLine
 10
76.937951404973
 20
1050.354198852629
 30
0.0
 11
77.186164428914
 21
1050.037052427857
 31
0.0
  0
LINE
  5
2407
330
1D
100
AcDbEntity
  8
0
100
AcDbLine
 10
77.186164428914
 20
1050.037052427857
 30
0.0
 11
78.025212845323
 21
1049.797079502465
 31
0.0
  0
LINE
  5
2408
330
1D
100
AcDbEntity
  8
0
100
AcDbLine
 10
76.476405636652
 20
1050.7780331407
 30
0.0
 11
76.937951404973
 21
1050.354198852629
 31
0.0
  0
LINE
  5
2409
330
1D
100
AcDbEntity
  8
0
100
AcDbLine
 10
78.025212845323
 20
1049.797079502465
 30
0.0
 11
78.575041750378
 21
1050.360083792547
 31
0.0
  0
LINE
  5
240A
330
1D
100
AcDbEntity
  8
0
100
AcDbLine
 10
78.393790854647
 20
1049.383333697576
 30
0.0
 11
77.925679910526
 21
1048.707689101879
 31
0.0
  0
LINE
  5
240B
330
1D
100
AcDbEntity
  8
0
100
AcDbLine
 10
77.165771969713
 20
1050.460798103478
 30
0.0
 11
78.025212845323
 21
1049.797079502465
 31
0.0
  0
LINE
  5
240C
330
1D
100
AcDbEntity
  8
0
100
AcDbLine
 10
75.21379154647
 20
1051.578890974074
 30
0.0
 11
75.6315515995
 21
1050.986195615485
 31
0.0
  0
LINE
  5
240D
330
1D
100
AcDbEntity
  8
0
100
AcDbLine
 10
75.21379154647
 20
1051.578890974074
 30
0.0
 11
75.982202298068
 21
1051.124054556414
 31
0.0
  0
LINE
  5
240E
330
1D
100
AcDbEntity
  8
0
100
AcDbLine
 10
75.6315515995
 20
1050.986195615485
 30
0.0
 11
76.476405636652
 21
1050.7780331407
 31
0.0
  0
LINE
  5
240F
330
1D
100
AcDbEntity
  8
0
100
AcDbLine
 10
75.6315515995
 20
1050.986195615485
 30
0.0
 11
77.186164428914
 21
1050.037052427857
 31
0.0
  0
LINE
  5
2410
330
1D
100
AcDbEntity
  8
0
100
AcDbLine
 10
75.6315515995
 20
1050.986195615485
 30
0.0
 11
76.586372050376
 21
1050.677051743249
 31
0.0
  0
LINE
  5
2411
330
1D
100
AcDbEntity
  8
0
100
AcDbLine
 10
78.420696392554
 20
1048.242846018117
 30
0.0
 11
78.522692958945
 21
1048.152822352093
 31
0.0
  0
LINE
  5
2412
330
1D
100
AcDbEntity
  8
0
100
AcDbLine
 10
78.522692958945
 20
1048.152822352093
 30
0.0
 11
78.733197608889
 21
1048.105822060783
 31
0.0
  0
LINE
  5
2413
330
1D
100
AcDbEntity
  8
0
100
AcDbLine
 10
78.522692958945
 20
1048.152822352093
 30
0.0
 11
78.836099207576
 21
1047.955374730383
 31
0.0
  0
LINE
  5
2414
330
1D
100
AcDbEntity
  8
0
100
AcDbLine
 10
78.559071669627
 20
1048.208388684286
 30
0.0
 11
78.522692958945
 21
1048.152822352093
 31
0.0
  0
LINE
  5
2415
330
1D
100
AcDbEntity
  8
0
100
AcDbLine
 10
78.836099207576
 20
1047.955374730383
 30
0.0
 11
79.08024073302
 21
1047.79672708447
 31
0.0
  0
LINE
  5
2416
330
1D
100
AcDbEntity
  8
0
100
AcDbLine
 10
79.08024073302
 20
1047.79672708447
 30
0.0
 11
80.178438747272
 21
1047.254521534607
 31
0.0
  0
LINE
  5
2417
330
1D
100
AcDbEntity
  8
0
100
AcDbLine
 10
79.08024073302
 20
1047.79672708447
 30
0.0
 11
79.739155505947
 21
1047.429199776615
 31
0.0
  0
LINE
  5
2418
330
1D
100
AcDbEntity
  8
0
100
AcDbLine
 10
78.737849557459
 20
1049.16842922885
 30
0.0
 11
79.420609132012
 21
1048.753088581482
 31
0.0
  0
LINE
  5
2419
330
1D
100
AcDbEntity
  8
0
100
AcDbLine
 10
79.485479748505
 20
1048.6079298645
 30
0.0
 11
80.024552951437
 21
1048.372944052416
 31
0.0
  0
LINE
  5
241A
330
1D
100
AcDbEntity
  8
0
100
AcDbLine
 10
78.929378054356
 20
1049.051917395321
 30
0.0
 11
79.485479748505
 21
1048.6079298645
 31
0.0
  0
LINE
  5
241B
330
1D
100
AcDbEntity
  8
0
100
AcDbLine
 10
80.024552951437
 20
1048.372944052416
 30
0.0
 11
80.594716605725
 21
1047.999213604996
 31
0.0
  0
LINE
  5
241C
330
1D
100
AcDbEntity
  8
0
100
AcDbLine
 10
78.855189818469
 20
1049.09704805488
 30
0.0
 11
78.356261836819
 21
1048.327851182826
 31
0.0
  0
LINE
  5
241D
330
1D
100
AcDbEntity
  8
0
100
AcDbLine
 10
80.672849026795
 20
1049.837850332242
 30
0.0
 11
81.913110554118
 21
1049.298162659748
 31
0.0
  0
LINE
  5
241E
330
1D
100
AcDbEntity
  8
0
100
AcDbLine
 10
80.672849026795
 20
1049.837850332242
 30
0.0
 11
81.021346042458
 21
1049.994383138932
 31
0.0
  0
LINE
  5
241F
330
1D
100
AcDbEntity
  8
0
100
AcDbLine
 10
80.055798977762
 20
1048.352462930355
 30
0.0
 11
79.732578350165
 21
1047.849185479969
 31
0.0
  0
LINE
  5
2420
330
1D
100
AcDbEntity
  8
0
100
AcDbLine
 10
79.732578350165
 20
1047.849185479969
 30
0.0
 11
80.362953479827
 21
1047.145835527311
 31
0.0
  0
LINE
  5
2421
330
1D
100
AcDbEntity
  8
0
100
AcDbLine
 10
80.594716605725
 20
1047.999213604996
 30
0.0
 11
81.275437173489
 21
1047.530104077676
 31
0.0
  0
LINE
  5
2422
330
1D
100
AcDbEntity
  8
0
100
AcDbLine
 10
79.989134456264
 20
1047.311734826957
 30
0.0
 11
80.35525842076
 21
1047.150368201935
 31
0.0
  0
LINE
  5
2423
330
1D
100
AcDbEntity
  8
0
100
AcDbLine
 10
79.739155505947
 20
1047.429199776615
 30
0.0
 11
80.337593404901
 21
1047.160773550147
 31
0.0
  0
LINE
  5
2424
330
1D
100
AcDbEntity
  8
0
100
AcDbLine
 10
79.739155505947
 20
1047.429199776615
 30
0.0
 11
79.989134456264
 21
1047.311734826957
 31
0.0
  0
LINE
  5
2425
330
1D
100
AcDbEntity
  8
0
100
AcDbLine
 10
80.787858818614
 20
1050.090302979768
 30
0.0
 11
80.672849026795
 21
1049.837850332242
 31
0.0
  0
LINE
  5
2426
330
1D
100
AcDbEntity
  8
0
100
AcDbLine
 10
81.593622612469
 20
1049.717559014032
 30
0.0
 11
81.913110554118
 21
1049.298162659748
 31
0.0
  0
LINE
  5
2427
330
1D
100
AcDbEntity
  8
0
100
AcDbLine
 10
81.795576655481
 20
1049.619868921239
 30
0.0
 11
81.913110554118
 21
1049.298162659748
 31
0.0
  0
LINE
  5
2428
330
1D
100
AcDbEntity
  8
0
100
AcDbLine
 10
80.876174019615
 20
1050.064606384631
 30
0.0
 11
81.996904162175
 21
1049.522481899335
 31
0.0
  0
LINE
  5
2429
330
1D
100
AcDbEntity
  8
0
100
AcDbLine
 10
80.80001141734
 20
1050.504341154708
 30
0.0
 11
82.651172824144
 21
1049.502566880752
 31
0.0
  0
LINE
  5
242A
330
1D
100
AcDbEntity
  8
0
100
AcDbLine
 10
80.214105020514
 20
1050.257245011156
 30
0.0
 11
80.876174019615
 21
1050.064606384631
 31
0.0
  0
LINE
  5
242B
330
1D
100
AcDbEntity
  8
0
100
AcDbLine
 10
80.214105020514
 20
1050.257245011156
 30
0.0
 11
80.80001141734
 21
1050.504341154708
 31
0.0
  0
LINE
  5
242C
330
1D
100
AcDbEntity
  8
0
100
AcDbLine
 10
80.214105020514
 20
1050.257245011156
 30
0.0
 11
80.672849026795
 21
1049.837850332242
 31
0.0
  0
LINE
  5
242D
330
1D
100
AcDbEntity
  8
0
100
AcDbLine
 10
81.913110554118
 20
1049.298162659748
 30
0.0
 11
82.875648464529
 21
1049.076233704851
 31
0.0
  0
LINE
  5
242E
330
1D
100
AcDbEntity
  8
0
100
AcDbLine
 10
81.913110554118
 20
1049.298162659748
 30
0.0
 11
82.093320912874
 21
1049.400777455855
 31
0.0
  0
LINE
  5
242F
330
1D
100
AcDbEntity
  8
0
100
AcDbLine
 10
81.913110554118
 20
1049.298162659748
 30
0.0
 11
82.049531895452
 21
1049.456051233048
 31
0.0
  0
LINE
  5
2430
330
1D
100
AcDbEntity
  8
0
100
AcDbLine
 10
81.913110554118
 20
1049.298162659748
 30
0.0
 11
82.129377408579
 21
1049.35526424667
 31
0.0
  0
LINE
  5
2431
330
1D
100
AcDbEntity
  8
0
100
AcDbLine
 10
81.913110554118
 20
1049.298162659748
 30
0.0
 11
82.215615853524
 21
1049.246407622976
 31
0.0
  0
LINE
  5
2432
330
1D
100
AcDbEntity
  8
0
100
AcDbLine
 10
81.996904162175
 20
1049.522481899335
 30
0.0
 11
82.097866297203
 21
1049.448338408113
 31
0.0
  0
LINE
  5
2433
330
1D
100
AcDbEntity
  8
0
100
AcDbLine
 10
81.996904162175
 20
1049.522481899335
 30
0.0
 11
82.215615853524
 21
1049.246407622976
 31
0.0
  0
LINE
  5
2434
330
1D
100
AcDbEntity
  8
0
100
AcDbLine
 10
81.374856190231
 20
1051.2444053029
 30
0.0
 11
80.80001141734
 21
1050.504341154708
 31
0.0
  0
LINE
  5
2435
330
1D
100
AcDbEntity
  8
0
100
AcDbLine
 10
80.874500554146
 20
1051.384894975014
 30
0.0
 11
80.214105020514
 21
1050.257245011156
 31
0.0
  0
LINE
  5
2436
330
1D
100
AcDbEntity
  8
0
100
AcDbLine
 10
82.097866297203
 20
1049.448338408113
 30
0.0
 11
82.17806572194
 21
1049.368119568232
 31
0.0
  0
LINE
  5
2437
330
1D
100
AcDbEntity
  8
0
100
AcDbLine
 10
80.362953479827
 20
1047.145835527311
 30
0.0
 11
81.003031554614
 21
1047.717828787582
 31
0.0
  0
LINE
  5
2438
330
1D
100
AcDbEntity
  8
0
100
AcDbLine
 10
82.212743537875
 20
1049.353609512827
 30
0.0
 11
82.215615853524
 21
1049.246407622976
 31
0.0
  0
LINE
  5
2439
330
1D
100
AcDbEntity
  8
0
100
AcDbLine
 10
80.363808660227
 20
1047.146599742561
 30
0.0
 11
80.673368419326
 21
1047.010163402925
 31
0.0
  0
LINE
  5
243A
330
1D
100
AcDbEntity
  8
0
100
AcDbLine
 10
80.593908612029
 20
1047.352224066847
 30
0.0
 11
82.289144773245
 21
1046.219476875839
 31
0.0
  0
LINE
  5
243B
330
1D
100
AcDbEntity
  8
0
100
AcDbLine
 10
80.873642937367
 20
1047.602203178869
 30
0.0
 11
81.180984499685
 21
1047.428429831128
 31
0.0
  0
LINE
  5
243C
330
1D
100
AcDbEntity
  8
0
100
AcDbLine
 10
81.083494695444
 20
1047.620279324401
 30
0.0
 11
81.266160222008
 21
1047.536497165428
 31
0.0
  0
LINE
  5
243D
330
1D
100
AcDbEntity
  8
0
100
AcDbLine
 10
80.967713496805
 20
1047.686267495564
 30
0.0
 11
81.083494695444
 21
1047.620279324401
 31
0.0
  0
LINE
  5
243E
330
1D
100
AcDbEntity
  8
0
100
AcDbLine
 10
81.1238783932
 20
1047.503500015636
 30
0.0
 11
81.36361514727
 21
1047.38627468242
 31
0.0
  0
LINE
  5
243F
330
1D
100
AcDbEntity
  8
0
100
AcDbLine
 10
81.1238783932
 20
1047.503500015636
 30
0.0
 11
81.433374238788
 21
1047.304503604705
 31
0.0
  0
LINE
  5
2440
330
1D
100
AcDbEntity
  8
0
100
AcDbLine
 10
81.180984499685
 20
1047.428429831128
 30
0.0
 11
81.433374238788
 21
1047.304503604705
 31
0.0
  0
LINE
  5
2441
330
1D
100
AcDbEntity
  8
0
100
AcDbLine
 10
81.275437173489
 20
1047.530104077676
 30
0.0
 11
81.534505995849
 21
1047.28034542361
 31
0.0
  0
LINE
  5
2442
330
1D
100
AcDbEntity
  8
0
100
AcDbLine
 10
81.36361514727
 20
1047.38627468242
 30
0.0
 11
81.443581730677
 21
1047.368002139245
 31
0.0
  0
LINE
  5
2443
330
1D
100
AcDbEntity
  8
0
100
AcDbLine
 10
81.134370313081
 20
1047.498369726753
 30
0.0
 11
81.199321446758
 21
1047.567153726625
 31
0.0
  0
LINE
  5
2444
330
1D
100
AcDbEntity
  8
0
100
AcDbLine
 10
80.673368419326
 20
1047.010163402925
 30
0.0
 11
80.840671041915
 21
1047.18733881033
 31
0.0
  0
LINE
  5
2445
330
1D
100
AcDbEntity
  8
0
100
AcDbLine
 10
80.673368419326
 20
1047.010163402925
 30
0.0
 11
80.840671041915
 21
1047.18733881033
 31
0.0
  0
LINE
  5
2446
330
1D
100
AcDbEntity
  8
0
100
AcDbLine
 10
82.875648464529
 20
1049.076233704851
 30
0.0
 11
83.727485816292
 21
1049.96999160392
 31
0.0
  0
LINE
  5
2447
330
1D
100
AcDbEntity
  8
0
100
AcDbLine
 10
80.391935311137
 20
1047.171734574369
 30
0.0
 11
80.673368419326
 21
1047.010163402925
 31
0.0
  0
LINE
  5
2448
330
1D
100
AcDbEntity
  8
0
100
AcDbLine
 10
80.375630027551
 20
1047.157163676403
 30
0.0
 11
80.673368419326
 21
1047.010163402925
 31
0.0
  0
LINE
  5
2449
330
1D
100
AcDbEntity
  8
0
100
AcDbLine
 10
80.3656080454
 20
1047.148207727949
 30
0.0
 11
80.673368419326
 21
1047.010163402925
 31
0.0
  0
LINE
  5
244A
330
1D
100
AcDbEntity
  8
0
100
AcDbLine
 10
82.651172824144
 20
1049.502566880752
 30
0.0
 11
82.875648464529
 21
1049.076233704851
 31
0.0
  0
LINE
  5
244B
330
1D
100
AcDbEntity
  8
0
100
AcDbLine
 10
82.651172824144
 20
1049.502566880752
 30
0.0
 11
83.389836646314
 21
1050.248802180421
 31
0.0
  0
LINE
  5
244C
330
1D
100
AcDbEntity
  8
0
100
AcDbLine
 10
82.17806572194
 20
1049.368119568232
 30
0.0
 11
82.875648464529
 21
1049.076233704851
 31
0.0
  0
LINE
  5
244D
330
1D
100
AcDbEntity
  8
0
100
AcDbLine
 10
82.17806572194
 20
1049.368119568232
 30
0.0
 11
82.215615853524
 21
1049.246407622976
 31
0.0
  0
LINE
  5
244E
330
1D
100
AcDbEntity
  8
0
100
AcDbLine
 10
78.356261836819
 20
1048.327851182826
 30
0.0
 11
78.522692958945
 21
1048.152822352093
 31
0.0
  0
LINE
  5
244F
330
1D
100
AcDbEntity
  8
0
100
AcDbLine
 10
78.356261836819
 20
1048.327851182826
 30
0.0
 11
80.362953479827
 21
1047.145835527311
 31
0.0
  0
LINE
  5
2450
330
1D
100
AcDbEntity
  8
0
100
AcDbLine
 10
78.356261836819
 20
1048.327851182826
 30
0.0
 11
79.732578350165
 21
1047.849185479969
 31
0.0
  0
LINE
  5
2451
330
1D
100
AcDbEntity
  8
0
100
AcDbLine
 10
77.925679910526
 20
1048.707689101879
 30
0.0
 11
78.522692958945
 21
1048.152822352093
 31
0.0
  0
LINE
  5
2452
330
1D
100
AcDbEntity
  8
0
100
AcDbLine
 10
77.925679910526
 20
1048.707689101879
 30
0.0
 11
78.356261836819
 21
1048.327851182826
 31
0.0
  0
LINE
  5
2453
330
1D
100
AcDbEntity
  8
0
100
AcDbLine
 10
73.513184977558
 20
1051.028568897674
 30
0.0
 11
74.077562265664
 21
1050.534374688208
 31
0.0
  0
LINE
  5
2454
330
1D
100
AcDbEntity
  8
0
100
AcDbLine
 10
73.513184977558
 20
1051.028568897674
 30
0.0
 11
75.121659512276
 21
1049.953817283968
 31
0.0
  0
LINE
  5
2455
330
1D
100
AcDbEntity
  8
0
100
AcDbLine
 10
73.513184977558
 20
1051.028568897674
 30
0.0
 11
74.393419865529
 21
1051.614115990653
 31
0.0
  0
LINE
  5
2456
330
1D
100
AcDbEntity
  8
0
100
AcDbLine
 10
73.424629377199
 20
1050.947924024031
 30
0.0
 11
74.077562265664
 21
1050.534374688208
 31
0.0
  0
LINE
  5
2457
330
1D
100
AcDbEntity
  8
0
100
AcDbLine
 10
153.290954672291
 20
942.395978927596
 30
0.0
 11
154.085453874023
 21
942.871441886035
 31
0.0
  0
LINE
  5
2458
330
1D
100
AcDbEntity
  8
0
100
AcDbLine
 10
154.085453874023
 20
942.871441886035
 30
0.0
 11
154.992314361425
 21
943.424805752572
 31
0.0
  0
LINE
  5
2459
330
1D
100
AcDbEntity
  8
0
100
AcDbLine
 10
82.289144773245
 20
1046.219476875839
 30
0.0
 11
83.224889168315
 21
1045.666917678019
 31
0.0
  0
LINE
  5
245A
330
1D
100
AcDbEntity
  8
0
100
AcDbLine
 10
83.224889168315
 20
1045.666917678019
 30
0.0
 11
83.828387666603
 21
1045.306466845637
 31
0.0
  0
LINE
  5
245B
330
1D
100
AcDbEntity
  8
0
100
AcDbLine
 10
83.828387666603
 20
1045.306466845637
 30
0.0
 11
84.542211796266
 21
1044.876808607137
 31
0.0
  0
LINE
  5
245C
330
1D
100
AcDbEntity
  8
0
100
AcDbLine
 10
84.542211796266
 20
1044.876808607137
 30
0.0
 11
85.048850814825
 21
1044.600638894817
 31
0.0
  0
LINE
  5
245D
330
1D
100
AcDbEntity
  8
0
100
AcDbLine
 10
84.893250786092
 20
1045.091360763085
 30
0.0
 11
85.735775746191
 21
1044.404371111335
 31
0.0
  0
LINE
  5
245E
330
1D
100
AcDbEntity
  8
0
100
AcDbLine
 10
85.002997111515
 20
1045.341942075349
 30
0.0
 11
84.893250786092
 21
1045.091360763085
 31
0.0
  0
LINE
  5
245F
330
1D
100
AcDbEntity
  8
0
100
AcDbLine
 10
85.002997111515
 20
1045.341942075349
 30
0.0
 11
85.39281624587
 21
1045.193555241396
 31
0.0
  0
LINE
  5
2460
330
1D
100
AcDbEntity
  8
0
100
AcDbLine
 10
86.092695553411
 20
1043.899408725396
 30
0.0
 11
87.471525099531
 21
1042.953909342663
 31
0.0
  0
LINE
  5
2461
330
1D
100
AcDbEntity
  8
0
100
AcDbLine
 10
85.048850814825
 20
1044.600638894817
 30
0.0
 11
86.092695553411
 21
1043.899408725396
 31
0.0
  0
LINE
  5
2462
330
1D
100
AcDbEntity
  8
0
100
AcDbLine
 10
86.192530798806
 20
1044.284514880691
 30
0.0
 11
86.211670175973
 21
1044.19054664664
 31
0.0
  0
LINE
  5
2463
330
1D
100
AcDbEntity
  8
0
100
AcDbLine
 10
86.128919321295
 20
1044.596826935312
 30
0.0
 11
86.190657291203
 21
1044.293713205144
 31
0.0
  0
LINE
  5
2464
330
1D
100
AcDbEntity
  8
0
100
AcDbLine
 10
85.931590782822
 20
1044.756793016743
 30
0.0
 11
85.735775746191
 21
1044.404371111335
 31
0.0
  0
LINE
  5
2465
330
1D
100
AcDbEntity
  8
0
100
AcDbLine
 10
85.565418192352
 20
1044.874975301552
 30
0.0
 11
85.735775746191
 21
1044.404371111335
 31
0.0
  0
LINE
  5
2466
330
1D
100
AcDbEntity
  8
0
100
AcDbLine
 10
85.565418192352
 20
1044.874975301552
 30
0.0
 11
85.898572962034
 21
1044.783559197904
 31
0.0
  0
LINE
  5
2467
330
1D
100
AcDbEntity
  8
0
100
AcDbLine
 10
85.565418192352
 20
1044.874975301552
 30
0.0
 11
85.711767962799
 21
1044.934994281498
 31
0.0
  0
LINE
  5
2468
330
1D
100
AcDbEntity
  8
0
100
AcDbLine
 10
86.333564013535
 20
1044.258948640947
 30
0.0
 11
86.458931359487
 21
1044.329299830601
 31
0.0
  0
LINE
  5
2469
330
1D
100
AcDbEntity
  8
0
100
AcDbLine
 10
86.211670175973
 20
1044.19054664664
 30
0.0
 11
86.593943924027
 21
1044.179180820687
 31
0.0
  0
LINE
  5
246A
330
1D
100
AcDbEntity
  8
0
100
AcDbLine
 10
86.211670175973
 20
1044.19054664664
 30
0.0
 11
86.319670791984
 21
1044.251152315223
 31
0.0
  0
LINE
  5
246B
330
1D
100
AcDbEntity
  8
0
100
AcDbLine
 10
85.735775746191
 20
1044.404371111335
 30
0.0
 11
86.211670175973
 21
1044.19054664664
 31
0.0
  0
LINE
  5
246C
330
1D
100
AcDbEntity
  8
0
100
AcDbLine
 10
85.735775746191
 20
1044.404371111335
 30
0.0
 11
86.69328468168
 21
1044.153113000105
 31
0.0
  0
LINE
  5
246D
330
1D
100
AcDbEntity
  8
0
100
AcDbLine
 10
85.735775746191
 20
1044.404371111335
 30
0.0
 11
86.636672943526
 21
1044.185212082696
 31
0.0
  0
LINE
  5
246E
330
1D
100
AcDbEntity
  8
0
100
AcDbLine
 10
85.39281624587
 20
1045.193555241396
 30
0.0
 11
86.636672943526
 21
1044.185212082696
 31
0.0
  0
LINE
  5
246F
330
1D
100
AcDbEntity
  8
0
100
AcDbLine
 10
85.39281624587
 20
1045.193555241396
 30
0.0
 11
85.565418192352
 21
1044.874975301552
 31
0.0
  0
LINE
  5
2470
330
1D
100
AcDbEntity
  8
0
100
AcDbLine
 10
86.636672943526
 20
1044.185212082696
 30
0.0
 11
86.69328468168
 21
1044.153113000105
 31
0.0
  0
LINE
  5
2471
330
1D
100
AcDbEntity
  8
0
100
AcDbLine
 10
88.129549293486
 20
1042.474864292412
 30
0.0
 11
90.117813086776
 21
1041.012649192561
 31
0.0
  0
LINE
  5
2472
330
1D
100
AcDbEntity
  8
0
100
AcDbLine
 10
87.471525099531
 20
1042.953909342663
 30
0.0
 11
88.129549293486
 21
1042.474864292412
 31
0.0
  0
LINE
  5
2473
330
1D
100
AcDbEntity
  8
0
100
AcDbLine
 10
93.506779582944
 20
1038.25915979445
 30
0.0
 11
94.886873628134
 21
1037.00713406531
 31
0.0
  0
LINE
  5
2474
330
1D
100
AcDbEntity
  8
0
100
AcDbLine
 10
90.151076606819
 20
1040.987153802427
 30
0.0
 11
91.878491641902
 21
1039.625455605229
 31
0.0
  0
LINE
  5
2475
330
1D
100
AcDbEntity
  8
0
100
AcDbLine
 10
94.886873628134
 20
1037.00713406531
 30
0.0
 11
96.505223460502
 21
1035.408982376616
 31
0.0
  0
LINE
  5
2476
330
1D
100
AcDbEntity
  8
0
100
AcDbLine
 10
96.505223460502
 20
1035.408982376616
 30
0.0
 11
98.036533208833
 21
1033.742882003089
 31
0.0
  0
LINE
  5
2477
330
1D
100
AcDbEntity
  8
0
100
AcDbLine
 10
98.036533208833
 20
1033.742882003089
 30
0.0
 11
99.481815431236
 21
1032.005372493012
 31
0.0
  0
LINE
  5
2478
330
1D
100
AcDbEntity
  8
0
100
AcDbLine
 10
103.342884292347
 20
1026.939547319385
 30
0.0
 11
109.541012442122
 21
1014.776963200911
 31
0.0
  0
LINE
  5
2479
330
1D
100
AcDbEntity
  8
0
100
AcDbLine
 10
100.874898841634
 20
1030.156668255562
 30
0.0
 11
101.114253230147
 21
1029.672595580685
 31
0.0
  0
LINE
  5
247A
330
1D
100
AcDbEntity
  8
0
100
AcDbLine
 10
100.862052579127
 20
1030.182648663496
 30
0.0
 11
101.114253230147
 21
1029.672595580685
 31
0.0
  0
LINE
  5
247B
330
1D
100
AcDbEntity
  8
0
100
AcDbLine
 10
101.114253230147
 20
1029.672595580685
 30
0.0
 11
101.288298494808
 21
1029.288839595913
 31
0.0
  0
LINE
  5
247C
330
1D
100
AcDbEntity
  8
0
100
AcDbLine
 10
99.481815431236
 20
1032.005372493012
 30
0.0
 11
100.846185925145
 21
1030.194771997224
 31
0.0
  0
LINE
  5
247D
330
1D
100
AcDbEntity
  8
0
100
AcDbLine
 10
109.541012442122
 20
1014.776963200911
 30
0.0
 11
117.162556055724
 21
999.394652282328
 31
0.0
  0
LINE
  5
247E
330
1D
100
AcDbEntity
  8
0
100
AcDbLine
 10
117.162556055724
 20
999.394652282328
 30
0.0
 11
130.052620571004
 21
975.135258554703
 31
0.0
  0
LINE
  5
247F
330
1D
100
AcDbEntity
  8
0
100
AcDbLine
 10
130.052620571004
 20
975.135258554703
 30
0.0
 11
145.556500108509
 21
948.335832159553
 31
0.0
  0
LINE
  5
2480
330
1D
100
AcDbEntity
  8
0
100
AcDbLine
 10
130.052620571004
 20
975.135258554703
 30
0.0
 11
145.556500108509
 21
948.335832159553
 31
0.0
  0
LINE
  5
2481
330
1D
100
AcDbEntity
  8
0
100
AcDbLine
 10
139.619615330303
 20
1013.948612758708
 30
0.0
 11
150.962921016493
 21
995.235551817225
 31
0.0
  0
LINE
  5
2482
330
1D
100
AcDbEntity
  8
0
100
AcDbLine
 10
131.393912442299
 20
1026.761159061387
 30
0.0
 11
139.619615330303
 21
1013.948612758708
 31
0.0
  0
LINE
  5
2483
330
1D
100
AcDbEntity
  8
0
100
AcDbLine
 10
149.12881327252
 20
952.395572280624
 30
0.0
 11
150.317465351663
 21
953.763925227655
 31
0.0
  0
LINE
  5
2484
330
1D
100
AcDbEntity
  8
0
100
AcDbLine
 10
154.992314361425
 20
943.424805752572
 30
0.0
 11
156.001466698967
 21
944.04873741272
 31
0.0
  0
LINE
  5
2485
330
1D
100
AcDbEntity
  8
0
100
AcDbLine
 10
154.967820085996
 20
959.884731452726
 30
0.0
 11
154.57015817153
 21
958.702962096302
 31
0.0
  0
LINE
  5
2486
330
1D
100
AcDbEntity
  8
0
100
AcDbLine
 10
153.474578581799
 20
957.39615573048
 30
0.0
 11
154.201096066941
 21
958.253843455723
 31
0.0
  0
LINE
  5
2487
330
1D
100
AcDbEntity
  8
0
100
AcDbLine
 10
150.317465351663
 20
953.763925227655
 30
0.0
 11
151.624388431863
 21
955.267005169787
 31
0.0
  0
LINE
  5
2488
330
1D
100
AcDbEntity
  8
0
100
AcDbLine
 10
158.417865491786
 20
982.469000179829
 30
0.0
 11
172.945338030206
 21
956.945312196204
 31
0.0
  0
LINE
  5
2489
330
1D
100
AcDbEntity
  8
0
100
AcDbLine
 10
150.962921016493
 20
995.235551817225
 30
0.0
 11
158.417865491786
 21
982.469000179829
 31
0.0
  0
LINE
  5
248A
330
1D
100
AcDbEntity
  8
0
100
AcDbLine
 10
115.694184459445
 20
1048.604004829839
 30
0.0
 11
120.339668395849
 21
1042.536132975834
 31
0.0
  0
LINE
  5
248B
330
1D
100
AcDbEntity
  8
0
100
AcDbLine
 10
120.339668395849
 20
1042.536132975834
 30
0.0
 11
124.879201742919
 21
1036.27976517328
 31
0.0
  0
LINE
  5
248C
330
1D
100
AcDbEntity
  8
0
100
AcDbLine
 10
124.879201742919
 20
1036.27976517328
 30
0.0
 11
131.393912442299
 21
1026.761159061387
 31
0.0
  0
LINE
  5
248D
330
1D
100
AcDbEntity
  8
0
100
AcDbLine
 10
124.879201742919
 20
1036.27976517328
 30
0.0
 11
126.324273405385
 21
1034.140627980312
 31
0.0
  0
LINE
  5
248E
330
1D
100
AcDbEntity
  8
0
100
AcDbLine
 10
110.918124526571
 20
1054.489814965886
 30
0.0
 11
115.694184459445
 21
1048.604004829839
 31
0.0
  0
LINE
  5
248F
330
1D
100
AcDbEntity
  8
0
100
AcDbLine
 10
172.945338030206
 20
956.945312196204
 30
0.0
 11
173.286320791003
 21
956.158439451194
 31
0.0
  0
LINE
  5
2490
330
1D
100
AcDbEntity
  8
0
100
AcDbLine
 10
76.122495065193
 20
1089.051777691207
 30
0.0
 11
87.920066128084
 21
1078.57936636353
 31
0.0
  0
LINE
  5
2491
330
1D
100
AcDbEntity
  8
0
100
AcDbLine
 10
63.429611871592
 20
1099.502643982266
 30
0.0
 11
76.122495065193
 21
1089.051777691207
 31
0.0
  0
LINE
  5
2492
330
1D
100
AcDbEntity
  8
0
100
AcDbLine
 10
87.920066128084
 20
1078.57936636353
 30
0.0
 11
94.328702803029
 21
1072.458060619774
 31
0.0
  0
LINE
  5
2493
330
1D
100
AcDbEntity
  8
0
100
AcDbLine
 10
94.328702803029
 20
1072.458060619774
 30
0.0
 11
100.446276531822
 21
1066.232572481259
 31
0.0
  0
LINE
  5
2494
330
1D
100
AcDbEntity
  8
0
100
AcDbLine
 10
100.446276531822
 20
1066.232572481259
 30
0.0
 11
105.774387879551
 21
1060.446166748319
 31
0.0
  0
LINE
  5
2495
330
1D
100
AcDbEntity
  8
0
100
AcDbLine
 10
105.774387879551
 20
1060.446166748319
 30
0.0
 11
110.918124526571
 21
1054.489814965886
 31
0.0
  0
LINE
  5
2496
330
1D
100
AcDbEntity
  8
0
100
AcDbLine
 10
172.043248458778
 20
954.093068542206
 30
0.0
 11
172.245447818966
 21
954.217899625248
 31
0.0
  0
LINE
  5
2497
330
1D
100
AcDbEntity
  8
0
100
AcDbLine
 10
173.326855046139
 20
955.727583356702
 30
0.0
 11
172.983067259942
 21
954.820041402817
 31
0.0
  0
LINE
  5
2498
330
1D
100
AcDbEntity
  8
0
100
AcDbLine
 10
172.597491384218
 20
954.50210083595
 30
0.0
 11
172.983067259942
 21
954.820041402817
 31
0.0
  0
LINE
  5
2499
330
1D
100
AcDbEntity
  8
0
100
AcDbLine
 10
172.245447818966
 20
954.217899625248
 30
0.0
 11
172.556856033858
 21
954.472111872984
 31
0.0
  0
LINE
  5
249A
330
1D
100
AcDbEntity
  8
0
100
AcDbLine
 10
173.286320791003
 20
956.158439451194
 30
0.0
 11
173.326855046139
 21
955.727583356702
 31
0.0
  0
LINE
  5
249B
330
1D
100
AcDbEntity
  8
0
100
AcDbLine
 10
-4.008242661341
 20
1134.160446876202
 30
0.0
 11
-3.680542366029
 21
1133.693578807737
 31
0.0
  0
LINE
  5
249C
330
1D
100
AcDbEntity
  8
0
100
AcDbLine
 10
-3.680542366029
 20
1133.693578807737
 30
0.0
 11
76.028134891999
 21
1067.364709583511
 31
0.0
  0
LINE
  5
249D
330
1D
100
AcDbEntity
  8
0
100
AcDbLine
 10
76.028134891999
 20
1067.364709583511
 30
0.0
 11
83.904441651343
 21
1060.755703486707
 31
0.0
  0
LINE
  5
249E
330
1D
100
AcDbEntity
  8
0
100
AcDbLine
 10
83.904441651343
 20
1060.755703486707
 30
0.0
 11
89.993099012235
 21
1055.029119073302
 31
0.0
  0
LINE
  5
249F
330
1D
100
AcDbEntity
  8
0
100
AcDbLine
 10
89.993099012235
 20
1055.029119073302
 30
0.0
 11
91.942277552374
 21
1053.11552948707
 31
0.0
  0
LINE
  5
24A0
330
1D
100
AcDbEntity
  8
0
100
AcDbLine
 10
91.942277552374
 20
1053.11552948707
 30
0.0
 11
97.704001861421
 21
1047.452265571641
 31
0.0
  0
LINE
  5
24A1
330
1D
100
AcDbEntity
  8
0
100
AcDbLine
 10
97.704001861421
 20
1047.452265571641
 30
0.0
 11
101.46400335037
 21
1043.536360272638
 31
0.0
  0
LINE
  5
24A2
330
1D
100
AcDbEntity
  8
0
100
AcDbLine
 10
101.46400335037
 20
1043.536360272638
 30
0.0
 11
104.237685052256
 21
1040.585035641733
 31
0.0
  0
LINE
  5
24A3
330
1D
100
AcDbEntity
  8
0
100
AcDbLine
 10
104.237685052256
 20
1040.585035641733
 30
0.0
 11
108.835661046568
 21
1035.292826406247
 31
0.0
  0
LINE
  5
24A4
330
1D
100
AcDbEntity
  8
0
100
AcDbLine
 10
108.835661046568
 20
1035.292826406247
 30
0.0
 11
111.445762970902
 21
1032.359876045643
 31
0.0
  0
LINE
  5
24A5
330
1D
100
AcDbEntity
  8
0
100
AcDbLine
 10
111.445762970902
 20
1032.359876045643
 30
0.0
 11
114.793814663619
 21
1028.130699348847
 31
0.0
  0
LINE
  5
24A6
330
1D
100
AcDbEntity
  8
0
100
AcDbLine
 10
114.793814663619
 20
1028.130699348847
 30
0.0
 11
116.997692550341
 21
1024.940942584354
 31
0.0
  0
LINE
  5
24A7
330
1D
100
AcDbEntity
  8
0
100
AcDbLine
 10
116.997692550341
 20
1024.940942584354
 30
0.0
 11
120.806139184232
 21
1019.271780419479
 31
0.0
  0
LINE
  5
24A8
330
1D
100
AcDbEntity
  8
0
100
AcDbLine
 10
120.806139184232
 20
1019.271780419479
 30
0.0
 11
126.997485357904
 21
1009.542678777264
 31
0.0
  0
LINE
  5
24A9
330
1D
100
AcDbEntity
  8
0
100
AcDbLine
 10
126.997485357904
 20
1009.542678777264
 30
0.0
 11
130.348176181618
 21
1004.175096551151
 31
0.0
  0
LINE
  5
24AA
330
1D
100
AcDbEntity
  8
0
100
AcDbLine
 10
130.348176181618
 20
1004.175096551151
 30
0.0
 11
147.977339463335
 21
975.211828209966
 31
0.0
  0
LINE
  5
24AB
330
1D
100
AcDbEntity
  8
0
100
AcDbLine
 10
147.977339463335
 20
975.211828209966
 30
0.0
 11
154.125002689782
 21
962.791429660487
 31
0.0
  0
LINE
  5
24AC
330
1D
100
AcDbEntity
  8
0
100
AcDbLine
 10
154.125002689782
 20
962.791429660487
 30
0.0
 11
154.979682170884
 21
960.728865397852
 31
0.0
  0
LINE
  5
24AD
330
1D
100
AcDbEntity
  8
0
100
AcDbLine
 10
154.979682170884
 20
960.728865397852
 30
0.0
 11
154.967820085996
 21
959.884731452726
 31
0.0
  0
LINE
  5
24AE
330
1D
100
AcDbEntity
  8
0
100
AcDbLine
 10
154.57015817153
 20
958.702962096302
 30
0.0
 11
154.201096066941
 21
958.253843455723
 31
0.0
  0
LINE
  5
24AF
330
1D
100
AcDbEntity
  8
0
100
AcDbLine
 10
149.12881327252
 20
952.395572280624
 30
0.0
 11
145.457531776493
 21
948.171214579514
 31
0.0
  0
LINE
  5
24B0
330
1D
100
AcDbEntity
  8
0
100
AcDbLine
 10
172.245447818966
 20
954.217899625248
 30
0.0
 11
156.001466698967
 21
944.04873741272
 31
0.0
  0
LINE
  5
24B1
330
1D
100
AcDbEntity
  8
0
100
AcDbLine
 10
151.624388431863
 20
955.267005169787
 30
0.0
 11
153.474578581799
 21
957.39615573048
 31
0.0
  0
LINE
  5
24B2
330
1D
100
AcDbEntity
  8
0
100
AcDbLine
 10
-1.567787607634
 20
1127.948934850678
 30
0.0
 11
48.138464594895
 21
1086.518124121714
 31
0.0
  0
LINE
  5
24B3
330
1D
100
AcDbEntity
  8
0
100
AcDbLine
 10
48.138464594895
 20
1086.518124121714
 30
0.0
 11
57.123192610818
 21
1078.817850310854
 31
0.0
  0
LINE
  5
24B4
330
1D
100
AcDbEntity
  8
0
100
AcDbLine
 10
57.123192610818
 20
1078.817850310854
 30
0.0
 11
78.702921864489
 21
1059.482315381176
 31
0.0
  0
LINE
  5
24B5
330
1D
100
AcDbEntity
  8
0
100
AcDbLine
 10
78.702921864489
 20
1059.482315381176
 30
0.0
 11
86.50896538268
 21
1052.187501409826
 31
0.0
  0
LINE
  5
24B6
330
1D
100
AcDbEntity
  8
0
100
AcDbLine
 10
86.50896538268
 20
1052.187501409826
 30
0.0
 11
92.068655611361
 21
1046.653474032819
 31
0.0
  0
LINE
  5
24B7
330
1D
100
AcDbEntity
  8
0
100
AcDbLine
 10
92.068655611361
 20
1046.653474032819
 30
0.0
 11
93.679527416325
 21
1044.904583703783
 31
0.0
  0
LINE
  5
24B8
330
1D
100
AcDbEntity
  8
0
100
AcDbLine
 10
93.679527416325
 20
1044.904583703783
 30
0.0
 11
95.595083274954
 21
1042.454170006167
 31
0.0
  0
LINE
  5
24B9
330
1D
100
AcDbEntity
  8
0
100
AcDbLine
 10
95.595083274954
 20
1042.454170006167
 30
0.0
 11
96.783524065016
 21
1040.778602852958
 31
0.0
  0
LINE
  5
24BA
330
1D
100
AcDbEntity
  8
0
100
AcDbLine
 10
96.783524065016
 20
1040.778602852958
 30
0.0
 11
97.773468043262
 21
1039.24822262082
 31
0.0
  0
LINE
  5
24BB
330
1D
100
AcDbEntity
  8
0
100
AcDbLine
 10
97.773468043262
 20
1039.24822262082
 30
0.0
 11
99.477922729142
 21
1036.332674397327
 31
0.0
  0
LINE
  5
24BC
330
1D
100
AcDbEntity
  8
0
100
AcDbLine
 10
99.477922729142
 20
1036.332674397327
 30
0.0
 11
100.808981398811
 21
1033.420528201587
 31
0.0
  0
LINE
  5
24BD
330
1D
100
AcDbEntity
  8
0
100
AcDbLine
 10
100.808981398811
 20
1033.420528201587
 30
0.0
 11
101.977495994045
 21
1030.506676112837
 31
0.0
  0
LINE
  5
24BE
330
1D
100
AcDbEntity
  8
0
100
AcDbLine
 10
101.977495994045
 20
1030.506676112837
 30
0.0
 11
103.342884292347
 21
1026.939547319385
 31
0.0
  0
LINE
  5
24BF
330
1D
100
AcDbEntity
  8
0
100
AcDbLine
 10
101.288298494808
 20
1029.288839595913
 30
0.0
 11
103.342884292347
 21
1026.939547319385
 31
0.0
  0
LINE
  5
24C0
330
1D
100
AcDbEntity
  8
0
100
AcDbLine
 10
91.878491641902
 20
1039.625455605229
 30
0.0
 11
93.506779582944
 21
1038.25915979445
 31
0.0
  0
ENDSEC
  0
SECTION
  2
OBJECTS
  0
DICTIONARY
  5
C
330
0
100
AcDbDictionary
281
     1
  3
ACAD_GROUP
350
D
  3
ACAD_LAYOUT
350
1A
  3
ACAD_MLEADERSTYLE
350
24C3
  3
ACAD_MLINESTYLE
350
17
  3
ACAD_PLOTSETTINGS
350
19
  3
ACAD_PLOTSTYLENAME
350
E
  3
ACAD_SCALELIST
350
153B
  3
AcDbVariableDictionary
350
24C1
  3
DWGPROPS
350
24C6
  0
DICTIONARY
  5
D
102
{ACAD_REACTORS
330
C
102
}
330
C
100
AcDbDictionary
281
     1
  0
DICTIONARY
  5
1A
102
{ACAD_REACTORS
330
C
102
}
330
C
100
AcDbDictionary
281
     1
  3
Layout1
350
1C
  3
Model
350
1E
  0
DICTIONARY
  5
24C3
102
{ACAD_REACTORS
330
C
102
}
330
C
100
AcDbDictionary
281
     1
  0
DICTIONARY
  5
17
102
{ACAD_REACTORS
330
C
102
}
330
C
100
AcDbDictionary
281
     1
  3
Standard
350
18
  0
DICTIONARY
  5
19
102
{ACAD_REACTORS
330
C
102
}
330
C
100
AcDbDictionary
281
     1
  0
ACDBDICTIONARYWDFLT
  5
E
102
{ACAD_REACTORS
330
C
102
}
330
C
100
AcDbDictionary
281
     1
  3
Normal
350
F
100
AcDbDictionaryWithDefault
340
F
  0
DICTIONARY
  5
153B
102
{ACAD_REACTORS
330
C
102
}
330
C
100
AcDbDictionary
281
     1
  3
A0
350
153C
  3
A1
350
153D
  3
A2
350
153E
  3
A3
350
153F
  3
A4
350
1540
  3
A5
350
1541
  3
A6
350
1542
  3
A7
350
1543
  3
A8
350
1544
  3
A9
350
1545
  3
B0
350
1546
  3
B1
350
1547
  3
B2
350
1548
  3
B3
350
1549
  3
B4
350
154A
  3
B5
350
154B
  3
B6
350
154C
  3
B7
350
154D
  3
B8
350
154E
  3
B9
350
154F
  3
C0
350
1550
  3
C1
350
1551
  3
C2
350
1552
  3
C3
350
1553
  3
C4
350
1554
  3
C5
350
1555
  3
C6
350
1556
  3
C7
350
1557
  3
C8
350
1558
  3
C9
350
1559
  3
D0
350
155A
  3
D1
350
155B
  3
D2
350
155C
  0
DICTIONARY
  5
24C1
102
{ACAD_REACTORS
330
C
102
}
330
C
100
AcDbDictionary
281
     1
  3
CANNOSCALE
350
24C4
  0
XRECORD
  5
24C6
102
{ACAD_REACTORS
330
C
102
}
330
C
100
AcDbXrecord
280
     1
  1
DWGPROPS COOKIE
  2

  3

  4

  6

  7

  8
MARTIN
  9

300
=
301
=
302
=
303
=
304
=
305
=
306
=
307
=
308
=
309
=
 40
0.0
 41
2455824.934628183
 42
2455824.935311412
  1

 90
        0
  0
LAYOUT
  5
1C
102
{ACAD_REACTORS
330
1A
102
}
330
1A
100
AcDbPlotSettings
  1

  2
none_device
  4

  6

 40
0.0
 41
0.0
 42
0.0
 43
0.0
 44
0.0
 45
0.0
 46
0.0
 47
0.0
 48
0.0
 49
0.0
140
0.0
141
0.0
142
1.0
143
1.0
 70
   688
 72
     0
 73
     0
 74
     5
  7

 75
    16
147
1.0
148
0.0
149
0.0
100
AcDbLayout
  1
Layout1
 70
     1
 71
     1
 10
0.0
 20
0.0
 11
12.0
 21
9.0
 12
0.0
 22
0.0
 32
0.0
 14
1.000000000000E+20
 24
1.000000000000E+20
 34
1.000000000000E+20
 15
-1.000000000000E+20
 25
-1.000000000000E+20
 35
-1.000000000000E+20
146
0.0
 13
0.0
 23
0.0
 33
0.0
 16
1.0
 26
0.0
 36
0.0
 17
0.0
 27
1.0
 37
0.0
 76
     0
330
1B
  0
LAYOUT
  5
1E
102
{ACAD_REACTORS
330
1A
102
}
330
1A
100
AcDbPlotSettings
  1

  2
none_device
  4

  6

 40
0.0
 41
0.0
 42
0.0
 43
0.0
 44
0.0
 45
0.0
 46
0.0
 47
0.0
 48
0.0
 49
0.0
140
0.0
141
0.0
142
1.0
143
1.0
 70
  1712
 72
     0
 73
     0
 74
     0
  7

 75
     0
147
1.0
148
0.0
149
0.0
100
AcDbLayout
  1
Model
 70
     1
 71
     0
 10
0.0
 20
0.0
 11
12.0
 21
9.0
 12
0.0
 22
0.0
 32
0.0
 14
-4.113528779721
 24
-0.1305
 34
0.0
 15
217.94954
 25
1253.1305
 35
0.0
146
0.0
 13
0.0
 23
0.0
 33
0.0
 16
1.0
 26
0.0
 36
0.0
 17
0.0
 27
1.0
 37
0.0
 76
     0
330
1D
331
1536
  0
MLINESTYLE
  5
18
102
{ACAD_REACTORS
330
17
102
}
330
17
100
AcDbMlineStyle
  2
Standard
 70
     0
  3

 62
   256
 51
90.0
 52
90.0
 71
     2
 49
0.5
 62
   256
  6
BYLAYER
 49
-0.5
 62
   256
  6
BYLAYER
  0
ACDBPLACEHOLDER
  5
F
102
{ACAD_REACTORS
330
E
102
}
330
E
  0
SCALE
  5
153C
102
{ACAD_REACTORS
330
153B
102
}
330
153B
100
AcDbScale
 70
     0
300
1:1
140
1.0
141
1.0
290
     1
  0
SCALE
  5
153D
102
{ACAD_REACTORS
330
153B
102
}
330
153B
100
AcDbScale
 70
     0
300
1:2
140
1.0
141
2.0
290
     0
  0
SCALE
  5
153E
102
{ACAD_REACTORS
330
153B
102
}
330
153B
100
AcDbScale
 70
     0
300
1:4
140
1.0
141
4.0
290
     0
  0
SCALE
  5
153F
102
{ACAD_REACTORS
330
153B
102
}
330
153B
100
AcDbScale
 70
     0
300
1:5
140
1.0
141
5.0
290
     0
  0
SCALE
  5
1540
102
{ACAD_REACTORS
330
153B
102
}
330
153B
100
AcDbScale
 70
     0
300
1:8
140
1.0
141
8.0
290
     0
  0
SCALE
  5
1541
102
{ACAD_REACTORS
330
153B
102
}
330
153B
100
AcDbScale
 70
     0
300
1:10
140
1.0
141
10.0
290
     0
  0
SCALE
  5
1542
102
{ACAD_REACTORS
330
153B
102
}
330
153B
100
AcDbScale
 70
     0
300
1:16
140
1.0
141
16.0
290
     0
  0
SCALE
  5
1543
102
{ACAD_REACTORS
330
153B
102
}
330
153B
100
AcDbScale
 70
     0
300
1:20
140
1.0
141
20.0
290
     0
  0
SCALE
  5
1544
102
{ACAD_REACTORS
330
153B
102
}
330
153B
100
AcDbScale
 70
     0
300
1:30
140
1.0
141
30.0
290
     0
  0
SCALE
  5
1545
102
{ACAD_REACTORS
330
153B
102
}
330
153B
100
AcDbScale
 70
     0
300
1:40
140
1.0
141
40.0
290
     0
  0
SCALE
  5
1546
102
{ACAD_REACTORS
330
153B
102
}
330
153B
100
AcDbScale
 70
     0
300
1:50
140
1.0
141
50.0
290
     0
  0
SCALE
  5
1547
102
{ACAD_REACTORS
330
153B
102
}
330
153B
100
AcDbScale
 70
     0
300
1:100
140
1.0
141
100.0
290
     0
  0
SCALE
  5
1548
102
{ACAD_REACTORS
330
153B
102
}
330
153B
100
AcDbScale
 70
     0
300
2:1
140
2.0
141
1.0
290
     0
  0
SCALE
  5
1549
102
{ACAD_REACTORS
330
153B
102
}
330
153B
100
AcDbScale
 70
     0
300
4:1
140
4.0
141
1.0
290
     0
  0
SCALE
  5
154A
102
{ACAD_REACTORS
330
153B
102
}
330
153B
100
AcDbScale
 70
     0
300
8:1
140
8.0
141
1.0
290
     0
  0
SCALE
  5
154B
102
{ACAD_REACTORS
330
153B
102
}
330
153B
100
AcDbScale
 70
     0
300
10:1
140
10.0
141
1.0
290
     0
  0
SCALE
  5
154C
102
{ACAD_REACTORS
330
153B
102
}
330
153B
100
AcDbScale
 70
     0
300
100:1
140
100.0
141
1.0
290
     0
  0
SCALE
  5
154D
102
{ACAD_REACTORS
330
153B
102
}
330
153B
100
AcDbScale
 70
     0
300
1/128" = 1'-0"
140
0.0078125
141
12.0
290
     0
  0
SCALE
  5
154E
102
{ACAD_REACTORS
330
153B
102
}
330
153B
100
AcDbScale
 70
     0
300
1/64" = 1'-0"
140
0.015625
141
12.0
290
     0
  0
SCALE
  5
154F
102
{ACAD_REACTORS
330
153B
102
}
330
153B
100
AcDbScale
 70
     0
300
1/32" = 1'-0"
140
0.03125
141
12.0
290
     0
  0
SCALE
  5
1550
102
{ACAD_REACTORS
330
153B
102
}
330
153B
100
AcDbScale
 70
     0
300
1/16" = 1'-0"
140
0.0625
141
12.0
290
     0
  0
SCALE
  5
1551
102
{ACAD_REACTORS
330
153B
102
}
330
153B
100
AcDbScale
 70
     0
300
3/32" = 1'-0"
140
0.09375
141
12.0
290
     0
  0
SCALE
  5
1552
102
{ACAD_REACTORS
330
153B
102
}
330
153B
100
AcDbScale
 70
     0
300
1/8" = 1'-0"
140
0.125
141
12.0
290
     0
  0
SCALE
  5
1553
102
{ACAD_REACTORS
330
153B
102
}
330
153B
100
AcDbScale
 70
     0
300
3/16" = 1'-0"
140
0.1875
141
12.0
290
     0
  0
SCALE
  5
1554
102
{ACAD_REACTORS
330
153B
102
}
330
153B
100
AcDbScale
 70
     0
300
1/4" = 1'-0"
140
0.25
141
12.0
290
     0
  0
SCALE
  5
1555
102
{ACAD_REACTORS
330
153B
102
}
330
153B
100
AcDbScale
 70
     0
300
3/8" = 1'-0"
140
0.375
141
12.0
290
     0
  0
SCALE
  5
1556
102
{ACAD_REACTORS
330
153B
102
}
330
153B
100
AcDbScale
 70
     0
300
1/2" = 1'-0"
140
0.5
141
12.0
290
     0
  0
SCALE
  5
1557
102
{ACAD_REACTORS
330
153B
102
}
330
153B
100
AcDbScale
 70
     0
300
3/4" = 1'-0"
140
0.75
141
12.0
290
     0
  0
SCALE
  5
1558
102
{ACAD_REACTORS
330
153B
102
}
330
153B
100
AcDbScale
 70
     0
300
1" = 1'-0"
140
1.0
141
12.0
290
     0
  0
SCALE
  5
1559
102
{ACAD_REACTORS
330
153B
102
}
330
153B
100
AcDbScale
 70
     0
300
1-1/2" = 1'-0"
140
1.5
141
12.0
290
     0
  0
SCALE
  5
155A
102
{ACAD_REACTORS
330
153B
102
}
330
153B
100
AcDbScale
 70
     0
300
3" = 1'-0"
140
3.0
141
12.0
290
     0
  0
SCALE
  5
155B
102
{ACAD_REACTORS
330
153B
102
}
330
153B
100
AcDbScale
 70
     0
300
6" = 1'-0"
140
6.0
141
12.0
290
     0
  0
SCALE
  5
155C
102
{ACAD_REACTORS
330
153B
102
}
330
153B
100
AcDbScale
 70
     0
300
1'-0" = 1'-0"
140
12.0
141
12.0
290
     0
  0
DICTIONARYVAR
  5
24C4
102
{ACAD_REACTORS
330
24C1
102
}
330
24C1
100
DictionaryVariables
280
     0
  1
1:1
  0
ENDSEC
  0
SECTION
  2
THUMBNAILIMAGE
 90
    16364
310
28000000B40000005500000001000800000000000000000000000000000000000000000000000000FFFFFF000000FF0000FFFF0000FF0000FFFF0000FF000000FF00FF000000000080808000C0C0C0000000FF007F7FFF000000A5005252A50000007F003F3F7F0000004C0026264C000000260013132600003FFF007F9FFF
310
000029A5005267A500001F7F003F4F7F0000134C00262F4C000009260013172600007FFF007FBFFF000052A500527CA500003F7F003F5F7F0000264C0026394C0000132600131C260000BFFF007FDFFF00007CA5005291A500005F7F003F6F7F0000394C0026424C00001C26001321260000FFFF007FFFFF0000A5A50052A5
310
A500007F7F003F7F7F00004C4C00264C4C00002626001326260000FFBF007FFFDF0000A57C0052A59100007F5F003F7F6F00004C3900264C420000261C001326210000FF7F007FFFBF0000A5520052A57C00007F3F003F7F5F00004C2600264C39000026130013261C0000FF3F007FFF9F0000A5290052A56700007F1F003F
310
7F4F00004C1300264C2F00002609001326170000FF00007FFF7F0000A5000052A55200007F00003F7F3F00004C0000264C260000260000132613003FFF00009FFF7F0029A5000067A552001F7F00004F7F3F00134C00002F4C260009260000172613007FFF0000BFFF7F0052A500007CA552003F7F00005F7F3F00264C0000
310
394C2600132600001C261300BFFF0000DFFF7F007CA5000091A552005F7F00006F7F3F00394C0000424C26001C26000021261300FFFF0000FFFF7F00A5A50000A5A552007F7F00007F7F3F004C4C00004C4C26002626000026261300FFBF0000FFDF7F00A57C0000A59152007F5F00007F6F3F004C3900004C422600261C00
310
0026211300FF7F0000FFBF7F00A5520000A57C52007F3F00007F5F3F004C2600004C39260026130000261C1300FF3F0000FF9F7F00A5290000A56752007F1F00007F4F3F004C1300004C2F26002609000026171300FF000000FF7F7F00A5000000A55252007F0000007F3F3F004C0000004C2626002600000026131300FF00
310
3F00FF7F9F00A5002900A55267007F001F007F3F4F004C0013004C262F002600090026131700FF007F00FF7FBF00A5005200A5527C007F003F007F3F5F004C0026004C2639002600130026131C00FF00BF00FF7FDF00A5007C00A55291007F005F007F3F6F004C0039004C26420026001C0026132100FF00FF00FF7FFF00A5
310
00A500A552A5007F007F007F3F7F004C004C004C264C002600260026132600BF00FF00DF7FFF007C00A5009152A5005F007F006F3F7F0039004C0042264C001C002600211326007F00FF00BF7FFF005200A5007C52A5003F007F005F3F7F0026004C0039264C00130026001C1326003F00FF009F7FFF002900A5006752A500
310
1F007F004F3F7F0013004C002F264C000900260017132600000000002D2D2D005B5B5B0089898900B7B7B700B3B3B30000000000000000000000000000000000000000000000000000000000000000000000000000000000000000000000000000000000000000000000000000000000000000000000000000000000000000
310
00000000000000000000000000000707000000000000000000000000000000000000000000000000000000000000000000000000000000000000000000000000000000000000000000000000000000000000000000000000000000000000000000000000000000000000000000000000000000000000000000000000000000
310
00000000000000000000000000000000000000000000000000000000000000000000000000000000000000000000000000000000000000000000000000000000000000070700000000000000000000000000000000000000000000000000000000000000000000000000000000000000000000000000000000000000000000
310
00000000000000000000000000000000000000000000000000000000000000000000000000000000000000000000000000000000000000000000000000000000000000000000000000000000000000000000000000000000000000000000000000000000000000000000000000000000000000000000000007070000000000
310
00000000000000000000000000000000000000000000000000000000000000000000000000000000000000000000000000000000000000000000000000000000000000000000000000000000000000000000000000000000000000000000000000000000000000000000000000000000000000000000000000000000000000
310
00000000000000000000000000000000000000000000000000000000000000000000000000000000000000000000070700000000000000000000000000000000000000000000000000000000000000000000000000000000000000000000000000000000000000000000000000000000000000000000000000000000000000
310
00000000000000000000000000000000000000000000000000000000000000000000000000000000000000000000000000000000000000000000000000000000000000000000000000000000000000000000000000000000000000000000000000000707070000000000000000000000000000000000000000000000000000
310
00000000000000000000000000000000000000000000000000000000000000000000000000000000000000000000000000000000000000000000000000000000000000000000000000000000000000000000000000000000000000000000000000000000000000000000000000000000000000000000000000000000000000
310
00000000000000000000000000000000000000000000000007000700000000000000000000000000000000000000000000000000000000000000000000000000000000000000000000000000000000000000000000000000000000000000000000000000000000000000000000000000000000000000000000000000000000
310
00000000000000000000000000000000000000000000000000000000000000000000000000000000000000000000000000000000000000000000000000000000000000000000000000000007070707070707070000000000000000000000000000000000000000000000000000000000000000000000000000000000000000
310
00000000000000000000000000000000000000000000000000000000000000000000000000000000000000000000000000000000000000000000000000000000000000000000000000000000000000000000000000000000000000000000000000000000000000000000000000000000000000000000000000000000000000
310
07070707070000000700000000000000000000000000000000000000000000000000000000000000000000000000000000000000000000000000000000000000000000000000000000000000000000000000000000000000000000000000000000000000000000000000000000000000000000000000000000000000000000
310
00000000000000000000000000000000000000000000000000000000000000000000000000000000000000000000000000000000000707070707000000070000000000000000000000000000000000000000000000000000000000000000000000000000000000000000000000000000000000000000000000000000000000
310
00000000000000000000000000000000000000000000000000000000000000000000000000000000000000000000000000000000000000000000000000000000000000000000000000000000000000000000000000000000000000000000000000000000000000000000070707070700000007000000000000000000000000
310
00000000000000000000000000000000000000000000000000000000000000000000000000000000000000000000000000000000000000000000000000000000000000000000000000000000000000000000000000000000000000000000000000000000000000000000000000000000000000000000000000000000000000
310
00000000000000000000000000000000000000000000000000000000000000070707070707070707070000000000000000000000000000000000000000000000000000000000000000000000000000000000000000000000000000000000000000000000000000000000000000000000000000000000000000000000000000
310
00000000000000000000000000000000000000000000000000000000000000000000000000000000000000000000000000000000000000000000000000000000000000000000000000000000000000000000000000000000000000000000000000000000000000000000000000000000000000000000000000000000000000
310
00000000000000000000000000000000000000000000000000000000000000000000000000000000000000000000000000000000000000000000000000000000000000000000000000000000000000000000000000000000000000000000000000000000000000000000000000000000000000000000000000000000000000
310
00000000000000000000000000000000000000000000000000000000000000000000000000000000000000000000000000000000000000000000000000000000000000000000000000000000000000000000000000000000000000000000000000000000000000000000000000000000000000000000000000000000000000
310
00000000000000000000000000000000000000000000000000000000000000000000000000000000000000000000000000000000000000000000000000000000000000000000000000000000000000000000000000000000000000000000000000000000000000000000000000000000000000000000000000000000000000
310
00000000000000000000000000000000000000000000000000000000000000000000000000000000000000000000000000000000000000000000000000000000000000000000000000000000000000000000000000000000000000000000000000000000000000000000000000000000000000000000000000000000000000
310
00000000000000000000000000000000000000000000000000000000000000000000000000000000000000000000000000000000000000000000000000000000000000000000000000000000000000000000000000000000000000000000000000000000000000000000000000000000000000000000000000000000000000
310
00000000000000000000000000000000000000000000000000000000000000000000000000000000000000000000000000000000000000000000000000000000000000000000000000000000000000000000000000000000000000000000000000000000000000000000000000000000000000000000000000000000000000
310
00000000000000000000000000000000000000000000000000000000000000000000000000000000000000000000000000000000000000000000000000000000000000000000000000000000000000000000000000000000000000000000000000000000000707070700000000000000000000000000000000000000000000
310
00000000000000000000000000000000000000000000000000000000000000000000000000000000000000000000000000000000000000000000000000000000000000000000000000000000000000000000000000000000000000000000000000000000000000000000000000000000000000000000000000000000000000
310
00000000000000000000000000000000000000000000000000000007070707000000000000000000000000000000000000000000000000000000000000000000000000000000000000000000000000000000000000000000000000000000000000000000000000000000000000000000000000000000000000000000000000
310
00000000000000000000000000000000000000000000000000000000000000000000000000000000000000000000000000000000000000000000000000000000000000000000000000000000000000000707070700000000000000000000000000000000000000000000000000000000000000000000000000000000000000
310
00000000000000000000000000000000000000000000000000000000000000000000000000000000000000000000000000000000000000000000000000000000000000000000000000000000000000000000000000000000000000000000000000000000000000000000000000000000000000000000000000000000000000
310
00000000000007000707000000000000000000000000000000000000000000000000000000000000000000000000000000000000000000000000000000000000000000000000000000000000000000000000000000000000000000000000000000000000000000000000000000000000000000000000000000000000000000
310
00000000000000000000000000000000000000000000000000000000000000000000000000000000000000000000000000000000000000000000000700070700000000000000000000000000000000000000000000000000000000000000000000000000000000000000000000000000000000000000000000000000000000
310
00000000000000000000000000000000000000000000000000000000000000000000000000000000000000000000000000000000000000000000000000000000000000000000000000000000000000000000000000000000000000000000000000000000000000000000000000000000070707070000000000000000000000
310
00000000000000000000000000000000000000000000000000000000000000000000000000000000000000000000000000000000000000000000000000000000000000000000000000000000000000000000000000000000000000000000000000000000000000000000000000000000000000000000000000000000000000
310
00000000000000000000000000000000000000000000000000000000000000000000000000000707070700000000000000000000000000000000000000000000000000000000000000000000000000000000000000000000000000000000000000000000000000000000000000000000000000000000000000000000000000
310
00000000000000000000000000000000000000000000000000000000000000000000000000000000000000000000000000000000000000000000000000000000000000000000000000000000000000000000000000000000000000070707070000000000000000000000000000000000000000000000000000000000000000
310
00000000000000000000000000000000000000000000000000000000000000000000000000000000000000000000000000000000000000000000000000000000000000000000000000000000000000000000000000000000000000000000000000000000000000000000000000000000000000000000000000000000000000
310
00000000000000000000070707070707070707070700000000000000000000000000000000000000000000000000000000000000000000000000000000000000000000000000000000000000000000000000000000000000000000000000000000000000000000000000000000000000000000000000000000000000000000
310
00000000000000000000000000000000000000000000000000000000000000000000000000000000000000000000000000000000000000000000000000000007070707070707070707070000000000000000000000000000000000000000000000000000000000000000000000000000000000000000000000000000000000
310
00000000000000000000000000000000000000000000000000000000000000000000000000000000000000000000000000000000000000000000000000000000000000000000000000000000000000000000000000000000000000000000000000000000000000000000000000000000000000000000000000000007070707
310
00000000000000000000000000000000000000000000000000000000000000000000000000000000000000000000000000000000000000000000000000000000000000000000000000000000000000000000000000000000000000000000000000000000000000000000000000000000000000000000000000000000000000
310
00000000000000000000000000000000000000000000000000000000000000000000000000000000000000000000000000070707070000000000000000000000000000000000000000000000000000000000000000000000000000000000000000000000000000000000000000000000000000000000000000000000000000
310
00000000000000000000000000000000000000000000000000000000000000000000000000000000000000000000000000000000000000000000000000000000000000000000000000000000000000000000000000000000000000000000000000000000000007070707000000000000000000000000000000000000000000
310
00000000000000000000000000000000000000000000000000000000000000000000000000000000000000000000000000000000000000000000000000000000000000000000000000000000000000000000000000000000000000000000000000000000000000000000000000000000000000000000000000000000000000
310
00000000000000000000000000000000000000000000000000000000070707070000000000000000000000000000000000000000000000000000000000000000000000000000000000000000000000000000000000000000000000000000000000000000000000000000000000000000000000000000000000000000000000
310
00000000000000000000000000000000000000000000000000000000000000000000000000000000000000000000000000000000000000000000000000000000000000000000000000000000000000000007070707000000000000000000000000000000000000000000000000000000000000000000000000000000000000
310
00000000000000000000000000000000000000000000000000000000000000000000000000000000000000000000000000000000000000000000000000000000000000000000000000000000000000000000000000000000000000000000000000000000000000000000000000000000000000000000000000000000000000
310
00000000000000070707070000000000000000000000000000000000000000000000000000000000000000000000000000000000000000000000000000000000000000000000000000000000000000000000000000000000000000000000000000000000000000000000000000000000000000000000000000000000000000
310
00000000000000000000000000000000000000000000000000000000000000000000000000000000000000000000000000000000000000000000000007070707000000000000000000000000000000000000000000000000000000000000000000000000000000000000000000000000000000000000000000000000000000
310
00000000000000000000000000000000000000000000000000000000000000000000000000000000000000000000000000000000000000000000000000000000000000000000000000000000000000000000000000000000000000000000000000000000000000000000000000000000000707070700000000000000000000
310
00000000000000000000000000000000000000000000000000000000000000000000000000000000000000000000000000000000000000000000000000000000000000000000000000000000000000000000000000000000000000000000000000000000000000000000000000000000000000000000000000000000000000
310
00000000000000000000000000000000000000000000000000000000000000000000000000000007070707000000000000000000000000000000000000000000000000000000000000000000000000000000000000000000000000000000000000000000000000000000000000000000000000000000000000000000000000
310
00000000000000000000000000000000000000000000000000000000000000000000000000000000000000000000000000000000000000000000000000000000000000000000000000000000000000000000000000000000000000000707070700000000000000000000000000000000000000000000000000000000000000
310
00000000000000000000000000000000000000000000000000000000000000000000000000000000000000000000000000000000000000000000000000000000000000000000000000000000000000000000000000000000000000000000000000000000000000000000000000000000000000000000000000000000000000
310
00000000000000000000000000000000000007070707000000000000000000000000000000000000000000000000000000000000000000000000000000000000000000000000000000000000000000000000000000000000000000000000000000000000000000000000000000000000000000000000000000000000000000
310
00000000000000000000000000000000000000000000000000000000000000000000000000000000000000000000000000000000000000000000000000000000000000000000000707070700000000000000000000000000000000000000000000000000000000000000000000000000000000000000000000000000000000
310
00000000000000000000000000000000000000000000000000000000000000000000000000000000000000000000000000000000000000000000000000000000000000000000000000000000000000000000000000000000000000000000000000000000000000000000000000000000000000000000000000000000070707
310
07000000000000000000000000000000000000000000000000000000000000000000000000000000000000000000000000000000000000000000000000000000000000000000000000000000000000000000000000000000000000000000000000000000000000000000000000000000000000000000000000000000000000
310
00000000000000000000000000000000000000000000000000000000000000000000000000000000000000000000000000000707070700000000000000000000000000000000000000000000000000000000000000000000000000000000000000000000000000000000000000000000000000000000000000000000000000
310
00000000000000000000000000000000000000000000000000000000000000000000000000000000000000000000000000000000000000000000000000000000000000000000000000000000000000000000000000000000000000000000000000000000000000070707070000000000000000000000000000000000000000
310
00000000000000000000000000000000000000000000000000000000000000000000000000000000000000000000000000000000000000000000000000000000000000000000000000000000000000000000000000000000000000000000000000000000000000000000000000000000000000000000000000000000000000
310
00000000000000000000000000000000000000000000000000000000000707070700000000000000000000000000000000000000000000000000000000000000000000000000000000000000000000000000000000000000000000000000000000000000000000000000000000000000000000000000000000000000000000
310
00000000000000000000000000000000000000000000000000000000000000000000000000000000000000000000000000000000000000000000000000000000000000000000000000000000000000000000070707070000000000000000000000000000000000000000000000000000000000000000000000000000000000
310
00000000000000000000000000000000000000000000000000000000000000000000000000000000000000000000000000000000000000000000000000000000000000000000000000000000000000000000000000000000000000000000000000000000000000000000000000000000000000000000000000000000000000
310
00000000000000000707070700000000000000000000000000000000000000000000000000000000000000000000000000000000000000000000000000000000000000000000000000000000000000000000000000000000000000000000000000000000000000000000000000000000000000000000000000000000000000
310
00000000000000000000000000000000000000000000000000000000000000000000000000000000000000000000000000000000000000000000000000070707070000000000000000000000000000000000000000000000000000000000000000000000000000000000000000000000000000000000000000000000000000
310
00000000000000000000000000000000000000000000000000000000000000000000000000000000000000000000000000000000000000000000000000000000000000000000000000000000000000000000000000000000000000000000000000000000000000000000000000000000000007070707000000000000000000
310
00000000000000000000000000000000000000000000000000000000000000000000000000000000000000000000000000000000000000000000000000000000000000000000000000000000000000000000000000000000000000000000000000000000000000000000000000000000000000000000000000000000000000
310
00000000000000000000000000000000000000000000000000000000000000000000000000000000070707070000000000000000000000000000000000000000000000000000000000000000000000000000000000000000000000000000000000000000000000000000000000000000000000000000000000000000000000
310
00000000000000000000000000000000000000000000000000000000000000000000000000000000000000000000000000000000000000000000000000000000000000000000000000000000000000000000000000000000000000000007070707000000000000000000000000000000000000000000000000000000000000
310
00000000000000000000000000000000000000000000000000000000000000000000000000000000000000000000000000000000000000000000000000000000000000000000000000000000000000000000000000000000000000000000000000000000000000000000000000000000000000000000000000000000000000
310
00000000000000000000000000000000000000070707070000000000000000000000000000000000000000000000000000000000000000000000000000000000000000000000000000000000000000000000000000000000000000000000000000000000000000000000000000000000000000000000000000000000000000
310
00000000000000000000000000000000000000000000000000000000000000000000000000000000000000000000000000000000000000000000000000000000000000000000000007070707000000000000000000000000000000000000000000000000000000000000000000000000000000000000000000000000000000
310
00000000000000000000000000000000000000000000000000000000000000000000000000000000000000000000000000000000000000000000000000000000000000000000000000000000000000000000000000000000000000000000000000000000000000000000000000000000000000000000000000000000000707
310
07070000000000000000000000000000000000000000000000000000000000000000000000000000000000000000000000000000000000000000000000000000000000000000000000000000000000000000000000000000000000000000000000000000000000000000000000000000000000000000000000000000000000
310
00000000000000000000000000000000000000000000000000000000000000000000000000000000000000000000000000000007070707000000000000000000000000000000000000000000000000000000000000000000000000000000000000000000000000000000000000000000000000000000000000000000000000
310
00000000000000000000000000000000000000000000000000000000000000000000000000000000000000000000000000000000000000000000000000000000000000000000000000000000000000000000000000000000000000000000000000000000000000000707070700000000000000000000000000000000000000
310
00000000000000000000000000000000000000000000000000000000000000000000000000000000000000000000000000000000000000000000000000000000000000000000000000000000000000000000000000000000000000000000000000000000000000000000000000000000000000000000000000000000000000
310
00000000000000000000000000000000000000000000000000000000000007070707000000000000000000000000000000000000000000000000000000000000000000000000000000000000000000000000000000000000000000000000000000000000000000000000000000000000000000000000000000000000000000
310
00000000000000000000000000000000000000000000000000000000000000000000000000000000000000000000000000000000000000000000000000000000000000000000000000000000000000000000000707070700000000000000000000000000000000000000000000000000000000000000000000000000000000
310
00000000000000000000000000000000000000000000000000000000000000000000000000000000000000000000000000000000000000000000000000000000000000000000000000000000000000000000000000000000000000000000000000000000000000000000000000000000000000000000000000000000000000
310
00000000000000000007070707000000000000000000000000000000000000000000000000000000000000000000000000000000000000000000000000000000000000000000000000000000000000000000000000000000000000000000000000000000000000000000000000000000000000000000000000000000000000
310
00000000000000000000000000000000000000000000000000000000000000000000000000000000000000000000000000000000000000000000000000000707070700000000000000000000000000000000000000000000000000000000000000000000000000000000000000000000000000000000000000000000000000
310
00000000000000000000000000000000000000000000000000000000000000000000000000000000000000000000000000000000000000000000000000000000000000000000000000000000000000000000000000000000000000000000000000000000000000000000000000000000000000070700070000000000000000
310
00000000000000000000000000000000000000000000000000000000000000000000000000000000000000000000000000000000000000000000000000000000000000000000000000000000000000000000000000000000000000000000000000000000000000000000000000000000000000000000000000000000000000
310
00000000000000000000000000000000000000000000000000000000000000000000000000000000000707070000000000000000000000000000000000000000000000000000000000000000000000000000000000000000000000000000000000000000000000000000000000000000000000000000000000000000000000
310
00000000000000000000000000000000000000000000000000000000000000000000000000000000000000000000000000000000000000000000000000000000000000000000000000000000000000000000000000000000000000000000070707000000000000000000000000000000000000000000000000000000000000
310
00000000000000000000000000000000000000000000000000000000000000000000000000000000000000000000000000000000000000000000000000000000000000000000000000000000000000000000000000000000000000000000000000000000000000000000000000000000000000000000000000000000000000
310
00000000000000000000000000000000000000000707070000000000000000000000000000000000000000000000000000000000000000000000000000000000000000000000000000000000000000000000000000000000000000000000000000000000000000000000000000000000000000000000000000000000000000
310
00000000000000000000000000000000000000000000000000000000000000000000000000000000000000000000000000000000000000000000000000000000000000000000000000070707000000000000000000000000000000000000000000000000000000000000000000000000000000000000000000000000000000
310
00000000000000000000000000000000000000000000000000000000000000000000000000000000000000000000000000000000000000000000000000000000000000000000000000000000000000000000000000000000000000000000000000000000000000000000000000000000000000000000000000000000000700
310
07000000000000000000000000000000000000000000000000000000000000000000000000000000000000000000000000000000000000000000000000000000000000000000000000000000000000000000000000000000000000000000000000000000000000000000000000000000000000000000000000000000000000
310
00000000000000000000000000000000000000000000000000000000000000000000000000000000000000000000000000000007070700000000000000000000000000000000000000000000000000000000000000000000000000000000000000000000000000000000000000000000000000000000000000000000000000
310
00000000000000000000000000000000000000000000000000000000000000000000000000000000000000000000000000000000000000000000000000000000000000000000000000000000000000000000000000000000000000000000000000000000000000070707070000000000000000000000000000000000000000
310
00000000000000000000000000000000000000000000000000000000000000000000000000000000000000000000000000000000000000000000000000000000000000000000000000000000000000000000000000000000000000000000000000000000000000000000000000000000000000000000000000000000000000
310
00000000000000000000000000000000000000000000000000000000000707070700000000000000000000000000000000000000000000000000000000000000000000000000000000000000000000000000000000000000000000000000000000000000000000000000000000000000000000000000000000000000000000
310
00000000000000000000000000000000000000000000000000000000000000000000000000000000000000000000000000000000000000000000000000000000000000000000000000000000000000000007070707070000000000000000000000000000000000000000000000000000000000000000000000000000000000
310
00000000000000000000000000000000000000000000000000000000000000000000000000000000000000000000000000000000000000000000000000000000000000000000000000000000000000000000000000000000000000000000000000000000000000000000000000000000000000000000000000000000000000
310
00000000000007070700070700000000000000000000000000000000000000000000000000000000000000000000000000000000000000000000000000000000000000000000000000000000000000000000000000000000000000000000000000000000000000000000000000000000000000000000000000000000000000
310
00000000000000000000000000000000000000000000000000000000000000000000000000000000000000000000000000000000000000000000000707070007070000000000000000000000000000000000000000000000000000000000000000000000000000000000000000000000000000000000000000000000000000
310
00000000000000000000000000000000000000000000000000000000000000000000000000000000000000000000000000000000000000000000000000000000000000000000000000000000000000000000000000000000000000000000000000000000000000000000000000000707070700000707000000000000000000
310
00000000000000000000000000000000000000000000000000000000000000000000000000000000000000000000000000000000000000000000000000000000000000000000000000000000000000000000000000000000000000000000000000000000000000000000000000000000000000000000000000000000000000
310
00000000000000000000000000000000000000000000000000000000000000000000000707070707000007070000000000000000000000000000000000000000000000000000000000000000000000000000000000000000000000000000000000000000000000000000000000000000000000000000000000000000000000
310
00000000000000000000000000000000000000000000000000000000000000000000000000000000000000000000000000000000000000000000000000000000000000000000000000000000000000000000000000000007070707070000000707000000000000000000000000000000000000000000000000000000000000
310
00000000000000000000000000000000000000000000000000000000000000000000000000000000000000000000000000000000000000000000000000000000000000000000000000000000000000000000000000000000000000000000000000000000000000000000000000000000000000000000000000000000000000
310
00000000000000000000000707070707070000000007070000000000000000000000000000000000000000000000000000000000000000000000000000000000000000000000000000000000000000000000000000000000000000000000000000000000000000000000000000000000000000000000000000000000000000
310
00000000000000000000000000000000000000000000000000000000000000000000000000000000000000000000000000000000000000000000000000000000070707070000000000000707000000000000000000000000000000000000000000000000000000000000000000000000000000000000000000000000000000
310
00000000000000000000000000000000000000000000000000000000000000000000000000000000000000000000000000000000000000000000000000000000000000000000000000000000000000000000000000000000000000000000000000000000000000000000000000000000000000000707000700000000000000
310
07070000000000000000000000000000000000000000000000000000000000000000000000000000000000000000000000000000000000000000000000000000000000000000000000000000000000000000000000000000000000000000000000000000000000000000000000000000000000000000000000000000000000
310
00000000000000000000000000000000000000000000000000000000000000000000000000000000000007070700000000000000000707000000000000000000000000000000000000000000000000000000000000000000000000000000000000000000000000000000000000000000000000000000000000000000000000
310
00000000000000000000000000000000000000000000000000000000000000000000000000000000000000000000000000000000000000000000000000000000000000000000000000000000000000000000000000000000000000000000000707000000000000000000070700000000000000000000000000000000000000
310
00000000000000000000000000000000000000000000000000000000000000000000000000000000000000000000000000000000000000000000000000000000000000000000000000000000000000000000000000000000000000000000000000000000000000000000000000000000000000000000000000000000000000
310
00000000000000000000000000000000000000000000000000000000000000000707000000000000000000000000000000000000000000000000000000000000000000000000000000000000000000000000000000000000000000000000000000000000000000000000000000000000000000000000000000000000000000
310
00000000000000000000000000000000000000000000000000000000000000000000000000000000000000000000000000000000000000000000000000000000000000000000000000000000000000000000000000070000000000000000000000000000000000000000000000000000000000000000000000000000000000
310
00000000000000000000000000000000000000000000000000000000000000000000000000000000000000000000000000000000000000000000000000000000000000000000000000000000000000000000000000000000000000000000000000000000000000000000000000000000000000000000000000000000000000
310
00000000000000000000000707070700000000000000000000000000000000000000000000000000000000000000000000000000000000000000000000000000000000000000000000000000000000000000000000000000000000000000000000000000000000000000000000000000000000000000000000000000000000
310
00000000000000000000000000000000000000000000000000000000000000000000000000000000000000000000000000000000000000000000000000000000070000070000000000000000000000000000000000000000000000000000000000000000000000000000000000000000000000000000000000000000000000
310
00000000000000000000000000000000000000000000000000000000000000000000000000000000000000000000000000000000000000000000000000000000000000000000000000000000000000000000000000000000000000000000000000000000000000000000000000000000000000000007000007000000000000
310
00000000000000000000000000000000000000000000000000000000000000000000000000000000000000000000000000000000000000000000000000000000000000000000000000000000000000000000000000000000000000000000000000000000000000000000000000000000000000000000000000000000000000
310
00000000000000000000000000000000000000000000000000000000000000000000000000000000000000070707070000000000000000000000000000000000000000000000000000000000000000000000000000000000000000000000000000000000000000000000000000000000000000000000000000000000000000
310
00000000000000000000000000000000000000000000000000000000000000000000000000000000000000000000000000000000000000000000000000000000000000000000000000000000000000000000000000000000000000000000000007070000000000000000000000000000000000000000000000000000000000
310
00000000000000000000000000000000000000000000000000000000000000000000000000000000000000000000000000000000000000000000000000000000000000000000000000000000000000000000000000000000000000000000000000000000000000000000000000000000000000000000000000000000000000
310
000000000000000000000000000000000000000000000000000000000000000000000000000000000000000000000000000000000000000000000000000000000000000000000000000000000000000000000000000000000000000000000000000000000000000000000000
  0
ENDSEC
  0
EOF
