  0
SECTION
  2
HEADER
  9
$ACADVER
  1
AC1015
  9
$ACADMAINTVER
 70
     6
  9
$DWGCODEPAGE
  3
ANSI_1252
  9
$INSBASE
 10
0.0
 20
0.0
 30
0.0
  9
$EXTMIN
 10
0.0
 20
-0.1305
 30
0.0
  9
$EXTMAX
 10
480.0
 20
1253.1305
 30
0.0
  9
$LIMMIN
 10
0.0
 20
0.0
  9
$LIMMAX
 10
12.0
 20
9.0
  9
$ORTHOMODE
 70
     0
  9
$REGENMODE
 70
     1
  9
$FILLMODE
 70
     1
  9
$QTEXTMODE
 70
     0
  9
$MIRRTEXT
 70
     1
  9
$LTSCALE
 40
1.0
  9
$ATTMODE
 70
     1
  9
$TEXTSIZE
 40
0.2
  9
$TRACEWID
 40
0.05
  9
$TEXTSTYLE
  7
Standard
  9
$CLAYER
  8
0
  9
$CELTYPE
  6
ByBlock
  9
$CECOLOR
 62
   256
  9
$CELTSCALE
 40
1.0
  9
$DISPSILH
 70
     0
  9
$DIMSCALE
 40
1.0
  9
$DIMASZ
 40
0.18
  9
$DIMEXO
 40
0.0625
  9
$DIMDLI
 40
0.38
  9
$DIMRND
 40
0.0
  9
$DIMDLE
 40
0.0
  9
$DIMEXE
 40
0.18
  9
$DIMTP
 40
0.0
  9
$DIMTM
 40
0.0
  9
$DIMTXT
 40
0.18
  9
$DIMCEN
 40
0.09
  9
$DIMTSZ
 40
0.0
  9
$DIMTOL
 70
     0
  9
$DIMLIM
 70
     0
  9
$DIMTIH
 70
     1
  9
$DIMTOH
 70
     1
  9
$DIMSE1
 70
     0
  9
$DIMSE2
 70
     0
  9
$DIMTAD
 70
     0
  9
$DIMZIN
 70
     0
  9
$DIMBLK
  1

  9
$DIMASO
 70
     1
  9
$DIMSHO
 70
     1
  9
$DIMPOST
  1

  9
$DIMAPOST
  1

  9
$DIMALT
 70
     0
  9
$DIMALTD
 70
     2
  9
$DIMALTF
 40
25.4
  9
$DIMLFAC
 40
1.0
  9
$DIMTOFL
 70
     0
  9
$DIMTVP
 40
0.0
  9
$DIMTIX
 70
     0
  9
$DIMSOXD
 70
     0
  9
$DIMSAH
 70
     0
  9
$DIMBLK1
  1

  9
$DIMBLK2
  1

  9
$DIMSTYLE
  2
Standard
  9
$DIMCLRD
 70
     0
  9
$DIMCLRE
 70
     0
  9
$DIMCLRT
 70
     0
  9
$DIMTFAC
 40
1.0
  9
$DIMGAP
 40
0.09
  9
$DIMJUST
 70
     0
  9
$DIMSD1
 70
     0
  9
$DIMSD2
 70
     0
  9
$DIMTOLJ
 70
     1
  9
$DIMTZIN
 70
     0
  9
$DIMALTZ
 70
     0
  9
$DIMALTTZ
 70
     0
  9
$DIMUPT
 70
     0
  9
$DIMDEC
 70
     4
  9
$DIMTDEC
 70
     4
  9
$DIMALTU
 70
     2
  9
$DIMALTTD
 70
     2
  9
$DIMTXSTY
  7
Standard
  9
$DIMAUNIT
 70
     0
  9
$DIMADEC
 70
     0
  9
$DIMALTRND
 40
0.0
  9
$DIMAZIN
 70
     0
  9
$DIMDSEP
 70
    46
  9
$DIMATFIT
 70
     3
  9
$DIMFRAC
 70
     0
  9
$DIMLDRBLK
  1

  9
$DIMLUNIT
 70
     2
  9
$DIMLWD
 70
    -2
  9
$DIMLWE
 70
    -2
  9
$DIMTMOVE
 70
     2
  9
$LUNITS
 70
     2
  9
$LUPREC
 70
     4
  9
$SKETCHINC
 40
0.1
  9
$FILLETRAD
 40
0.5
  9
$AUNITS
 70
     0
  9
$AUPREC
 70
     0
  9
$MENU
  1
.
  9
$ELEVATION
 40
0.0
  9
$PELEVATION
 40
0.0
  9
$THICKNESS
 40
0.0
  9
$LIMCHECK
 70
     0
  9
$CHAMFERA
 40
0.5
  9
$CHAMFERB
 40
0.5
  9
$CHAMFERC
 40
1.0
  9
$CHAMFERD
 40
0.0
  9
$SKPOLY
 70
     0
  9
$TDCREATE
 40
2455825.013008171
  9
$TDUCREATE
 40
2455824.929674838
  9
$TDUPDATE
 40
2455825.014036458
  9
$TDUUPDATE
 40
2455824.930703125
  9
$TDINDWG
 40
0.0010246875
  9
$TDUSRTIMER
 40
0.0010246875
  9
$USRTIMER
 70
     1
  9
$ANGBASE
 50
0.0
  9
$ANGDIR
 70
     0
  9
$PDMODE
 70
     0
  9
$PDSIZE
 40
0.0
  9
$PLINEWID
 40
0.0
  9
$SPLFRAME
 70
     0
  9
$SPLINETYPE
 70
     6
  9
$SPLINESEGS
 70
     8
  9
$HANDSEED
  5
4971
  9
$SURFTAB1
 70
     6
  9
$SURFTAB2
 70
     6
  9
$SURFTYPE
 70
     6
  9
$SURFU
 70
     6
  9
$SURFV
 70
     6
  9
$UCSBASE
  2

  9
$UCSNAME
  2

  9
$UCSORG
 10
0.0
 20
0.0
 30
0.0
  9
$UCSXDIR
 10
1.0
 20
0.0
 30
0.0
  9
$UCSYDIR
 10
0.0
 20
1.0
 30
0.0
  9
$UCSORTHOREF
  2

  9
$UCSORTHOVIEW
 70
     0
  9
$UCSORGTOP
 10
0.0
 20
0.0
 30
0.0
  9
$UCSORGBOTTOM
 10
0.0
 20
0.0
 30
0.0
  9
$UCSORGLEFT
 10
0.0
 20
0.0
 30
0.0
  9
$UCSORGRIGHT
 10
0.0
 20
0.0
 30
0.0
  9
$UCSORGFRONT
 10
0.0
 20
0.0
 30
0.0
  9
$UCSORGBACK
 10
0.0
 20
0.0
 30
0.0
  9
$PUCSBASE
  2

  9
$PUCSNAME
  2

  9
$PUCSORG
 10
0.0
 20
0.0
 30
0.0
  9
$PUCSXDIR
 10
1.0
 20
0.0
 30
0.0
  9
$PUCSYDIR
 10
0.0
 20
1.0
 30
0.0
  9
$PUCSORTHOREF
  2

  9
$PUCSORTHOVIEW
 70
     0
  9
$PUCSORGTOP
 10
0.0
 20
0.0
 30
0.0
  9
$PUCSORGBOTTOM
 10
0.0
 20
0.0
 30
0.0
  9
$PUCSORGLEFT
 10
0.0
 20
0.0
 30
0.0
  9
$PUCSORGRIGHT
 10
0.0
 20
0.0
 30
0.0
  9
$PUCSORGFRONT
 10
0.0
 20
0.0
 30
0.0
  9
$PUCSORGBACK
 10
0.0
 20
0.0
 30
0.0
  9
$USERI1
 70
     0
  9
$USERI2
 70
     0
  9
$USERI3
 70
     0
  9
$USERI4
 70
     0
  9
$USERI5
 70
     0
  9
$USERR1
 40
0.0
  9
$USERR2
 40
0.0
  9
$USERR3
 40
0.0
  9
$USERR4
 40
0.0
  9
$USERR5
 40
0.0
  9
$WORLDVIEW
 70
     1
  9
$SHADEDGE
 70
     3
  9
$SHADEDIF
 70
    70
  9
$TILEMODE
 70
     1
  9
$MAXACTVP
 70
    64
  9
$PINSBASE
 10
0.0
 20
0.0
 30
0.0
  9
$PLIMCHECK
 70
     0
  9
$PEXTMIN
 10
1.000000000000E+20
 20
1.000000000000E+20
 30
1.000000000000E+20
  9
$PEXTMAX
 10
-1.000000000000E+20
 20
-1.000000000000E+20
 30
-1.000000000000E+20
  9
$PLIMMIN
 10
0.0
 20
0.0
  9
$PLIMMAX
 10
12.0
 20
9.0
  9
$UNITMODE
 70
     0
  9
$VISRETAIN
 70
     1
  9
$PLINEGEN
 70
     0
  9
$PSLTSCALE
 70
     1
  9
$TREEDEPTH
 70
  3020
  9
$CMLSTYLE
  2
Standard
  9
$CMLJUST
 70
     0
  9
$CMLSCALE
 40
1.0
  9
$PROXYGRAPHICS
 70
     1
  9
$MEASUREMENT
 70
     0
  9
$CELWEIGHT
370
    -1
  9
$ENDCAPS
280
     0
  9
$JOINSTYLE
280
     0
  9
$LWDISPLAY
290
     0
  9
$INSUNITS
 70
     0
  9
$HYPERLINKBASE
  1

  9
$STYLESHEET
  1

  9
$XEDIT
290
     1
  9
$CEPSNTYPE
380
     0
  9
$PSTYLEMODE
290
     1
  9
$FINGERPRINTGUID
  2
{8516B1E7-15ED-417A-85CB-1D8454E8B151}
  9
$VERSIONGUID
  2
{FAEB1C32-E019-11D5-929B-00C0DF256EC4}
  9
$EXTNAMES
290
     1
  9
$PSVPSCALE
 40
0.0
  9
$OLESTARTUP
290
     0
  0
ENDSEC
  0
SECTION
  2
CLASSES
  0
CLASS
  1
ACDBDICTIONARYWDFLT
  2
AcDbDictionaryWithDefault
  3
ObjectDBX Classes
 90
        0
280
     0
281
     0
  0
CLASS
  1
SCALE
  2
AcDbScale
  3
ObjectDBX Classes
 90
     1153
280
     0
281
     0
  0
CLASS
  1
DICTIONARYVAR
  2
AcDbDictionaryVar
  3
ObjectDBX Classes
 90
        0
280
     0
281
     0
  0
CLASS
  1
ACDBPLACEHOLDER
  2
AcDbPlaceHolder
  3
ObjectDBX Classes
 90
        0
280
     0
281
     0
  0
CLASS
  1
LAYOUT
  2
AcDbLayout
  3
ObjectDBX Classes
 90
        0
280
     0
281
     0
  0
ENDSEC
  0
SECTION
  2
TABLES
  0
TABLE
  2
VPORT
  5
8
330
0
100
AcDbSymbolTable
 70
     1
  0
VPORT
  5
38EA
330
8
100
AcDbSymbolTableRecord
100
AcDbViewportTableRecord
  2
*Active
 70
     0
 10
0.0
 20
0.0
 11
1.0
 21
1.0
 12
240.0
 22
626.5
 13
0.0
 23
0.0
 14
0.5
 24
0.5
 15
0.5
 25
0.5
 16
0.0
 26
0.0
 36
1.0
 17
0.0
 27
0.0
 37
0.0
 40
1278.32622
 41
1.790857142857
 42
50.0
 43
0.0
 44
0.0
 50
0.0
 51
0.0
 71
    16
 72
   100
 73
     1
 74
     3
 75
     0
 76
     0
 77
     0
 78
     0
281
     0
 65
     1
110
0.0
120
0.0
130
0.0
111
1.0
121
0.0
131
0.0
112
0.0
122
1.0
132
0.0
 79
     0
146
0.0
  0
ENDTAB
  0
TABLE
  2
LTYPE
  5
5
330
0
100
AcDbSymbolTable
 70
     1
  0
LTYPE
  5
14
330
5
100
AcDbSymbolTableRecord
100
AcDbLinetypeTableRecord
  2
ByBlock
 70
     0
  3

 72
    65
 73
     0
 40
0.0
  0
LTYPE
  5
15
330
5
100
AcDbSymbolTableRecord
100
AcDbLinetypeTableRecord
  2
ByLayer
 70
     0
  3

 72
    65
 73
     0
 40
0.0
  0
LTYPE
  5
16
330
5
100
AcDbSymbolTableRecord
100
AcDbLinetypeTableRecord
  2
Continuous
 70
     0
  3
Solid line
 72
    65
 73
     0
 40
0.0
  0
ENDTAB
  0
TABLE
  2
LAYER
  5
2
330
0
100
AcDbSymbolTable
 70
     1
  0
LAYER
  5
10
330
2
100
AcDbSymbolTableRecord
100
AcDbLayerTableRecord
  2
0
 70
     0
 62
     7
  6
Continuous
370
    -3
390
F
  0
ENDTAB
  0
TABLE
  2
STYLE
  5
3
330
0
100
AcDbSymbolTable
 70
     1
  0
STYLE
  5
11
330
3
100
AcDbSymbolTableRecord
100
AcDbTextStyleTableRecord
  2
Standard
 70
     0
 40
0.0
 41
1.0
 50
0.0
 71
     0
 42
0.2
  3
txt
  4

  0
ENDTAB
  0
TABLE
  2
VIEW
  5
6
330
0
100
AcDbSymbolTable
 70
     0
  0
ENDTAB
  0
TABLE
  2
UCS
  5
7
330
0
100
AcDbSymbolTable
 70
     0
  0
ENDTAB
  0
TABLE
  2
APPID
  5
9
330
0
100
AcDbSymbolTable
 70
     1
  0
APPID
  5
12
330
9
100
AcDbSymbolTableRecord
100
AcDbRegAppTableRecord
  2
ACAD
 70
     0
  0
ENDTAB
  0
TABLE
  2
DIMSTYLE
  5
A
330
0
100
AcDbSymbolTable
 70
     1
100
AcDbDimStyleTable
  0
DIMSTYLE
105
20
330
A
100
AcDbSymbolTableRecord
100
AcDbDimStyleTableRecord
  2
Standard
 70
     0
340
11
  0
ENDTAB
  0
TABLE
  2
BLOCK_RECORD
  5
1
330
0
100
AcDbSymbolTable
 70
     2
  0
BLOCK_RECORD
  5
1D
330
1
100
AcDbSymbolTableRecord
100
AcDbBlockTableRecord
  2
*Model_Space
340
1E
  0
BLOCK_RECORD
  5
1B
330
1
100
AcDbSymbolTableRecord
100
AcDbBlockTableRecord
  2
*Paper_Space
340
1C
  0
ENDTAB
  0
ENDSEC
  0
SECTION
  2
BLOCKS
  0
BLOCK
  5
38ED
330
1D
100
AcDbEntity
  8
0
100
AcDbBlockBegin
  2
*Model_Space
 70
     0
 10
0.0
 20
0.0
 30
0.0
  3
*Model_Space
  1
*Model_Space
  0
ENDBLK
  5
38EE
330
1D
100
AcDbEntity
  8
0
100
AcDbBlockEnd
  0
BLOCK
  5
38EB
330
1B
100
AcDbEntity
 67
     1
  8
0
100
AcDbBlockBegin
  2
*Paper_Space
 70
     0
 10
0.0
 20
0.0
 30
0.0
  3
*Paper_Space
  1
*Paper_Space
  0
ENDBLK
  5
38EC
330
1B
100
AcDbEntity
 67
     1
  8
0
100
AcDbBlockEnd
  0
ENDSEC
  0
SECTION
  2
ENTITIES
  0
LINE
  5
95B
330
1D
100
AcDbEntity
  8
0
100
AcDbLine
 10
62.184
 20
1252.7455
 30
0.0
 11
65.0
 21
1252.7455
 31
0.0
  0
LINE
  5
95C
330
1D
100
AcDbEntity
  8
0
100
AcDbLine
 10
59.544
 20
1252.7455
 30
0.0
 11
62.184
 21
1252.7455
 31
0.0
  0
LINE
  5
95D
330
1D
100
AcDbEntity
  8
0
100
AcDbLine
 10
57.212
 20
1252.7455
 30
0.0
 11
59.544
 21
1252.7455
 31
0.0
  0
LINE
  5
95E
330
1D
100
AcDbEntity
  8
0
100
AcDbLine
 10
55.452
 20
1252.7455
 30
0.0
 11
57.212
 21
1252.7455
 31
0.0
  0
LINE
  5
95F
330
1D
100
AcDbEntity
  8
0
100
AcDbLine
 10
54.396
 20
1252.7455
 30
0.0
 11
55.452
 21
1252.7455
 31
0.0
  0
LINE
  5
961
330
1D
100
AcDbEntity
  8
0
100
AcDbLine
 10
54.0
 20
1252.7455
 30
0.0
 11
54.396
 21
1252.7455
 31
0.0
  0
LINE
  5
962
330
1D
100
AcDbEntity
  8
0
100
AcDbLine
 10
54.0
 20
1252.7455
 30
0.0
 11
54.264
 21
1253.1305
 31
0.0
  0
LINE
  5
B23
330
1D
100
AcDbEntity
  8
0
100
AcDbLine
 10
65.0
 20
1252.7455
 30
0.0
 11
67.816
 21
1252.7455
 31
0.0
  0
LINE
  5
B24
330
1D
100
AcDbEntity
  8
0
100
AcDbLine
 10
67.816
 20
1252.7455
 30
0.0
 11
70.456
 21
1252.7455
 31
0.0
  0
LINE
  5
DB6
330
1D
100
AcDbEntity
  8
0
100
AcDbLine
 10
70.456
 20
1252.7455
 30
0.0
 11
72.788
 21
1252.7455
 31
0.0
  0
LINE
  5
DB7
330
1D
100
AcDbEntity
  8
0
100
AcDbLine
 10
72.788
 20
1252.7455
 30
0.0
 11
74.548
 21
1252.7455
 31
0.0
  0
LINE
  5
EF4
330
1D
100
AcDbEntity
  8
0
100
AcDbLine
 10
74.548
 20
1252.7455
 30
0.0
 11
75.604
 21
1252.7455
 31
0.0
  0
LINE
  5
EF5
330
1D
100
AcDbEntity
  8
0
100
AcDbLine
 10
62.228
 20
1253.1305
 30
0.0
 11
65.0
 21
1253.1305
 31
0.0
  0
LINE
  5
EF6
330
1D
100
AcDbEntity
  8
0
100
AcDbLine
 10
59.676
 20
1253.1305
 30
0.0
 11
62.228
 21
1253.1305
 31
0.0
  0
LINE
  5
EF7
330
1D
100
AcDbEntity
  8
0
100
AcDbLine
 10
57.432
 20
1253.1305
 30
0.0
 11
59.676
 21
1253.1305
 31
0.0
  0
LINE
  5
EF8
330
1D
100
AcDbEntity
  8
0
100
AcDbLine
 10
55.716
 20
1253.1305
 30
0.0
 11
57.432
 21
1253.1305
 31
0.0
  0
LINE
  5
EF9
330
1D
100
AcDbEntity
  8
0
100
AcDbLine
 10
54.66
 20
1253.1305
 30
0.0
 11
55.716
 21
1253.1305
 31
0.0
  0
LINE
  5
EFA
330
1D
100
AcDbEntity
  8
0
100
AcDbLine
 10
54.264
 20
1253.1305
 30
0.0
 11
54.66
 21
1253.1305
 31
0.0
  0
LINE
  5
EFB
330
1D
100
AcDbEntity
  8
0
100
AcDbLine
 10
65.0
 20
1253.1305
 30
0.0
 11
67.772
 21
1253.1305
 31
0.0
  0
LINE
  5
EFC
330
1D
100
AcDbEntity
  8
0
100
AcDbLine
 10
67.772
 20
1253.1305
 30
0.0
 11
70.324
 21
1253.1305
 31
0.0
  0
LINE
  5
EFD
330
1D
100
AcDbEntity
  8
0
100
AcDbLine
 10
70.324
 20
1253.1305
 30
0.0
 11
72.568
 21
1253.1305
 31
0.0
  0
LINE
  5
EFE
330
1D
100
AcDbEntity
  8
0
100
AcDbLine
 10
72.568
 20
1253.1305
 30
0.0
 11
74.284
 21
1253.1305
 31
0.0
  0
LINE
  5
EFF
330
1D
100
AcDbEntity
  8
0
100
AcDbLine
 10
74.284
 20
1253.1305
 30
0.0
 11
75.34
 21
1253.1305
 31
0.0
  0
LINE
  5
F00
330
1D
100
AcDbEntity
  8
0
100
AcDbLine
 10
75.736
 20
1253.1305
 30
0.0
 11
76.0
 21
1252.7455
 31
0.0
  0
LINE
  5
F01
330
1D
100
AcDbEntity
  8
0
100
AcDbLine
 10
75.34
 20
1253.1305
 30
0.0
 11
75.736
 21
1253.1305
 31
0.0
  0
LINE
  5
F02
330
1D
100
AcDbEntity
  8
0
100
AcDbLine
 10
75.604
 20
1252.7455
 30
0.0
 11
76.0
 21
1252.7455
 31
0.0
  0
LINE
  5
1948
330
1D
100
AcDbEntity
  8
0
100
AcDbLine
 10
155.0
 20
151.1305
 30
0.0
 11
155.35259
 21
152.8275
 31
0.0
  0
LINE
  5
1BCF
330
1D
100
AcDbEntity
  8
0
100
AcDbLine
 10
155.35259
 20
152.8275
 30
0.0
 11
155.498008
 21
153.1305
 31
0.0
  0
LINE
  5
3EE0
330
1D
100
AcDbEntity
  8
0
100
AcDbLine
 10
94.1898
 20
295.3445
 30
0.0
 11
94.4529
 21
295.4735
 31
0.0
  0
LINE
  5
3EE1
330
1D
100
AcDbEntity
  8
0
100
AcDbLine
 10
94.1898
 20
295.3445
 30
0.0
 11
94.715511749041
 21
607.1305
 31
0.0
  0
LINE
  5
3EE2
330
1D
100
AcDbEntity
  8
0
100
AcDbLine
 10
54.264
 20
495.1305
 30
0.0
 11
54.66
 21
495.1305
 31
0.0
  0
LINE
  5
3EE3
330
1D
100
AcDbEntity
  8
0
100
AcDbLine
 10
55.716
 20
495.1305
 30
0.0
 11
57.432
 21
495.1305
 31
0.0
  0
LINE
  5
3EE4
330
1D
100
AcDbEntity
  8
0
100
AcDbLine
 10
54.66
 20
495.1305
 30
0.0
 11
55.716
 21
495.1305
 31
0.0
  0
LINE
  5
3EE5
330
1D
100
AcDbEntity
  8
0
100
AcDbLine
 10
59.676
 20
495.1305
 30
0.0
 11
62.228
 21
495.1305
 31
0.0
  0
LINE
  5
3EE6
330
1D
100
AcDbEntity
  8
0
100
AcDbLine
 10
57.432
 20
495.1305
 30
0.0
 11
59.676
 21
495.1305
 31
0.0
  0
LINE
  5
3EE7
330
1D
100
AcDbEntity
  8
0
100
AcDbLine
 10
62.228
 20
495.1305
 30
0.0
 11
65.0
 21
495.1305
 31
0.0
  0
LINE
  5
3EE8
330
1D
100
AcDbEntity
  8
0
100
AcDbLine
 10
62.184
 20
495.515115
 30
0.0
 11
65.0
 21
495.515115
 31
0.0
  0
LINE
  5
3EE9
330
1D
100
AcDbEntity
  8
0
100
AcDbLine
 10
59.544
 20
495.515115
 30
0.0
 11
62.184
 21
495.515115
 31
0.0
  0
LINE
  5
3EEA
330
1D
100
AcDbEntity
  8
0
100
AcDbLine
 10
57.212
 20
495.515115
 30
0.0
 11
59.544
 21
495.515115
 31
0.0
  0
LINE
  5
3EEB
330
1D
100
AcDbEntity
  8
0
100
AcDbLine
 10
55.452
 20
495.515115
 30
0.0
 11
57.212
 21
495.515115
 31
0.0
  0
LINE
  5
3EEC
330
1D
100
AcDbEntity
  8
0
100
AcDbLine
 10
54.396
 20
495.515115
 30
0.0
 11
55.452
 21
495.515115
 31
0.0
  0
LINE
  5
3EED
330
1D
100
AcDbEntity
  8
0
100
AcDbLine
 10
54.0
 20
495.515115
 30
0.0
 11
54.396
 21
495.515115
 31
0.0
  0
LINE
  5
3EEE
330
1D
100
AcDbEntity
  8
0
100
AcDbLine
 10
54.0
 20
495.515115
 30
0.0
 11
54.264
 21
495.1305
 31
0.0
  0
LINE
  5
3EEF
330
1D
100
AcDbEntity
  8
0
100
AcDbLine
 10
54.0
 20
495.515115
 30
0.0
 11
54.0
 21
564.7459
 31
0.0
  0
LINE
  5
3EF0
330
1D
100
AcDbEntity
  8
0
100
AcDbLine
 10
65.0
 20
495.1305
 30
0.0
 11
67.772
 21
495.1305
 31
0.0
  0
LINE
  5
3EF1
330
1D
100
AcDbEntity
  8
0
100
AcDbLine
 10
62.184
 20
564.7459
 30
0.0
 11
65.0
 21
564.7459
 31
0.0
  0
LINE
  5
3EF2
330
1D
100
AcDbEntity
  8
0
100
AcDbLine
 10
59.544
 20
564.7459
 30
0.0
 11
62.184
 21
564.7459
 31
0.0
  0
LINE
  5
3EF3
330
1D
100
AcDbEntity
  8
0
100
AcDbLine
 10
57.212
 20
564.7459
 30
0.0
 11
59.544
 21
564.7459
 31
0.0
  0
LINE
  5
3EF4
330
1D
100
AcDbEntity
  8
0
100
AcDbLine
 10
55.452
 20
564.7459
 30
0.0
 11
57.212
 21
564.7459
 31
0.0
  0
LINE
  5
3EF5
330
1D
100
AcDbEntity
  8
0
100
AcDbLine
 10
54.396
 20
564.7459
 30
0.0
 11
55.452
 21
564.7459
 31
0.0
  0
LINE
  5
3EF6
330
1D
100
AcDbEntity
  8
0
100
AcDbLine
 10
54.0
 20
564.7459
 30
0.0
 11
54.0
 21
495.515115
 31
0.0
  0
LINE
  5
3EF7
330
1D
100
AcDbEntity
  8
0
100
AcDbLine
 10
54.0
 20
564.7459
 30
0.0
 11
54.396
 21
564.7459
 31
0.0
  0
LINE
  5
3EF8
330
1D
100
AcDbEntity
  8
0
100
AcDbLine
 10
54.0
 20
564.7459
 30
0.0
 11
54.264
 21
565.1305
 31
0.0
  0
LINE
  5
3EF9
330
1D
100
AcDbEntity
  8
0
100
AcDbLine
 10
65.0
 20
495.515115
 30
0.0
 11
67.816
 21
495.515115
 31
0.0
  0
LINE
  5
3EFA
330
1D
100
AcDbEntity
  8
0
100
AcDbLine
 10
67.772
 20
495.1305
 30
0.0
 11
70.324
 21
495.1305
 31
0.0
  0
LINE
  5
3EFB
330
1D
100
AcDbEntity
  8
0
100
AcDbLine
 10
70.324
 20
495.1305
 30
0.0
 11
72.568
 21
495.1305
 31
0.0
  0
LINE
  5
3EFC
330
1D
100
AcDbEntity
  8
0
100
AcDbLine
 10
67.816
 20
495.515115
 30
0.0
 11
70.456
 21
495.515115
 31
0.0
  0
LINE
  5
3EFD
330
1D
100
AcDbEntity
  8
0
100
AcDbLine
 10
70.456
 20
495.515115
 30
0.0
 11
72.788
 21
495.515115
 31
0.0
  0
LINE
  5
3EFE
330
1D
100
AcDbEntity
  8
0
100
AcDbLine
 10
65.0
 20
564.7459
 30
0.0
 11
67.816
 21
564.7459
 31
0.0
  0
LINE
  5
3EFF
330
1D
100
AcDbEntity
  8
0
100
AcDbLine
 10
67.816
 20
564.7459
 30
0.0
 11
70.456
 21
564.7459
 31
0.0
  0
LINE
  5
3F00
330
1D
100
AcDbEntity
  8
0
100
AcDbLine
 10
72.568
 20
495.1305
 30
0.0
 11
74.284
 21
495.1305
 31
0.0
  0
LINE
  5
3F01
330
1D
100
AcDbEntity
  8
0
100
AcDbLine
 10
74.284
 20
495.1305
 30
0.0
 11
75.34
 21
495.1305
 31
0.0
  0
LINE
  5
3F02
330
1D
100
AcDbEntity
  8
0
100
AcDbLine
 10
72.788
 20
495.515115
 30
0.0
 11
74.548
 21
495.515115
 31
0.0
  0
LINE
  5
3F03
330
1D
100
AcDbEntity
  8
0
100
AcDbLine
 10
74.548
 20
495.515115
 30
0.0
 11
75.604
 21
495.515115
 31
0.0
  0
LINE
  5
3F04
330
1D
100
AcDbEntity
  8
0
100
AcDbLine
 10
70.456
 20
564.7459
 30
0.0
 11
72.788
 21
564.7459
 31
0.0
  0
LINE
  5
3F05
330
1D
100
AcDbEntity
  8
0
100
AcDbLine
 10
72.788
 20
564.7459
 30
0.0
 11
74.548
 21
564.7459
 31
0.0
  0
LINE
  5
3F06
330
1D
100
AcDbEntity
  8
0
100
AcDbLine
 10
75.34
 20
495.1305
 30
0.0
 11
75.736
 21
495.1305
 31
0.0
  0
LINE
  5
3F07
330
1D
100
AcDbEntity
  8
0
100
AcDbLine
 10
75.736
 20
495.1305
 30
0.0
 11
76.0
 21
495.515115
 31
0.0
  0
LINE
  5
3F08
330
1D
100
AcDbEntity
  8
0
100
AcDbLine
 10
75.604
 20
495.515115
 30
0.0
 11
76.0
 21
495.515115
 31
0.0
  0
LINE
  5
3F09
330
1D
100
AcDbEntity
  8
0
100
AcDbLine
 10
76.0
 20
564.7459
 30
0.0
 11
76.0
 21
495.515115
 31
0.0
  0
LINE
  5
3F0A
330
1D
100
AcDbEntity
  8
0
100
AcDbLine
 10
76.0
 20
495.515115
 30
0.0
 11
76.0
 21
564.7459
 31
0.0
  0
LINE
  5
3F0B
330
1D
100
AcDbEntity
  8
0
100
AcDbLine
 10
74.548
 20
564.7459
 30
0.0
 11
75.604
 21
564.7459
 31
0.0
  0
LINE
  5
3F0C
330
1D
100
AcDbEntity
  8
0
100
AcDbLine
 10
62.228
 20
565.1305
 30
0.0
 11
65.0
 21
565.1305
 31
0.0
  0
LINE
  5
3F0D
330
1D
100
AcDbEntity
  8
0
100
AcDbLine
 10
59.676
 20
565.1305
 30
0.0
 11
62.228
 21
565.1305
 31
0.0
  0
LINE
  5
3F0E
330
1D
100
AcDbEntity
  8
0
100
AcDbLine
 10
57.432
 20
565.1305
 30
0.0
 11
59.676
 21
565.1305
 31
0.0
  0
LINE
  5
3F0F
330
1D
100
AcDbEntity
  8
0
100
AcDbLine
 10
55.716
 20
565.1305
 30
0.0
 11
57.432
 21
565.1305
 31
0.0
  0
LINE
  5
3F10
330
1D
100
AcDbEntity
  8
0
100
AcDbLine
 10
54.66
 20
565.1305
 30
0.0
 11
55.716
 21
565.1305
 31
0.0
  0
LINE
  5
3F11
330
1D
100
AcDbEntity
  8
0
100
AcDbLine
 10
54.264
 20
565.1305
 30
0.0
 11
54.66
 21
565.1305
 31
0.0
  0
LINE
  5
3F12
330
1D
100
AcDbEntity
  8
0
100
AcDbLine
 10
65.0
 20
565.1305
 30
0.0
 11
67.772
 21
565.1305
 31
0.0
  0
LINE
  5
3F13
330
1D
100
AcDbEntity
  8
0
100
AcDbLine
 10
67.772
 20
565.1305
 30
0.0
 11
70.324
 21
565.1305
 31
0.0
  0
LINE
  5
3F14
330
1D
100
AcDbEntity
  8
0
100
AcDbLine
 10
70.324
 20
565.1305
 30
0.0
 11
72.568
 21
565.1305
 31
0.0
  0
LINE
  5
3F15
330
1D
100
AcDbEntity
  8
0
100
AcDbLine
 10
72.568
 20
565.1305
 30
0.0
 11
74.284
 21
565.1305
 31
0.0
  0
LINE
  5
3F16
330
1D
100
AcDbEntity
  8
0
100
AcDbLine
 10
15.9
 20
607.1305
 30
0.0
 11
21.2
 21
607.1305
 31
0.0
  0
LINE
  5
3F17
330
1D
100
AcDbEntity
  8
0
100
AcDbLine
 10
11.3
 20
607.1305
 30
0.0
 11
15.9
 21
607.1305
 31
0.0
  0
LINE
  5
3F18
330
1D
100
AcDbEntity
  8
0
100
AcDbLine
 10
7.8
 20
607.1305
 30
0.0
 11
11.3
 21
607.1305
 31
0.0
  0
LINE
  5
3F19
330
1D
100
AcDbEntity
  8
0
100
AcDbLine
 10
3.6
 20
607.1305
 30
0.0
 11
5.2
 21
607.1305
 31
0.0
  0
LINE
  5
3F1A
330
1D
100
AcDbEntity
  8
0
100
AcDbLine
 10
3.0
 20
607.1305
 30
0.0
 11
3.6
 21
607.1305
 31
0.0
  0
LINE
  5
3F1B
330
1D
100
AcDbEntity
  8
0
100
AcDbLine
 10
51.0
 20
595.1305
 30
0.0
 11
51.504
 21
595.1305
 31
0.0
  0
LINE
  5
3F1C
330
1D
100
AcDbEntity
  8
0
100
AcDbLine
 10
49.0
 20
595.1305
 30
0.0
 11
49.576
 21
595.1305
 31
0.0
  0
LINE
  5
3F1D
330
1D
100
AcDbEntity
  8
0
100
AcDbLine
 10
49.0
 20
595.1305
 30
0.0
 11
49.0
 21
607.1305
 31
0.0
  0
LINE
  5
3F1E
330
1D
100
AcDbEntity
  8
0
100
AcDbLine
 10
49.576
 20
595.1305
 30
0.0
 11
51.112
 21
595.1305
 31
0.0
  0
LINE
  5
3F1F
330
1D
100
AcDbEntity
  8
0
100
AcDbLine
 10
53.0
 20
595.1305
 30
0.0
 11
53.432
 21
595.1305
 31
0.0
  0
LINE
  5
3F20
330
1D
100
AcDbEntity
  8
0
100
AcDbLine
 10
53.432
 20
595.1305
 30
0.0
 11
54.0
 21
595.1305
 31
0.0
  0
LINE
  5
3F21
330
1D
100
AcDbEntity
  8
0
100
AcDbLine
 10
53.432
 20
595.1305
 30
0.0
 11
54.584
 21
595.1305
 31
0.0
  0
LINE
  5
3F22
330
1D
100
AcDbEntity
  8
0
100
AcDbLine
 10
51.504
 20
595.1305
 30
0.0
 11
52.848
 21
595.1305
 31
0.0
  0
LINE
  5
3F23
330
1D
100
AcDbEntity
  8
0
100
AcDbLine
 10
52.848
 20
595.1305
 30
0.0
 11
54.0
 21
595.1305
 31
0.0
  0
LINE
  5
3F24
330
1D
100
AcDbEntity
  8
0
100
AcDbLine
 10
52.848
 20
595.1305
 30
0.0
 11
55.088
 21
595.1305
 31
0.0
  0
LINE
  5
3F25
330
1D
100
AcDbEntity
  8
0
100
AcDbLine
 10
51.112
 20
595.1305
 30
0.0
 11
53.672
 21
595.1305
 31
0.0
  0
LINE
  5
3F26
330
1D
100
AcDbEntity
  8
0
100
AcDbLine
 10
49.0
 20
607.1305
 30
0.0
 11
49.576
 21
607.1305
 31
0.0
  0
LINE
  5
3F27
330
1D
100
AcDbEntity
  8
0
100
AcDbLine
 10
49.576
 20
607.1305
 30
0.0
 11
51.112
 21
607.1305
 31
0.0
  0
LINE
  5
3F28
330
1D
100
AcDbEntity
  8
0
100
AcDbLine
 10
51.112
 20
607.1305
 30
0.0
 11
53.672
 21
607.1305
 31
0.0
  0
LINE
  5
3F29
330
1D
100
AcDbEntity
  8
0
100
AcDbLine
 10
53.672
 20
607.1305
 30
0.0
 11
57.064
 21
607.1305
 31
0.0
  0
LINE
  5
3F2A
330
1D
100
AcDbEntity
  8
0
100
AcDbLine
 10
53.672
 20
595.1305
 30
0.0
 11
54.0
 21
595.1305
 31
0.0
  0
LINE
  5
3F2B
330
1D
100
AcDbEntity
  8
0
100
AcDbLine
 10
53.672
 20
595.1305
 30
0.0
 11
57.064
 21
595.1305
 31
0.0
  0
LINE
  5
3F2C
330
1D
100
AcDbEntity
  8
0
100
AcDbLine
 10
21.2
 20
607.1305
 30
0.0
 11
27.3
 21
607.1305
 31
0.0
  0
LINE
  5
3F2D
330
1D
100
AcDbEntity
  8
0
100
AcDbLine
 10
0.0
 20
633.1305
 30
0.0
 11
0.0
 21
610.1305
 31
0.0
  0
LINE
  5
3F2E
330
1D
100
AcDbEntity
  8
0
100
AcDbLine
 10
0.0
 20
633.1305
 30
0.0
 11
0.7
 21
633.1305
 31
0.0
  0
LINE
  5
3F2F
330
1D
100
AcDbEntity
  8
0
100
AcDbLine
 10
0.7
 20
633.1305
 30
0.0
 11
2.3
 21
633.1305
 31
0.0
  0
LINE
  5
3F30
330
1D
100
AcDbEntity
  8
0
100
AcDbLine
 10
0.0
 20
610.1305
 30
0.0
 11
0.5
 21
608.6305
 31
0.0
  0
LINE
  5
3F31
330
1D
100
AcDbEntity
  8
0
100
AcDbLine
 10
0.0
 20
610.1305
 30
0.0
 11
0.0
 21
633.1305
 31
0.0
  0
LINE
  5
3F32
330
1D
100
AcDbEntity
  8
0
100
AcDbLine
 10
0.5
 20
608.6305
 30
0.0
 11
1.5
 21
607.6305
 31
0.0
  0
LINE
  5
3F33
330
1D
100
AcDbEntity
  8
0
100
AcDbLine
 10
20.2
 20
607.6305
 30
0.0
 11
26.4
 21
607.6305
 31
0.0
  0
LINE
  5
3F34
330
1D
100
AcDbEntity
  8
0
100
AcDbLine
 10
26.4
 20
607.6305
 30
0.0
 11
33.1
 21
607.6305
 31
0.0
  0
LINE
  5
3F35
330
1D
100
AcDbEntity
  8
0
100
AcDbLine
 10
33.1
 20
607.6305
 30
0.0
 11
40.7
 21
607.6305
 31
0.0
  0
LINE
  5
3F36
330
1D
100
AcDbEntity
  8
0
100
AcDbLine
 10
49.0
 20
607.1305
 30
0.0
 11
49.0
 21
595.1305
 31
0.0
  0
LINE
  5
3F37
330
1D
100
AcDbEntity
  8
0
100
AcDbLine
 10
40.7
 20
607.6305
 30
0.0
 11
48.6
 21
607.6305
 31
0.0
  0
LINE
  5
3F38
330
1D
100
AcDbEntity
  8
0
100
AcDbLine
 10
48.6
 20
607.6305
 30
0.0
 11
56.7
 21
607.6305
 31
0.0
  0
LINE
  5
3F39
330
1D
100
AcDbEntity
  8
0
100
AcDbLine
 10
15.9
 20
607.1305
 30
0.0
 11
21.2
 21
607.1305
 31
0.0
  0
LINE
  5
3F3A
330
1D
100
AcDbEntity
  8
0
100
AcDbLine
 10
14.7
 20
607.6305
 30
0.0
 11
20.2
 21
607.6305
 31
0.0
  0
LINE
  5
3F3B
330
1D
100
AcDbEntity
  8
0
100
AcDbLine
 10
10.0
 20
607.6305
 30
0.0
 11
14.7
 21
607.6305
 31
0.0
  0
LINE
  5
3F3C
330
1D
100
AcDbEntity
  8
0
100
AcDbLine
 10
6.5
 20
607.6305
 30
0.0
 11
10.0
 21
607.6305
 31
0.0
  0
LINE
  5
3F3D
330
1D
100
AcDbEntity
  8
0
100
AcDbLine
 10
3.8
 20
607.6305
 30
0.0
 11
6.5
 21
607.6305
 31
0.0
  0
LINE
  5
3F3E
330
1D
100
AcDbEntity
  8
0
100
AcDbLine
 10
19.1
 20
633.1305
 30
0.0
 11
25.5
 21
633.1305
 31
0.0
  0
LINE
  5
3F3F
330
1D
100
AcDbEntity
  8
0
100
AcDbLine
 10
25.5
 20
633.1305
 30
0.0
 11
32.6
 21
633.1305
 31
0.0
  0
LINE
  5
3F40
330
1D
100
AcDbEntity
  8
0
100
AcDbLine
 10
32.6
 20
633.1305
 30
0.0
 11
40.2
 21
633.1305
 31
0.0
  0
LINE
  5
3F41
330
1D
100
AcDbEntity
  8
0
100
AcDbLine
 10
40.2
 20
633.1305
 30
0.0
 11
48.2
 21
633.1305
 31
0.0
  0
LINE
  5
3F42
330
1D
100
AcDbEntity
  8
0
100
AcDbLine
 10
48.2
 20
633.1305
 30
0.0
 11
56.5
 21
633.1305
 31
0.0
  0
LINE
  5
3F43
330
1D
100
AcDbEntity
  8
0
100
AcDbLine
 10
13.5
 20
633.1305
 30
0.0
 11
19.1
 21
633.1305
 31
0.0
  0
LINE
  5
3F44
330
1D
100
AcDbEntity
  8
0
100
AcDbLine
 10
8.7
 20
633.1305
 30
0.0
 11
13.5
 21
633.1305
 31
0.0
  0
LINE
  5
3F45
330
1D
100
AcDbEntity
  8
0
100
AcDbLine
 10
5.1
 20
633.1305
 30
0.0
 11
8.7
 21
633.1305
 31
0.0
  0
LINE
  5
3F46
330
1D
100
AcDbEntity
  8
0
100
AcDbLine
 10
2.3
 20
633.1305
 30
0.0
 11
5.1
 21
633.1305
 31
0.0
  0
LINE
  5
3F47
330
1D
100
AcDbEntity
  8
0
100
AcDbLine
 10
2.1
 20
607.6305
 30
0.0
 11
3.8
 21
607.6305
 31
0.0
  0
LINE
  5
3F48
330
1D
100
AcDbEntity
  8
0
100
AcDbLine
 10
1.5
 20
607.6305
 30
0.0
 11
3.0
 21
607.1305
 31
0.0
  0
LINE
  5
3F49
330
1D
100
AcDbEntity
  8
0
100
AcDbLine
 10
1.5
 20
607.6305
 30
0.0
 11
2.1
 21
607.6305
 31
0.0
  0
LINE
  5
3F4A
330
1D
100
AcDbEntity
  8
0
100
AcDbLine
 10
34.1
 20
607.1305
 30
0.0
 11
41.3
 21
607.1305
 31
0.0
  0
LINE
  5
3F4B
330
1D
100
AcDbEntity
  8
0
100
AcDbLine
 10
54.0
 20
633.1305
 30
0.0
 11
54.0
 21
874.1305
 31
0.0
  0
LINE
  5
3F4C
330
1D
100
AcDbEntity
  8
0
100
AcDbLine
 10
54.0
 20
565.7305
 30
0.0
 11
54.264
 21
565.1305
 31
0.0
  0
LINE
  5
3F4D
330
1D
100
AcDbEntity
  8
0
100
AcDbLine
 10
54.0
 20
565.7305
 30
0.0
 11
54.0
 21
595.1305
 31
0.0
  0
LINE
  5
3F4E
330
1D
100
AcDbEntity
  8
0
100
AcDbLine
 10
54.584
 20
595.1305
 30
0.0
 11
56.504
 21
595.1305
 31
0.0
  0
LINE
  5
3F4F
330
1D
100
AcDbEntity
  8
0
100
AcDbLine
 10
56.504
 20
595.1305
 30
0.0
 11
59.048
 21
595.1305
 31
0.0
  0
LINE
  5
3F50
330
1D
100
AcDbEntity
  8
0
100
AcDbLine
 10
55.088
 20
595.1305
 30
0.0
 11
58.056
 21
595.1305
 31
0.0
  0
LINE
  5
3F51
330
1D
100
AcDbEntity
  8
0
100
AcDbLine
 10
59.048
 20
595.1305
 30
0.0
 11
61.928
 21
595.1305
 31
0.0
  0
LINE
  5
3F52
330
1D
100
AcDbEntity
  8
0
100
AcDbLine
 10
58.056
 20
595.1305
 30
0.0
 11
61.416
 21
595.1305
 31
0.0
  0
LINE
  5
3F53
330
1D
100
AcDbEntity
  8
0
100
AcDbLine
 10
57.064
 20
607.1305
 30
0.0
 11
60.904
 21
607.1305
 31
0.0
  0
LINE
  5
3F54
330
1D
100
AcDbEntity
  8
0
100
AcDbLine
 10
60.904
 20
607.1305
 30
0.0
 11
65.0
 21
607.1305
 31
0.0
  0
LINE
  5
3F55
330
1D
100
AcDbEntity
  8
0
100
AcDbLine
 10
57.064
 20
595.1305
 30
0.0
 11
60.904
 21
595.1305
 31
0.0
  0
LINE
  5
3F56
330
1D
100
AcDbEntity
  8
0
100
AcDbLine
 10
61.928
 20
595.1305
 30
0.0
 11
65.0
 21
595.1305
 31
0.0
  0
LINE
  5
3F57
330
1D
100
AcDbEntity
  8
0
100
AcDbLine
 10
70.952
 20
595.1305
 30
0.0
 11
73.496
 21
595.1305
 31
0.0
  0
LINE
  5
3F58
330
1D
100
AcDbEntity
  8
0
100
AcDbLine
 10
68.072
 20
595.1305
 30
0.0
 11
70.952
 21
595.1305
 31
0.0
  0
LINE
  5
3F59
330
1D
100
AcDbEntity
  8
0
100
AcDbLine
 10
71.944
 20
595.1305
 30
0.0
 11
74.912
 21
595.1305
 31
0.0
  0
LINE
  5
3F5A
330
1D
100
AcDbEntity
  8
0
100
AcDbLine
 10
68.584
 20
595.1305
 30
0.0
 11
71.944
 21
595.1305
 31
0.0
  0
LINE
  5
3F5B
330
1D
100
AcDbEntity
  8
0
100
AcDbLine
 10
73.496
 20
595.1305
 30
0.0
 11
75.416
 21
595.1305
 31
0.0
  0
LINE
  5
3F5C
330
1D
100
AcDbEntity
  8
0
100
AcDbLine
 10
74.912
 20
595.1305
 30
0.0
 11
77.152
 21
595.1305
 31
0.0
  0
LINE
  5
3F5D
330
1D
100
AcDbEntity
  8
0
100
AcDbLine
 10
72.936
 20
595.1305
 30
0.0
 11
76.328
 21
595.1305
 31
0.0
  0
LINE
  5
3F5E
330
1D
100
AcDbEntity
  8
0
100
AcDbLine
 10
69.096
 20
595.1305
 30
0.0
 11
72.936
 21
595.1305
 31
0.0
  0
LINE
  5
3F5F
330
1D
100
AcDbEntity
  8
0
100
AcDbLine
 10
65.0
 20
595.1305
 30
0.0
 11
69.096
 21
595.1305
 31
0.0
  0
LINE
  5
3F60
330
1D
100
AcDbEntity
  8
0
100
AcDbLine
 10
65.0
 20
595.1305
 30
0.0
 11
68.584
 21
595.1305
 31
0.0
  0
LINE
  5
3F61
330
1D
100
AcDbEntity
  8
0
100
AcDbLine
 10
65.0
 20
595.1305
 30
0.0
 11
68.072
 21
595.1305
 31
0.0
  0
LINE
  5
3F62
330
1D
100
AcDbEntity
  8
0
100
AcDbLine
 10
65.0
 20
607.6305
 30
0.0
 11
73.3
 21
607.6305
 31
0.0
  0
LINE
  5
3F63
330
1D
100
AcDbEntity
  8
0
100
AcDbLine
 10
72.936
 20
607.1305
 30
0.0
 11
76.328
 21
607.1305
 31
0.0
  0
LINE
  5
3F64
330
1D
100
AcDbEntity
  8
0
100
AcDbLine
 10
73.3
 20
607.6305
 30
0.0
 11
81.4
 21
607.6305
 31
0.0
  0
LINE
  5
3F65
330
1D
100
AcDbEntity
  8
0
100
AcDbLine
 10
69.096
 20
607.1305
 30
0.0
 11
72.936
 21
607.1305
 31
0.0
  0
LINE
  5
3F66
330
1D
100
AcDbEntity
  8
0
100
AcDbLine
 10
65.0
 20
607.1305
 30
0.0
 11
69.096
 21
607.1305
 31
0.0
  0
LINE
  5
3F67
330
1D
100
AcDbEntity
  8
0
100
AcDbLine
 10
61.416
 20
595.1305
 30
0.0
 11
65.0
 21
595.1305
 31
0.0
  0
LINE
  5
3F68
330
1D
100
AcDbEntity
  8
0
100
AcDbLine
 10
60.904
 20
595.1305
 30
0.0
 11
65.0
 21
595.1305
 31
0.0
  0
LINE
  5
3F69
330
1D
100
AcDbEntity
  8
0
100
AcDbLine
 10
73.5
 20
633.1305
 30
0.0
 11
81.8
 21
633.1305
 31
0.0
  0
LINE
  5
3F6A
330
1D
100
AcDbEntity
  8
0
100
AcDbLine
 10
65.0
 20
633.1305
 30
0.0
 11
73.5
 21
633.1305
 31
0.0
  0
LINE
  5
3F6B
330
1D
100
AcDbEntity
  8
0
100
AcDbLine
 10
56.5
 20
633.1305
 30
0.0
 11
65.0
 21
633.1305
 31
0.0
  0
LINE
  5
3F6C
330
1D
100
AcDbEntity
  8
0
100
AcDbLine
 10
56.7
 20
607.6305
 30
0.0
 11
65.0
 21
607.6305
 31
0.0
  0
LINE
  5
3F6D
330
1D
100
AcDbEntity
  8
0
100
AcDbLine
 10
54.0
 20
595.1305
 30
0.0
 11
54.0
 21
565.7305
 31
0.0
  0
LINE
  5
3F6E
330
1D
100
AcDbEntity
  8
0
100
AcDbLine
 10
74.284
 20
565.1305
 30
0.0
 11
75.34
 21
565.1305
 31
0.0
  0
LINE
  5
3F6F
330
1D
100
AcDbEntity
  8
0
100
AcDbLine
 10
75.416
 20
595.1305
 30
0.0
 11
76.568
 21
595.1305
 31
0.0
  0
LINE
  5
3F70
330
1D
100
AcDbEntity
  8
0
100
AcDbLine
 10
76.0
 20
595.1305
 30
0.0
 11
76.0
 21
565.7305
 31
0.0
  0
LINE
  5
3F71
330
1D
100
AcDbEntity
  8
0
100
AcDbLine
 10
76.0
 20
595.1305
 30
0.0
 11
76.328
 21
595.1305
 31
0.0
  0
LINE
  5
3F72
330
1D
100
AcDbEntity
  8
0
100
AcDbLine
 10
76.0
 20
595.1305
 30
0.0
 11
77.152
 21
595.1305
 31
0.0
  0
LINE
  5
3F73
330
1D
100
AcDbEntity
  8
0
100
AcDbLine
 10
76.0
 20
595.1305
 30
0.0
 11
76.568
 21
595.1305
 31
0.0
  0
LINE
  5
3F74
330
1D
100
AcDbEntity
  8
0
100
AcDbLine
 10
76.0
 20
633.1305
 30
0.0
 11
76.0
 21
874.1305
 31
0.0
  0
LINE
  5
3F75
330
1D
100
AcDbEntity
  8
0
100
AcDbLine
 10
76.328
 20
595.1305
 30
0.0
 11
78.888
 21
595.1305
 31
0.0
  0
LINE
  5
3F76
330
1D
100
AcDbEntity
  8
0
100
AcDbLine
 10
76.568
 20
595.1305
 30
0.0
 11
77.0
 21
595.1305
 31
0.0
  0
LINE
  5
3F77
330
1D
100
AcDbEntity
  8
0
100
AcDbLine
 10
78.496
 20
595.1305
 30
0.0
 11
79.0
 21
595.1305
 31
0.0
  0
LINE
  5
3F78
330
1D
100
AcDbEntity
  8
0
100
AcDbLine
 10
77.152
 20
595.1305
 30
0.0
 11
78.496
 21
595.1305
 31
0.0
  0
LINE
  5
3F79
330
1D
100
AcDbEntity
  8
0
100
AcDbLine
 10
80.424
 20
595.1305
 30
0.0
 11
81.0
 21
595.1305
 31
0.0
  0
LINE
  5
3F7A
330
1D
100
AcDbEntity
  8
0
100
AcDbLine
 10
78.888
 20
595.1305
 30
0.0
 11
80.424
 21
595.1305
 31
0.0
  0
LINE
  5
3F7B
330
1D
100
AcDbEntity
  8
0
100
AcDbLine
 10
81.0
 20
595.1305
 30
0.0
 11
81.0
 21
607.1305
 31
0.0
  0
LINE
  5
3F7C
330
1D
100
AcDbEntity
  8
0
100
AcDbLine
 10
88.7
 20
607.1305
 30
0.0
 11
95.9
 21
607.1305
 31
0.0
  0
LINE
  5
3F7D
330
1D
100
AcDbEntity
  8
0
100
AcDbLine
 10
81.0
 20
607.1305
 30
0.0
 11
88.7
 21
607.1305
 31
0.0
  0
LINE
  5
3F7E
330
1D
100
AcDbEntity
  8
0
100
AcDbLine
 10
80.424
 20
607.1305
 30
0.0
 11
81.0
 21
607.1305
 31
0.0
  0
LINE
  5
3F7F
330
1D
100
AcDbEntity
  8
0
100
AcDbLine
 10
81.0
 20
607.1305
 30
0.0
 11
81.0
 21
595.1305
 31
0.0
  0
LINE
  5
3F80
330
1D
100
AcDbEntity
  8
0
100
AcDbLine
 10
78.888
 20
607.1305
 30
0.0
 11
80.424
 21
607.1305
 31
0.0
  0
LINE
  5
3F81
330
1D
100
AcDbEntity
  8
0
100
AcDbLine
 10
76.328
 20
607.1305
 30
0.0
 11
78.888
 21
607.1305
 31
0.0
  0
LINE
  5
3F82
330
1D
100
AcDbEntity
  8
0
100
AcDbLine
 10
89.8
 20
633.1305
 30
0.0
 11
97.4
 21
633.1305
 31
0.0
  0
LINE
  5
3F83
330
1D
100
AcDbEntity
  8
0
100
AcDbLine
 10
81.8
 20
633.1305
 30
0.0
 11
89.8
 21
633.1305
 31
0.0
  0
LINE
  5
3F84
330
1D
100
AcDbEntity
  8
0
100
AcDbLine
 10
89.3
 20
607.6305
 30
0.0
 11
96.9
 21
607.6305
 31
0.0
  0
LINE
  5
3F85
330
1D
100
AcDbEntity
  8
0
100
AcDbLine
 10
81.4
 20
607.6305
 30
0.0
 11
89.3
 21
607.6305
 31
0.0
  0
LINE
  5
3F86
330
1D
100
AcDbEntity
  8
0
100
AcDbLine
 10
88.7
 20
607.1305
 30
0.0
 11
95.9
 21
607.1305
 31
0.0
  0
LINE
  5
3F87
330
1D
100
AcDbEntity
  8
0
100
AcDbLine
 10
76.0
 20
565.7305
 30
0.0
 11
76.0
 21
595.1305
 31
0.0
  0
LINE
  5
3F88
330
1D
100
AcDbEntity
  8
0
100
AcDbLine
 10
75.736
 20
565.1305
 30
0.0
 11
76.0
 21
564.7459
 31
0.0
  0
LINE
  5
3F89
330
1D
100
AcDbEntity
  8
0
100
AcDbLine
 10
75.736
 20
565.1305
 30
0.0
 11
76.0
 21
565.7305
 31
0.0
  0
LINE
  5
3F8A
330
1D
100
AcDbEntity
  8
0
100
AcDbLine
 10
75.34
 20
565.1305
 30
0.0
 11
75.736
 21
565.1305
 31
0.0
  0
LINE
  5
3F8B
330
1D
100
AcDbEntity
  8
0
100
AcDbLine
 10
75.604
 20
564.7459
 30
0.0
 11
76.0
 21
564.7459
 31
0.0
  0
LINE
  5
3F8C
330
1D
100
AcDbEntity
  8
0
100
AcDbLine
 10
94.464263823526
 20
295.479082647057
 30
0.0
 11
95.2258
 21
295.8525
 31
0.0
  0
LINE
  5
3F8D
330
1D
100
AcDbEntity
  8
0
100
AcDbLine
 10
19.7692
 20
940.1305
 30
0.0
 11
48.2308
 21
940.1305
 31
0.0
  0
LINE
  5
3F8E
330
1D
100
AcDbEntity
  8
0
100
AcDbLine
 10
19.0
 20
940.5145
 30
0.0
 11
19.7692
 21
940.1305
 31
0.0
  0
LINE
  5
3F8F
330
1D
100
AcDbEntity
  8
0
100
AcDbLine
 10
19.0
 20
940.5145
 30
0.0
 11
19.0
 21
941.0905
 31
0.0
  0
LINE
  5
3F90
330
1D
100
AcDbEntity
  8
0
100
AcDbLine
 10
19.7692
 20
940.1305
 30
0.0
 11
48.2308
 21
940.1305
 31
0.0
  0
LINE
  5
3F91
330
1D
100
AcDbEntity
  8
0
100
AcDbLine
 10
48.2308
 20
940.1305
 30
0.0
 11
49.0
 21
940.5145
 31
0.0
  0
LINE
  5
3F92
330
1D
100
AcDbEntity
  8
0
100
AcDbLine
 10
49.0
 20
940.5145
 30
0.0
 11
49.0
 21
941.0905
 31
0.0
  0
LINE
  5
3F93
330
1D
100
AcDbEntity
  8
0
100
AcDbLine
 10
49.0
 20
940.1305
 30
0.0
 11
54.0
 21
940.1305
 31
0.0
  0
LINE
  5
3F94
330
1D
100
AcDbEntity
  8
0
100
AcDbLine
 10
49.0
 20
940.1305
 30
0.0
 11
49.0
 21
940.5145
 31
0.0
  0
LINE
  5
3F95
330
1D
100
AcDbEntity
  8
0
100
AcDbLine
 10
49.0
 20
940.1305
 30
0.0
 11
54.0
 21
940.1305
 31
0.0
  0
LINE
  5
3F96
330
1D
100
AcDbEntity
  8
0
100
AcDbLine
 10
19.0
 20
942.6265
 30
0.0
 11
19.0
 21
941.0905
 31
0.0
  0
LINE
  5
3F97
330
1D
100
AcDbEntity
  8
0
100
AcDbLine
 10
19.0
 20
942.6265
 30
0.0
 11
19.0
 21
945.1225
 31
0.0
  0
LINE
  5
3F98
330
1D
100
AcDbEntity
  8
0
100
AcDbLine
 10
19.0
 20
941.0905
 30
0.0
 11
19.0
 21
940.5145
 31
0.0
  0
LINE
  5
3F99
330
1D
100
AcDbEntity
  8
0
100
AcDbLine
 10
19.0
 20
941.0905
 30
0.0
 11
19.0
 21
942.6265
 31
0.0
  0
LINE
  5
3F9A
330
1D
100
AcDbEntity
  8
0
100
AcDbLine
 10
49.0
 20
942.6265
 30
0.0
 11
49.0
 21
945.1225
 31
0.0
  0
LINE
  5
3F9B
330
1D
100
AcDbEntity
  8
0
100
AcDbLine
 10
49.0
 20
942.6265
 30
0.0
 11
49.0
 21
941.0905
 31
0.0
  0
LINE
  5
3F9C
330
1D
100
AcDbEntity
  8
0
100
AcDbLine
 10
49.0
 20
941.0905
 30
0.0
 11
49.0
 21
942.6265
 31
0.0
  0
LINE
  5
3F9D
330
1D
100
AcDbEntity
  8
0
100
AcDbLine
 10
49.0
 20
941.0905
 30
0.0
 11
49.0
 21
940.5145
 31
0.0
  0
LINE
  5
3F9E
330
1D
100
AcDbEntity
  8
0
100
AcDbLine
 10
49.0
 20
940.7325
 30
0.0
 11
49.0
 21
940.1305
 31
0.0
  0
LINE
  5
3F9F
330
1D
100
AcDbEntity
  8
0
100
AcDbLine
 10
49.0
 20
942.2905
 30
0.0
 11
49.0
 21
940.7325
 31
0.0
  0
LINE
  5
3FA0
330
1D
100
AcDbEntity
  8
0
100
AcDbLine
 10
19.0
 20
948.3865
 30
0.0
 11
19.0
 21
945.1225
 31
0.0
  0
LINE
  5
3FA1
330
1D
100
AcDbEntity
  8
0
100
AcDbLine
 10
19.0
 20
948.3865
 30
0.0
 11
19.0
 21
952.0985
 31
0.0
  0
LINE
  5
3FA2
330
1D
100
AcDbEntity
  8
0
100
AcDbLine
 10
19.0
 20
945.1225
 30
0.0
 11
19.0
 21
942.6265
 31
0.0
  0
LINE
  5
3FA3
330
1D
100
AcDbEntity
  8
0
100
AcDbLine
 10
19.0
 20
945.1225
 30
0.0
 11
19.0
 21
948.3865
 31
0.0
  0
LINE
  5
3FA4
330
1D
100
AcDbEntity
  8
0
100
AcDbLine
 10
49.0
 20
948.3865
 30
0.0
 11
49.0
 21
952.0985
 31
0.0
  0
LINE
  5
3FA5
330
1D
100
AcDbEntity
  8
0
100
AcDbLine
 10
49.0
 20
948.3865
 30
0.0
 11
49.0
 21
945.1225
 31
0.0
  0
LINE
  5
3FA6
330
1D
100
AcDbEntity
  8
0
100
AcDbLine
 10
49.0
 20
945.1225
 30
0.0
 11
49.0
 21
948.3865
 31
0.0
  0
LINE
  5
3FA7
330
1D
100
AcDbEntity
  8
0
100
AcDbLine
 10
49.0
 20
945.1225
 30
0.0
 11
49.0
 21
942.6265
 31
0.0
  0
LINE
  5
3FA8
330
1D
100
AcDbEntity
  8
0
100
AcDbLine
 10
49.0
 20
944.9175
 30
0.0
 11
49.0
 21
942.2905
 31
0.0
  0
LINE
  5
3FA9
330
1D
100
AcDbEntity
  8
0
100
AcDbLine
 10
76.0
 20
874.1305
 30
0.0
 11
76.0
 21
633.1305
 31
0.0
  0
LINE
  5
3FAA
330
1D
100
AcDbEntity
  8
0
100
AcDbLine
 10
76.0
 20
874.1305
 30
0.0
 11
76.0
 21
940.1305
 31
0.0
  0
LINE
  5
3FAB
330
1D
100
AcDbEntity
  8
0
100
AcDbLine
 10
54.0
 20
874.1305
 30
0.0
 11
54.0
 21
633.1305
 31
0.0
  0
LINE
  5
3FAC
330
1D
100
AcDbEntity
  8
0
100
AcDbLine
 10
54.0
 20
874.1305
 30
0.0
 11
54.0
 21
940.20575
 31
0.0
  0
LINE
  5
3FAD
330
1D
100
AcDbEntity
  8
0
100
AcDbLine
 10
89.0
 20
940.1305
 30
0.0
 11
92.0
 21
940.1305
 31
0.0
  0
LINE
  5
3FAE
330
1D
100
AcDbEntity
  8
0
100
AcDbLine
 10
92.0
 20
940.1305
 30
0.0
 11
92.0
 21
940.7325
 31
0.0
  0
LINE
  5
3FAF
330
1D
100
AcDbEntity
  8
0
100
AcDbLine
 10
54.0
 20
940.20575
 30
0.0
 11
54.0
 21
874.1305
 31
0.0
  0
LINE
  5
3FB0
330
1D
100
AcDbEntity
  8
0
100
AcDbLine
 10
92.0
 20
940.7325
 30
0.0
 11
92.0
 21
942.2905
 31
0.0
  0
LINE
  5
3FB1
330
1D
100
AcDbEntity
  8
0
100
AcDbLine
 10
92.0
 20
948.1685
 30
0.0
 11
92.0
 21
952.0195
 31
0.0
  0
LINE
  5
3FB2
330
1D
100
AcDbEntity
  8
0
100
AcDbLine
 10
92.0
 20
942.2905
 30
0.0
 11
92.0
 21
944.9175
 31
0.0
  0
LINE
  5
3FB3
330
1D
100
AcDbEntity
  8
0
100
AcDbLine
 10
92.0
 20
944.9175
 30
0.0
 11
92.0
 21
948.1685
 31
0.0
  0
LINE
  5
3FB4
330
1D
100
AcDbEntity
  8
0
100
AcDbLine
 10
76.0
 20
940.1305
 30
0.0
 11
89.0
 21
940.1305
 31
0.0
  0
LINE
  5
3FB5
330
1D
100
AcDbEntity
  8
0
100
AcDbLine
 10
76.0
 20
940.1305
 30
0.0
 11
76.0
 21
874.1305
 31
0.0
  0
LINE
  5
3FB6
330
1D
100
AcDbEntity
  8
0
100
AcDbLine
 10
49.0
 20
948.1685
 30
0.0
 11
49.0
 21
944.9175
 31
0.0
  0
LINE
  5
3FB7
330
1D
100
AcDbEntity
  8
0
100
AcDbLine
 10
94.759351130781
 20
633.1305
 30
0.0
 11
95.0756
 21
820.6895
 31
0.0
  0
LINE
  5
3FB8
330
1D
100
AcDbEntity
  8
0
100
AcDbLine
 10
94.759351130781
 20
633.1305
 30
0.0
 11
95.0756
 21
820.6895
 31
0.0
  0
LINE
  5
3FB9
330
1D
100
AcDbEntity
  8
0
100
AcDbLine
 10
94.4529
 20
295.4735
 30
0.0
 11
95.8839
 21
296.1765
 31
0.0
  0
LINE
  5
3FBA
330
1D
100
AcDbEntity
  8
0
100
AcDbLine
 10
95.0597
 20
853.6905
 30
0.0
 11
95.0756
 21
820.6895
 31
0.0
  0
LINE
  5
3FBB
330
1D
100
AcDbEntity
  8
0
100
AcDbLine
 10
95.0316
 20
876.6875
 30
0.0
 11
95.0597
 21
853.6905
 31
0.0
  0
LINE
  5
3FBC
330
1D
100
AcDbEntity
  8
0
100
AcDbLine
 10
94.9897
 20
901.4845
 30
0.0
 11
95.0316
 21
876.6875
 31
0.0
  0
LINE
  5
3FBD
330
1D
100
AcDbEntity
  8
0
100
AcDbLine
 10
94.9358
 20
926.5815
 30
0.0
 11
94.9897
 21
901.4845
 31
0.0
  0
LINE
  5
3FBE
330
1D
100
AcDbEntity
  8
0
100
AcDbLine
 10
19.0
 20
956.1305
 30
0.0
 11
19.0
 21
952.0985
 31
0.0
  0
LINE
  5
3FBF
330
1D
100
AcDbEntity
  8
0
100
AcDbLine
 10
19.0
 20
956.1305
 30
0.0
 11
19.0
 21
960.1625
 31
0.0
  0
LINE
  5
3FC0
330
1D
100
AcDbEntity
  8
0
100
AcDbLine
 10
19.0
 20
952.0985
 30
0.0
 11
19.0
 21
948.3865
 31
0.0
  0
LINE
  5
3FC1
330
1D
100
AcDbEntity
  8
0
100
AcDbLine
 10
19.0
 20
952.0985
 30
0.0
 11
19.0
 21
956.1305
 31
0.0
  0
LINE
  5
3FC2
330
1D
100
AcDbEntity
  8
0
100
AcDbLine
 10
49.0
 20
956.1305
 30
0.0
 11
49.0
 21
952.0985
 31
0.0
  0
LINE
  5
3FC3
330
1D
100
AcDbEntity
  8
0
100
AcDbLine
 10
49.0
 20
956.1305
 30
0.0
 11
49.0
 21
960.1625
 31
0.0
  0
LINE
  5
3FC4
330
1D
100
AcDbEntity
  8
0
100
AcDbLine
 10
49.0
 20
952.0985
 30
0.0
 11
49.0
 21
956.1305
 31
0.0
  0
LINE
  5
3FC5
330
1D
100
AcDbEntity
  8
0
100
AcDbLine
 10
49.0
 20
952.0985
 30
0.0
 11
49.0
 21
948.3865
 31
0.0
  0
LINE
  5
3FC6
330
1D
100
AcDbEntity
  8
0
100
AcDbLine
 10
19.0
 20
960.1625
 30
0.0
 11
19.0
 21
956.1305
 31
0.0
  0
LINE
  5
3FC7
330
1D
100
AcDbEntity
  8
0
100
AcDbLine
 10
19.0
 20
960.1625
 30
0.0
 11
19.0
 21
963.8745
 31
0.0
  0
LINE
  5
3FC8
330
1D
100
AcDbEntity
  8
0
100
AcDbLine
 10
49.0
 20
960.1625
 30
0.0
 11
49.0
 21
963.8745
 31
0.0
  0
LINE
  5
3FC9
330
1D
100
AcDbEntity
  8
0
100
AcDbLine
 10
49.0
 20
960.1625
 30
0.0
 11
49.0
 21
956.1305
 31
0.0
  0
LINE
  5
3FCA
330
1D
100
AcDbEntity
  8
0
100
AcDbLine
 10
49.0
 20
963.8745
 30
0.0
 11
49.0
 21
967.1385
 31
0.0
  0
LINE
  5
3FCB
330
1D
100
AcDbEntity
  8
0
100
AcDbLine
 10
49.0
 20
963.8745
 30
0.0
 11
49.0
 21
960.1625
 31
0.0
  0
LINE
  5
3FCC
330
1D
100
AcDbEntity
  8
0
100
AcDbLine
 10
19.0
 20
963.8745
 30
0.0
 11
19.0
 21
960.1625
 31
0.0
  0
LINE
  5
3FCD
330
1D
100
AcDbEntity
  8
0
100
AcDbLine
 10
19.0
 20
963.8745
 30
0.0
 11
19.0
 21
967.1385
 31
0.0
  0
LINE
  5
3FCE
330
1D
100
AcDbEntity
  8
0
100
AcDbLine
 10
19.0
 20
963.8745
 30
0.0
 11
19.0
 21
966.155620933881
 31
0.0
  0
LINE
  5
3FCF
330
1D
100
AcDbEntity
  8
0
100
AcDbLine
 10
19.0
 20
966.155620933881
 30
0.0
 11
19.0
 21
963.8745
 31
0.0
  0
LINE
  5
3FD0
330
1D
100
AcDbEntity
  8
0
100
AcDbLine
 10
19.0
 20
967.1385
 30
0.0
 11
19.0
 21
963.8745
 31
0.0
  0
LINE
  5
3FD1
330
1D
100
AcDbEntity
  8
0
100
AcDbLine
 10
19.0
 20
967.1385
 30
0.0
 11
19.0
 21
969.6345
 31
0.0
  0
LINE
  5
3FD2
330
1D
100
AcDbEntity
  8
0
100
AcDbLine
 10
49.0
 20
967.1385
 30
0.0
 11
49.0
 21
969.6345
 31
0.0
  0
LINE
  5
3FD3
330
1D
100
AcDbEntity
  8
0
100
AcDbLine
 10
49.0
 20
967.1385
 30
0.0
 11
49.0
 21
963.8745
 31
0.0
  0
LINE
  5
3FD4
330
1D
100
AcDbEntity
  8
0
100
AcDbLine
 10
49.0
 20
969.6345
 30
0.0
 11
49.0
 21
971.1705
 31
0.0
  0
LINE
  5
3FD5
330
1D
100
AcDbEntity
  8
0
100
AcDbLine
 10
49.0
 20
969.6345
 30
0.0
 11
49.0
 21
967.1385
 31
0.0
  0
LINE
  5
3FD6
330
1D
100
AcDbEntity
  8
0
100
AcDbLine
 10
19.0
 20
969.6345
 30
0.0
 11
19.0
 21
967.1385
 31
0.0
  0
LINE
  5
3FD7
330
1D
100
AcDbEntity
  8
0
100
AcDbLine
 10
19.0
 20
969.6345
 30
0.0
 11
19.0
 21
971.1705
 31
0.0
  0
LINE
  5
3FD8
330
1D
100
AcDbEntity
  8
0
100
AcDbLine
 10
49.0
 20
971.1705
 30
0.0
 11
49.0
 21
971.7465
 31
0.0
  0
LINE
  5
3FD9
330
1D
100
AcDbEntity
  8
0
100
AcDbLine
 10
49.0
 20
971.1705
 30
0.0
 11
49.0
 21
969.6345
 31
0.0
  0
LINE
  5
3FDA
330
1D
100
AcDbEntity
  8
0
100
AcDbLine
 10
19.0
 20
971.1705
 30
0.0
 11
19.0
 21
969.6345
 31
0.0
  0
LINE
  5
3FDB
330
1D
100
AcDbEntity
  8
0
100
AcDbLine
 10
49.0
 20
971.5555
 30
0.0
 11
49.0
 21
970.0245
 31
0.0
  0
LINE
  5
3FDC
330
1D
100
AcDbEntity
  8
0
100
AcDbLine
 10
49.0
 20
971.7465
 30
0.0
 11
49.0
 21
972.2065
 31
0.0
  0
LINE
  5
3FDD
330
1D
100
AcDbEntity
  8
0
100
AcDbLine
 10
49.0
 20
971.7465
 30
0.0
 11
49.0
 21
971.1705
 31
0.0
  0
LINE
  5
3FDE
330
1D
100
AcDbEntity
  8
0
100
AcDbLine
 10
49.0
 20
970.0245
 30
0.0
 11
49.0
 21
967.4555
 31
0.0
  0
LINE
  5
3FDF
330
1D
100
AcDbEntity
  8
0
100
AcDbLine
 10
49.0
 20
967.4555
 30
0.0
 11
49.0
 21
964.2065
 31
0.0
  0
LINE
  5
3FE0
330
1D
100
AcDbEntity
  8
0
100
AcDbLine
 10
49.0
 20
964.2065
 30
0.0
 11
49.0
 21
960.3045
 31
0.0
  0
LINE
  5
3FE1
330
1D
100
AcDbEntity
  8
0
100
AcDbLine
 10
49.0
 20
960.3045
 30
0.0
 11
49.0
 21
956.1465
 31
0.0
  0
LINE
  5
3FE2
330
1D
100
AcDbEntity
  8
0
100
AcDbLine
 10
49.0
 20
956.1465
 30
0.0
 11
49.0
 21
952.0195
 31
0.0
  0
LINE
  5
3FE3
330
1D
100
AcDbEntity
  8
0
100
AcDbLine
 10
49.0
 20
952.0195
 30
0.0
 11
49.0
 21
948.1685
 31
0.0
  0
LINE
  5
3FE4
330
1D
100
AcDbEntity
  8
0
100
AcDbLine
 10
48.2308
 20
972.1305
 30
0.0
 11
49.0
 21
971.7465
 31
0.0
  0
LINE
  5
3FE5
330
1D
100
AcDbEntity
  8
0
100
AcDbLine
 10
17.8283
 20
979.4695
 30
0.0
 11
18.5587
 21
979.7075
 31
0.0
  0
LINE
  5
3FE6
330
1D
100
AcDbEntity
  8
0
100
AcDbLine
 10
18.5587
 20
979.7075
 30
0.0
 11
19.2434
 21
979.9295
 31
0.0
  0
LINE
  5
3FE7
330
1D
100
AcDbEntity
  8
0
100
AcDbLine
 10
19.2434
 20
979.9295
 30
0.0
 11
19.8483
 21
980.1265
 31
0.0
  0
LINE
  5
3FE8
330
1D
100
AcDbEntity
  8
0
100
AcDbLine
 10
19.8483
 20
980.1265
 30
0.0
 11
20.3048
 21
980.2745
 31
0.0
  0
LINE
  5
3FE9
330
1D
100
AcDbEntity
  8
0
100
AcDbLine
 10
20.3048
 20
980.2745
 30
0.0
 11
20.5787
 21
980.3635
 31
0.0
  0
LINE
  5
3FEA
330
1D
100
AcDbEntity
  8
0
100
AcDbLine
 10
20.6814
 20
980.3965
 30
0.0
 11
23.367236574616
 21
972.1305
 31
0.0
  0
LINE
  5
3FEB
330
1D
100
AcDbEntity
  8
0
100
AcDbLine
 10
20.5787
 20
980.3635
 30
0.0
 11
20.6814
 21
980.3965
 31
0.0
  0
LINE
  5
3FEC
330
1D
100
AcDbEntity
  8
0
100
AcDbLine
 10
17.0979
 20
979.2325
 30
0.0
 11
17.8283
 21
979.4695
 31
0.0
  0
LINE
  5
3FED
330
1D
100
AcDbEntity
  8
0
100
AcDbLine
 10
16.4131
 20
979.0095
 30
0.0
 11
17.0979
 21
979.2325
 31
0.0
  0
LINE
  5
3FEE
330
1D
100
AcDbEntity
  8
0
100
AcDbLine
 10
15.8082
 20
978.8135
 30
0.0
 11
16.4131
 21
979.0095
 31
0.0
  0
LINE
  5
3FEF
330
1D
100
AcDbEntity
  8
0
100
AcDbLine
 10
15.3517
 20
978.6655
 30
0.0
 11
15.8082
 21
978.8135
 31
0.0
  0
LINE
  5
3FF0
330
1D
100
AcDbEntity
  8
0
100
AcDbLine
 10
15.0778
 20
978.5765
 30
0.0
 11
15.3517
 21
978.6655
 31
0.0
  0
LINE
  5
3FF1
330
1D
100
AcDbEntity
  8
0
100
AcDbLine
 10
14.9751
 20
978.5425
 30
0.0
 11
15.0778
 21
978.5765
 31
0.0
  0
LINE
  5
3FF2
330
1D
100
AcDbEntity
  8
0
100
AcDbLine
 10
14.9751
 20
978.5425
 30
0.0
 11
19.0
 21
966.155620933881
 31
0.0
  0
LINE
  5
3FF3
330
1D
100
AcDbEntity
  8
0
100
AcDbLine
 10
23.367236574616
 20
972.1305
 30
0.0
 11
48.2308
 21
972.1305
 31
0.0
  0
LINE
  5
3FF4
330
1D
100
AcDbEntity
  8
0
100
AcDbLine
 10
54.0
 20
972.2065
 30
0.0
 11
54.0
 21
1101.985538126464
 31
0.0
  0
LINE
  5
3FF5
330
1D
100
AcDbEntity
  8
0
100
AcDbLine
 10
89.0
 20
972.2065
 30
0.0
 11
90.0
 21
972.2065
 31
0.0
  0
LINE
  5
3FF6
330
1D
100
AcDbEntity
  8
0
100
AcDbLine
 10
54.0
 20
1101.985538126464
 30
0.0
 11
54.0
 21
972.2065
 31
0.0
  0
LINE
  5
3FF7
330
1D
100
AcDbEntity
  8
0
100
AcDbLine
 10
62.184
 20
1252.7455
 30
0.0
 11
65.0
 21
1252.7455
 31
0.0
  0
LINE
  5
3FF8
330
1D
100
AcDbEntity
  8
0
100
AcDbLine
 10
59.544
 20
1252.7455
 30
0.0
 11
62.184
 21
1252.7455
 31
0.0
  0
LINE
  5
3FF9
330
1D
100
AcDbEntity
  8
0
100
AcDbLine
 10
57.212
 20
1252.7455
 30
0.0
 11
59.544
 21
1252.7455
 31
0.0
  0
LINE
  5
3FFA
330
1D
100
AcDbEntity
  8
0
100
AcDbLine
 10
55.452
 20
1252.7455
 30
0.0
 11
57.212
 21
1252.7455
 31
0.0
  0
LINE
  5
3FFB
330
1D
100
AcDbEntity
  8
0
100
AcDbLine
 10
54.396
 20
1252.7455
 30
0.0
 11
55.452
 21
1252.7455
 31
0.0
  0
LINE
  5
3FFC
330
1D
100
AcDbEntity
  8
0
100
AcDbLine
 10
54.0
 20
1252.7455
 30
0.0
 11
54.396
 21
1252.7455
 31
0.0
  0
LINE
  5
3FFD
330
1D
100
AcDbEntity
  8
0
100
AcDbLine
 10
54.0
 20
1252.7455
 30
0.0
 11
54.264
 21
1253.1305
 31
0.0
  0
LINE
  5
3FFE
330
1D
100
AcDbEntity
  8
0
100
AcDbLine
 10
65.0
 20
1252.7455
 30
0.0
 11
67.816
 21
1252.7455
 31
0.0
  0
LINE
  5
3FFF
330
1D
100
AcDbEntity
  8
0
100
AcDbLine
 10
67.816
 20
1252.7455
 30
0.0
 11
70.456
 21
1252.7455
 31
0.0
  0
LINE
  5
4000
330
1D
100
AcDbEntity
  8
0
100
AcDbLine
 10
70.456
 20
1252.7455
 30
0.0
 11
72.788
 21
1252.7455
 31
0.0
  0
LINE
  5
4001
330
1D
100
AcDbEntity
  8
0
100
AcDbLine
 10
72.788
 20
1252.7455
 30
0.0
 11
74.548
 21
1252.7455
 31
0.0
  0
LINE
  5
4002
330
1D
100
AcDbEntity
  8
0
100
AcDbLine
 10
76.0
 20
1088.225745104659
 30
0.0
 11
76.0
 21
972.2065
 31
0.0
  0
LINE
  5
4003
330
1D
100
AcDbEntity
  8
0
100
AcDbLine
 10
76.0
 20
1252.7455
 30
0.0
 11
76.0
 21
1194.246903664472
 31
0.0
  0
LINE
  5
4004
330
1D
100
AcDbEntity
  8
0
100
AcDbLine
 10
74.548
 20
1252.7455
 30
0.0
 11
75.604
 21
1252.7455
 31
0.0
  0
LINE
  5
4005
330
1D
100
AcDbEntity
  8
0
100
AcDbLine
 10
62.228
 20
1253.1305
 30
0.0
 11
65.0
 21
1253.1305
 31
0.0
  0
LINE
  5
4006
330
1D
100
AcDbEntity
  8
0
100
AcDbLine
 10
59.676
 20
1253.1305
 30
0.0
 11
62.228
 21
1253.1305
 31
0.0
  0
LINE
  5
4007
330
1D
100
AcDbEntity
  8
0
100
AcDbLine
 10
57.432
 20
1253.1305
 30
0.0
 11
59.676
 21
1253.1305
 31
0.0
  0
LINE
  5
4008
330
1D
100
AcDbEntity
  8
0
100
AcDbLine
 10
55.716
 20
1253.1305
 30
0.0
 11
57.432
 21
1253.1305
 31
0.0
  0
LINE
  5
4009
330
1D
100
AcDbEntity
  8
0
100
AcDbLine
 10
54.66
 20
1253.1305
 30
0.0
 11
55.716
 21
1253.1305
 31
0.0
  0
LINE
  5
400A
330
1D
100
AcDbEntity
  8
0
100
AcDbLine
 10
54.264
 20
1253.1305
 30
0.0
 11
54.66
 21
1253.1305
 31
0.0
  0
LINE
  5
400B
330
1D
100
AcDbEntity
  8
0
100
AcDbLine
 10
65.0
 20
1253.1305
 30
0.0
 11
67.772
 21
1253.1305
 31
0.0
  0
LINE
  5
400C
330
1D
100
AcDbEntity
  8
0
100
AcDbLine
 10
67.772
 20
1253.1305
 30
0.0
 11
70.324
 21
1253.1305
 31
0.0
  0
LINE
  5
400D
330
1D
100
AcDbEntity
  8
0
100
AcDbLine
 10
70.324
 20
1253.1305
 30
0.0
 11
72.568
 21
1253.1305
 31
0.0
  0
LINE
  5
400E
330
1D
100
AcDbEntity
  8
0
100
AcDbLine
 10
72.568
 20
1253.1305
 30
0.0
 11
74.284
 21
1253.1305
 31
0.0
  0
LINE
  5
400F
330
1D
100
AcDbEntity
  8
0
100
AcDbLine
 10
74.284
 20
1253.1305
 30
0.0
 11
75.34
 21
1253.1305
 31
0.0
  0
LINE
  5
4010
330
1D
100
AcDbEntity
  8
0
100
AcDbLine
 10
75.736
 20
1253.1305
 30
0.0
 11
76.0
 21
1252.7455
 31
0.0
  0
LINE
  5
4011
330
1D
100
AcDbEntity
  8
0
100
AcDbLine
 10
75.34
 20
1253.1305
 30
0.0
 11
75.736
 21
1253.1305
 31
0.0
  0
LINE
  5
4012
330
1D
100
AcDbEntity
  8
0
100
AcDbLine
 10
75.604
 20
1252.7455
 30
0.0
 11
76.0
 21
1252.7455
 31
0.0
  0
LINE
  5
4013
330
1D
100
AcDbEntity
  8
0
100
AcDbLine
 10
76.0
 20
1194.246903664472
 30
0.0
 11
76.0
 21
1252.7455
 31
0.0
  0
LINE
  5
4014
330
1D
100
AcDbEntity
  8
0
100
AcDbLine
 10
76.0
 20
972.2065
 30
0.0
 11
89.0
 21
972.2065
 31
0.0
  0
LINE
  5
4015
330
1D
100
AcDbEntity
  8
0
100
AcDbLine
 10
76.0
 20
972.2065
 30
0.0
 11
76.0
 21
1088.225745104659
 31
0.0
  0
LINE
  5
4016
330
1D
100
AcDbEntity
  8
0
100
AcDbLine
 10
49.0
 20
972.2065
 30
0.0
 11
54.0
 21
972.2065
 31
0.0
  0
LINE
  5
4017
330
1D
100
AcDbEntity
  8
0
100
AcDbLine
 10
49.0
 20
972.2065
 30
0.0
 11
49.0
 21
971.5555
 31
0.0
  0
LINE
  5
4018
330
1D
100
AcDbEntity
  8
0
100
AcDbLine
 10
49.0
 20
972.2065
 30
0.0
 11
54.0
 21
972.2065
 31
0.0
  0
LINE
  5
4019
330
1D
100
AcDbEntity
  8
0
100
AcDbLine
 10
90.0
 20
971.7725
 30
0.0
 11
90.0
 21
996.582007905138
 31
0.0
  0
LINE
  5
401A
330
1D
100
AcDbEntity
  8
0
100
AcDbLine
 10
92.0
 20
960.3045
 30
0.0
 11
92.0
 21
964.2065
 31
0.0
  0
LINE
  5
401B
330
1D
100
AcDbEntity
  8
0
100
AcDbLine
 10
92.0
 20
956.1465
 30
0.0
 11
92.0
 21
960.3045
 31
0.0
  0
LINE
  5
401C
330
1D
100
AcDbEntity
  8
0
100
AcDbLine
 10
92.0
 20
952.0195
 30
0.0
 11
92.0
 21
956.1465
 31
0.0
  0
LINE
  5
401D
330
1D
100
AcDbEntity
  8
0
100
AcDbLine
 10
92.0
 20
967.4555
 30
0.0
 11
92.0
 21
970.0245
 31
0.0
  0
LINE
  5
401E
330
1D
100
AcDbEntity
  8
0
100
AcDbLine
 10
92.0
 20
964.2065
 30
0.0
 11
92.0
 21
967.4555
 31
0.0
  0
LINE
  5
401F
330
1D
100
AcDbEntity
  8
0
100
AcDbLine
 10
93.8
 20
964.509558823529
 30
0.0
 11
95.2
 21
963.5625
 31
0.0
  0
LINE
  5
4020
330
1D
100
AcDbEntity
  8
0
100
AcDbLine
 10
95.2
 20
986.164199999999
 30
0.0
 11
95.2
 21
963.5625
 31
0.0
  0
LINE
  5
4021
330
1D
100
AcDbEntity
  8
0
100
AcDbLine
 10
93.8
 20
993.1735
 30
0.0
 11
94.431893172318
 21
993.489446586159
 31
0.0
  0
LINE
  5
4022
330
1D
100
AcDbEntity
  8
0
100
AcDbLine
 10
92.0
 20
964.019642857143
 30
0.0
 11
93.8
 21
962.8625
 31
0.0
  0
LINE
  5
4023
330
1D
100
AcDbEntity
  8
0
100
AcDbLine
 10
93.8
 20
962.8625
 30
0.0
 11
93.8
 21
993.1735
 31
0.0
  0
LINE
  5
4024
330
1D
100
AcDbEntity
  8
0
100
AcDbLine
 10
93.8
 20
962.8625
 30
0.0
 11
95.2
 21
963.5625
 31
0.0
  0
LINE
  5
4025
330
1D
100
AcDbEntity
  8
0
100
AcDbLine
 10
91.7
 20
994.5235
 30
0.0
 11
93.8
 21
993.1735
 31
0.0
  0
LINE
  5
4026
330
1D
100
AcDbEntity
  8
0
100
AcDbLine
 10
90.759008
 20
995.738948
 30
0.0
 11
91.7
 21
994.5235
 31
0.0
  0
LINE
  5
4027
330
1D
100
AcDbEntity
  8
0
100
AcDbLine
 10
90.0
 20
996.582007905138
 30
0.0
 11
90.0
 21
971.7725
 31
0.0
  0
LINE
  5
4028
330
1D
100
AcDbEntity
  8
0
100
AcDbLine
 10
94.8656
 20
949.6875
 30
0.0
 11
95.107571225206
 21
963.516285612603
 31
0.0
  0
LINE
  5
4029
330
1D
100
AcDbEntity
  8
0
100
AcDbLine
 10
94.8656
 20
949.6875
 30
0.0
 11
94.9358
 21
926.5815
 31
0.0
  0
LINE
  5
402A
330
1D
100
AcDbEntity
  8
0
100
AcDbLine
 10
95.2258
 20
295.8525
 30
0.0
 11
97.1637
 21
296.8035
 31
0.0
  0
LINE
  5
402B
330
1D
100
AcDbEntity
  8
0
100
AcDbLine
 10
97.4
 20
633.1305
 30
0.0
 11
104.5
 21
633.1305
 31
0.0
  0
LINE
  5
402C
330
1D
100
AcDbEntity
  8
0
100
AcDbLine
 10
96.9
 20
607.6305
 30
0.0
 11
103.6
 21
607.6305
 31
0.0
  0
LINE
  5
402D
330
1D
100
AcDbEntity
  8
0
100
AcDbLine
 10
95.9
 20
607.1305
 30
0.0
 11
102.7
 21
607.1305
 31
0.0
  0
LINE
  5
402E
330
1D
100
AcDbEntity
  8
0
100
AcDbLine
 10
97.1637
 20
296.8035
 30
0.0
 11
99.40902437648
 21
297.906179138353
 31
0.0
  0
LINE
  5
402F
330
1D
100
AcDbEntity
  8
0
100
AcDbLine
 10
95.8839
 20
296.1765
 30
0.0
 11
98.2813
 21
297.3525
 31
0.0
  0
LINE
  5
4030
330
1D
100
AcDbEntity
  8
0
100
AcDbLine
 10
102.7
 20
607.1305
 30
0.0
 11
108.8
 21
607.1305
 31
0.0
  0
LINE
  5
4031
330
1D
100
AcDbEntity
  8
0
100
AcDbLine
 10
101.1939
 20
298.7825
 30
0.0
 11
104.3436
 21
300.3275
 31
0.0
  0
LINE
  5
4032
330
1D
100
AcDbEntity
  8
0
100
AcDbLine
 10
100.11066777152
 20
298.250665183436
 30
0.0
 11
103.1053
 21
299.7195
 31
0.0
  0
LINE
  5
4033
330
1D
100
AcDbEntity
  8
0
100
AcDbLine
 10
98.2813
 20
297.3525
 30
0.0
 11
101.1939
 21
298.7825
 31
0.0
  0
LINE
  5
4034
330
1D
100
AcDbEntity
  8
0
100
AcDbLine
 10
103.1053
 20
299.7195
 30
0.0
 11
105.236268361597
 21
300.76532012591
 31
0.0
  0
LINE
  5
4035
330
1D
100
AcDbEntity
  8
0
100
AcDbLine
 10
104.5
 20
633.1305
 30
0.0
 11
110.9
 21
633.1305
 31
0.0
  0
LINE
  5
4036
330
1D
100
AcDbEntity
  8
0
100
AcDbLine
 10
103.6
 20
607.6305
 30
0.0
 11
109.8
 21
607.6305
 31
0.0
  0
LINE
  5
4037
330
1D
100
AcDbEntity
  8
0
100
AcDbLine
 10
104.3436
 20
300.3275
 30
0.0
 11
107.143
 21
301.7005
 31
0.0
  0
LINE
  5
4038
330
1D
100
AcDbEntity
  8
0
100
AcDbLine
 10
103.0
 20
966.8775
 30
0.0
 11
105.6
 21
967.0775
 31
0.0
  0
LINE
  5
4039
330
1D
100
AcDbEntity
  8
0
100
AcDbLine
 10
108.8
 20
607.1305
 30
0.0
 11
114.1
 21
607.1305
 31
0.0
  0
LINE
  5
403A
330
1D
100
AcDbEntity
  8
0
100
AcDbLine
 10
108.8
 20
607.1305
 30
0.0
 11
114.1
 21
607.1305
 31
0.0
  0
LINE
  5
403B
330
1D
100
AcDbEntity
  8
0
100
AcDbLine
 10
109.012986348097
 20
302.618616040943
 30
0.0
 11
109.845
 21
303.0265
 31
0.0
  0
LINE
  5
403C
330
1D
100
AcDbEntity
  8
0
100
AcDbLine
 10
109.845
 20
303.0265
 30
0.0
 11
110.112
 21
303.1585
 31
0.0
  0
LINE
  5
403D
330
1D
100
AcDbEntity
  8
0
100
AcDbLine
 10
109.8
 20
607.6305
 30
0.0
 11
115.3
 21
607.6305
 31
0.0
  0
LINE
  5
403E
330
1D
100
AcDbEntity
  8
0
100
AcDbLine
 10
110.726636848105
 20
633.1305
 30
0.0
 11
111.076
 21
820.6885
 31
0.0
  0
LINE
  5
403F
330
1D
100
AcDbEntity
  8
0
100
AcDbLine
 10
110.9
 20
633.1305
 30
0.0
 11
116.5
 21
633.1305
 31
0.0
  0
LINE
  5
4040
330
1D
100
AcDbEntity
  8
0
100
AcDbLine
 10
110.726636848105
 20
633.1305
 30
0.0
 11
111.076
 21
820.6885
 31
0.0
  0
LINE
  5
4041
330
1D
100
AcDbEntity
  8
0
100
AcDbLine
 10
110.112
 20
303.1585
 30
0.0
 11
110.678206805403
 21
607.1305
 31
0.0
  0
LINE
  5
4042
330
1D
100
AcDbEntity
  8
0
100
AcDbLine
 10
110.112
 20
303.1585
 30
0.0
 11
110.678206805403
 21
607.1305
 31
0.0
  0
LINE
  5
4043
330
1D
100
AcDbEntity
  8
0
100
AcDbLine
 10
109.082
 20
302.6525
 30
0.0
 11
110.112
 21
303.1585
 31
0.0
  0
LINE
  5
4044
330
1D
100
AcDbEntity
  8
0
100
AcDbLine
 10
107.143
 20
301.7005
 30
0.0
 11
109.082
 21
302.6525
 31
0.0
  0
LINE
  5
4045
330
1D
100
AcDbEntity
  8
0
100
AcDbLine
 10
126.4
 20
607.1305
 30
0.0
 11
127.0
 21
607.1305
 31
0.0
  0
LINE
  5
4046
330
1D
100
AcDbEntity
  8
0
100
AcDbLine
 10
118.7
 20
607.1305
 30
0.0
 11
122.2
 21
607.1305
 31
0.0
  0
LINE
  5
4047
330
1D
100
AcDbEntity
  8
0
100
AcDbLine
 10
127.0
 20
607.1305
 30
0.0
 11
128.5
 21
607.6305
 31
0.0
  0
LINE
  5
4048
330
1D
100
AcDbEntity
  8
0
100
AcDbLine
 10
115.3
 20
607.6305
 30
0.0
 11
120.0
 21
607.6305
 31
0.0
  0
LINE
  5
4049
330
1D
100
AcDbEntity
  8
0
100
AcDbLine
 10
120.0
 20
607.6305
 30
0.0
 11
123.5
 21
607.6305
 31
0.0
  0
LINE
  5
404A
330
1D
100
AcDbEntity
  8
0
100
AcDbLine
 10
116.5
 20
633.1305
 30
0.0
 11
121.3
 21
633.1305
 31
0.0
  0
LINE
  5
404B
330
1D
100
AcDbEntity
  8
0
100
AcDbLine
 10
121.3
 20
633.1305
 30
0.0
 11
124.9
 21
633.1305
 31
0.0
  0
LINE
  5
404C
330
1D
100
AcDbEntity
  8
0
100
AcDbLine
 10
124.9
 20
633.1305
 30
0.0
 11
127.7
 21
633.1305
 31
0.0
  0
LINE
  5
404D
330
1D
100
AcDbEntity
  8
0
100
AcDbLine
 10
123.5
 20
607.6305
 30
0.0
 11
126.2
 21
607.6305
 31
0.0
  0
LINE
  5
404E
330
1D
100
AcDbEntity
  8
0
100
AcDbLine
 10
127.7
 20
633.1305
 30
0.0
 11
129.3
 21
633.1305
 31
0.0
  0
LINE
  5
404F
330
1D
100
AcDbEntity
  8
0
100
AcDbLine
 10
126.2
 20
607.6305
 30
0.0
 11
127.9
 21
607.6305
 31
0.0
  0
LINE
  5
4050
330
1D
100
AcDbEntity
  8
0
100
AcDbLine
 10
124.8
 20
607.1305
 30
0.0
 11
126.4
 21
607.1305
 31
0.0
  0
LINE
  5
4051
330
1D
100
AcDbEntity
  8
0
100
AcDbLine
 10
128.5
 20
607.6305
 30
0.0
 11
129.5
 21
608.6305
 31
0.0
  0
LINE
  5
4052
330
1D
100
AcDbEntity
  8
0
100
AcDbLine
 10
129.3
 20
633.1305
 30
0.0
 11
130.0
 21
633.1305
 31
0.0
  0
LINE
  5
4053
330
1D
100
AcDbEntity
  8
0
100
AcDbLine
 10
130.0
 20
633.1305
 30
0.0
 11
130.0
 21
610.1305
 31
0.0
  0
LINE
  5
4054
330
1D
100
AcDbEntity
  8
0
100
AcDbLine
 10
130.0
 20
610.1305
 30
0.0
 11
130.0
 21
633.1305
 31
0.0
  0
LINE
  5
4055
330
1D
100
AcDbEntity
  8
0
100
AcDbLine
 10
129.5
 20
608.6305
 30
0.0
 11
130.0
 21
610.1305
 31
0.0
  0
LINE
  5
4056
330
1D
100
AcDbEntity
  8
0
100
AcDbLine
 10
127.9
 20
607.6305
 30
0.0
 11
128.5
 21
607.6305
 31
0.0
  0
LINE
  5
4057
330
1D
100
AcDbEntity
  8
0
100
AcDbLine
 10
111.06
 20
853.6895
 30
0.0
 11
111.076
 21
820.6885
 31
0.0
  0
LINE
  5
4058
330
1D
100
AcDbEntity
  8
0
100
AcDbLine
 10
111.031
 20
876.6965
 30
0.0
 11
111.06
 21
853.6895
 31
0.0
  0
LINE
  5
4059
330
1D
100
AcDbEntity
  8
0
100
AcDbLine
 10
110.99
 20
901.4935
 30
0.0
 11
111.031
 21
876.6965
 31
0.0
  0
LINE
  5
405A
330
1D
100
AcDbEntity
  8
0
100
AcDbLine
 10
110.935
 20
926.5905
 30
0.0
 11
110.99
 21
901.4935
 31
0.0
  0
LINE
  5
405B
330
1D
100
AcDbEntity
  8
0
100
AcDbLine
 10
110.8
 20
963.5625
 30
0.0
 11
110.8
 21
986.1642
 31
0.0
  0
LINE
  5
405C
330
1D
100
AcDbEntity
  8
0
100
AcDbLine
 10
110.8
 20
963.5625
 30
0.0
 11
112.2
 21
964.509558823529
 31
0.0
  0
LINE
  5
405D
330
1D
100
AcDbEntity
  8
0
100
AcDbLine
 10
110.8
 20
963.5625
 30
0.0
 11
112.2
 21
962.8625
 31
0.0
  0
LINE
  5
405E
330
1D
100
AcDbEntity
  8
0
100
AcDbLine
 10
112.2
 20
962.8625
 30
0.0
 11
114.3
 21
964.2125
 31
0.0
  0
LINE
  5
405F
330
1D
100
AcDbEntity
  8
0
100
AcDbLine
 10
114.3
 20
964.2125
 30
0.0
 11
115.5
 21
965.7625
 31
0.0
  0
LINE
  5
4060
330
1D
100
AcDbEntity
  8
0
100
AcDbLine
 10
115.5
 20
965.7625
 30
0.0
 11
116.0
 21
967.4625
 31
0.0
  0
LINE
  5
4061
330
1D
100
AcDbEntity
  8
0
100
AcDbLine
 10
110.865
 20
949.6865
 30
0.0
 11
111.106078209554
 21
963.409460895223
 31
0.0
  0
LINE
  5
4062
330
1D
100
AcDbEntity
  8
0
100
AcDbLine
 10
110.865
 20
949.6865
 30
0.0
 11
110.935
 21
926.5905
 31
0.0
  0
LINE
  5
4063
330
1D
100
AcDbEntity
  8
0
100
AcDbLine
 10
105.6
 20
967.0775
 30
0.0
 11
108.0
 21
967.5275
 31
0.0
  0
LINE
  5
4064
330
1D
100
AcDbEntity
  8
0
100
AcDbLine
 10
108.0
 20
967.5275
 30
0.0
 11
110.1
 21
968.3275
 31
0.0
  0
LINE
  5
4065
330
1D
100
AcDbEntity
  8
0
100
AcDbLine
 10
116.0
 20
967.4625
 30
0.0
 11
116.0
 21
996.582007905138
 31
0.0
  0
LINE
  5
4066
330
1D
100
AcDbEntity
  8
0
100
AcDbLine
 10
110.1
 20
968.3275
 30
0.0
 11
110.8
 21
968.786875
 31
0.0
  0
LINE
  5
4067
330
1D
100
AcDbEntity
  8
0
100
AcDbLine
 10
100.4
 20
967.0775
 30
0.0
 11
103.0
 21
966.8775
 31
0.0
  0
LINE
  5
4068
330
1D
100
AcDbEntity
  8
0
100
AcDbLine
 10
98.0
 20
967.5275
 30
0.0
 11
100.4
 21
967.0775
 31
0.0
  0
LINE
  5
4069
330
1D
100
AcDbEntity
  8
0
100
AcDbLine
 10
96.031047349412
 20
1197.381253897893
 30
0.0
 11
103.0
 21
1197.5855
 31
0.0
  0
LINE
  5
406A
330
1D
100
AcDbEntity
  8
0
100
AcDbLine
 10
112.2
 20
993.1735
 30
0.0
 11
112.2
 21
962.8625
 31
0.0
  0
LINE
  5
406B
330
1D
100
AcDbEntity
  8
0
100
AcDbLine
 10
112.2
 20
993.1735
 30
0.0
 11
114.3
 21
994.5235
 31
0.0
  0
LINE
  5
406C
330
1D
100
AcDbEntity
  8
0
100
AcDbLine
 10
115.233
 20
995.7305
 30
0.0
 11
115.899
 21
996.4345
 31
0.0
  0
LINE
  5
406D
330
1D
100
AcDbEntity
  8
0
100
AcDbLine
 10
116.0
 20
996.582007905138
 30
0.0
 11
116.0
 21
967.4625
 31
0.0
  0
LINE
  5
406E
330
1D
100
AcDbEntity
  8
0
100
AcDbLine
 10
114.3
 20
994.5235
 30
0.0
 11
115.240992
 21
995.738948
 31
0.0
  0
LINE
  5
406F
330
1D
100
AcDbEntity
  8
0
100
AcDbLine
 10
95.9
 20
968.3275
 30
0.0
 11
98.0
 21
967.5275
 31
0.0
  0
LINE
  5
4070
330
1D
100
AcDbEntity
  8
0
100
AcDbLine
 10
95.2
 20
968.786875
 30
0.0
 11
95.9
 21
968.3275
 31
0.0
  0
LINE
  5
4071
330
1D
100
AcDbEntity
  8
0
100
AcDbLine
 10
39.148
 20
1118.4825
 30
0.0
 11
41.939
 21
1115.7075
 31
0.0
  0
LINE
  5
4072
330
1D
100
AcDbEntity
  8
0
100
AcDbLine
 10
31.16
 20
1130.6485
 30
0.0
 11
32.939
 21
1126.9965
 31
0.0
  0
LINE
  5
4073
330
1D
100
AcDbEntity
  8
0
100
AcDbLine
 10
30.509
 20
1132.0935
 30
0.0
 11
31.16
 21
1130.6485
 31
0.0
  0
LINE
  5
4074
330
1D
100
AcDbEntity
  8
0
100
AcDbLine
 10
34.182169553172
 20
1125.0343821384
 30
0.0
 11
35.116
 21
1123.5605
 31
0.0
  0
LINE
  5
4075
330
1D
100
AcDbEntity
  8
0
100
AcDbLine
 10
35.116
 20
1123.5605
 30
0.0
 11
35.934
 21
1122.3315
 31
0.0
  0
LINE
  5
4076
330
1D
100
AcDbEntity
  8
0
100
AcDbLine
 10
32.939
 20
1126.9965
 30
0.0
 11
33.283272479945
 21
1126.45312827695
 31
0.0
  0
LINE
  5
4077
330
1D
100
AcDbEntity
  8
0
100
AcDbLine
 10
28.331
 20
1138.9255
 30
0.0
 11
29.034
 21
1136.3225
 31
0.0
  0
LINE
  5
4078
330
1D
100
AcDbEntity
  8
0
100
AcDbLine
 10
29.034
 20
1136.3225
 30
0.0
 11
30.509
 21
1132.0935
 31
0.0
  0
LINE
  5
4079
330
1D
100
AcDbEntity
  8
0
100
AcDbLine
 10
31.056
 20
1134.0655
 30
0.0
 11
31.183
 21
1133.4785
 31
0.0
  0
LINE
  5
407A
330
1D
100
AcDbEntity
  8
0
100
AcDbLine
 10
30.3756
 20
1137.2115
 30
0.0
 11
31.183
 21
1133.4785
 31
0.0
  0
LINE
  5
407B
330
1D
100
AcDbEntity
  8
0
100
AcDbLine
 10
31.183
 20
1133.4785
 30
0.0
 11
32.372
 21
1129.8595
 31
0.0
  0
LINE
  5
407C
330
1D
100
AcDbEntity
  8
0
100
AcDbLine
 10
35.429
 20
1137.3445
 30
0.0
 11
35.628651278432
 21
1136.00289712677
 31
0.0
  0
LINE
  5
407D
330
1D
100
AcDbEntity
  8
0
100
AcDbLine
 10
35.706298173828
 20
1135.48113088125
 30
0.0
 11
35.875
 21
1134.3475
 31
0.0
  0
LINE
  5
407E
330
1D
100
AcDbEntity
  8
0
100
AcDbLine
 10
27.547
 20
1143.0425
 30
0.0
 11
28.331
 21
1138.9255
 31
0.0
  0
LINE
  5
407F
330
1D
100
AcDbEntity
  8
0
100
AcDbLine
 10
35.3
 20
1139.9985
 30
0.0
 11
35.429
 21
1137.3445
 31
0.0
  0
LINE
  5
4080
330
1D
100
AcDbEntity
  8
0
100
AcDbLine
 10
35.3
 20
1139.9985
 30
0.0
 11
35.545
 21
1143.6835
 31
0.0
  0
LINE
  5
4081
330
1D
100
AcDbEntity
  8
0
100
AcDbLine
 10
30.0
 20
1142.1625
 30
0.0
 11
30.3756
 21
1137.2115
 31
0.0
  0
LINE
  5
4082
330
1D
100
AcDbEntity
  8
0
100
AcDbLine
 10
30.0
 20
1142.1625
 30
0.0
 11
30.1123
 21
1145.1345
 31
0.0
  0
LINE
  5
4083
330
1D
100
AcDbEntity
  8
0
100
AcDbLine
 10
27.22
 20
1145.3725
 30
0.0
 11
27.547
 21
1143.0425
 31
0.0
  0
LINE
  5
4084
330
1D
100
AcDbEntity
  8
0
100
AcDbLine
 10
27.0
 20
1149.0435
 30
0.0
 11
27.22
 21
1145.3725
 31
0.0
  0
LINE
  5
4085
330
1D
100
AcDbEntity
  8
0
100
AcDbLine
 10
27.0
 20
1149.0435
 30
0.0
 11
27.015
 21
1149.6115
 31
0.0
  0
LINE
  5
4086
330
1D
100
AcDbEntity
  8
0
100
AcDbLine
 10
27.11
 20
1151.5995
 30
0.0
 11
27.377
 21
1154.2415
 31
0.0
  0
LINE
  5
4087
330
1D
100
AcDbEntity
  8
0
100
AcDbLine
 10
27.377
 20
1154.2415
 30
0.0
 11
27.831
 21
1156.5545
 31
0.0
  0
LINE
  5
4088
330
1D
100
AcDbEntity
  8
0
100
AcDbLine
 10
27.015
 20
1149.6115
 30
0.0
 11
27.036007856298
 21
1149.88019164271
 31
0.0
  0
LINE
  5
4089
330
1D
100
AcDbEntity
  8
0
100
AcDbLine
 10
35.545
 20
1143.6835
 30
0.0
 11
36.279
 21
1147.3135
 31
0.0
  0
LINE
  5
408A
330
1D
100
AcDbEntity
  8
0
100
AcDbLine
 10
32.043
 20
1152.8985
 30
0.0
 11
33.625
 21
1156.4795
 31
0.0
  0
LINE
  5
408B
330
1D
100
AcDbEntity
  8
0
100
AcDbLine
 10
30.7761
 20
1149.1225
 30
0.0
 11
32.043
 21
1152.8985
 31
0.0
  0
LINE
  5
408C
330
1D
100
AcDbEntity
  8
0
100
AcDbLine
 10
30.1123
 20
1145.1345
 30
0.0
 11
30.7761
 21
1149.1225
 31
0.0
  0
LINE
  5
408D
330
1D
100
AcDbEntity
  8
0
100
AcDbLine
 10
35.934
 20
1122.3315
 30
0.0
 11
39.148
 21
1118.4825
 31
0.0
  0
LINE
  5
408E
330
1D
100
AcDbEntity
  8
0
100
AcDbLine
 10
35.875
 20
1134.3475
 30
0.0
 11
35.969197309527
 21
1133.98008303828
 31
0.0
  0
LINE
  5
408F
330
1D
100
AcDbEntity
  8
0
100
AcDbLine
 10
36.669
 20
1131.2505
 30
0.0
 11
37.826438574239
 21
1128.14519954404
 31
0.0
  0
LINE
  5
4090
330
1D
100
AcDbEntity
  8
0
100
AcDbLine
 10
35.974104773973
 20
1133.96094145467
 30
0.0
 11
36.669
 21
1131.2505
 31
0.0
  0
LINE
  5
4091
330
1D
100
AcDbEntity
  8
0
100
AcDbLine
 10
37.921
 20
1127.8915
 30
0.0
 11
38.873143525739
 21
1125.98327847114
 31
0.0
  0
LINE
  5
4092
330
1D
100
AcDbEntity
  8
0
100
AcDbLine
 10
37.875184709587
 20
1128.01441817931
 30
0.0
 11
37.921
 21
1127.8915
 31
0.0
  0
LINE
  5
4093
330
1D
100
AcDbEntity
  8
0
100
AcDbLine
 10
39.725
 20
1124.2495
 30
0.0
 11
41.174
 21
1121.8885
 31
0.0
  0
LINE
  5
4094
330
1D
100
AcDbEntity
  8
0
100
AcDbLine
 10
36.279
 20
1147.3135
 30
0.0
 11
37.509
 21
1150.9025
 31
0.0
  0
LINE
  5
4095
330
1D
100
AcDbEntity
  8
0
100
AcDbLine
 10
37.509
 20
1150.9025
 30
0.0
 11
39.534
 21
1154.9495
 31
0.0
  0
LINE
  5
4096
330
1D
100
AcDbEntity
  8
0
100
AcDbLine
 10
39.534
 20
1154.9495
 30
0.0
 11
42.18
 21
1158.8355
 31
0.0
  0
LINE
  5
4097
330
1D
100
AcDbEntity
  8
0
100
AcDbLine
 10
27.831
 20
1156.5545
 30
0.0
 11
28.467
 21
1158.8565
 31
0.0
  0
LINE
  5
4098
330
1D
100
AcDbEntity
  8
0
100
AcDbLine
 10
28.467
 20
1158.8565
 30
0.0
 11
29.596
 21
1161.8945
 31
0.0
  0
LINE
  5
4099
330
1D
100
AcDbEntity
  8
0
100
AcDbLine
 10
29.596
 20
1161.8945
 30
0.0
 11
31.043
 21
1164.8825
 31
0.0
  0
LINE
  5
409A
330
1D
100
AcDbEntity
  8
0
100
AcDbLine
 10
33.625
 20
1156.4795
 30
0.0
 11
36.111
 21
1160.6255
 31
0.0
  0
LINE
  5
409B
330
1D
100
AcDbEntity
  8
0
100
AcDbLine
 10
36.111
 20
1160.6255
 30
0.0
 11
38.824
 21
1163.9805
 31
0.0
  0
LINE
  5
409C
330
1D
100
AcDbEntity
  8
0
100
AcDbLine
 10
32.8
 20
1167.8045
 30
0.0
 11
33.137
 21
1168.3535
 31
0.0
  0
LINE
  5
409D
330
1D
100
AcDbEntity
  8
0
100
AcDbLine
 10
34.859
 20
1170.6485
 30
0.0
 11
36.317
 21
1172.5595
 31
0.0
  0
LINE
  5
409E
330
1D
100
AcDbEntity
  8
0
100
AcDbLine
 10
33.137
 20
1168.3535
 30
0.0
 11
34.859
 21
1170.6485
 31
0.0
  0
LINE
  5
409F
330
1D
100
AcDbEntity
  8
0
100
AcDbLine
 10
31.043
 20
1164.8825
 30
0.0
 11
32.8
 21
1167.8045
 31
0.0
  0
LINE
  5
40A0
330
1D
100
AcDbEntity
  8
0
100
AcDbLine
 10
36.317
 20
1172.5595
 30
0.0
 11
40.138
 21
1176.5495
 31
0.0
  0
LINE
  5
40A1
330
1D
100
AcDbEntity
  8
0
100
AcDbLine
 10
40.138
 20
1176.5495
 30
0.0
 11
44.564
 21
1180.2815
 31
0.0
  0
LINE
  5
40A2
330
1D
100
AcDbEntity
  8
0
100
AcDbLine
 10
38.824
 20
1163.9805
 30
0.0
 11
42.131
 21
1167.3555
 31
0.0
  0
LINE
  5
40A3
330
1D
100
AcDbEntity
  8
0
100
AcDbLine
 10
41.174
 20
1121.8885
 30
0.0
 11
44.397
 21
1117.6485
 31
0.0
  0
LINE
  5
40A4
330
1D
100
AcDbEntity
  8
0
100
AcDbLine
 10
45.015
 20
1113.0305
 30
0.0
 11
48.335
 21
1110.4605
 31
0.0
  0
LINE
  5
40A5
330
1D
100
AcDbEntity
  8
0
100
AcDbLine
 10
41.939
 20
1115.7075
 30
0.0
 11
45.015
 21
1113.0305
 31
0.0
  0
LINE
  5
40A6
330
1D
100
AcDbEntity
  8
0
100
AcDbLine
 10
44.397
 20
1117.6485
 30
0.0
 11
46.671
 21
1115.2125
 31
0.0
  0
LINE
  5
40A7
330
1D
100
AcDbEntity
  8
0
100
AcDbLine
 10
42.18
 20
1158.8355
 30
0.0
 11
45.416
 21
1162.5275
 31
0.0
  0
LINE
  5
40A8
330
1D
100
AcDbEntity
  8
0
100
AcDbLine
 10
42.131
 20
1167.3555
 30
0.0
 11
44.449
 21
1169.4495
 31
0.0
  0
LINE
  5
40A9
330
1D
100
AcDbEntity
  8
0
100
AcDbLine
 10
45.416
 20
1162.5275
 30
0.0
 11
49.212
 21
1165.9965
 31
0.0
  0
LINE
  5
40AA
330
1D
100
AcDbEntity
  8
0
100
AcDbLine
 10
44.564
 20
1180.2815
 30
0.0
 11
49.821
 21
1183.8225
 31
0.0
  0
LINE
  5
40AB
330
1D
100
AcDbEntity
  8
0
100
AcDbLine
 10
44.449
 20
1169.4495
 30
0.0
 11
46.868
 21
1171.6085
 31
0.0
  0
LINE
  5
40AC
330
1D
100
AcDbEntity
  8
0
100
AcDbLine
 10
46.671
 20
1115.2125
 30
0.0
 11
48.154130782373
 21
1113.9503422201
 31
0.0
  0
LINE
  5
40AD
330
1D
100
AcDbEntity
  8
0
100
AcDbLine
 10
48.335
 20
1110.4605
 30
0.0
 11
51.878
 21
1107.9905
 31
0.0
  0
LINE
  5
40AE
330
1D
100
AcDbEntity
  8
0
100
AcDbLine
 10
48.154130782373
 20
1113.9503422201
 30
0.0
 11
49.365
 21
1112.8185
 31
0.0
  0
LINE
  5
40AF
330
1D
100
AcDbEntity
  8
0
100
AcDbLine
 10
46.868
 20
1171.6085
 30
0.0
 11
51.383
 21
1174.7345
 31
0.0
  0
LINE
  5
40B0
330
1D
100
AcDbEntity
  8
0
100
AcDbLine
 10
49.365
 20
1112.8185
 30
0.0
 11
50.529291273728
 21
1111.87960002986
 31
0.0
  0
LINE
  5
40B1
330
1D
100
AcDbEntity
  8
0
100
AcDbLine
 10
49.212
 20
1165.9965
 30
0.0
 11
53.546
 21
1169.2245
 31
0.0
  0
LINE
  5
40B2
330
1D
100
AcDbEntity
  8
0
100
AcDbLine
 10
51.878
 20
1107.9905
 30
0.0
 11
52.358709279763
 21
1107.69349002244
 31
0.0
  0
LINE
  5
40B3
330
1D
100
AcDbEntity
  8
0
100
AcDbLine
 10
52.551
 20
1107.5405
 30
0.0
 11
55.754
 21
1105.5145
 31
0.0
  0
LINE
  5
40B4
330
1D
100
AcDbEntity
  8
0
100
AcDbLine
 10
53.847
 20
1109.1275
 30
0.0
 11
56.54
 21
1107.3225
 31
0.0
  0
LINE
  5
40B5
330
1D
100
AcDbEntity
  8
0
100
AcDbLine
 10
49.821
 20
1183.8225
 30
0.0
 11
55.047
 21
1186.8395
 31
0.0
  0
LINE
  5
40B6
330
1D
100
AcDbEntity
  8
0
100
AcDbLine
 10
51.383
 20
1174.7345
 30
0.0
 11
55.678
 21
1177.2805
 31
0.0
  0
LINE
  5
40B7
330
1D
100
AcDbEntity
  8
0
100
AcDbLine
 10
53.546
 20
1169.2245
 30
0.0
 11
58.366
 21
1172.1665
 31
0.0
  0
LINE
  5
40B8
330
1D
100
AcDbEntity
  8
0
100
AcDbLine
 10
55.047
 20
1186.8395
 30
0.0
 11
61.006
 21
1189.6045
 31
0.0
  0
LINE
  5
40B9
330
1D
100
AcDbEntity
  8
0
100
AcDbLine
 10
55.754
 20
1105.5145
 30
0.0
 11
60.201
 21
1102.9335
 31
0.0
  0
LINE
  5
40BA
330
1D
100
AcDbEntity
  8
0
100
AcDbLine
 10
56.54
 20
1107.3225
 30
0.0
 11
61.276
 21
1104.5985
 31
0.0
  0
LINE
  5
40BB
330
1D
100
AcDbEntity
  8
0
100
AcDbLine
 10
55.678
 20
1177.2805
 30
0.0
 11
60.46
 21
1179.5985
 31
0.0
  0
LINE
  5
40BC
330
1D
100
AcDbEntity
  8
0
100
AcDbLine
 10
58.366
 20
1172.1665
 30
0.0
 11
63.626
 21
1174.7965
 31
0.0
  0
LINE
  5
40BD
330
1D
100
AcDbEntity
  8
0
100
AcDbLine
 10
60.201
 20
1102.9335
 30
0.0
 11
63.623
 21
1101.0585
 31
0.0
  0
LINE
  5
40BE
330
1D
100
AcDbEntity
  8
0
100
AcDbLine
 10
61.276
 20
1104.5985
 30
0.0
 11
67.898
 21
1101.5015
 31
0.0
  0
LINE
  5
40BF
330
1D
100
AcDbEntity
  8
0
100
AcDbLine
 10
60.46
 20
1179.5985
 30
0.0
 11
63.754
 21
1180.8165
 31
0.0
  0
LINE
  5
40C0
330
1D
100
AcDbEntity
  8
0
100
AcDbLine
 10
61.006
 20
1189.6045
 30
0.0
 11
67.367
 21
1191.9905
 31
0.0
  0
LINE
  5
40C1
330
1D
100
AcDbEntity
  8
0
100
AcDbLine
 10
63.623
 20
1101.0585
 30
0.0
 11
70.474
 21
1097.3035
 31
0.0
  0
LINE
  5
40C2
330
1D
100
AcDbEntity
  8
0
100
AcDbLine
 10
63.626
 20
1174.7965
 30
0.0
 11
69.277
 21
1177.0885
 31
0.0
  0
LINE
  5
40C3
330
1D
100
AcDbEntity
  8
0
100
AcDbLine
 10
63.754
 20
1180.8165
 30
0.0
 11
67.073
 21
1182.2645
 31
0.0
  0
LINE
  5
40C4
330
1D
100
AcDbEntity
  8
0
100
AcDbLine
 10
67.073
 20
1182.2645
 30
0.0
 11
70.608
 21
1183.2625
 31
0.0
  0
LINE
  5
40C5
330
1D
100
AcDbEntity
  8
0
100
AcDbLine
 10
67.548
 20
1192.0465
 30
0.0
 11
74.219
 21
1194.0205
 31
0.0
  0
LINE
  5
40C6
330
1D
100
AcDbEntity
  8
0
100
AcDbLine
 10
67.367
 20
1191.9905
 30
0.0
 11
67.548
 21
1192.0465
 31
0.0
  0
LINE
  5
40C7
330
1D
100
AcDbEntity
  8
0
100
AcDbLine
 10
67.898
 20
1101.5015
 30
0.0
 11
71.539
 21
1099.8735
 31
0.0
  0
LINE
  5
40C8
330
1D
100
AcDbEntity
  8
0
100
AcDbLine
 10
69.277
 20
1177.0885
 30
0.0
 11
73.734
 21
1178.5715
 31
0.0
  0
LINE
  5
40C9
330
1D
100
AcDbEntity
  8
0
100
AcDbLine
 10
71.539
 20
1099.8735
 30
0.0
 11
75.188
 21
1098.1745
 31
0.0
  0
LINE
  5
40CA
330
1D
100
AcDbEntity
  8
0
100
AcDbLine
 10
70.608
 20
1183.2625
 30
0.0
 11
74.178
 21
1184.4895
 31
0.0
  0
LINE
  5
40CB
330
1D
100
AcDbEntity
  8
0
100
AcDbLine
 10
73.637391930495
 20
1095.336987405
 30
0.0
 11
74.33
 21
1094.8925
 31
0.0
  0
LINE
  5
40CC
330
1D
100
AcDbEntity
  8
0
100
AcDbLine
 10
74.33
 20
1094.8925
 30
0.0
 11
77.292
 21
1092.5095
 31
0.0
  0
LINE
  5
40CD
330
1D
100
AcDbEntity
  8
0
100
AcDbLine
 10
74.178
 20
1184.4895
 30
0.0
 11
77.797
 21
1185.2185
 31
0.0
  0
LINE
  5
40CE
330
1D
100
AcDbEntity
  8
0
100
AcDbLine
 10
73.734
 20
1178.5715
 30
0.0
 11
78.524
 21
1179.8825
 31
0.0
  0
LINE
  5
40CF
330
1D
100
AcDbEntity
  8
0
100
AcDbLine
 10
74.219
 20
1194.0205
 30
0.0
 11
81.169
 21
1195.5765
 31
0.0
  0
LINE
  5
40D0
330
1D
100
AcDbEntity
  8
0
100
AcDbLine
 10
75.188
 20
1098.1745
 30
0.0
 11
78.493
 21
1096.5005
 31
0.0
  0
LINE
  5
40D1
330
1D
100
AcDbEntity
  8
0
100
AcDbLine
 10
76.085130337321
 20
1130.61361234273
 30
0.0
 11
76.086409571177
 21
1130.5249797113
 31
0.0
  0
LINE
  5
40D2
330
1D
100
AcDbEntity
  8
0
100
AcDbLine
 10
77.292
 20
1092.5095
 30
0.0
 11
79.247
 21
1090.3805
 31
0.0
  0
LINE
  5
40D3
330
1D
100
AcDbEntity
  8
0
100
AcDbLine
 10
77.797
 20
1185.2185
 30
0.0
 11
81.456
 21
1186.1815
 31
0.0
  0
LINE
  5
40D4
330
1D
100
AcDbEntity
  8
0
100
AcDbLine
 10
78.493
 20
1096.5005
 30
0.0
 11
80.868
 21
1095.1865
 31
0.0
  0
LINE
  5
40D5
330
1D
100
AcDbEntity
  8
0
100
AcDbLine
 10
78.379
 20
1131.5395
 30
0.0
 11
78.642
 21
1134.2935
 31
0.0
  0
LINE
  5
40D6
330
1D
100
AcDbEntity
  8
0
100
AcDbLine
 10
78.379
 20
1131.5395
 30
0.0
 11
78.507
 21
1129.4265
 31
0.0
  0
LINE
  5
40D7
330
1D
100
AcDbEntity
  8
0
100
AcDbLine
 10
78.507
 20
1129.4265
 30
0.0
 11
79.202
 21
1127.2435
 31
0.0
  0
LINE
  5
40D8
330
1D
100
AcDbEntity
  8
0
100
AcDbLine
 10
78.642
 20
1134.2935
 30
0.0
 11
79.152
 21
1135.9895
 31
0.0
  0
LINE
  5
40D9
330
1D
100
AcDbEntity
  8
0
100
AcDbLine
 10
79.247
 20
1090.3805
 30
0.0
 11
79.836390815752
 21
1089.53716113428
 31
0.0
  0
LINE
  5
40DA
330
1D
100
AcDbEntity
  8
0
100
AcDbLine
 10
79.836390815752
 20
1089.53716113428
 30
0.0
 11
80.368
 21
1088.7765
 31
0.0
  0
LINE
  5
40DB
330
1D
100
AcDbEntity
  8
0
100
AcDbLine
 10
81.126238069175
 20
1087.35307301379
 30
0.0
 11
82.096
 21
1085.0115
 31
0.0
  0
LINE
  5
40DC
330
1D
100
AcDbEntity
  8
0
100
AcDbLine
 10
80.868
 20
1095.1865
 30
0.0
 11
82.229
 21
1094.3395
 31
0.0
  0
LINE
  5
40DD
330
1D
100
AcDbEntity
  8
0
100
AcDbLine
 10
79.202
 20
1127.2435
 30
0.0
 11
80.37
 21
1125.2305
 31
0.0
  0
LINE
  5
40DE
330
1D
100
AcDbEntity
  8
0
100
AcDbLine
 10
80.37
 20
1125.2305
 30
0.0
 11
82.797
 21
1122.3065
 31
0.0
  0
LINE
  5
40DF
330
1D
100
AcDbEntity
  8
0
100
AcDbLine
 10
82.495840870191
 20
1083.69360344759
 30
0.0
 11
83.154
 21
1080.6155
 31
0.0
  0
LINE
  5
40E0
330
1D
100
AcDbEntity
  8
0
100
AcDbLine
 10
82.229
 20
1094.3395
 30
0.0
 11
85.493
 21
1092.4145
 31
0.0
  0
LINE
  5
40E1
330
1D
100
AcDbEntity
  8
0
100
AcDbLine
 10
82.797
 20
1122.3065
 30
0.0
 11
88.459
 21
1118.8415
 31
0.0
  0
LINE
  5
40E2
330
1D
100
AcDbEntity
  8
0
100
AcDbLine
 10
79.152
 20
1135.9895
 30
0.0
 11
79.949
 21
1137.2965
 31
0.0
  0
LINE
  5
40E3
330
1D
100
AcDbEntity
  8
0
100
AcDbLine
 10
79.949
 20
1137.2965
 30
0.0
 11
81.832
 21
1139.9115
 31
0.0
  0
LINE
  5
40E4
330
1D
100
AcDbEntity
  8
0
100
AcDbLine
 10
81.832
 20
1139.9115
 30
0.0
 11
83.465
 21
1141.0965
 31
0.0
  0
LINE
  5
40E5
330
1D
100
AcDbEntity
  8
0
100
AcDbLine
 10
81.456
 20
1186.1815
 30
0.0
 11
85.271
 21
1186.6735
 31
0.0
  0
LINE
  5
40E6
330
1D
100
AcDbEntity
  8
0
100
AcDbLine
 10
81.169
 20
1195.5765
 30
0.0
 11
88.329
 21
1196.6975
 31
0.0
  0
LINE
  5
40E7
330
1D
100
AcDbEntity
  8
0
100
AcDbLine
 10
81.855
 20
1180.4075
 30
0.0
 11
85.192
 21
1181.1545
 31
0.0
  0
LINE
  5
40E8
330
1D
100
AcDbEntity
  8
0
100
AcDbLine
 10
83.408334065258
 20
1079.11513579064
 30
0.0
 11
83.518
 21
1078.3875
 31
0.0
  0
LINE
  5
40E9
330
1D
100
AcDbEntity
  8
0
100
AcDbLine
 10
83.372
 20
1128.4005
 30
0.0
 11
83.539181581548
 21
1129.53695906558
 31
0.0
  0
LINE
  5
40EA
330
1D
100
AcDbEntity
  8
0
100
AcDbLine
 10
83.372
 20
1128.4005
 30
0.0
 11
84.256
 21
1127.2965
 31
0.0
  0
LINE
  5
40EB
330
1D
100
AcDbEntity
  8
0
100
AcDbLine
 10
83.465
 20
1141.0965
 30
0.0
 11
86.193
 21
1143.1735
 31
0.0
  0
LINE
  5
40EC
330
1D
100
AcDbEntity
  8
0
100
AcDbLine
 10
84.549
 20
1054.5635
 30
0.0
 11
84.76
 21
1049.8025
 31
0.0
  0
LINE
  5
40ED
330
1D
100
AcDbEntity
  8
0
100
AcDbLine
 10
83.518
 20
1078.3875
 30
0.0
 11
83.982787911641
 21
1073.98246510295
 31
0.0
  0
LINE
  5
40EE
330
1D
100
AcDbEntity
  8
0
100
AcDbLine
 10
83.986084569018
 20
1073.93612679325
 30
0.0
 11
84.289
 21
1066.8495
 31
0.0
  0
LINE
  5
40EF
330
1D
100
AcDbEntity
  8
0
100
AcDbLine
 10
84.289
 20
1066.8495
 30
0.0
 11
84.549
 21
1054.5635
 31
0.0
  0
LINE
  5
40F0
330
1D
100
AcDbEntity
  8
0
100
AcDbLine
 10
84.46
 20
1104.4305
 30
0.0
 11
86.298
 21
1103.6355
 31
0.0
  0
LINE
  5
40F1
330
1D
100
AcDbEntity
  8
0
100
AcDbLine
 10
84.76
 20
1049.8025
 30
0.0
 11
85.246
 21
1040.2835
 31
0.0
  0
LINE
  5
40F2
330
1D
100
AcDbEntity
  8
0
100
AcDbLine
 10
84.369639893489
 20
1105.05119447397
 30
0.0
 11
84.46
 21
1104.4305
 31
0.0
  0
LINE
  5
40F3
330
1D
100
AcDbEntity
  8
0
100
AcDbLine
 10
85.246
 20
1040.2835
 30
0.0
 11
85.823
 21
1032.8975
 31
0.0
  0
LINE
  5
40F4
330
1D
100
AcDbEntity
  8
0
100
AcDbLine
 10
85.493
 20
1092.4145
 30
0.0
 11
90.424
 21
1089.3475
 31
0.0
  0
LINE
  5
40F5
330
1D
100
AcDbEntity
  8
0
100
AcDbLine
 10
85.823
 20
1032.8975
 30
0.0
 11
86.66
 21
1023.2245
 31
0.0
  0
LINE
  5
40F6
330
1D
100
AcDbEntity
  8
0
100
AcDbLine
 10
86.504
 20
1105.3195
 30
0.0
 11
87.655
 21
1104.4755
 31
0.0
  0
LINE
  5
40F7
330
1D
100
AcDbEntity
  8
0
100
AcDbLine
 10
86.298
 20
1103.6355
 30
0.0
 11
87.655
 21
1104.4755
 31
0.0
  0
LINE
  5
40F8
330
1D
100
AcDbEntity
  8
0
100
AcDbLine
 10
86.66
 20
1023.2245
 30
0.0
 11
86.913
 21
1020.7135
 31
0.0
  0
LINE
  5
40F9
330
1D
100
AcDbEntity
  8
0
100
AcDbLine
 10
86.913
 20
1020.7135
 30
0.0
 11
87.02
 21
1019.4975
 31
0.0
  0
LINE
  5
40FA
330
1D
100
AcDbEntity
  8
0
100
AcDbLine
 10
87.02
 20
1019.4975
 30
0.0
 11
87.123
 21
1018.1525
 31
0.0
  0
LINE
  5
40FB
330
1D
100
AcDbEntity
  8
0
100
AcDbLine
 10
87.245
 20
1016.8735
 30
0.0
 11
88.203
 21
1008.9015
 31
0.0
  0
LINE
  5
40FC
330
1D
100
AcDbEntity
  8
0
100
AcDbLine
 10
87.123
 20
1018.1525
 30
0.0
 11
87.245
 21
1016.8735
 31
0.0
  0
LINE
  5
40FD
330
1D
100
AcDbEntity
  8
0
100
AcDbLine
 10
87.555181232303
 20
1017.02207772777
 30
0.0
 11
88.958
 21
1012.7185
 31
0.0
  0
LINE
  5
40FE
330
1D
100
AcDbEntity
  8
0
100
AcDbLine
 10
87.655
 20
1104.4755
 30
0.0
 11
87.810180386685
 21
1105.72389146901
 31
0.0
  0
LINE
  5
40FF
330
1D
100
AcDbEntity
  8
0
100
AcDbLine
 10
85.705
 20
1126.6285
 30
0.0
 11
87.593
 21
1126.4075
 31
0.0
  0
LINE
  5
4100
330
1D
100
AcDbEntity
  8
0
100
AcDbLine
 10
87.593
 20
1126.4075
 30
0.0
 11
89.419
 21
1126.6845
 31
0.0
  0
LINE
  5
4101
330
1D
100
AcDbEntity
  8
0
100
AcDbLine
 10
84.256
 20
1127.2965
 30
0.0
 11
85.705
 21
1126.6285
 31
0.0
  0
LINE
  5
4102
330
1D
100
AcDbEntity
  8
0
100
AcDbLine
 10
84.601
 20
1130.6315
 30
0.0
 11
85.524
 21
1130.9835
 31
0.0
  0
LINE
  5
4103
330
1D
100
AcDbEntity
  8
0
100
AcDbLine
 10
85.524
 20
1130.9835
 30
0.0
 11
87.294
 21
1131.1655
 31
0.0
  0
LINE
  5
4104
330
1D
100
AcDbEntity
  8
0
100
AcDbLine
 10
86.193
 20
1143.1735
 30
0.0
 11
89.197
 21
1144.7175
 31
0.0
  0
LINE
  5
4105
330
1D
100
AcDbEntity
  8
0
100
AcDbLine
 10
88.203
 20
1008.9015
 30
0.0
 11
88.468
 21
1007.6765
 31
0.0
  0
LINE
  5
4106
330
1D
100
AcDbEntity
  8
0
100
AcDbLine
 10
88.908
 20
1006.2545
 30
0.0
 11
89.191
 21
1005.5645
 31
0.0
  0
LINE
  5
4107
330
1D
100
AcDbEntity
  8
0
100
AcDbLine
 10
88.685
 20
1006.7515
 30
0.0
 11
88.908
 21
1006.2545
 31
0.0
  0
LINE
  5
4108
330
1D
100
AcDbEntity
  8
0
100
AcDbLine
 10
89.191
 20
1005.5645
 30
0.0
 11
89.716
 21
1004.7425
 31
0.0
  0
LINE
  5
4109
330
1D
100
AcDbEntity
  8
0
100
AcDbLine
 10
88.468
 20
1007.6765
 30
0.0
 11
88.685
 21
1006.7515
 31
0.0
  0
LINE
  5
410A
330
1D
100
AcDbEntity
  8
0
100
AcDbLine
 10
88.958
 20
1012.7185
 30
0.0
 11
91.797
 21
1009.8155
 31
0.0
  0
LINE
  5
410B
330
1D
100
AcDbEntity
  8
0
100
AcDbLine
 10
89.716
 20
1004.7425
 30
0.0
 11
90.101
 21
1004.1775
 31
0.0
  0
LINE
  5
410C
330
1D
100
AcDbEntity
  8
0
100
AcDbLine
 10
88.459
 20
1118.8415
 30
0.0
 11
92.46
 21
1117.2805
 31
0.0
  0
LINE
  5
410D
330
1D
100
AcDbEntity
  8
0
100
AcDbLine
 10
89.419
 20
1126.6845
 30
0.0
 11
90.838
 21
1127.4575
 31
0.0
  0
LINE
  5
410E
330
1D
100
AcDbEntity
  8
0
100
AcDbLine
 10
89.197
 20
1144.7175
 30
0.0
 11
93.371
 21
1146.1495
 31
0.0
  0
LINE
  5
410F
330
1D
100
AcDbEntity
  8
0
100
AcDbLine
 10
89.126
 20
1130.9115
 30
0.0
 11
90.368
 21
1130.3435
 31
0.0
  0
LINE
  5
4110
330
1D
100
AcDbEntity
  8
0
100
AcDbLine
 10
85.192
 20
1181.1545
 30
0.0
 11
92.034
 21
1182.0985
 31
0.0
  0
LINE
  5
4111
330
1D
100
AcDbEntity
  8
0
100
AcDbLine
 10
85.271
 20
1186.6735
 30
0.0
 11
89.135
 21
1187.3945
 31
0.0
  0
LINE
  5
4112
330
1D
100
AcDbEntity
  8
0
100
AcDbLine
 10
88.329
 20
1196.6975
 30
0.0
 11
95.63
 21
1197.3775
 31
0.0
  0
LINE
  5
4113
330
1D
100
AcDbEntity
  8
0
100
AcDbLine
 10
89.135
 20
1187.3945
 30
0.0
 11
95.863
 21
1188.0115
 31
0.0
  0
LINE
  5
4114
330
1D
100
AcDbEntity
  8
0
100
AcDbLine
 10
93.284
 20
1001.6345
 30
0.0
 11
94.406
 21
1001.0755
 31
0.0
  0
LINE
  5
4115
330
1D
100
AcDbEntity
  8
0
100
AcDbLine
 10
94.406
 20
1001.0755
 30
0.0
 11
95.673
 21
1000.5945
 31
0.0
  0
LINE
  5
4116
330
1D
100
AcDbEntity
  8
0
100
AcDbLine
 10
90.101
 20
1004.1775
 30
0.0
 11
90.767
 21
1003.4135
 31
0.0
  0
LINE
  5
4117
330
1D
100
AcDbEntity
  8
0
100
AcDbLine
 10
90.424
 20
1089.3475
 30
0.0
 11
92.4
 21
1088.2265
 31
0.0
  0
LINE
  5
4118
330
1D
100
AcDbEntity
  8
0
100
AcDbLine
 10
90.767
 20
1003.4135
 30
0.0
 11
91.722
 21
1002.5855
 31
0.0
  0
LINE
  5
4119
330
1D
100
AcDbEntity
  8
0
100
AcDbLine
 10
90.838
 20
1127.4575
 30
0.0
 11
91.522429040369
 21
1128.45028811337
 31
0.0
  0
LINE
  5
411A
330
1D
100
AcDbEntity
  8
0
100
AcDbLine
 10
91.722
 20
1002.5855
 30
0.0
 11
93.284
 21
1001.6345
 31
0.0
  0
LINE
  5
411B
330
1D
100
AcDbEntity
  8
0
100
AcDbLine
 10
91.797
 20
1009.8155
 30
0.0
 11
94.557
 21
1008.1405
 31
0.0
  0
LINE
  5
411C
330
1D
100
AcDbEntity
  8
0
100
AcDbLine
 10
92.46
 20
1117.2805
 30
0.0
 11
97.588
 21
1116.1485
 31
0.0
  0
LINE
  5
411D
330
1D
100
AcDbEntity
  8
0
100
AcDbLine
 10
93.371
 20
1146.1495
 30
0.0
 11
98.906
 21
1147.2155
 31
0.0
  0
LINE
  5
411E
330
1D
100
AcDbEntity
  8
0
100
AcDbLine
 10
92.034
 20
1182.0985
 30
0.0
 11
102.994
 21
1182.7135
 31
0.0
  0
LINE
  5
411F
330
1D
100
AcDbEntity
  8
0
100
AcDbLine
 10
95.673
 20
1000.5945
 30
0.0
 11
97.041
 21
1000.2035
 31
0.0
  0
LINE
  5
4120
330
1D
100
AcDbEntity
  8
0
100
AcDbLine
 10
97.041
 20
1000.2035
 30
0.0
 11
99.956
 21
999.6975
 31
0.0
  0
LINE
  5
4121
330
1D
100
AcDbEntity
  8
0
100
AcDbLine
 10
97.033
 20
1007.1285
 30
0.0
 11
100.157
 21
1006.5595
 31
0.0
  0
LINE
  5
4122
330
1D
100
AcDbEntity
  8
0
100
AcDbLine
 10
95.63
 20
1197.3775
 30
0.0
 11
103.0
 21
1197.5855
 31
0.0
  0
LINE
  5
4123
330
1D
100
AcDbEntity
  8
0
100
AcDbLine
 10
95.863
 20
1188.0115
 30
0.0
 11
102.822
 21
1188.0515
 31
0.0
  0
LINE
  5
4124
330
1D
100
AcDbEntity
  8
0
100
AcDbLine
 10
95.863
 20
1188.0115
 30
0.0
 11
103.0
 21
1188.0515
 31
0.0
  0
LINE
  5
4125
330
1D
100
AcDbEntity
  8
0
100
AcDbLine
 10
99.956
 20
999.6975
 30
0.0
 11
103.0
 21
999.5325
 31
0.0
  0
LINE
  5
4126
330
1D
100
AcDbEntity
  8
0
100
AcDbLine
 10
103.0
 20
999.5325
 30
0.0
 11
106.044
 21
999.6975
 31
0.0
  0
LINE
  5
4127
330
1D
100
AcDbEntity
  8
0
100
AcDbLine
 10
106.044
 20
999.6975
 30
0.0
 11
108.959
 21
1000.2035
 31
0.0
  0
LINE
  5
4128
330
1D
100
AcDbEntity
  8
0
100
AcDbLine
 10
108.959
 20
1000.2035
 30
0.0
 11
110.327
 21
1000.5945
 31
0.0
  0
LINE
  5
4129
330
1D
100
AcDbEntity
  8
0
100
AcDbLine
 10
110.327
 20
1000.5945
 30
0.0
 11
111.594
 21
1001.0755
 31
0.0
  0
LINE
  5
412A
330
1D
100
AcDbEntity
  8
0
100
AcDbLine
 10
99.863
 20
1086.7615
 30
0.0
 11
102.43
 21
1086.3815
 31
0.0
  0
LINE
  5
412B
330
1D
100
AcDbEntity
  8
0
100
AcDbLine
 10
100.157
 20
1006.5595
 30
0.0
 11
103.0
 21
1006.3665
 31
0.0
  0
LINE
  5
412C
330
1D
100
AcDbEntity
  8
0
100
AcDbLine
 10
100.084
 20
1116.0595
 30
0.0
 11
103.0
 21
1115.9915
 31
0.0
  0
LINE
  5
412D
330
1D
100
AcDbEntity
  8
0
100
AcDbLine
 10
100.924538672273
 20
1084.79687480149
 30
0.0
 11
103.0
 21
1084.5505
 31
0.0
  0
LINE
  5
412E
330
1D
100
AcDbEntity
  8
0
100
AcDbLine
 10
111.594
 20
1001.0755
 30
0.0
 11
112.716
 21
1001.6345
 31
0.0
  0
LINE
  5
412F
330
1D
100
AcDbEntity
  8
0
100
AcDbLine
 10
112.716
 20
1001.6345
 30
0.0
 11
114.278
 21
1002.5855
 31
0.0
  0
LINE
  5
4130
330
1D
100
AcDbEntity
  8
0
100
AcDbLine
 10
98.906
 20
1147.2155
 30
0.0
 11
103.0
 21
1147.4565
 31
0.0
  0
LINE
  5
4131
330
1D
100
AcDbEntity
  8
0
100
AcDbLine
 10
102.822
 20
1188.0515
 30
0.0
 11
103.0
 21
1188.0515
 31
0.0
  0
LINE
  5
4132
330
1D
100
AcDbEntity
  8
0
100
AcDbLine
 10
103.0
 20
1188.0515
 30
0.0
 11
103.178
 21
1188.0515
 31
0.0
  0
LINE
  5
4133
330
1D
100
AcDbEntity
  8
0
100
AcDbLine
 10
114.278
 20
1002.5855
 30
0.0
 11
115.233
 21
1003.4135
 31
0.0
  0
LINE
  5
4134
330
1D
100
AcDbEntity
  8
0
100
AcDbLine
 10
115.233
 20
1003.4135
 30
0.0
 11
115.899
 21
1004.1775
 31
0.0
  0
LINE
  5
4135
330
1D
100
AcDbEntity
  8
0
100
AcDbLine
 10
116.284
 20
1004.7425
 30
0.0
 11
116.809
 21
1005.5645
 31
0.0
  0
LINE
  5
4136
330
1D
100
AcDbEntity
  8
0
100
AcDbLine
 10
115.899
 20
1004.1775
 30
0.0
 11
116.284
 21
1004.7425
 31
0.0
  0
LINE
  5
4137
330
1D
100
AcDbEntity
  8
0
100
AcDbLine
 10
116.809
 20
1005.5645
 30
0.0
 11
117.092
 21
1006.2545
 31
0.0
  0
LINE
  5
4138
330
1D
100
AcDbEntity
  8
0
100
AcDbLine
 10
117.092
 20
1006.2545
 30
0.0
 11
117.315
 21
1006.7515
 31
0.0
  0
LINE
  5
4139
330
1D
100
AcDbEntity
  8
0
100
AcDbLine
 10
97.047748237493
 20
1000.202328607831
 30
0.0
 11
97.3
 21
1000.0885
 31
0.0
  0
LINE
  5
413A
330
1D
100
AcDbEntity
  8
0
100
AcDbLine
 10
94.557
 20
1008.1405
 30
0.0
 11
97.033
 21
1007.1285
 31
0.0
  0
LINE
  5
413B
330
1D
100
AcDbEntity
  8
0
100
AcDbLine
 10
103.0
 20
1103.5375
 30
0.0
 11
99.834854044154
 21
1103.263835116816
 31
0.0
  0
LINE
  5
413C
330
1D
100
AcDbEntity
  8
0
100
AcDbLine
 10
99.834854044154
 20
1103.263835116816
 30
0.0
 11
97.613264423544
 21
1102.793775852002
 31
0.0
  0
LINE
  5
413D
330
1D
100
AcDbEntity
  8
0
100
AcDbLine
 10
97.613264423544
 20
1102.793775852002
 30
0.0
 11
94.151304677977
 21
1101.466389658653
 31
0.0
  0
LINE
  5
413E
330
1D
100
AcDbEntity
  8
0
100
AcDbLine
 10
94.151304677977
 20
1101.466389658653
 30
0.0
 11
92.200770192041
 21
1100.163873274357
 31
0.0
  0
LINE
  5
413F
330
1D
100
AcDbEntity
  8
0
100
AcDbLine
 10
92.200770192041
 20
1100.163873274357
 30
0.0
 11
91.248772579002
 21
1099.004803300251
 31
0.0
  0
LINE
  5
4140
330
1D
100
AcDbEntity
  8
0
100
AcDbLine
 10
91.248772579002
 20
1099.004803300251
 30
0.0
 11
90.337463513575
 21
1096.547134349206
 31
0.0
  0
LINE
  5
4141
330
1D
100
AcDbEntity
  8
0
100
AcDbLine
 10
90.337463513575
 20
1096.547134349206
 30
0.0
 11
90.337463513575
 21
1095.931712955272
 31
0.0
  0
LINE
  5
4142
330
1D
100
AcDbEntity
  8
0
100
AcDbLine
 10
90.337463513575
 20
1095.931712955272
 30
0.0
 11
90.406371700541
 21
1095.204612775566
 31
0.0
  0
LINE
  5
4143
330
1D
100
AcDbEntity
  8
0
100
AcDbLine
 10
90.406371700541
 20
1095.204612775566
 30
0.0
 11
90.677993405103
 21
1093.858744343954
 31
0.0
  0
LINE
  5
4144
330
1D
100
AcDbEntity
  8
0
100
AcDbLine
 10
90.677993405103
 20
1093.858744343954
 30
0.0
 11
90.980670332967
 21
1093.151580976126
 31
0.0
  0
LINE
  5
4145
330
1D
100
AcDbEntity
  8
0
100
AcDbLine
 10
90.980670332967
 20
1093.151580976126
 30
0.0
 11
91.994212049903
 21
1091.601193035219
 31
0.0
  0
LINE
  5
4146
330
1D
100
AcDbEntity
  8
0
100
AcDbLine
 10
91.994212049903
 20
1091.601193035219
 30
0.0
 11
92.625517761174
 21
1090.876286792624
 31
0.0
  0
LINE
  5
4147
330
1D
100
AcDbEntity
  8
0
100
AcDbLine
 10
92.625517761174
 20
1090.876286792624
 30
0.0
 11
93.460311025469
 21
1090.033275325077
 31
0.0
  0
LINE
  5
4148
330
1D
100
AcDbEntity
  8
0
100
AcDbLine
 10
93.460311025469
 20
1090.033275325077
 30
0.0
 11
94.560544008788
 21
1089.125470803236
 31
0.0
  0
LINE
  5
4149
330
1D
100
AcDbEntity
  8
0
100
AcDbLine
 10
94.560544008788
 20
1089.125470803236
 30
0.0
 11
95.486035381235
 21
1088.464411199068
 31
0.0
  0
LINE
  5
414A
330
1D
100
AcDbEntity
  8
0
100
AcDbLine
 10
95.486035381235
 20
1088.464411199068
 30
0.0
 11
96.829242287864
 21
1087.655791656616
 31
0.0
  0
LINE
  5
414B
330
1D
100
AcDbEntity
  8
0
100
AcDbLine
 10
96.829242287864
 20
1087.655791656616
 30
0.0
 11
99.863
 21
1086.7615
 31
0.0
  0
LINE
  5
414C
330
1D
100
AcDbEntity
  8
0
100
AcDbLine
 10
70.474
 20
1097.3035
 30
0.0
 11
73.637391930495
 21
1095.336987405
 31
0.0
  0
LINE
  5
414D
330
1D
100
AcDbEntity
  8
0
100
AcDbLine
 10
82.495840870191
 20
1083.69360344759
 30
0.0
 11
82.096
 21
1085.0115
 31
0.0
  0
LINE
  5
414E
330
1D
100
AcDbEntity
  8
0
100
AcDbLine
 10
81.126238069175
 20
1087.35307301379
 30
0.0
 11
80.368
 21
1088.7765
 31
0.0
  0
LINE
  5
414F
330
1D
100
AcDbEntity
  8
0
100
AcDbLine
 10
83.408334065258
 20
1079.11513579064
 30
0.0
 11
83.154
 21
1080.6155
 31
0.0
  0
LINE
  5
4150
330
1D
100
AcDbEntity
  8
0
100
AcDbLine
 10
100.924538672273
 20
1084.79687480149
 30
0.0
 11
99.330482019268
 21
1085.161089356665
 31
0.0
  0
LINE
  5
4151
330
1D
100
AcDbEntity
  8
0
100
AcDbLine
 10
99.330482019268
 20
1085.161089356665
 30
0.0
 11
96.869709486201
 21
1085.976220258243
 31
0.0
  0
LINE
  5
4152
330
1D
100
AcDbEntity
  8
0
100
AcDbLine
 10
96.869709486201
 20
1085.976220258243
 30
0.0
 11
94.278208412315
 21
1087.191226696445
 31
0.0
  0
LINE
  5
4153
330
1D
100
AcDbEntity
  8
0
100
AcDbLine
 10
94.278208412315
 20
1087.191226696445
 30
0.0
 11
92.4
 21
1088.2265
 31
0.0
  0
LINE
  5
4154
330
1D
100
AcDbEntity
  8
0
100
AcDbLine
 10
50.529291273728
 20
1111.87960002986
 30
0.0
 11
53.847
 21
1109.1275
 31
0.0
  0
LINE
  5
4155
330
1D
100
AcDbEntity
  8
0
100
AcDbLine
 10
52.358709279763
 20
1107.69349002244
 30
0.0
 11
52.551
 21
1107.5405
 31
0.0
  0
LINE
  5
4156
330
1D
100
AcDbEntity
  8
0
100
AcDbLine
 10
33.283272479945
 20
1126.45312827695
 30
0.0
 11
34.182169553172
 21
1125.0343821384
 31
0.0
  0
LINE
  5
4157
330
1D
100
AcDbEntity
  8
0
100
AcDbLine
 10
83.539181581548
 20
1129.53695906558
 30
0.0
 11
84.601
 21
1130.6315
 31
0.0
  0
LINE
  5
4158
330
1D
100
AcDbEntity
  8
0
100
AcDbLine
 10
87.294
 20
1131.1655
 30
0.0
 11
89.126
 21
1130.9115
 31
0.0
  0
LINE
  5
4159
330
1D
100
AcDbEntity
  8
0
100
AcDbLine
 10
90.368
 20
1130.3435
 30
0.0
 11
91.293026805357
 21
1129.399669354934
 31
0.0
  0
LINE
  5
415A
330
1D
100
AcDbEntity
  8
0
100
AcDbLine
 10
91.293026805357
 20
1129.399669354934
 30
0.0
 11
91.522429040369
 21
1128.45028811337
 31
0.0
  0
LINE
  5
415B
330
1D
100
AcDbEntity
  8
0
100
AcDbLine
 10
94.81726886517
 20
1137.985467320339
 30
0.0
 11
96.64326886517
 21
1138.262467320339
 31
0.0
  0
LINE
  5
415C
330
1D
100
AcDbEntity
  8
0
100
AcDbLine
 10
96.35026886517
 20
1142.489467320339
 30
0.0
 11
97.59226886517
 21
1141.921467320339
 31
0.0
  0
LINE
  5
415D
330
1D
100
AcDbEntity
  8
0
100
AcDbLine
 10
90.59626886517
 20
1139.978467320339
 30
0.0
 11
91.48026886517
 21
1138.874467320339
 31
0.0
  0
LINE
  5
415E
330
1D
100
AcDbEntity
  8
0
100
AcDbLine
 10
92.92926886517
 20
1138.206467320339
 30
0.0
 11
94.81726886517
 21
1137.985467320339
 31
0.0
  0
LINE
  5
415F
330
1D
100
AcDbEntity
  8
0
100
AcDbLine
 10
91.48026886517
 20
1138.874467320339
 30
0.0
 11
92.92926886517
 21
1138.206467320339
 31
0.0
  0
LINE
  5
4160
330
1D
100
AcDbEntity
  8
0
100
AcDbLine
 10
90.59626886517
 20
1139.978467320339
 30
0.0
 11
90.763450446718
 21
1141.114926385919
 31
0.0
  0
LINE
  5
4161
330
1D
100
AcDbEntity
  8
0
100
AcDbLine
 10
91.82526886517
 20
1142.209467320339
 30
0.0
 11
92.74826886517
 21
1142.561467320339
 31
0.0
  0
LINE
  5
4162
330
1D
100
AcDbEntity
  8
0
100
AcDbLine
 10
92.74826886517
 20
1142.561467320339
 30
0.0
 11
94.51826886517
 21
1142.743467320339
 31
0.0
  0
LINE
  5
4163
330
1D
100
AcDbEntity
  8
0
100
AcDbLine
 10
90.763450446718
 20
1141.114926385919
 30
0.0
 11
91.82526886517
 21
1142.209467320339
 31
0.0
  0
LINE
  5
4164
330
1D
100
AcDbEntity
  8
0
100
AcDbLine
 10
94.51826886517
 20
1142.743467320339
 30
0.0
 11
96.35026886517
 21
1142.489467320339
 31
0.0
  0
LINE
  5
4165
330
1D
100
AcDbEntity
  8
0
100
AcDbLine
 10
98.06226886517
 20
1139.035467320339
 30
0.0
 11
98.746697905539
 21
1140.028255433709
 31
0.0
  0
LINE
  5
4166
330
1D
100
AcDbEntity
  8
0
100
AcDbLine
 10
96.64326886517
 20
1138.262467320339
 30
0.0
 11
98.06226886517
 21
1139.035467320339
 31
0.0
  0
LINE
  5
4167
330
1D
100
AcDbEntity
  8
0
100
AcDbLine
 10
97.59226886517
 20
1141.921467320339
 30
0.0
 11
98.517295670527
 21
1140.977636675273
 31
0.0
  0
LINE
  5
4168
330
1D
100
AcDbEntity
  8
0
100
AcDbLine
 10
98.517295670527
 20
1140.977636675273
 30
0.0
 11
98.746697905539
 21
1140.028255433709
 31
0.0
  0
LINE
  5
4169
330
1D
100
AcDbEntity
  8
0
100
AcDbLine
 10
98.954922157062
 20
1122.842954335593
 30
0.0
 11
99.838922157062
 21
1121.738954335593
 31
0.0
  0
LINE
  5
416A
330
1D
100
AcDbEntity
  8
0
100
AcDbLine
 10
101.287922157062
 20
1121.070954335593
 30
0.0
 11
103.175922157062
 21
1120.849954335593
 31
0.0
  0
LINE
  5
416B
330
1D
100
AcDbEntity
  8
0
100
AcDbLine
 10
99.838922157062
 20
1121.738954335593
 30
0.0
 11
101.287922157062
 21
1121.070954335593
 31
0.0
  0
LINE
  5
416C
330
1D
100
AcDbEntity
  8
0
100
AcDbLine
 10
98.954922157062
 20
1122.842954335593
 30
0.0
 11
99.12210373861
 21
1123.979413401173
 31
0.0
  0
LINE
  5
416D
330
1D
100
AcDbEntity
  8
0
100
AcDbLine
 10
100.183922157062
 20
1125.073954335593
 30
0.0
 11
101.106922157062
 21
1125.425954335593
 31
0.0
  0
LINE
  5
416E
330
1D
100
AcDbEntity
  8
0
100
AcDbLine
 10
101.106922157062
 20
1125.425954335593
 30
0.0
 11
102.876922157062
 21
1125.607954335593
 31
0.0
  0
LINE
  5
416F
330
1D
100
AcDbEntity
  8
0
100
AcDbLine
 10
99.12210373861
 20
1123.979413401173
 30
0.0
 11
100.183922157062
 21
1125.073954335593
 31
0.0
  0
LINE
  5
4170
330
1D
100
AcDbEntity
  8
0
100
AcDbLine
 10
97.588
 20
1116.1485
 30
0.0
 11
100.084
 21
1116.0595
 31
0.0
  0
LINE
  5
4171
330
1D
100
AcDbEntity
  8
0
100
AcDbLine
 10
86.504
 20
1105.3195
 30
0.0
 11
85.539462872202
 21
1105.216588627642
 31
0.0
  0
LINE
  5
4172
330
1D
100
AcDbEntity
  8
0
100
AcDbLine
 10
85.539462872202
 20
1105.216588627642
 30
0.0
 11
84.638459758681
 21
1104.906719831987
 31
0.0
  0
LINE
  5
4173
330
1D
100
AcDbEntity
  8
0
100
AcDbLine
 10
84.638459758681
 20
1104.906719831987
 30
0.0
 11
84.46
 21
1104.4305
 31
0.0
  0
LINE
  5
4174
330
1D
100
AcDbEntity
  8
0
100
AcDbLine
 10
77.396056563623
 20
1101.306063480064
 30
0.0
 11
79.234056563623
 21
1100.511063480064
 31
0.0
  0
LINE
  5
4175
330
1D
100
AcDbEntity
  8
0
100
AcDbLine
 10
79.234056563623
 20
1100.511063480064
 30
0.0
 11
80.591056563623
 21
1101.351063480064
 31
0.0
  0
LINE
  5
4176
330
1D
100
AcDbEntity
  8
0
100
AcDbLine
 10
79.440056563623
 20
1102.195063480064
 30
0.0
 11
78.475519435826
 21
1102.092152107707
 31
0.0
  0
LINE
  5
4177
330
1D
100
AcDbEntity
  8
0
100
AcDbLine
 10
78.475519435826
 20
1102.092152107707
 30
0.0
 11
77.574516322305
 21
1101.782283312051
 31
0.0
  0
LINE
  5
4178
330
1D
100
AcDbEntity
  8
0
100
AcDbLine
 10
77.305696457112
 20
1101.926757954034
 30
0.0
 11
77.396056563623
 21
1101.306063480064
 31
0.0
  0
LINE
  5
4179
330
1D
100
AcDbEntity
  8
0
100
AcDbLine
 10
77.574516322305
 20
1101.782283312051
 30
0.0
 11
77.396056563623
 21
1101.306063480064
 31
0.0
  0
LINE
  5
417A
330
1D
100
AcDbEntity
  8
0
100
AcDbLine
 10
80.591056563623
 20
1101.351063480064
 30
0.0
 11
80.746236950308
 21
1102.599454949074
 31
0.0
  0
LINE
  5
417B
330
1D
100
AcDbEntity
  8
0
100
AcDbLine
 10
79.440056563623
 20
1102.195063480064
 30
0.0
 11
80.591056563623
 21
1101.351063480064
 31
0.0
  0
LINE
  5
417C
330
1D
100
AcDbEntity
  8
0
100
AcDbLine
 10
75.364704581098
 20
1108.851471718188
 30
0.0
 11
76.515704581098
 21
1108.007471718188
 31
0.0
  0
LINE
  5
417D
330
1D
100
AcDbEntity
  8
0
100
AcDbLine
 10
76.515704581098
 20
1108.007471718188
 30
0.0
 11
76.670884967783
 21
1109.255863187198
 31
0.0
  0
LINE
  5
417E
330
1D
100
AcDbEntity
  8
0
100
AcDbLine
 10
73.49916433978
 20
1108.438691550175
 30
0.0
 11
73.320704581098
 21
1107.962471718188
 31
0.0
  0
LINE
  5
417F
330
1D
100
AcDbEntity
  8
0
100
AcDbLine
 10
73.230344474587
 20
1108.583166192158
 30
0.0
 11
73.320704581098
 21
1107.962471718188
 31
0.0
  0
LINE
  5
4180
330
1D
100
AcDbEntity
  8
0
100
AcDbLine
 10
74.400167453301
 20
1108.748560345831
 30
0.0
 11
73.49916433978
 21
1108.438691550175
 31
0.0
  0
LINE
  5
4181
330
1D
100
AcDbEntity
  8
0
100
AcDbLine
 10
75.364704581098
 20
1108.851471718188
 30
0.0
 11
74.400167453301
 21
1108.748560345831
 31
0.0
  0
LINE
  5
4182
330
1D
100
AcDbEntity
  8
0
100
AcDbLine
 10
75.158704581098
 20
1107.167471718188
 30
0.0
 11
76.515704581098
 21
1108.007471718188
 31
0.0
  0
LINE
  5
4183
330
1D
100
AcDbEntity
  8
0
100
AcDbLine
 10
73.320704581098
 20
1107.962471718188
 30
0.0
 11
75.158704581098
 21
1107.167471718188
 31
0.0
  0
LINE
  5
4184
330
1D
100
AcDbEntity
  8
0
100
AcDbLine
 10
64.531060560886
 20
1107.968478788641
 30
0.0
 11
65.682060560886
 21
1107.124478788641
 31
0.0
  0
LINE
  5
4185
330
1D
100
AcDbEntity
  8
0
100
AcDbLine
 10
65.682060560886
 20
1107.124478788641
 30
0.0
 11
65.837240947571
 21
1108.372870257651
 31
0.0
  0
LINE
  5
4186
330
1D
100
AcDbEntity
  8
0
100
AcDbLine
 10
62.665520319567
 20
1107.555698620628
 30
0.0
 11
62.487060560886
 21
1107.079478788641
 31
0.0
  0
LINE
  5
4187
330
1D
100
AcDbEntity
  8
0
100
AcDbLine
 10
62.396700454375
 20
1107.700173262611
 30
0.0
 11
62.487060560886
 21
1107.079478788641
 31
0.0
  0
LINE
  5
4188
330
1D
100
AcDbEntity
  8
0
100
AcDbLine
 10
63.566523433088
 20
1107.865567416284
 30
0.0
 11
62.665520319567
 21
1107.555698620628
 31
0.0
  0
LINE
  5
4189
330
1D
100
AcDbEntity
  8
0
100
AcDbLine
 10
64.531060560886
 20
1107.968478788641
 30
0.0
 11
63.566523433088
 21
1107.865567416284
 31
0.0
  0
LINE
  5
418A
330
1D
100
AcDbEntity
  8
0
100
AcDbLine
 10
64.325060560886
 20
1106.284478788641
 30
0.0
 11
65.682060560886
 21
1107.124478788641
 31
0.0
  0
LINE
  5
418B
330
1D
100
AcDbEntity
  8
0
100
AcDbLine
 10
62.487060560886
 20
1107.079478788641
 30
0.0
 11
64.325060560886
 21
1106.284478788641
 31
0.0
  0
LINE
  5
418C
330
1D
100
AcDbEntity
  8
0
100
AcDbLine
 10
80.861912100798
 20
1112.329700412574
 30
0.0
 11
82.699912100798
 21
1111.534700412574
 31
0.0
  0
LINE
  5
418D
330
1D
100
AcDbEntity
  8
0
100
AcDbLine
 10
82.699912100798
 20
1111.534700412574
 30
0.0
 11
84.056912100798
 21
1112.374700412574
 31
0.0
  0
LINE
  5
418E
330
1D
100
AcDbEntity
  8
0
100
AcDbLine
 10
82.905912100798
 20
1113.218700412574
 30
0.0
 11
81.941374973
 21
1113.115789040217
 31
0.0
  0
LINE
  5
418F
330
1D
100
AcDbEntity
  8
0
100
AcDbLine
 10
81.941374973
 20
1113.115789040217
 30
0.0
 11
81.040371859479
 21
1112.805920244561
 31
0.0
  0
LINE
  5
4190
330
1D
100
AcDbEntity
  8
0
100
AcDbLine
 10
80.771551994287
 20
1112.950394886544
 30
0.0
 11
80.861912100798
 21
1112.329700412574
 31
0.0
  0
LINE
  5
4191
330
1D
100
AcDbEntity
  8
0
100
AcDbLine
 10
81.040371859479
 20
1112.805920244561
 30
0.0
 11
80.861912100798
 21
1112.329700412574
 31
0.0
  0
LINE
  5
4192
330
1D
100
AcDbEntity
  8
0
100
AcDbLine
 10
84.056912100798
 20
1112.374700412574
 30
0.0
 11
84.212092487483
 21
1113.623091881584
 31
0.0
  0
LINE
  5
4193
330
1D
100
AcDbEntity
  8
0
100
AcDbLine
 10
82.905912100798
 20
1113.218700412574
 30
0.0
 11
84.056912100798
 21
1112.374700412574
 31
0.0
  0
LINE
  5
4194
330
1D
100
AcDbEntity
  8
0
100
AcDbLine
 10
91.295770943669
 20
1112.902989359984
 30
0.0
 11
93.133770943669
 21
1112.107989359985
 31
0.0
  0
LINE
  5
4195
330
1D
100
AcDbEntity
  8
0
100
AcDbLine
 10
93.133770943669
 20
1112.107989359985
 30
0.0
 11
94.490770943669
 21
1112.947989359985
 31
0.0
  0
LINE
  5
4196
330
1D
100
AcDbEntity
  8
0
100
AcDbLine
 10
93.339770943669
 20
1113.791989359985
 30
0.0
 11
92.375233815871
 21
1113.689077987627
 31
0.0
  0
LINE
  5
4197
330
1D
100
AcDbEntity
  8
0
100
AcDbLine
 10
92.375233815871
 20
1113.689077987627
 30
0.0
 11
91.47423070235
 21
1113.379209191972
 31
0.0
  0
LINE
  5
4198
330
1D
100
AcDbEntity
  8
0
100
AcDbLine
 10
91.205410837158
 20
1113.523683833955
 30
0.0
 11
91.295770943669
 21
1112.902989359984
 31
0.0
  0
LINE
  5
4199
330
1D
100
AcDbEntity
  8
0
100
AcDbLine
 10
91.47423070235
 20
1113.379209191972
 30
0.0
 11
91.295770943669
 21
1112.902989359984
 31
0.0
  0
LINE
  5
419A
330
1D
100
AcDbEntity
  8
0
100
AcDbLine
 10
94.490770943669
 20
1112.947989359985
 30
0.0
 11
94.645951330354
 21
1114.196380828995
 31
0.0
  0
LINE
  5
419B
330
1D
100
AcDbEntity
  8
0
100
AcDbLine
 10
93.339770943669
 20
1113.791989359985
 30
0.0
 11
94.490770943669
 21
1112.947989359985
 31
0.0
  0
LINE
  5
419C
330
1D
100
AcDbEntity
  8
0
100
AcDbLine
 10
94.276873470203
 20
1107.962471718188
 30
0.0
 11
96.114873470203
 21
1107.167471718188
 31
0.0
  0
LINE
  5
419D
330
1D
100
AcDbEntity
  8
0
100
AcDbLine
 10
96.114873470203
 20
1107.167471718188
 30
0.0
 11
97.471873470203
 21
1108.007471718188
 31
0.0
  0
LINE
  5
419E
330
1D
100
AcDbEntity
  8
0
100
AcDbLine
 10
96.320873470203
 20
1108.851471718188
 30
0.0
 11
95.356336342405
 21
1108.748560345831
 31
0.0
  0
LINE
  5
419F
330
1D
100
AcDbEntity
  8
0
100
AcDbLine
 10
95.356336342405
 20
1108.748560345831
 30
0.0
 11
94.455333228884
 21
1108.438691550175
 31
0.0
  0
LINE
  5
41A0
330
1D
100
AcDbEntity
  8
0
100
AcDbLine
 10
94.186513363692
 20
1108.583166192158
 30
0.0
 11
94.276873470203
 21
1107.962471718188
 31
0.0
  0
LINE
  5
41A1
330
1D
100
AcDbEntity
  8
0
100
AcDbLine
 10
94.455333228884
 20
1108.438691550175
 30
0.0
 11
94.276873470203
 21
1107.962471718188
 31
0.0
  0
LINE
  5
41A2
330
1D
100
AcDbEntity
  8
0
100
AcDbLine
 10
97.471873470203
 20
1108.007471718188
 30
0.0
 11
97.627053856888
 21
1109.255863187198
 31
0.0
  0
LINE
  5
41A3
330
1D
100
AcDbEntity
  8
0
100
AcDbLine
 10
96.320873470203
 20
1108.851471718188
 30
0.0
 11
97.471873470203
 21
1108.007471718188
 31
0.0
  0
LINE
  5
41A4
330
1D
100
AcDbEntity
  8
0
100
AcDbLine
 10
78.454098521674
 20
1117.489300939268
 30
0.0
 11
80.292098521674
 21
1116.694300939268
 31
0.0
  0
LINE
  5
41A5
330
1D
100
AcDbEntity
  8
0
100
AcDbLine
 10
80.292098521674
 20
1116.694300939268
 30
0.0
 11
81.649098521674
 21
1117.534300939268
 31
0.0
  0
LINE
  5
41A6
330
1D
100
AcDbEntity
  8
0
100
AcDbLine
 10
80.498098521674
 20
1118.378300939268
 30
0.0
 11
79.533561393876
 21
1118.275389566911
 31
0.0
  0
LINE
  5
41A7
330
1D
100
AcDbEntity
  8
0
100
AcDbLine
 10
79.533561393876
 20
1118.275389566911
 30
0.0
 11
78.632558280355
 21
1117.965520771256
 31
0.0
  0
LINE
  5
41A8
330
1D
100
AcDbEntity
  8
0
100
AcDbLine
 10
78.363738415163
 20
1118.109995413238
 30
0.0
 11
78.454098521674
 21
1117.489300939268
 31
0.0
  0
LINE
  5
41A9
330
1D
100
AcDbEntity
  8
0
100
AcDbLine
 10
78.632558280355
 20
1117.965520771256
 30
0.0
 11
78.454098521674
 21
1117.489300939268
 31
0.0
  0
LINE
  5
41AA
330
1D
100
AcDbEntity
  8
0
100
AcDbLine
 10
81.649098521674
 20
1117.534300939268
 30
0.0
 11
81.804278908359
 21
1118.782692408278
 31
0.0
  0
LINE
  5
41AB
330
1D
100
AcDbEntity
  8
0
100
AcDbLine
 10
80.498098521674
 20
1118.378300939268
 30
0.0
 11
81.649098521674
 21
1117.534300939268
 31
0.0
  0
LINE
  5
41AC
330
1D
100
AcDbEntity
  8
0
100
AcDbLine
 10
68.478870836732
 20
1116.916011991858
 30
0.0
 11
70.316870836732
 21
1116.121011991858
 31
0.0
  0
LINE
  5
41AD
330
1D
100
AcDbEntity
  8
0
100
AcDbLine
 10
70.316870836732
 20
1116.121011991858
 30
0.0
 11
71.673870836732
 21
1116.961011991858
 31
0.0
  0
LINE
  5
41AE
330
1D
100
AcDbEntity
  8
0
100
AcDbLine
 10
70.522870836732
 20
1117.805011991858
 30
0.0
 11
69.558333708934
 21
1117.7021006195
 31
0.0
  0
LINE
  5
41AF
330
1D
100
AcDbEntity
  8
0
100
AcDbLine
 10
69.558333708934
 20
1117.7021006195
 30
0.0
 11
68.657330595413
 21
1117.392231823845
 31
0.0
  0
LINE
  5
41B0
330
1D
100
AcDbEntity
  8
0
100
AcDbLine
 10
68.388510730221
 20
1117.536706465828
 30
0.0
 11
68.478870836732
 21
1116.916011991858
 31
0.0
  0
LINE
  5
41B1
330
1D
100
AcDbEntity
  8
0
100
AcDbLine
 10
68.657330595413
 20
1117.392231823845
 30
0.0
 11
68.478870836732
 21
1116.916011991858
 31
0.0
  0
LINE
  5
41B2
330
1D
100
AcDbEntity
  8
0
100
AcDbLine
 10
71.673870836732
 20
1116.961011991858
 30
0.0
 11
71.829051223417
 21
1118.209403460868
 31
0.0
  0
LINE
  5
41B3
330
1D
100
AcDbEntity
  8
0
100
AcDbLine
 10
70.522870836732
 20
1117.805011991858
 30
0.0
 11
71.673870836732
 21
1116.961011991858
 31
0.0
  0
LINE
  5
41B4
330
1D
100
AcDbEntity
  8
0
100
AcDbLine
 10
58.159669783343
 20
1116.228065254965
 30
0.0
 11
59.997669783343
 21
1115.433065254966
 31
0.0
  0
LINE
  5
41B5
330
1D
100
AcDbEntity
  8
0
100
AcDbLine
 10
59.997669783343
 20
1115.433065254966
 30
0.0
 11
61.354669783343
 21
1116.273065254966
 31
0.0
  0
LINE
  5
41B6
330
1D
100
AcDbEntity
  8
0
100
AcDbLine
 10
60.203669783343
 20
1117.117065254966
 30
0.0
 11
59.239132655545
 21
1117.014153882608
 31
0.0
  0
LINE
  5
41B7
330
1D
100
AcDbEntity
  8
0
100
AcDbLine
 10
59.239132655545
 20
1117.014153882608
 30
0.0
 11
58.338129542024
 21
1116.704285086953
 31
0.0
  0
LINE
  5
41B8
330
1D
100
AcDbEntity
  8
0
100
AcDbLine
 10
58.069309676832
 20
1116.848759728936
 30
0.0
 11
58.159669783343
 21
1116.228065254965
 31
0.0
  0
LINE
  5
41B9
330
1D
100
AcDbEntity
  8
0
100
AcDbLine
 10
58.338129542024
 20
1116.704285086953
 30
0.0
 11
58.159669783343
 21
1116.228065254965
 31
0.0
  0
LINE
  5
41BA
330
1D
100
AcDbEntity
  8
0
100
AcDbLine
 10
61.354669783343
 20
1116.273065254966
 30
0.0
 11
61.509850170028
 21
1117.521456723976
 31
0.0
  0
LINE
  5
41BB
330
1D
100
AcDbEntity
  8
0
100
AcDbLine
 10
60.203669783343
 20
1117.117065254966
 30
0.0
 11
61.354669783343
 21
1116.273065254966
 31
0.0
  0
LINE
  5
41BC
330
1D
100
AcDbEntity
  8
0
100
AcDbLine
 10
51.853491361828
 20
1122.304928097516
 30
0.0
 11
53.691491361828
 21
1121.509928097517
 31
0.0
  0
LINE
  5
41BD
330
1D
100
AcDbEntity
  8
0
100
AcDbLine
 10
53.691491361828
 20
1121.509928097517
 30
0.0
 11
55.048491361828
 21
1122.349928097517
 31
0.0
  0
LINE
  5
41BE
330
1D
100
AcDbEntity
  8
0
100
AcDbLine
 10
53.897491361828
 20
1123.193928097517
 30
0.0
 11
52.93295423403
 21
1123.091016725159
 31
0.0
  0
LINE
  5
41BF
330
1D
100
AcDbEntity
  8
0
100
AcDbLine
 10
52.93295423403
 20
1123.091016725159
 30
0.0
 11
52.031951120509
 21
1122.781147929504
 31
0.0
  0
LINE
  5
41C0
330
1D
100
AcDbEntity
  8
0
100
AcDbLine
 10
51.763131255317
 20
1122.925622571487
 30
0.0
 11
51.853491361828
 21
1122.304928097516
 31
0.0
  0
LINE
  5
41C1
330
1D
100
AcDbEntity
  8
0
100
AcDbLine
 10
52.031951120509
 20
1122.781147929504
 30
0.0
 11
51.853491361828
 21
1122.304928097516
 31
0.0
  0
LINE
  5
41C2
330
1D
100
AcDbEntity
  8
0
100
AcDbLine
 10
55.048491361828
 20
1122.349928097517
 30
0.0
 11
55.203671748513
 21
1123.598319566527
 31
0.0
  0
LINE
  5
41C3
330
1D
100
AcDbEntity
  8
0
100
AcDbLine
 10
53.897491361828
 20
1123.193928097517
 30
0.0
 11
55.048491361828
 21
1122.349928097517
 31
0.0
  0
LINE
  5
41C4
330
1D
100
AcDbEntity
  8
0
100
AcDbLine
 10
62.402007994181
 20
1124.024794939748
 30
0.0
 11
64.240007994181
 21
1123.229794939748
 31
0.0
  0
LINE
  5
41C5
330
1D
100
AcDbEntity
  8
0
100
AcDbLine
 10
64.240007994181
 20
1123.229794939748
 30
0.0
 11
65.597007994181
 21
1124.069794939748
 31
0.0
  0
LINE
  5
41C6
330
1D
100
AcDbEntity
  8
0
100
AcDbLine
 10
64.446007994181
 20
1124.913794939748
 30
0.0
 11
63.481470866383
 21
1124.81088356739
 31
0.0
  0
LINE
  5
41C7
330
1D
100
AcDbEntity
  8
0
100
AcDbLine
 10
63.481470866383
 20
1124.81088356739
 30
0.0
 11
62.580467752862
 21
1124.501014771735
 31
0.0
  0
LINE
  5
41C8
330
1D
100
AcDbEntity
  8
0
100
AcDbLine
 10
62.31164788767
 20
1124.645489413718
 30
0.0
 11
62.402007994181
 21
1124.024794939748
 31
0.0
  0
LINE
  5
41C9
330
1D
100
AcDbEntity
  8
0
100
AcDbLine
 10
62.580467752862
 20
1124.501014771735
 30
0.0
 11
62.402007994181
 21
1124.024794939748
 31
0.0
  0
LINE
  5
41CA
330
1D
100
AcDbEntity
  8
0
100
AcDbLine
 10
65.597007994181
 20
1124.069794939748
 30
0.0
 11
65.752188380866
 21
1125.318186408758
 31
0.0
  0
LINE
  5
41CB
330
1D
100
AcDbEntity
  8
0
100
AcDbLine
 10
64.446007994181
 20
1124.913794939748
 30
0.0
 11
65.597007994181
 21
1124.069794939748
 31
0.0
  0
LINE
  5
41CC
330
1D
100
AcDbEntity
  8
0
100
AcDbLine
 10
73.320704581098
 20
1124.483426097676
 30
0.0
 11
75.158704581098
 21
1123.688426097676
 31
0.0
  0
LINE
  5
41CD
330
1D
100
AcDbEntity
  8
0
100
AcDbLine
 10
75.158704581098
 20
1123.688426097676
 30
0.0
 11
76.515704581098
 21
1124.528426097676
 31
0.0
  0
LINE
  5
41CE
330
1D
100
AcDbEntity
  8
0
100
AcDbLine
 10
75.364704581098
 20
1125.372426097676
 30
0.0
 11
74.400167453301
 21
1125.269514725319
 31
0.0
  0
LINE
  5
41CF
330
1D
100
AcDbEntity
  8
0
100
AcDbLine
 10
74.400167453301
 20
1125.269514725319
 30
0.0
 11
73.49916433978
 21
1124.959645929664
 31
0.0
  0
LINE
  5
41D0
330
1D
100
AcDbEntity
  8
0
100
AcDbLine
 10
73.230344474587
 20
1125.104120571646
 30
0.0
 11
73.320704581098
 21
1124.483426097676
 31
0.0
  0
LINE
  5
41D1
330
1D
100
AcDbEntity
  8
0
100
AcDbLine
 10
73.49916433978
 20
1124.959645929664
 30
0.0
 11
73.320704581098
 21
1124.483426097676
 31
0.0
  0
LINE
  5
41D2
330
1D
100
AcDbEntity
  8
0
100
AcDbLine
 10
76.515704581098
 20
1124.528426097676
 30
0.0
 11
76.670884967783
 21
1125.776817566686
 31
0.0
  0
LINE
  5
41D3
330
1D
100
AcDbEntity
  8
0
100
AcDbLine
 10
75.364704581098
 20
1125.372426097676
 30
0.0
 11
76.515704581098
 21
1124.528426097676
 31
0.0
  0
LINE
  5
41D4
330
1D
100
AcDbEntity
  8
0
100
AcDbLine
 10
71.574631152749
 20
1132.968102519351
 30
0.0
 11
73.412631152749
 21
1132.173102519351
 31
0.0
  0
LINE
  5
41D5
330
1D
100
AcDbEntity
  8
0
100
AcDbLine
 10
73.412631152749
 20
1132.173102519351
 30
0.0
 11
74.769631152749
 21
1133.013102519351
 31
0.0
  0
LINE
  5
41D6
330
1D
100
AcDbEntity
  8
0
100
AcDbLine
 10
73.618631152748
 20
1133.857102519351
 30
0.0
 11
72.654094024951
 21
1133.754191146994
 31
0.0
  0
LINE
  5
41D7
330
1D
100
AcDbEntity
  8
0
100
AcDbLine
 10
72.654094024951
 20
1133.754191146994
 30
0.0
 11
71.75309091143
 21
1133.444322351338
 31
0.0
  0
LINE
  5
41D8
330
1D
100
AcDbEntity
  8
0
100
AcDbLine
 10
71.484271046237
 20
1133.588796993321
 30
0.0
 11
71.574631152749
 21
1132.968102519351
 31
0.0
  0
LINE
  5
41D9
330
1D
100
AcDbEntity
  8
0
100
AcDbLine
 10
71.75309091143
 20
1133.444322351338
 30
0.0
 11
71.574631152749
 21
1132.968102519351
 31
0.0
  0
LINE
  5
41DA
330
1D
100
AcDbEntity
  8
0
100
AcDbLine
 10
74.769631152749
 20
1133.013102519351
 30
0.0
 11
74.924811539434
 21
1134.261493988361
 31
0.0
  0
LINE
  5
41DB
330
1D
100
AcDbEntity
  8
0
100
AcDbLine
 10
73.618631152748
 20
1133.857102519351
 30
0.0
 11
74.769631152749
 21
1133.013102519351
 31
0.0
  0
LINE
  5
41DC
330
1D
100
AcDbEntity
  8
0
100
AcDbLine
 10
61.026114520396
 20
1134.229338203654
 30
0.0
 11
62.864114520396
 21
1133.434338203654
 31
0.0
  0
LINE
  5
41DD
330
1D
100
AcDbEntity
  8
0
100
AcDbLine
 10
62.864114520396
 20
1133.434338203654
 30
0.0
 11
64.221114520396
 21
1134.274338203654
 31
0.0
  0
LINE
  5
41DE
330
1D
100
AcDbEntity
  8
0
100
AcDbLine
 10
63.070114520396
 20
1135.118338203654
 30
0.0
 11
62.105577392598
 21
1135.015426831297
 31
0.0
  0
LINE
  5
41DF
330
1D
100
AcDbEntity
  8
0
100
AcDbLine
 10
62.105577392598
 20
1135.015426831297
 30
0.0
 11
61.204574279077
 21
1134.705558035642
 31
0.0
  0
LINE
  5
41E0
330
1D
100
AcDbEntity
  8
0
100
AcDbLine
 10
60.935754413885
 20
1134.850032677624
 30
0.0
 11
61.026114520396
 21
1134.229338203654
 31
0.0
  0
LINE
  5
41E1
330
1D
100
AcDbEntity
  8
0
100
AcDbLine
 10
61.204574279077
 20
1134.705558035642
 30
0.0
 11
61.026114520396
 21
1134.229338203654
 31
0.0
  0
LINE
  5
41E2
330
1D
100
AcDbEntity
  8
0
100
AcDbLine
 10
64.221114520396
 20
1134.274338203654
 30
0.0
 11
64.376294907081
 21
1135.522729672665
 31
0.0
  0
LINE
  5
41E3
330
1D
100
AcDbEntity
  8
0
100
AcDbLine
 10
63.070114520396
 20
1135.118338203654
 30
0.0
 11
64.221114520396
 21
1134.274338203654
 31
0.0
  0
LINE
  5
41E4
330
1D
100
AcDbEntity
  8
0
100
AcDbLine
 10
50.936229045971
 20
1134.00002262469
 30
0.0
 11
52.774229045971
 21
1133.20502262469
 31
0.0
  0
LINE
  5
41E5
330
1D
100
AcDbEntity
  8
0
100
AcDbLine
 10
52.774229045971
 20
1133.20502262469
 30
0.0
 11
54.131229045971
 21
1134.04502262469
 31
0.0
  0
LINE
  5
41E6
330
1D
100
AcDbEntity
  8
0
100
AcDbLine
 10
52.980229045971
 20
1134.88902262469
 30
0.0
 11
52.015691918173
 21
1134.786111252333
 31
0.0
  0
LINE
  5
41E7
330
1D
100
AcDbEntity
  8
0
100
AcDbLine
 10
52.015691918173
 20
1134.786111252333
 30
0.0
 11
51.114688804652
 21
1134.476242456677
 31
0.0
  0
LINE
  5
41E8
330
1D
100
AcDbEntity
  8
0
100
AcDbLine
 10
50.84586893946
 20
1134.62071709866
 30
0.0
 11
50.936229045971
 21
1134.00002262469
 31
0.0
  0
LINE
  5
41E9
330
1D
100
AcDbEntity
  8
0
100
AcDbLine
 10
51.114688804652
 20
1134.476242456677
 30
0.0
 11
50.936229045971
 21
1134.00002262469
 31
0.0
  0
LINE
  5
41EA
330
1D
100
AcDbEntity
  8
0
100
AcDbLine
 10
54.131229045971
 20
1134.04502262469
 30
0.0
 11
54.286409432656
 21
1135.2934140937
 31
0.0
  0
LINE
  5
41EB
330
1D
100
AcDbEntity
  8
0
100
AcDbLine
 10
52.980229045971
 20
1134.88902262469
 30
0.0
 11
54.131229045971
 21
1134.04502262469
 31
0.0
  0
LINE
  5
41EC
330
1D
100
AcDbEntity
  8
0
100
AcDbLine
 10
45.547312940313
 20
1138.013045256563
 30
0.0
 11
47.385312940313
 21
1137.218045256563
 31
0.0
  0
LINE
  5
41ED
330
1D
100
AcDbEntity
  8
0
100
AcDbLine
 10
47.385312940313
 20
1137.218045256563
 30
0.0
 11
48.742312940313
 21
1138.058045256563
 31
0.0
  0
LINE
  5
41EE
330
1D
100
AcDbEntity
  8
0
100
AcDbLine
 10
47.591312940313
 20
1138.902045256563
 30
0.0
 11
46.626775812515
 21
1138.799133884206
 31
0.0
  0
LINE
  5
41EF
330
1D
100
AcDbEntity
  8
0
100
AcDbLine
 10
46.626775812515
 20
1138.799133884206
 30
0.0
 11
45.725772698994
 21
1138.489265088551
 31
0.0
  0
LINE
  5
41F0
330
1D
100
AcDbEntity
  8
0
100
AcDbLine
 10
45.456952833802
 20
1138.633739730533
 30
0.0
 11
45.547312940313
 21
1138.013045256563
 31
0.0
  0
LINE
  5
41F1
330
1D
100
AcDbEntity
  8
0
100
AcDbLine
 10
45.725772698994
 20
1138.489265088551
 30
0.0
 11
45.547312940313
 21
1138.013045256563
 31
0.0
  0
LINE
  5
41F2
330
1D
100
AcDbEntity
  8
0
100
AcDbLine
 10
48.742312940313
 20
1138.058045256563
 30
0.0
 11
48.897493326998
 21
1139.306436725574
 31
0.0
  0
LINE
  5
41F3
330
1D
100
AcDbEntity
  8
0
100
AcDbLine
 10
47.591312940313
 20
1138.902045256563
 30
0.0
 11
48.742312940313
 21
1138.058045256563
 31
0.0
  0
LINE
  5
41F4
330
1D
100
AcDbEntity
  8
0
100
AcDbLine
 10
46.579233045652
 20
1146.727037257203
 30
0.0
 11
48.417233045652
 21
1145.932037257203
 31
0.0
  0
LINE
  5
41F5
330
1D
100
AcDbEntity
  8
0
100
AcDbLine
 10
48.417233045652
 20
1145.932037257203
 30
0.0
 11
49.774233045652
 21
1146.772037257203
 31
0.0
  0
LINE
  5
41F6
330
1D
100
AcDbEntity
  8
0
100
AcDbLine
 10
48.623233045652
 20
1147.616037257203
 30
0.0
 11
47.658695917854
 21
1147.513125884845
 31
0.0
  0
LINE
  5
41F7
330
1D
100
AcDbEntity
  8
0
100
AcDbLine
 10
47.658695917854
 20
1147.513125884845
 30
0.0
 11
46.757692804333
 21
1147.20325708919
 31
0.0
  0
LINE
  5
41F8
330
1D
100
AcDbEntity
  8
0
100
AcDbLine
 10
46.488872939141
 20
1147.347731731173
 30
0.0
 11
46.579233045652
 21
1146.727037257203
 31
0.0
  0
LINE
  5
41F9
330
1D
100
AcDbEntity
  8
0
100
AcDbLine
 10
46.757692804333
 20
1147.20325708919
 30
0.0
 11
46.579233045652
 21
1146.727037257203
 31
0.0
  0
LINE
  5
41FA
330
1D
100
AcDbEntity
  8
0
100
AcDbLine
 10
49.774233045652
 20
1146.772037257203
 30
0.0
 11
49.929413432337
 21
1148.020428726213
 31
0.0
  0
LINE
  5
41FB
330
1D
100
AcDbEntity
  8
0
100
AcDbLine
 10
48.623233045652
 20
1147.616037257203
 30
0.0
 11
49.774233045652
 21
1146.772037257203
 31
0.0
  0
LINE
  5
41FC
330
1D
100
AcDbEntity
  8
0
100
AcDbLine
 10
44.28607725601
 20
1128.49644872955
 30
0.0
 11
46.12407725601
 21
1127.70144872955
 31
0.0
  0
LINE
  5
41FD
330
1D
100
AcDbEntity
  8
0
100
AcDbLine
 10
46.12407725601
 20
1127.70144872955
 30
0.0
 11
47.48107725601
 21
1128.54144872955
 31
0.0
  0
LINE
  5
41FE
330
1D
100
AcDbEntity
  8
0
100
AcDbLine
 10
46.33007725601
 20
1129.38544872955
 30
0.0
 11
45.365540128212
 21
1129.282537357192
 31
0.0
  0
LINE
  5
41FF
330
1D
100
AcDbEntity
  8
0
100
AcDbLine
 10
45.365540128212
 20
1129.282537357192
 30
0.0
 11
44.464537014691
 21
1128.972668561537
 31
0.0
  0
LINE
  5
4200
330
1D
100
AcDbEntity
  8
0
100
AcDbLine
 10
44.195717149499
 20
1129.11714320352
 30
0.0
 11
44.28607725601
 21
1128.49644872955
 31
0.0
  0
LINE
  5
4201
330
1D
100
AcDbEntity
  8
0
100
AcDbLine
 10
44.464537014691
 20
1128.972668561537
 30
0.0
 11
44.28607725601
 21
1128.49644872955
 31
0.0
  0
LINE
  5
4202
330
1D
100
AcDbEntity
  8
0
100
AcDbLine
 10
47.48107725601
 20
1128.54144872955
 30
0.0
 11
47.636257642695
 21
1129.78984019856
 31
0.0
  0
LINE
  5
4203
330
1D
100
AcDbEntity
  8
0
100
AcDbLine
 10
46.33007725601
 20
1129.38544872955
 30
0.0
 11
47.48107725601
 21
1128.54144872955
 31
0.0
  0
LINE
  5
4204
330
1D
100
AcDbEntity
  8
0
100
AcDbLine
 10
51.96814915131
 20
1153.606504626128
 30
0.0
 11
53.80614915131
 21
1152.811504626129
 31
0.0
  0
LINE
  5
4205
330
1D
100
AcDbEntity
  8
0
100
AcDbLine
 10
53.80614915131
 20
1152.811504626129
 30
0.0
 11
55.16314915131
 21
1153.651504626129
 31
0.0
  0
LINE
  5
4206
330
1D
100
AcDbEntity
  8
0
100
AcDbLine
 10
54.01214915131
 20
1154.495504626129
 30
0.0
 11
53.047612023512
 21
1154.392593253771
 31
0.0
  0
LINE
  5
4207
330
1D
100
AcDbEntity
  8
0
100
AcDbLine
 10
53.047612023512
 20
1154.392593253771
 30
0.0
 11
52.146608909991
 21
1154.082724458116
 31
0.0
  0
LINE
  5
4208
330
1D
100
AcDbEntity
  8
0
100
AcDbLine
 10
51.877789044799
 20
1154.227199100099
 30
0.0
 11
51.96814915131
 21
1153.606504626128
 31
0.0
  0
LINE
  5
4209
330
1D
100
AcDbEntity
  8
0
100
AcDbLine
 10
52.146608909991
 20
1154.082724458116
 30
0.0
 11
51.96814915131
 21
1153.606504626128
 31
0.0
  0
LINE
  5
420A
330
1D
100
AcDbEntity
  8
0
100
AcDbLine
 10
55.16314915131
 20
1153.651504626129
 30
0.0
 11
55.318329537995
 21
1154.899896095139
 31
0.0
  0
LINE
  5
420B
330
1D
100
AcDbEntity
  8
0
100
AcDbLine
 10
54.01214915131
 20
1154.495504626129
 30
0.0
 11
55.16314915131
 21
1153.651504626129
 31
0.0
  0
LINE
  5
420C
330
1D
100
AcDbEntity
  8
0
100
AcDbLine
 10
57.930354204379
 20
1160.027340837126
 30
0.0
 11
59.768354204379
 21
1159.232340837126
 31
0.0
  0
LINE
  5
420D
330
1D
100
AcDbEntity
  8
0
100
AcDbLine
 10
59.768354204379
 20
1159.232340837126
 30
0.0
 11
61.125354204379
 21
1160.072340837126
 31
0.0
  0
LINE
  5
420E
330
1D
100
AcDbEntity
  8
0
100
AcDbLine
 10
59.974354204379
 20
1160.916340837126
 30
0.0
 11
59.009817076581
 21
1160.813429464768
 31
0.0
  0
LINE
  5
420F
330
1D
100
AcDbEntity
  8
0
100
AcDbLine
 10
59.009817076581
 20
1160.813429464768
 30
0.0
 11
58.10881396306
 21
1160.503560669113
 31
0.0
  0
LINE
  5
4210
330
1D
100
AcDbEntity
  8
0
100
AcDbLine
 10
57.839994097868
 20
1160.648035311096
 30
0.0
 11
57.930354204379
 21
1160.027340837126
 31
0.0
  0
LINE
  5
4211
330
1D
100
AcDbEntity
  8
0
100
AcDbLine
 10
58.10881396306
 20
1160.503560669113
 30
0.0
 11
57.930354204379
 21
1160.027340837126
 31
0.0
  0
LINE
  5
4212
330
1D
100
AcDbEntity
  8
0
100
AcDbLine
 10
61.125354204379
 20
1160.072340837126
 30
0.0
 11
61.280534591064
 21
1161.320732306136
 31
0.0
  0
LINE
  5
4213
330
1D
100
AcDbEntity
  8
0
100
AcDbLine
 10
59.974354204379
 20
1160.916340837126
 30
0.0
 11
61.125354204379
 21
1160.072340837126
 31
0.0
  0
LINE
  5
4214
330
1D
100
AcDbEntity
  8
0
100
AcDbLine
 10
65.268452731233
 20
1166.218861469159
 30
0.0
 11
67.106452731233
 21
1165.423861469159
 31
0.0
  0
LINE
  5
4215
330
1D
100
AcDbEntity
  8
0
100
AcDbLine
 10
67.106452731233
 20
1165.423861469159
 30
0.0
 11
68.463452731233
 21
1166.263861469159
 31
0.0
  0
LINE
  5
4216
330
1D
100
AcDbEntity
  8
0
100
AcDbLine
 10
67.312452731233
 20
1167.107861469159
 30
0.0
 11
66.347915603435
 21
1167.004950096801
 31
0.0
  0
LINE
  5
4217
330
1D
100
AcDbEntity
  8
0
100
AcDbLine
 10
66.347915603435
 20
1167.004950096801
 30
0.0
 11
65.446912489914
 21
1166.695081301146
 31
0.0
  0
LINE
  5
4218
330
1D
100
AcDbEntity
  8
0
100
AcDbLine
 10
65.178092624722
 20
1166.839555943129
 30
0.0
 11
65.268452731233
 21
1166.218861469159
 31
0.0
  0
LINE
  5
4219
330
1D
100
AcDbEntity
  8
0
100
AcDbLine
 10
65.446912489914
 20
1166.695081301146
 30
0.0
 11
65.268452731233
 21
1166.218861469159
 31
0.0
  0
LINE
  5
421A
330
1D
100
AcDbEntity
  8
0
100
AcDbLine
 10
68.463452731233
 20
1166.263861469159
 30
0.0
 11
68.618633117918
 21
1167.512252938169
 31
0.0
  0
LINE
  5
421B
330
1D
100
AcDbEntity
  8
0
100
AcDbLine
 10
67.312452731233
 20
1167.107861469159
 30
0.0
 11
68.463452731233
 21
1166.263861469159
 31
0.0
  0
LINE
  5
421C
330
1D
100
AcDbEntity
  8
0
100
AcDbLine
 10
73.320704581098
 20
1170.805173048443
 30
0.0
 11
75.158704581098
 21
1170.010173048443
 31
0.0
  0
LINE
  5
421D
330
1D
100
AcDbEntity
  8
0
100
AcDbLine
 10
75.158704581098
 20
1170.010173048443
 30
0.0
 11
76.515704581098
 21
1170.850173048443
 31
0.0
  0
LINE
  5
421E
330
1D
100
AcDbEntity
  8
0
100
AcDbLine
 10
75.364704581098
 20
1171.694173048443
 30
0.0
 11
74.400167453301
 21
1171.591261676085
 31
0.0
  0
LINE
  5
421F
330
1D
100
AcDbEntity
  8
0
100
AcDbLine
 10
74.400167453301
 20
1171.591261676085
 30
0.0
 11
73.49916433978
 21
1171.28139288043
 31
0.0
  0
LINE
  5
4220
330
1D
100
AcDbEntity
  8
0
100
AcDbLine
 10
73.230344474587
 20
1171.425867522413
 30
0.0
 11
73.320704581098
 21
1170.805173048443
 31
0.0
  0
LINE
  5
4221
330
1D
100
AcDbEntity
  8
0
100
AcDbLine
 10
73.49916433978
 20
1171.28139288043
 30
0.0
 11
73.320704581098
 21
1170.805173048443
 31
0.0
  0
LINE
  5
4222
330
1D
100
AcDbEntity
  8
0
100
AcDbLine
 10
76.515704581098
 20
1170.850173048443
 30
0.0
 11
76.670884967783
 21
1172.098564517453
 31
0.0
  0
LINE
  5
4223
330
1D
100
AcDbEntity
  8
0
100
AcDbLine
 10
75.364704581098
 20
1171.694173048443
 30
0.0
 11
76.515704581098
 21
1170.850173048443
 31
0.0
  0
LINE
  5
4224
330
1D
100
AcDbEntity
  8
0
100
AcDbLine
 10
84.186987995779
 20
1173.212986627567
 30
0.0
 11
86.024987995779
 21
1172.417986627567
 31
0.0
  0
LINE
  5
4225
330
1D
100
AcDbEntity
  8
0
100
AcDbLine
 10
86.024987995779
 20
1172.417986627567
 30
0.0
 11
87.381987995779
 21
1173.257986627567
 31
0.0
  0
LINE
  5
4226
330
1D
100
AcDbEntity
  8
0
100
AcDbLine
 10
86.230987995779
 20
1174.101986627567
 30
0.0
 11
85.266450867981
 21
1173.999075255209
 31
0.0
  0
LINE
  5
4227
330
1D
100
AcDbEntity
  8
0
100
AcDbLine
 10
85.266450867981
 20
1173.999075255209
 30
0.0
 11
84.36544775446
 21
1173.689206459554
 31
0.0
  0
LINE
  5
4228
330
1D
100
AcDbEntity
  8
0
100
AcDbLine
 10
84.096627889268
 20
1173.833681101537
 30
0.0
 11
84.186987995779
 21
1173.212986627567
 31
0.0
  0
LINE
  5
4229
330
1D
100
AcDbEntity
  8
0
100
AcDbLine
 10
84.36544775446
 20
1173.689206459554
 30
0.0
 11
84.186987995779
 21
1173.212986627567
 31
0.0
  0
LINE
  5
422A
330
1D
100
AcDbEntity
  8
0
100
AcDbLine
 10
87.381987995779
 20
1173.257986627567
 30
0.0
 11
87.537168382464
 21
1174.506378096577
 31
0.0
  0
LINE
  5
422B
330
1D
100
AcDbEntity
  8
0
100
AcDbLine
 10
86.230987995779
 20
1174.101986627567
 30
0.0
 11
87.381987995779
 21
1173.257986627567
 31
0.0
  0
LINE
  5
422C
330
1D
100
AcDbEntity
  8
0
100
AcDbLine
 10
55.522540625255
 20
1141.796752309473
 30
0.0
 11
57.360540625255
 21
1141.001752309473
 31
0.0
  0
LINE
  5
422D
330
1D
100
AcDbEntity
  8
0
100
AcDbLine
 10
57.360540625255
 20
1141.001752309473
 30
0.0
 11
58.717540625255
 21
1141.841752309473
 31
0.0
  0
LINE
  5
422E
330
1D
100
AcDbEntity
  8
0
100
AcDbLine
 10
57.566540625255
 20
1142.685752309473
 30
0.0
 11
56.602003497457
 21
1142.582840937115
 31
0.0
  0
LINE
  5
422F
330
1D
100
AcDbEntity
  8
0
100
AcDbLine
 10
56.602003497457
 20
1142.582840937115
 30
0.0
 11
55.701000383936
 21
1142.27297214146
 31
0.0
  0
LINE
  5
4230
330
1D
100
AcDbEntity
  8
0
100
AcDbLine
 10
55.432180518744
 20
1142.417446783443
 30
0.0
 11
55.522540625255
 21
1141.796752309473
 31
0.0
  0
LINE
  5
4231
330
1D
100
AcDbEntity
  8
0
100
AcDbLine
 10
55.701000383936
 20
1142.27297214146
 30
0.0
 11
55.522540625255
 21
1141.796752309473
 31
0.0
  0
LINE
  5
4232
330
1D
100
AcDbEntity
  8
0
100
AcDbLine
 10
58.717540625255
 20
1141.841752309473
 30
0.0
 11
58.87272101194
 21
1143.090143778483
 31
0.0
  0
LINE
  5
4233
330
1D
100
AcDbEntity
  8
0
100
AcDbLine
 10
57.566540625255
 20
1142.685752309473
 30
0.0
 11
58.717540625255
 21
1141.841752309473
 31
0.0
  0
LINE
  5
4234
330
1D
100
AcDbEntity
  8
0
100
AcDbLine
 10
62.745981362627
 20
1150.281428731148
 30
0.0
 11
64.583981362627
 21
1149.486428731148
 31
0.0
  0
LINE
  5
4235
330
1D
100
AcDbEntity
  8
0
100
AcDbLine
 10
64.583981362627
 20
1149.486428731148
 30
0.0
 11
65.940981362627
 21
1150.326428731148
 31
0.0
  0
LINE
  5
4236
330
1D
100
AcDbEntity
  8
0
100
AcDbLine
 10
64.789981362627
 20
1151.170428731148
 30
0.0
 11
63.825444234829
 21
1151.06751735879
 31
0.0
  0
LINE
  5
4237
330
1D
100
AcDbEntity
  8
0
100
AcDbLine
 10
63.825444234829
 20
1151.06751735879
 30
0.0
 11
62.924441121308
 21
1150.757648563135
 31
0.0
  0
LINE
  5
4238
330
1D
100
AcDbEntity
  8
0
100
AcDbLine
 10
62.655621256116
 20
1150.902123205118
 30
0.0
 11
62.745981362627
 21
1150.281428731148
 31
0.0
  0
LINE
  5
4239
330
1D
100
AcDbEntity
  8
0
100
AcDbLine
 10
62.924441121308
 20
1150.757648563135
 30
0.0
 11
62.745981362627
 21
1150.281428731148
 31
0.0
  0
LINE
  5
423A
330
1D
100
AcDbEntity
  8
0
100
AcDbLine
 10
65.940981362627
 20
1150.326428731148
 30
0.0
 11
66.096161749312
 21
1151.574820200158
 31
0.0
  0
LINE
  5
423B
330
1D
100
AcDbEntity
  8
0
100
AcDbLine
 10
64.789981362627
 20
1151.170428731148
 30
0.0
 11
65.940981362627
 21
1150.326428731148
 31
0.0
  0
LINE
  5
423C
330
1D
100
AcDbEntity
  8
0
100
AcDbLine
 10
69.396133152589
 20
1158.536789573858
 30
0.0
 11
71.234133152589
 21
1157.741789573859
 31
0.0
  0
LINE
  5
423D
330
1D
100
AcDbEntity
  8
0
100
AcDbLine
 10
71.234133152589
 20
1157.741789573859
 30
0.0
 11
72.591133152589
 21
1158.581789573858
 31
0.0
  0
LINE
  5
423E
330
1D
100
AcDbEntity
  8
0
100
AcDbLine
 10
71.440133152589
 20
1159.425789573858
 30
0.0
 11
70.475596024791
 21
1159.322878201501
 31
0.0
  0
LINE
  5
423F
330
1D
100
AcDbEntity
  8
0
100
AcDbLine
 10
70.475596024791
 20
1159.322878201501
 30
0.0
 11
69.57459291127
 21
1159.013009405846
 31
0.0
  0
LINE
  5
4240
330
1D
100
AcDbEntity
  8
0
100
AcDbLine
 10
69.305773046078
 20
1159.157484047829
 30
0.0
 11
69.396133152589
 21
1158.536789573858
 31
0.0
  0
LINE
  5
4241
330
1D
100
AcDbEntity
  8
0
100
AcDbLine
 10
69.57459291127
 20
1159.013009405846
 30
0.0
 11
69.396133152589
 21
1158.536789573858
 31
0.0
  0
LINE
  5
4242
330
1D
100
AcDbEntity
  8
0
100
AcDbLine
 10
72.591133152589
 20
1158.581789573858
 30
0.0
 11
72.746313539274
 21
1159.830181042869
 31
0.0
  0
LINE
  5
4243
330
1D
100
AcDbEntity
  8
0
100
AcDbLine
 10
71.440133152589
 20
1159.425789573858
 30
0.0
 11
72.591133152589
 21
1158.581789573858
 31
0.0
  0
LINE
  5
4244
330
1D
100
AcDbEntity
  8
0
100
AcDbLine
 10
66.415030626054
 20
1140.764832204134
 30
0.0
 11
68.253030626054
 21
1139.969832204134
 31
0.0
  0
LINE
  5
4245
330
1D
100
AcDbEntity
  8
0
100
AcDbLine
 10
68.253030626054
 20
1139.969832204134
 30
0.0
 11
69.610030626054
 21
1140.809832204134
 31
0.0
  0
LINE
  5
4246
330
1D
100
AcDbEntity
  8
0
100
AcDbLine
 10
68.459030626054
 20
1141.653832204134
 30
0.0
 11
67.494493498256
 21
1141.550920831776
 31
0.0
  0
LINE
  5
4247
330
1D
100
AcDbEntity
  8
0
100
AcDbLine
 10
67.494493498256
 20
1141.550920831776
 30
0.0
 11
66.593490384735
 21
1141.241052036121
 31
0.0
  0
LINE
  5
4248
330
1D
100
AcDbEntity
  8
0
100
AcDbLine
 10
66.324670519543
 20
1141.385526678104
 30
0.0
 11
66.415030626054
 21
1140.764832204134
 31
0.0
  0
LINE
  5
4249
330
1D
100
AcDbEntity
  8
0
100
AcDbLine
 10
66.593490384735
 20
1141.241052036121
 30
0.0
 11
66.415030626054
 21
1140.764832204134
 31
0.0
  0
LINE
  5
424A
330
1D
100
AcDbEntity
  8
0
100
AcDbLine
 10
69.610030626054
 20
1140.809832204134
 30
0.0
 11
69.765211012739
 21
1142.058223673144
 31
0.0
  0
LINE
  5
424B
330
1D
100
AcDbEntity
  8
0
100
AcDbLine
 10
68.459030626054
 20
1141.653832204134
 30
0.0
 11
69.610030626054
 21
1140.809832204134
 31
0.0
  0
LINE
  5
424C
330
1D
100
AcDbEntity
  8
0
100
AcDbLine
 10
73.320704581098
 20
1149.593481994255
 30
0.0
 11
75.158704581098
 21
1148.798481994255
 31
0.0
  0
LINE
  5
424D
330
1D
100
AcDbEntity
  8
0
100
AcDbLine
 10
75.158704581098
 20
1148.798481994255
 30
0.0
 11
76.515704581098
 21
1149.638481994255
 31
0.0
  0
LINE
  5
424E
330
1D
100
AcDbEntity
  8
0
100
AcDbLine
 10
75.364704581098
 20
1150.482481994255
 30
0.0
 11
74.400167453301
 21
1150.379570621898
 31
0.0
  0
LINE
  5
424F
330
1D
100
AcDbEntity
  8
0
100
AcDbLine
 10
74.400167453301
 20
1150.379570621898
 30
0.0
 11
73.49916433978
 21
1150.069701826242
 31
0.0
  0
LINE
  5
4250
330
1D
100
AcDbEntity
  8
0
100
AcDbLine
 10
73.230344474587
 20
1150.214176468225
 30
0.0
 11
73.320704581098
 21
1149.593481994255
 31
0.0
  0
LINE
  5
4251
330
1D
100
AcDbEntity
  8
0
100
AcDbLine
 10
73.49916433978
 20
1150.069701826242
 30
0.0
 11
73.320704581098
 21
1149.593481994255
 31
0.0
  0
LINE
  5
4252
330
1D
100
AcDbEntity
  8
0
100
AcDbLine
 10
76.515704581098
 20
1149.638481994255
 30
0.0
 11
76.670884967783
 21
1150.886873463265
 31
0.0
  0
LINE
  5
4253
330
1D
100
AcDbEntity
  8
0
100
AcDbLine
 10
75.364704581098
 20
1150.482481994255
 30
0.0
 11
76.515704581098
 21
1149.638481994255
 31
0.0
  0
LINE
  5
4254
330
1D
100
AcDbEntity
  8
0
100
AcDbLine
 10
79.600676416495
 20
1164.269679047963
 30
0.0
 11
81.438676416495
 21
1163.474679047963
 31
0.0
  0
LINE
  5
4255
330
1D
100
AcDbEntity
  8
0
100
AcDbLine
 10
81.438676416495
 20
1163.474679047963
 30
0.0
 11
82.795676416495
 21
1164.314679047963
 31
0.0
  0
LINE
  5
4256
330
1D
100
AcDbEntity
  8
0
100
AcDbLine
 10
81.644676416495
 20
1165.158679047963
 30
0.0
 11
80.680139288697
 21
1165.055767675606
 31
0.0
  0
LINE
  5
4257
330
1D
100
AcDbEntity
  8
0
100
AcDbLine
 10
80.680139288697
 20
1165.055767675606
 30
0.0
 11
79.779136175176
 21
1164.745898879951
 31
0.0
  0
LINE
  5
4258
330
1D
100
AcDbEntity
  8
0
100
AcDbLine
 10
79.510316309984
 20
1164.890373521933
 30
0.0
 11
79.600676416495
 21
1164.269679047963
 31
0.0
  0
LINE
  5
4259
330
1D
100
AcDbEntity
  8
0
100
AcDbLine
 10
79.779136175176
 20
1164.745898879951
 30
0.0
 11
79.600676416495
 21
1164.269679047963
 31
0.0
  0
LINE
  5
425A
330
1D
100
AcDbEntity
  8
0
100
AcDbLine
 10
82.795676416495
 20
1164.314679047963
 30
0.0
 11
82.95085680318
 21
1165.563070516973
 31
0.0
  0
LINE
  5
425B
330
1D
100
AcDbEntity
  8
0
100
AcDbLine
 10
81.644676416495
 20
1165.158679047963
 30
0.0
 11
82.795676416495
 21
1164.314679047963
 31
0.0
  0
LINE
  5
425C
330
1D
100
AcDbEntity
  8
0
100
AcDbLine
 10
83.799858837691
 20
1157.89937146836
 30
0.0
 11
84.950858837691
 21
1157.05537146836
 31
0.0
  0
LINE
  5
425D
330
1D
100
AcDbEntity
  8
0
100
AcDbLine
 10
84.950858837691
 20
1157.05537146836
 30
0.0
 11
85.106039224376
 21
1158.30376293737
 31
0.0
  0
LINE
  5
425E
330
1D
100
AcDbEntity
  8
0
100
AcDbLine
 10
81.934318596372
 20
1157.486591300347
 30
0.0
 11
81.755858837691
 21
1157.01037146836
 31
0.0
  0
LINE
  5
425F
330
1D
100
AcDbEntity
  8
0
100
AcDbLine
 10
81.66549873118
 20
1157.63106594233
 30
0.0
 11
81.755858837691
 21
1157.01037146836
 31
0.0
  0
LINE
  5
4260
330
1D
100
AcDbEntity
  8
0
100
AcDbLine
 10
82.835321709893
 20
1157.796460096002
 30
0.0
 11
81.934318596372
 21
1157.486591300347
 31
0.0
  0
LINE
  5
4261
330
1D
100
AcDbEntity
  8
0
100
AcDbLine
 10
83.799858837691
 20
1157.89937146836
 30
0.0
 11
82.835321709893
 21
1157.796460096002
 31
0.0
  0
LINE
  5
4262
330
1D
100
AcDbEntity
  8
0
100
AcDbLine
 10
83.593858837691
 20
1156.21537146836
 30
0.0
 11
84.950858837691
 21
1157.05537146836
 31
0.0
  0
LINE
  5
4263
330
1D
100
AcDbEntity
  8
0
100
AcDbLine
 10
81.755858837691
 20
1157.01037146836
 30
0.0
 11
83.593858837691
 21
1156.21537146836
 31
0.0
  0
LINE
  5
4264
330
1D
100
AcDbEntity
  8
0
100
AcDbLine
 10
83.799858837691
 20
1148.61209052031
 30
0.0
 11
84.950858837691
 21
1147.76809052031
 31
0.0
  0
LINE
  5
4265
330
1D
100
AcDbEntity
  8
0
100
AcDbLine
 10
84.950858837691
 20
1147.76809052031
 30
0.0
 11
85.106039224376
 21
1149.01648198932
 31
0.0
  0
LINE
  5
4266
330
1D
100
AcDbEntity
  8
0
100
AcDbLine
 10
81.934318596372
 20
1148.199310352297
 30
0.0
 11
81.755858837691
 21
1147.72309052031
 31
0.0
  0
LINE
  5
4267
330
1D
100
AcDbEntity
  8
0
100
AcDbLine
 10
81.66549873118
 20
1148.34378499428
 30
0.0
 11
81.755858837691
 21
1147.72309052031
 31
0.0
  0
LINE
  5
4268
330
1D
100
AcDbEntity
  8
0
100
AcDbLine
 10
82.835321709893
 20
1148.509179147953
 30
0.0
 11
81.934318596372
 21
1148.199310352297
 31
0.0
  0
LINE
  5
4269
330
1D
100
AcDbEntity
  8
0
100
AcDbLine
 10
83.799858837691
 20
1148.61209052031
 30
0.0
 11
82.835321709893
 21
1148.509179147953
 31
0.0
  0
LINE
  5
426A
330
1D
100
AcDbEntity
  8
0
100
AcDbLine
 10
83.593858837691
 20
1146.92809052031
 30
0.0
 11
84.950858837691
 21
1147.76809052031
 31
0.0
  0
LINE
  5
426B
330
1D
100
AcDbEntity
  8
0
100
AcDbLine
 10
81.755858837691
 20
1147.72309052031
 30
0.0
 11
83.593858837691
 21
1146.92809052031
 31
0.0
  0
LINE
  5
426C
330
1D
100
AcDbEntity
  8
0
100
AcDbLine
 10
94.921664417454
 20
1150.482481994255
 30
0.0
 11
96.072664417454
 21
1149.638481994255
 31
0.0
  0
LINE
  5
426D
330
1D
100
AcDbEntity
  8
0
100
AcDbLine
 10
96.072664417454
 20
1149.638481994255
 30
0.0
 11
96.227844804139
 21
1150.886873463265
 31
0.0
  0
LINE
  5
426E
330
1D
100
AcDbEntity
  8
0
100
AcDbLine
 10
93.056124176135
 20
1150.069701826242
 30
0.0
 11
92.877664417454
 21
1149.593481994255
 31
0.0
  0
LINE
  5
426F
330
1D
100
AcDbEntity
  8
0
100
AcDbLine
 10
92.787304310943
 20
1150.214176468225
 30
0.0
 11
92.877664417454
 21
1149.593481994255
 31
0.0
  0
LINE
  5
4270
330
1D
100
AcDbEntity
  8
0
100
AcDbLine
 10
93.957127289656
 20
1150.379570621898
 30
0.0
 11
93.056124176135
 21
1150.069701826242
 31
0.0
  0
LINE
  5
4271
330
1D
100
AcDbEntity
  8
0
100
AcDbLine
 10
94.921664417454
 20
1150.482481994255
 30
0.0
 11
93.957127289656
 21
1150.379570621898
 31
0.0
  0
LINE
  5
4272
330
1D
100
AcDbEntity
  8
0
100
AcDbLine
 10
94.715664417454
 20
1148.798481994255
 30
0.0
 11
96.072664417454
 21
1149.638481994255
 31
0.0
  0
LINE
  5
4273
330
1D
100
AcDbEntity
  8
0
100
AcDbLine
 10
92.877664417454
 20
1149.593481994255
 30
0.0
 11
94.715664417454
 21
1148.798481994255
 31
0.0
  0
LINE
  5
4274
330
1D
100
AcDbEntity
  8
0
100
AcDbLine
 10
93.889744312115
 20
1161.912394100233
 30
0.0
 11
95.040744312115
 21
1161.068394100233
 31
0.0
  0
LINE
  5
4275
330
1D
100
AcDbEntity
  8
0
100
AcDbLine
 10
95.040744312115
 20
1161.068394100233
 30
0.0
 11
95.1959246988
 21
1162.316785569243
 31
0.0
  0
LINE
  5
4276
330
1D
100
AcDbEntity
  8
0
100
AcDbLine
 10
92.024204070796
 20
1161.49961393222
 30
0.0
 11
91.845744312115
 21
1161.023394100233
 31
0.0
  0
LINE
  5
4277
330
1D
100
AcDbEntity
  8
0
100
AcDbLine
 10
91.755384205604
 20
1161.644088574203
 30
0.0
 11
91.845744312115
 21
1161.023394100233
 31
0.0
  0
LINE
  5
4278
330
1D
100
AcDbEntity
  8
0
100
AcDbLine
 10
92.925207184317
 20
1161.809482727876
 30
0.0
 11
92.024204070796
 21
1161.49961393222
 31
0.0
  0
LINE
  5
4279
330
1D
100
AcDbEntity
  8
0
100
AcDbLine
 10
93.889744312115
 20
1161.912394100233
 30
0.0
 11
92.925207184317
 21
1161.809482727876
 31
0.0
  0
LINE
  5
427A
330
1D
100
AcDbEntity
  8
0
100
AcDbLine
 10
93.683744312115
 20
1160.228394100233
 30
0.0
 11
95.040744312115
 21
1161.068394100233
 31
0.0
  0
LINE
  5
427B
330
1D
100
AcDbEntity
  8
0
100
AcDbLine
 10
91.845744312115
 20
1161.023394100233
 30
0.0
 11
93.683744312115
 21
1160.228394100233
 31
0.0
  0
LINE
  5
427C
330
1D
100
AcDbEntity
  8
0
100
AcDbLine
 10
94.807006627972
 20
1170.51172831139
 30
0.0
 11
95.958006627972
 21
1169.66772831139
 31
0.0
  0
LINE
  5
427D
330
1D
100
AcDbEntity
  8
0
100
AcDbLine
 10
95.958006627972
 20
1169.66772831139
 30
0.0
 11
96.113187014657
 21
1170.916119780401
 31
0.0
  0
LINE
  5
427E
330
1D
100
AcDbEntity
  8
0
100
AcDbLine
 10
92.941466386653
 20
1170.098948143378
 30
0.0
 11
92.763006627972
 21
1169.62272831139
 31
0.0
  0
LINE
  5
427F
330
1D
100
AcDbEntity
  8
0
100
AcDbLine
 10
92.672646521461
 20
1170.24342278536
 30
0.0
 11
92.763006627972
 21
1169.62272831139
 31
0.0
  0
LINE
  5
4280
330
1D
100
AcDbEntity
  8
0
100
AcDbLine
 10
93.842469500174
 20
1170.408816939033
 30
0.0
 11
92.941466386653
 21
1170.098948143378
 31
0.0
  0
LINE
  5
4281
330
1D
100
AcDbEntity
  8
0
100
AcDbLine
 10
94.807006627972
 20
1170.51172831139
 30
0.0
 11
93.842469500174
 21
1170.408816939033
 31
0.0
  0
LINE
  5
4282
330
1D
100
AcDbEntity
  8
0
100
AcDbLine
 10
94.601006627972
 20
1168.82772831139
 30
0.0
 11
95.958006627972
 21
1169.66772831139
 31
0.0
  0
LINE
  5
4283
330
1D
100
AcDbEntity
  8
0
100
AcDbLine
 10
92.763006627972
 20
1169.62272831139
 30
0.0
 11
94.601006627972
 21
1168.82772831139
 31
0.0
  0
LINE
  5
4284
330
1D
100
AcDbEntity
  8
0
100
AcDbLine
 10
78.524
 20
1179.8825
 30
0.0
 11
81.855
 21
1180.4075
 31
0.0
  0
LINE
  5
4285
330
1D
100
AcDbEntity
  8
0
100
AcDbLine
 10
39.725
 20
1124.2495
 30
0.0
 11
38.873143525739
 21
1125.98327847114
 31
0.0
  0
LINE
  5
4286
330
1D
100
AcDbEntity
  8
0
100
AcDbLine
 10
37.875184709587
 20
1128.01441817931
 30
0.0
 11
37.826438574239
 21
1128.14519954404
 31
0.0
  0
LINE
  5
4287
330
1D
100
AcDbEntity
  8
0
100
AcDbLine
 10
35.706298173828
 20
1135.48113088125
 30
0.0
 11
35.628651278432
 21
1136.00289712677
 31
0.0
  0
LINE
  5
4288
330
1D
100
AcDbEntity
  8
0
100
AcDbLine
 10
27.036007856298
 20
1149.88019164271
 30
0.0
 11
27.11
 21
1151.5995
 31
0.0
  0
LINE
  5
4289
330
1D
100
AcDbEntity
  8
0
100
AcDbLine
 10
172.863
 20
1168.3535
 30
0.0
 11
171.141
 21
1170.6485
 31
0.0
  0
LINE
  5
428A
330
1D
100
AcDbEntity
  8
0
100
AcDbLine
 10
152.454
 20
1169.2245
 30
0.0
 11
147.634
 21
1172.1665
 31
0.0
  0
LINE
  5
428B
330
1D
100
AcDbEntity
  8
0
100
AcDbLine
 10
130.841295418902
 20
1170.010173048443
 30
0.0
 11
129.484295418902
 21
1170.850173048443
 31
0.0
  0
LINE
  5
428C
330
1D
100
AcDbEntity
  8
0
100
AcDbLine
 10
132.679295418902
 20
1170.805173048443
 30
0.0
 11
130.841295418902
 21
1170.010173048443
 31
0.0
  0
LINE
  5
428D
330
1D
100
AcDbEntity
  8
0
100
AcDbLine
 10
112.157530499826
 20
1170.408816939033
 30
0.0
 11
113.058533613347
 21
1170.098948143378
 31
0.0
  0
LINE
  5
428E
330
1D
100
AcDbEntity
  8
0
100
AcDbLine
 10
110.041993372028
 20
1169.66772831139
 30
0.0
 11
109.886812985343
 21
1170.916119780401
 31
0.0
  0
LINE
  5
428F
330
1D
100
AcDbEntity
  8
0
100
AcDbLine
 10
111.192993372028
 20
1170.51172831139
 30
0.0
 11
110.041993372028
 21
1169.66772831139
 31
0.0
  0
LINE
  5
4290
330
1D
100
AcDbEntity
  8
0
100
AcDbLine
 10
161.551
 20
1169.4495
 30
0.0
 11
159.132
 21
1171.6085
 31
0.0
  0
LINE
  5
4291
330
1D
100
AcDbEntity
  8
0
100
AcDbLine
 10
122.013915430982
 20
1073.93612679325
 30
0.0
 11
121.711
 21
1066.8495
 31
0.0
  0
LINE
  5
4292
330
1D
100
AcDbEntity
  8
0
100
AcDbLine
 10
121.711
 20
1066.8495
 30
0.0
 11
121.451
 21
1054.5635
 31
0.0
  0
LINE
  5
4293
330
1D
100
AcDbEntity
  8
0
100
AcDbLine
 10
150.246
 20
1105.5145
 30
0.0
 11
145.799
 21
1102.9335
 31
0.0
  0
LINE
  5
4294
330
1D
100
AcDbEntity
  8
0
100
AcDbLine
 10
149.46
 20
1107.3225
 30
0.0
 11
144.724
 21
1104.5985
 31
0.0
  0
LINE
  5
4295
330
1D
100
AcDbEntity
  8
0
100
AcDbLine
 10
146.760867344455
 20
1117.014153882608
 30
0.0
 11
147.661870457976
 21
1116.704285086953
 31
0.0
  0
LINE
  5
4296
330
1D
100
AcDbEntity
  8
0
100
AcDbLine
 10
147.840330216657
 20
1116.228065254965
 30
0.0
 11
146.002330216657
 21
1115.433065254966
 31
0.0
  0
LINE
  5
4297
330
1D
100
AcDbEntity
  8
0
100
AcDbLine
 10
146.025645795621
 20
1160.916340837126
 30
0.0
 11
146.990182923419
 21
1160.813429464768
 31
0.0
  0
LINE
  5
4298
330
1D
100
AcDbEntity
  8
0
100
AcDbLine
 10
148.069645795621
 20
1160.027340837126
 30
0.0
 11
146.231645795621
 21
1159.232340837126
 31
0.0
  0
LINE
  5
4299
330
1D
100
AcDbEntity
  8
0
100
AcDbLine
 10
170.066
 20
1122.3315
 30
0.0
 11
166.852
 21
1118.4825
 31
0.0
  0
LINE
  5
429A
330
1D
100
AcDbEntity
  8
0
100
AcDbLine
 10
166.275
 20
1124.2495
 30
0.0
 11
164.826
 21
1121.8885
 31
0.0
  0
LINE
  5
429B
330
1D
100
AcDbEntity
  8
0
100
AcDbLine
 10
152.308508638172
 20
1121.509928097517
 30
0.0
 11
150.951508638172
 21
1122.349928097517
 31
0.0
  0
LINE
  5
429C
330
1D
100
AcDbEntity
  8
0
100
AcDbLine
 10
154.146508638172
 20
1122.304928097516
 30
0.0
 11
152.308508638172
 21
1121.509928097517
 31
0.0
  0
LINE
  5
429D
330
1D
100
AcDbEntity
  8
0
100
AcDbLine
 10
160.985
 20
1113.0305
 30
0.0
 11
157.665
 21
1110.4605
 31
0.0
  0
LINE
  5
429E
330
1D
100
AcDbEntity
  8
0
100
AcDbLine
 10
159.329
 20
1115.2125
 30
0.0
 11
157.845869217627
 21
1113.9503422201
 31
0.0
  0
LINE
  5
429F
330
1D
100
AcDbEntity
  8
0
100
AcDbLine
 10
166.852
 20
1118.4825
 30
0.0
 11
164.061
 21
1115.7075
 31
0.0
  0
LINE
  5
42A0
330
1D
100
AcDbEntity
  8
0
100
AcDbLine
 10
164.826
 20
1121.8885
 30
0.0
 11
161.603
 21
1117.6485
 31
0.0
  0
LINE
  5
42A1
330
1D
100
AcDbEntity
  8
0
100
AcDbLine
 10
164.061
 20
1115.7075
 30
0.0
 11
160.985
 21
1113.0305
 31
0.0
  0
LINE
  5
42A2
330
1D
100
AcDbEntity
  8
0
100
AcDbLine
 10
161.603
 20
1117.6485
 30
0.0
 11
159.329
 21
1115.2125
 31
0.0
  0
LINE
  5
42A3
330
1D
100
AcDbEntity
  8
0
100
AcDbLine
 10
157.665
 20
1110.4605
 30
0.0
 11
154.122
 21
1107.9905
 31
0.0
  0
LINE
  5
42A4
330
1D
100
AcDbEntity
  8
0
100
AcDbLine
 10
155.470708726272
 20
1111.87960002986
 30
0.0
 11
152.153
 21
1109.1275
 31
0.0
  0
LINE
  5
42A5
330
1D
100
AcDbEntity
  8
0
100
AcDbLine
 10
154.122
 20
1107.9905
 30
0.0
 11
153.641290720237
 21
1107.69349002244
 31
0.0
  0
LINE
  5
42A6
330
1D
100
AcDbEntity
  8
0
100
AcDbLine
 10
153.449
 20
1107.5405
 30
0.0
 11
150.246
 21
1105.5145
 31
0.0
  0
LINE
  5
42A7
330
1D
100
AcDbEntity
  8
0
100
AcDbLine
 10
152.153
 20
1109.1275
 30
0.0
 11
149.46
 21
1107.3225
 31
0.0
  0
LINE
  5
42A8
330
1D
100
AcDbEntity
  8
0
100
AcDbLine
 10
153.641290720237
 20
1107.69349002244
 30
0.0
 11
153.449
 21
1107.5405
 31
0.0
  0
LINE
  5
42A9
330
1D
100
AcDbEntity
  8
0
100
AcDbLine
 10
156.635
 20
1112.8185
 30
0.0
 11
155.470708726272
 21
1111.87960002986
 31
0.0
  0
LINE
  5
42AA
330
1D
100
AcDbEntity
  8
0
100
AcDbLine
 10
157.845869217627
 20
1113.9503422201
 30
0.0
 11
156.635
 21
1112.8185
 31
0.0
  0
LINE
  5
42AB
330
1D
100
AcDbEntity
  8
0
100
AcDbLine
 10
147.661870457976
 20
1116.704285086953
 30
0.0
 11
147.840330216657
 21
1116.228065254965
 31
0.0
  0
LINE
  5
42AC
330
1D
100
AcDbEntity
  8
0
100
AcDbLine
 10
147.930690323168
 20
1116.848759728936
 30
0.0
 11
147.840330216657
 21
1116.228065254965
 31
0.0
  0
LINE
  5
42AD
330
1D
100
AcDbEntity
  8
0
100
AcDbLine
 10
171.817830446828
 20
1125.0343821384
 30
0.0
 11
170.884
 21
1123.5605
 31
0.0
  0
LINE
  5
42AE
330
1D
100
AcDbEntity
  8
0
100
AcDbLine
 10
172.375
 20
1156.4795
 30
0.0
 11
169.889
 21
1160.6255
 31
0.0
  0
LINE
  5
42AF
330
1D
100
AcDbEntity
  8
0
100
AcDbLine
 10
179.0
 20
1149.0435
 30
0.0
 11
178.78
 21
1145.3725
 31
0.0
  0
LINE
  5
42B0
330
1D
100
AcDbEntity
  8
0
100
AcDbLine
 10
175.8877
 20
1145.1345
 30
0.0
 11
175.2239
 21
1149.1225
 31
0.0
  0
LINE
  5
42B1
330
1D
100
AcDbEntity
  8
0
100
AcDbLine
 10
176.966
 20
1136.3225
 30
0.0
 11
175.491
 21
1132.0935
 31
0.0
  0
LINE
  5
42B2
330
1D
100
AcDbEntity
  8
0
100
AcDbLine
 10
175.6244
 20
1137.2115
 30
0.0
 11
174.817
 21
1133.4785
 31
0.0
  0
LINE
  5
42B3
330
1D
100
AcDbEntity
  8
0
100
AcDbLine
 10
174.84
 20
1130.6485
 30
0.0
 11
173.061
 21
1126.9965
 31
0.0
  0
LINE
  5
42B4
330
1D
100
AcDbEntity
  8
0
100
AcDbLine
 10
175.491
 20
1132.0935
 30
0.0
 11
174.84
 21
1130.6485
 31
0.0
  0
LINE
  5
42B5
330
1D
100
AcDbEntity
  8
0
100
AcDbLine
 10
173.061
 20
1126.9965
 30
0.0
 11
172.716727520055
 21
1126.45312827695
 31
0.0
  0
LINE
  5
42B6
330
1D
100
AcDbEntity
  8
0
100
AcDbLine
 10
174.944
 20
1134.0655
 30
0.0
 11
174.817
 21
1133.4785
 31
0.0
  0
LINE
  5
42B7
330
1D
100
AcDbEntity
  8
0
100
AcDbLine
 10
174.817
 20
1133.4785
 30
0.0
 11
173.628
 21
1129.8595
 31
0.0
  0
LINE
  5
42B8
330
1D
100
AcDbEntity
  8
0
100
AcDbLine
 10
172.716727520055
 20
1126.45312827695
 30
0.0
 11
171.817830446828
 21
1125.0343821384
 31
0.0
  0
LINE
  5
42B9
330
1D
100
AcDbEntity
  8
0
100
AcDbLine
 10
177.669
 20
1138.9255
 30
0.0
 11
176.966
 21
1136.3225
 31
0.0
  0
LINE
  5
42BA
330
1D
100
AcDbEntity
  8
0
100
AcDbLine
 10
178.453
 20
1143.0425
 30
0.0
 11
177.669
 21
1138.9255
 31
0.0
  0
LINE
  5
42BB
330
1D
100
AcDbEntity
  8
0
100
AcDbLine
 10
176.0
 20
1142.1625
 30
0.0
 11
175.6244
 21
1137.2115
 31
0.0
  0
LINE
  5
42BC
330
1D
100
AcDbEntity
  8
0
100
AcDbLine
 10
176.0
 20
1142.1625
 30
0.0
 11
175.8877
 21
1145.1345
 31
0.0
  0
LINE
  5
42BD
330
1D
100
AcDbEntity
  8
0
100
AcDbLine
 10
178.78
 20
1145.3725
 30
0.0
 11
178.453
 21
1143.0425
 31
0.0
  0
LINE
  5
42BE
330
1D
100
AcDbEntity
  8
0
100
AcDbLine
 10
178.169
 20
1156.5545
 30
0.0
 11
177.533
 21
1158.8565
 31
0.0
  0
LINE
  5
42BF
330
1D
100
AcDbEntity
  8
0
100
AcDbLine
 10
179.0
 20
1149.0435
 30
0.0
 11
178.985
 21
1149.6115
 31
0.0
  0
LINE
  5
42C0
330
1D
100
AcDbEntity
  8
0
100
AcDbLine
 10
178.89
 20
1151.5995
 30
0.0
 11
178.623
 21
1154.2415
 31
0.0
  0
LINE
  5
42C1
330
1D
100
AcDbEntity
  8
0
100
AcDbLine
 10
178.623
 20
1154.2415
 30
0.0
 11
178.169
 21
1156.5545
 31
0.0
  0
LINE
  5
42C2
330
1D
100
AcDbEntity
  8
0
100
AcDbLine
 10
178.985
 20
1149.6115
 30
0.0
 11
178.963992143702
 21
1149.88019164271
 31
0.0
  0
LINE
  5
42C3
330
1D
100
AcDbEntity
  8
0
100
AcDbLine
 10
178.963992143702
 20
1149.88019164271
 30
0.0
 11
178.89
 21
1151.5995
 31
0.0
  0
LINE
  5
42C4
330
1D
100
AcDbEntity
  8
0
100
AcDbLine
 10
173.957
 20
1152.8985
 30
0.0
 11
172.375
 21
1156.4795
 31
0.0
  0
LINE
  5
42C5
330
1D
100
AcDbEntity
  8
0
100
AcDbLine
 10
175.2239
 20
1149.1225
 30
0.0
 11
173.957
 21
1152.8985
 31
0.0
  0
LINE
  5
42C6
330
1D
100
AcDbEntity
  8
0
100
AcDbLine
 10
177.533
 20
1158.8565
 30
0.0
 11
176.404
 21
1161.8945
 31
0.0
  0
LINE
  5
42C7
330
1D
100
AcDbEntity
  8
0
100
AcDbLine
 10
176.404
 20
1161.8945
 30
0.0
 11
174.957
 21
1164.8825
 31
0.0
  0
LINE
  5
42C8
330
1D
100
AcDbEntity
  8
0
100
AcDbLine
 10
173.2
 20
1167.8045
 30
0.0
 11
172.863
 21
1168.3535
 31
0.0
  0
LINE
  5
42C9
330
1D
100
AcDbEntity
  8
0
100
AcDbLine
 10
174.957
 20
1164.8825
 30
0.0
 11
173.2
 21
1167.8045
 31
0.0
  0
LINE
  5
42CA
330
1D
100
AcDbEntity
  8
0
100
AcDbLine
 10
170.455
 20
1143.6835
 30
0.0
 11
169.721
 21
1147.3135
 31
0.0
  0
LINE
  5
42CB
330
1D
100
AcDbEntity
  8
0
100
AcDbLine
 10
157.582766954348
 20
1145.932037257203
 30
0.0
 11
156.225766954348
 21
1146.772037257203
 31
0.0
  0
LINE
  5
42CC
330
1D
100
AcDbEntity
  8
0
100
AcDbLine
 10
159.420766954348
 20
1146.727037257203
 30
0.0
 11
157.582766954348
 21
1145.932037257203
 31
0.0
  0
LINE
  5
42CD
330
1D
100
AcDbEntity
  8
0
100
AcDbLine
 10
158.408687059687
 20
1138.902045256563
 30
0.0
 11
159.373224187485
 21
1138.799133884206
 31
0.0
  0
LINE
  5
42CE
330
1D
100
AcDbEntity
  8
0
100
AcDbLine
 10
160.452687059687
 20
1138.013045256563
 30
0.0
 11
158.614687059687
 21
1137.218045256563
 31
0.0
  0
LINE
  5
42CF
330
1D
100
AcDbEntity
  8
0
100
AcDbLine
 10
159.66992274399
 20
1129.38544872955
 30
0.0
 11
158.51892274399
 21
1128.54144872955
 31
0.0
  0
LINE
  5
42D0
330
1D
100
AcDbEntity
  8
0
100
AcDbLine
 10
159.87592274399
 20
1127.70144872955
 30
0.0
 11
158.51892274399
 21
1128.54144872955
 31
0.0
  0
LINE
  5
42D1
330
1D
100
AcDbEntity
  8
0
100
AcDbLine
 10
170.125
 20
1134.3475
 30
0.0
 11
170.030802690473
 21
1133.98008303828
 31
0.0
  0
LINE
  5
42D2
330
1D
100
AcDbEntity
  8
0
100
AcDbLine
 10
170.884
 20
1123.5605
 30
0.0
 11
170.066
 21
1122.3315
 31
0.0
  0
LINE
  5
42D3
330
1D
100
AcDbEntity
  8
0
100
AcDbLine
 10
169.331
 20
1131.2505
 30
0.0
 11
168.173561425761
 21
1128.14519954404
 31
0.0
  0
LINE
  5
42D4
330
1D
100
AcDbEntity
  8
0
100
AcDbLine
 10
170.025895226027
 20
1133.96094145467
 30
0.0
 11
169.331
 21
1131.2505
 31
0.0
  0
LINE
  5
42D5
330
1D
100
AcDbEntity
  8
0
100
AcDbLine
 10
168.079
 20
1127.8915
 30
0.0
 11
167.126856474261
 21
1125.98327847114
 31
0.0
  0
LINE
  5
42D6
330
1D
100
AcDbEntity
  8
0
100
AcDbLine
 10
168.124815290413
 20
1128.01441817931
 30
0.0
 11
168.079
 21
1127.8915
 31
0.0
  0
LINE
  5
42D7
330
1D
100
AcDbEntity
  8
0
100
AcDbLine
 10
161.535462985309
 20
1128.972668561537
 30
0.0
 11
161.71392274399
 21
1128.49644872955
 31
0.0
  0
LINE
  5
42D8
330
1D
100
AcDbEntity
  8
0
100
AcDbLine
 10
161.804282850501
 20
1129.11714320352
 30
0.0
 11
161.71392274399
 21
1128.49644872955
 31
0.0
  0
LINE
  5
42D9
330
1D
100
AcDbEntity
  8
0
100
AcDbLine
 10
160.634459871788
 20
1129.282537357192
 30
0.0
 11
161.535462985309
 21
1128.972668561537
 31
0.0
  0
LINE
  5
42DA
330
1D
100
AcDbEntity
  8
0
100
AcDbLine
 10
159.66992274399
 20
1129.38544872955
 30
0.0
 11
160.634459871788
 21
1129.282537357192
 31
0.0
  0
LINE
  5
42DB
330
1D
100
AcDbEntity
  8
0
100
AcDbLine
 10
161.71392274399
 20
1128.49644872955
 30
0.0
 11
159.87592274399
 21
1127.70144872955
 31
0.0
  0
LINE
  5
42DC
330
1D
100
AcDbEntity
  8
0
100
AcDbLine
 10
166.275
 20
1124.2495
 30
0.0
 11
167.126856474261
 21
1125.98327847114
 31
0.0
  0
LINE
  5
42DD
330
1D
100
AcDbEntity
  8
0
100
AcDbLine
 10
168.124815290413
 20
1128.01441817931
 30
0.0
 11
168.173561425761
 21
1128.14519954404
 31
0.0
  0
LINE
  5
42DE
330
1D
100
AcDbEntity
  8
0
100
AcDbLine
 10
170.571
 20
1137.3445
 30
0.0
 11
170.371348721568
 21
1136.00289712677
 31
0.0
  0
LINE
  5
42DF
330
1D
100
AcDbEntity
  8
0
100
AcDbLine
 10
170.293701826172
 20
1135.48113088125
 30
0.0
 11
170.125
 21
1134.3475
 31
0.0
  0
LINE
  5
42E0
330
1D
100
AcDbEntity
  8
0
100
AcDbLine
 10
170.7
 20
1139.9985
 30
0.0
 11
170.571
 21
1137.3445
 31
0.0
  0
LINE
  5
42E1
330
1D
100
AcDbEntity
  8
0
100
AcDbLine
 10
170.7
 20
1139.9985
 30
0.0
 11
170.455
 21
1143.6835
 31
0.0
  0
LINE
  5
42E2
330
1D
100
AcDbEntity
  8
0
100
AcDbLine
 10
170.293701826172
 20
1135.48113088125
 30
0.0
 11
170.371348721568
 21
1136.00289712677
 31
0.0
  0
LINE
  5
42E3
330
1D
100
AcDbEntity
  8
0
100
AcDbLine
 10
160.274227301006
 20
1138.489265088551
 30
0.0
 11
160.452687059687
 21
1138.013045256563
 31
0.0
  0
LINE
  5
42E4
330
1D
100
AcDbEntity
  8
0
100
AcDbLine
 10
160.543047166198
 20
1138.633739730533
 30
0.0
 11
160.452687059687
 21
1138.013045256563
 31
0.0
  0
LINE
  5
42E5
330
1D
100
AcDbEntity
  8
0
100
AcDbLine
 10
159.373224187485
 20
1138.799133884206
 30
0.0
 11
160.274227301006
 21
1138.489265088551
 31
0.0
  0
LINE
  5
42E6
330
1D
100
AcDbEntity
  8
0
100
AcDbLine
 10
153.019770954029
 20
1134.88902262469
 30
0.0
 11
151.868770954029
 21
1134.04502262469
 31
0.0
  0
LINE
  5
42E7
330
1D
100
AcDbEntity
  8
0
100
AcDbLine
 10
151.868770954029
 20
1134.04502262469
 30
0.0
 11
151.713590567344
 21
1135.2934140937
 31
0.0
  0
LINE
  5
42E8
330
1D
100
AcDbEntity
  8
0
100
AcDbLine
 10
154.885311195348
 20
1134.476242456677
 30
0.0
 11
155.063770954029
 21
1134.00002262469
 31
0.0
  0
LINE
  5
42E9
330
1D
100
AcDbEntity
  8
0
100
AcDbLine
 10
155.15413106054
 20
1134.62071709866
 30
0.0
 11
155.063770954029
 21
1134.00002262469
 31
0.0
  0
LINE
  5
42EA
330
1D
100
AcDbEntity
  8
0
100
AcDbLine
 10
152.102508638172
 20
1123.193928097517
 30
0.0
 11
150.951508638172
 21
1122.349928097517
 31
0.0
  0
LINE
  5
42EB
330
1D
100
AcDbEntity
  8
0
100
AcDbLine
 10
150.951508638172
 20
1122.349928097517
 30
0.0
 11
150.796328251487
 21
1123.598319566527
 31
0.0
  0
LINE
  5
42EC
330
1D
100
AcDbEntity
  8
0
100
AcDbLine
 10
153.968048879491
 20
1122.781147929504
 30
0.0
 11
154.146508638172
 21
1122.304928097516
 31
0.0
  0
LINE
  5
42ED
330
1D
100
AcDbEntity
  8
0
100
AcDbLine
 10
154.236868744683
 20
1122.925622571487
 30
0.0
 11
154.146508638172
 21
1122.304928097516
 31
0.0
  0
LINE
  5
42EE
330
1D
100
AcDbEntity
  8
0
100
AcDbLine
 10
153.06704576597
 20
1123.091016725159
 30
0.0
 11
153.968048879491
 21
1122.781147929504
 31
0.0
  0
LINE
  5
42EF
330
1D
100
AcDbEntity
  8
0
100
AcDbLine
 10
152.102508638172
 20
1123.193928097517
 30
0.0
 11
153.06704576597
 21
1123.091016725159
 31
0.0
  0
LINE
  5
42F0
330
1D
100
AcDbEntity
  8
0
100
AcDbLine
 10
153.225770954029
 20
1133.20502262469
 30
0.0
 11
151.868770954029
 21
1134.04502262469
 31
0.0
  0
LINE
  5
42F1
330
1D
100
AcDbEntity
  8
0
100
AcDbLine
 10
155.063770954029
 20
1134.00002262469
 30
0.0
 11
153.225770954029
 21
1133.20502262469
 31
0.0
  0
LINE
  5
42F2
330
1D
100
AcDbEntity
  8
0
100
AcDbLine
 10
158.51892274399
 20
1128.54144872955
 30
0.0
 11
158.363742357305
 21
1129.78984019856
 31
0.0
  0
LINE
  5
42F3
330
1D
100
AcDbEntity
  8
0
100
AcDbLine
 10
153.984308081827
 20
1134.786111252333
 30
0.0
 11
154.885311195348
 21
1134.476242456677
 31
0.0
  0
LINE
  5
42F4
330
1D
100
AcDbEntity
  8
0
100
AcDbLine
 10
153.019770954029
 20
1134.88902262469
 30
0.0
 11
153.984308081827
 21
1134.786111252333
 31
0.0
  0
LINE
  5
42F5
330
1D
100
AcDbEntity
  8
0
100
AcDbLine
 10
158.408687059687
 20
1138.902045256563
 30
0.0
 11
157.257687059687
 21
1138.058045256563
 31
0.0
  0
LINE
  5
42F6
330
1D
100
AcDbEntity
  8
0
100
AcDbLine
 10
157.257687059687
 20
1138.058045256563
 30
0.0
 11
157.102506673002
 21
1139.306436725574
 31
0.0
  0
LINE
  5
42F7
330
1D
100
AcDbEntity
  8
0
100
AcDbLine
 10
158.614687059687
 20
1137.218045256563
 30
0.0
 11
157.257687059687
 21
1138.058045256563
 31
0.0
  0
LINE
  5
42F8
330
1D
100
AcDbEntity
  8
0
100
AcDbLine
 10
148.433459374745
 20
1142.685752309473
 30
0.0
 11
147.282459374745
 21
1141.841752309473
 31
0.0
  0
LINE
  5
42F9
330
1D
100
AcDbEntity
  8
0
100
AcDbLine
 10
147.282459374745
 20
1141.841752309473
 30
0.0
 11
147.12727898806
 21
1143.090143778483
 31
0.0
  0
LINE
  5
42FA
330
1D
100
AcDbEntity
  8
0
100
AcDbLine
 10
150.298999616064
 20
1142.27297214146
 30
0.0
 11
150.477459374745
 21
1141.796752309473
 31
0.0
  0
LINE
  5
42FB
330
1D
100
AcDbEntity
  8
0
100
AcDbLine
 10
150.567819481256
 20
1142.417446783443
 30
0.0
 11
150.477459374745
 21
1141.796752309473
 31
0.0
  0
LINE
  5
42FC
330
1D
100
AcDbEntity
  8
0
100
AcDbLine
 10
149.397996502543
 20
1142.582840937115
 30
0.0
 11
150.298999616064
 21
1142.27297214146
 31
0.0
  0
LINE
  5
42FD
330
1D
100
AcDbEntity
  8
0
100
AcDbLine
 10
148.433459374745
 20
1142.685752309473
 30
0.0
 11
149.397996502543
 21
1142.582840937115
 31
0.0
  0
LINE
  5
42FE
330
1D
100
AcDbEntity
  8
0
100
AcDbLine
 10
148.639459374745
 20
1141.001752309473
 30
0.0
 11
147.282459374745
 21
1141.841752309473
 31
0.0
  0
LINE
  5
42FF
330
1D
100
AcDbEntity
  8
0
100
AcDbLine
 10
150.477459374745
 20
1141.796752309473
 30
0.0
 11
148.639459374745
 21
1141.001752309473
 31
0.0
  0
LINE
  5
4300
330
1D
100
AcDbEntity
  8
0
100
AcDbLine
 10
160.584
 20
1162.5275
 30
0.0
 11
156.788
 21
1165.9965
 31
0.0
  0
LINE
  5
4301
330
1D
100
AcDbEntity
  8
0
100
AcDbLine
 10
158.341304082146
 20
1147.513125884845
 30
0.0
 11
159.242307195667
 21
1147.20325708919
 31
0.0
  0
LINE
  5
4302
330
1D
100
AcDbEntity
  8
0
100
AcDbLine
 10
166.466
 20
1154.9495
 30
0.0
 11
163.82
 21
1158.8355
 31
0.0
  0
LINE
  5
4303
330
1D
100
AcDbEntity
  8
0
100
AcDbLine
 10
169.721
 20
1147.3135
 30
0.0
 11
168.491
 21
1150.9025
 31
0.0
  0
LINE
  5
4304
330
1D
100
AcDbEntity
  8
0
100
AcDbLine
 10
168.491
 20
1150.9025
 30
0.0
 11
166.466
 21
1154.9495
 31
0.0
  0
LINE
  5
4305
330
1D
100
AcDbEntity
  8
0
100
AcDbLine
 10
159.242307195667
 20
1147.20325708919
 30
0.0
 11
159.420766954348
 21
1146.727037257203
 31
0.0
  0
LINE
  5
4306
330
1D
100
AcDbEntity
  8
0
100
AcDbLine
 10
159.511127060859
 20
1147.347731731173
 30
0.0
 11
159.420766954348
 21
1146.727037257203
 31
0.0
  0
LINE
  5
4307
330
1D
100
AcDbEntity
  8
0
100
AcDbLine
 10
167.176
 20
1163.9805
 30
0.0
 11
163.869
 21
1167.3555
 31
0.0
  0
LINE
  5
4308
330
1D
100
AcDbEntity
  8
0
100
AcDbLine
 10
169.889
 20
1160.6255
 30
0.0
 11
167.176
 21
1163.9805
 31
0.0
  0
LINE
  5
4309
330
1D
100
AcDbEntity
  8
0
100
AcDbLine
 10
163.82
 20
1158.8355
 30
0.0
 11
160.584
 21
1162.5275
 31
0.0
  0
LINE
  5
430A
330
1D
100
AcDbEntity
  8
0
100
AcDbLine
 10
163.869
 20
1167.3555
 30
0.0
 11
161.551
 21
1169.4495
 31
0.0
  0
LINE
  5
430B
330
1D
100
AcDbEntity
  8
0
100
AcDbLine
 10
157.376766954348
 20
1147.616037257203
 30
0.0
 11
156.225766954348
 21
1146.772037257203
 31
0.0
  0
LINE
  5
430C
330
1D
100
AcDbEntity
  8
0
100
AcDbLine
 10
156.225766954348
 20
1146.772037257203
 30
0.0
 11
156.070586567663
 21
1148.020428726213
 31
0.0
  0
LINE
  5
430D
330
1D
100
AcDbEntity
  8
0
100
AcDbLine
 10
157.376766954348
 20
1147.616037257203
 30
0.0
 11
158.341304082146
 21
1147.513125884845
 31
0.0
  0
LINE
  5
430E
330
1D
100
AcDbEntity
  8
0
100
AcDbLine
 10
151.98785084869
 20
1154.495504626129
 30
0.0
 11
150.83685084869
 21
1153.651504626129
 31
0.0
  0
LINE
  5
430F
330
1D
100
AcDbEntity
  8
0
100
AcDbLine
 10
150.83685084869
 20
1153.651504626129
 30
0.0
 11
150.681670462005
 21
1154.899896095139
 31
0.0
  0
LINE
  5
4310
330
1D
100
AcDbEntity
  8
0
100
AcDbLine
 10
153.853391090009
 20
1154.082724458116
 30
0.0
 11
154.03185084869
 21
1153.606504626128
 31
0.0
  0
LINE
  5
4311
330
1D
100
AcDbEntity
  8
0
100
AcDbLine
 10
154.122210955201
 20
1154.227199100099
 30
0.0
 11
154.03185084869
 21
1153.606504626128
 31
0.0
  0
LINE
  5
4312
330
1D
100
AcDbEntity
  8
0
100
AcDbLine
 10
152.952387976488
 20
1154.392593253771
 30
0.0
 11
153.853391090009
 21
1154.082724458116
 31
0.0
  0
LINE
  5
4313
330
1D
100
AcDbEntity
  8
0
100
AcDbLine
 10
151.98785084869
 20
1154.495504626129
 30
0.0
 11
152.952387976488
 21
1154.392593253771
 31
0.0
  0
LINE
  5
4314
330
1D
100
AcDbEntity
  8
0
100
AcDbLine
 10
152.19385084869
 20
1152.811504626129
 30
0.0
 11
150.83685084869
 21
1153.651504626129
 31
0.0
  0
LINE
  5
4315
330
1D
100
AcDbEntity
  8
0
100
AcDbLine
 10
154.03185084869
 20
1153.606504626128
 30
0.0
 11
152.19385084869
 21
1152.811504626129
 31
0.0
  0
LINE
  5
4316
330
1D
100
AcDbEntity
  8
0
100
AcDbLine
 10
156.788
 20
1165.9965
 30
0.0
 11
152.454
 21
1169.2245
 31
0.0
  0
LINE
  5
4317
330
1D
100
AcDbEntity
  8
0
100
AcDbLine
 10
147.89118603694
 20
1160.503560669113
 30
0.0
 11
148.069645795621
 21
1160.027340837126
 31
0.0
  0
LINE
  5
4318
330
1D
100
AcDbEntity
  8
0
100
AcDbLine
 10
148.160005902132
 20
1160.648035311096
 30
0.0
 11
148.069645795621
 21
1160.027340837126
 31
0.0
  0
LINE
  5
4319
330
1D
100
AcDbEntity
  8
0
100
AcDbLine
 10
146.990182923419
 20
1160.813429464768
 30
0.0
 11
147.89118603694
 21
1160.503560669113
 31
0.0
  0
LINE
  5
431A
330
1D
100
AcDbEntity
  8
0
100
AcDbLine
 10
123.203
 20
1122.3065
 30
0.0
 11
117.541
 21
1118.8415
 31
0.0
  0
LINE
  5
431B
330
1D
100
AcDbEntity
  8
0
100
AcDbLine
 10
107.045077842938
 20
1122.842954335593
 30
0.0
 11
106.161077842938
 21
1121.738954335593
 31
0.0
  0
LINE
  5
431C
330
1D
100
AcDbEntity
  8
0
100
AcDbLine
 10
123.771
 20
1094.3395
 30
0.0
 11
120.507
 21
1092.4145
 31
0.0
  0
LINE
  5
431D
330
1D
100
AcDbEntity
  8
0
100
AcDbLine
 10
122.591665934742
 20
1079.11513579064
 30
0.0
 11
122.846
 21
1080.6155
 31
0.0
  0
LINE
  5
431E
330
1D
100
AcDbEntity
  8
0
100
AcDbLine
 10
123.094087899202
 20
1113.218700412574
 30
0.0
 11
121.943087899202
 21
1112.374700412574
 31
0.0
  0
LINE
  5
431F
330
1D
100
AcDbEntity
  8
0
100
AcDbLine
 10
123.300087899202
 20
1111.534700412574
 30
0.0
 11
121.943087899202
 21
1112.374700412574
 31
0.0
  0
LINE
  5
4320
330
1D
100
AcDbEntity
  8
0
100
AcDbLine
 10
142.377
 20
1101.0585
 30
0.0
 11
135.526
 21
1097.3035
 31
0.0
  0
LINE
  5
4321
330
1D
100
AcDbEntity
  8
0
100
AcDbLine
 10
130.812
 20
1098.1745
 30
0.0
 11
127.507
 21
1096.5005
 31
0.0
  0
LINE
  5
4322
330
1D
100
AcDbEntity
  8
0
100
AcDbLine
 10
135.526
 20
1097.3035
 30
0.0
 11
132.362608069505
 21
1095.336987405
 31
0.0
  0
LINE
  5
4323
330
1D
100
AcDbEntity
  8
0
100
AcDbLine
 10
124.873761930825
 20
1087.35307301379
 30
0.0
 11
123.904
 21
1085.0115
 31
0.0
  0
LINE
  5
4324
330
1D
100
AcDbEntity
  8
0
100
AcDbLine
 10
123.504159129809
 20
1083.69360344759
 30
0.0
 11
122.846
 21
1080.6155
 31
0.0
  0
LINE
  5
4325
330
1D
100
AcDbEntity
  8
0
100
AcDbLine
 10
123.504159129809
 20
1083.69360344759
 30
0.0
 11
123.904
 21
1085.0115
 31
0.0
  0
LINE
  5
4326
330
1D
100
AcDbEntity
  8
0
100
AcDbLine
 10
131.67
 20
1094.8925
 30
0.0
 11
128.708
 21
1092.5095
 31
0.0
  0
LINE
  5
4327
330
1D
100
AcDbEntity
  8
0
100
AcDbLine
 10
132.362608069505
 20
1095.336987405
 30
0.0
 11
131.67
 21
1094.8925
 31
0.0
  0
LINE
  5
4328
330
1D
100
AcDbEntity
  8
0
100
AcDbLine
 10
128.708
 20
1092.5095
 30
0.0
 11
126.753
 21
1090.3805
 31
0.0
  0
LINE
  5
4329
330
1D
100
AcDbEntity
  8
0
100
AcDbLine
 10
127.507
 20
1096.5005
 30
0.0
 11
125.132
 21
1095.1865
 31
0.0
  0
LINE
  5
432A
330
1D
100
AcDbEntity
  8
0
100
AcDbLine
 10
126.753
 20
1090.3805
 30
0.0
 11
126.163609184248
 21
1089.53716113428
 31
0.0
  0
LINE
  5
432B
330
1D
100
AcDbEntity
  8
0
100
AcDbLine
 10
125.132
 20
1095.1865
 30
0.0
 11
123.771
 21
1094.3395
 31
0.0
  0
LINE
  5
432C
330
1D
100
AcDbEntity
  8
0
100
AcDbLine
 10
124.873761930825
 20
1087.35307301379
 30
0.0
 11
125.632
 21
1088.7765
 31
0.0
  0
LINE
  5
432D
330
1D
100
AcDbEntity
  8
0
100
AcDbLine
 10
126.163609184248
 20
1089.53716113428
 30
0.0
 11
125.632
 21
1088.7765
 31
0.0
  0
LINE
  5
432E
330
1D
100
AcDbEntity
  8
0
100
AcDbLine
 10
138.102
 20
1101.5015
 30
0.0
 11
134.461
 21
1099.8735
 31
0.0
  0
LINE
  5
432F
330
1D
100
AcDbEntity
  8
0
100
AcDbLine
 10
135.477129163268
 20
1117.805011991858
 30
0.0
 11
134.326129163268
 21
1116.961011991858
 31
0.0
  0
LINE
  5
4330
330
1D
100
AcDbEntity
  8
0
100
AcDbLine
 10
135.683129163268
 20
1116.121011991858
 30
0.0
 11
134.326129163268
 21
1116.961011991858
 31
0.0
  0
LINE
  5
4331
330
1D
100
AcDbEntity
  8
0
100
AcDbLine
 10
144.724
 20
1104.5985
 30
0.0
 11
138.102
 21
1101.5015
 31
0.0
  0
LINE
  5
4332
330
1D
100
AcDbEntity
  8
0
100
AcDbLine
 10
141.674939439114
 20
1106.284478788641
 30
0.0
 11
140.317939439114
 21
1107.124478788641
 31
0.0
  0
LINE
  5
4333
330
1D
100
AcDbEntity
  8
0
100
AcDbLine
 10
141.468939439114
 20
1107.968478788641
 30
0.0
 11
140.317939439114
 21
1107.124478788641
 31
0.0
  0
LINE
  5
4334
330
1D
100
AcDbEntity
  8
0
100
AcDbLine
 10
145.799
 20
1102.9335
 30
0.0
 11
142.377
 21
1101.0585
 31
0.0
  0
LINE
  5
4335
330
1D
100
AcDbEntity
  8
0
100
AcDbLine
 10
143.512939439114
 20
1107.079478788641
 30
0.0
 11
141.674939439114
 21
1106.284478788641
 31
0.0
  0
LINE
  5
4336
330
1D
100
AcDbEntity
  8
0
100
AcDbLine
 10
141.468939439114
 20
1107.968478788641
 30
0.0
 11
142.433476566912
 21
1107.865567416284
 31
0.0
  0
LINE
  5
4337
330
1D
100
AcDbEntity
  8
0
100
AcDbLine
 10
142.433476566912
 20
1107.865567416284
 30
0.0
 11
143.334479680433
 21
1107.555698620628
 31
0.0
  0
LINE
  5
4338
330
1D
100
AcDbEntity
  8
0
100
AcDbLine
 10
143.603299545625
 20
1107.700173262611
 30
0.0
 11
143.512939439114
 21
1107.079478788641
 31
0.0
  0
LINE
  5
4339
330
1D
100
AcDbEntity
  8
0
100
AcDbLine
 10
143.334479680433
 20
1107.555698620628
 30
0.0
 11
143.512939439114
 21
1107.079478788641
 31
0.0
  0
LINE
  5
433A
330
1D
100
AcDbEntity
  8
0
100
AcDbLine
 10
140.317939439114
 20
1107.124478788641
 30
0.0
 11
140.162759052429
 21
1108.372870257651
 31
0.0
  0
LINE
  5
433B
330
1D
100
AcDbEntity
  8
0
100
AcDbLine
 10
137.342669404587
 20
1117.392231823845
 30
0.0
 11
137.521129163268
 21
1116.916011991858
 31
0.0
  0
LINE
  5
433C
330
1D
100
AcDbEntity
  8
0
100
AcDbLine
 10
137.611489269779
 20
1117.536706465828
 30
0.0
 11
137.521129163268
 21
1116.916011991858
 31
0.0
  0
LINE
  5
433D
330
1D
100
AcDbEntity
  8
0
100
AcDbLine
 10
136.441666291066
 20
1117.7021006195
 30
0.0
 11
137.342669404587
 21
1117.392231823845
 31
0.0
  0
LINE
  5
433E
330
1D
100
AcDbEntity
  8
0
100
AcDbLine
 10
135.477129163268
 20
1117.805011991858
 30
0.0
 11
136.441666291066
 21
1117.7021006195
 31
0.0
  0
LINE
  5
433F
330
1D
100
AcDbEntity
  8
0
100
AcDbLine
 10
137.521129163268
 20
1116.916011991858
 30
0.0
 11
135.683129163268
 21
1116.121011991858
 31
0.0
  0
LINE
  5
4340
330
1D
100
AcDbEntity
  8
0
100
AcDbLine
 10
145.796330216657
 20
1117.117065254966
 30
0.0
 11
144.645330216657
 21
1116.273065254966
 31
0.0
  0
LINE
  5
4341
330
1D
100
AcDbEntity
  8
0
100
AcDbLine
 10
144.645330216657
 20
1116.273065254966
 30
0.0
 11
144.490149829972
 21
1117.521456723976
 31
0.0
  0
LINE
  5
4342
330
1D
100
AcDbEntity
  8
0
100
AcDbLine
 10
145.796330216657
 20
1117.117065254966
 30
0.0
 11
146.760867344455
 21
1117.014153882608
 31
0.0
  0
LINE
  5
4343
330
1D
100
AcDbEntity
  8
0
100
AcDbLine
 10
146.002330216657
 20
1115.433065254966
 30
0.0
 11
144.645330216657
 21
1116.273065254966
 31
0.0
  0
LINE
  5
4344
330
1D
100
AcDbEntity
  8
0
100
AcDbLine
 10
134.461
 20
1099.8735
 30
0.0
 11
130.812
 21
1098.1745
 31
0.0
  0
LINE
  5
4345
330
1D
100
AcDbEntity
  8
0
100
AcDbLine
 10
132.679295418902
 20
1107.962471718188
 30
0.0
 11
130.841295418902
 21
1107.167471718188
 31
0.0
  0
LINE
  5
4346
330
1D
100
AcDbEntity
  8
0
100
AcDbLine
 10
130.841295418902
 20
1107.167471718188
 30
0.0
 11
129.484295418902
 21
1108.007471718188
 31
0.0
  0
LINE
  5
4347
330
1D
100
AcDbEntity
  8
0
100
AcDbLine
 10
130.635295418902
 20
1108.851471718188
 30
0.0
 11
131.599832546699
 21
1108.748560345831
 31
0.0
  0
LINE
  5
4348
330
1D
100
AcDbEntity
  8
0
100
AcDbLine
 10
131.599832546699
 20
1108.748560345831
 30
0.0
 11
132.50083566022
 21
1108.438691550175
 31
0.0
  0
LINE
  5
4349
330
1D
100
AcDbEntity
  8
0
100
AcDbLine
 10
132.769655525413
 20
1108.583166192158
 30
0.0
 11
132.679295418902
 21
1107.962471718188
 31
0.0
  0
LINE
  5
434A
330
1D
100
AcDbEntity
  8
0
100
AcDbLine
 10
132.50083566022
 20
1108.438691550175
 30
0.0
 11
132.679295418902
 21
1107.962471718188
 31
0.0
  0
LINE
  5
434B
330
1D
100
AcDbEntity
  8
0
100
AcDbLine
 10
129.484295418902
 20
1108.007471718188
 30
0.0
 11
129.329115032217
 21
1109.255863187198
 31
0.0
  0
LINE
  5
434C
330
1D
100
AcDbEntity
  8
0
100
AcDbLine
 10
130.635295418902
 20
1108.851471718188
 30
0.0
 11
129.484295418902
 21
1108.007471718188
 31
0.0
  0
LINE
  5
434D
330
1D
100
AcDbEntity
  8
0
100
AcDbLine
 10
126.559943436377
 20
1102.195063480064
 30
0.0
 11
125.408943436377
 21
1101.351063480064
 31
0.0
  0
LINE
  5
434E
330
1D
100
AcDbEntity
  8
0
100
AcDbLine
 10
125.408943436377
 20
1101.351063480064
 30
0.0
 11
125.253763049692
 21
1102.599454949074
 31
0.0
  0
LINE
  5
434F
330
1D
100
AcDbEntity
  8
0
100
AcDbLine
 10
128.425483677695
 20
1101.782283312051
 30
0.0
 11
128.603943436377
 21
1101.306063480064
 31
0.0
  0
LINE
  5
4350
330
1D
100
AcDbEntity
  8
0
100
AcDbLine
 10
128.694303542888
 20
1101.926757954034
 30
0.0
 11
128.603943436377
 21
1101.306063480064
 31
0.0
  0
LINE
  5
4351
330
1D
100
AcDbEntity
  8
0
100
AcDbLine
 10
127.524480564174
 20
1102.092152107707
 30
0.0
 11
128.425483677695
 21
1101.782283312051
 31
0.0
  0
LINE
  5
4352
330
1D
100
AcDbEntity
  8
0
100
AcDbLine
 10
126.559943436377
 20
1102.195063480064
 30
0.0
 11
127.524480564174
 21
1102.092152107707
 31
0.0
  0
LINE
  5
4353
330
1D
100
AcDbEntity
  8
0
100
AcDbLine
 10
126.765943436377
 20
1100.511063480064
 30
0.0
 11
125.408943436377
 21
1101.351063480064
 31
0.0
  0
LINE
  5
4354
330
1D
100
AcDbEntity
  8
0
100
AcDbLine
 10
128.603943436377
 20
1101.306063480064
 30
0.0
 11
126.765943436377
 21
1100.511063480064
 31
0.0
  0
LINE
  5
4355
330
1D
100
AcDbEntity
  8
0
100
AcDbLine
 10
124.959628140521
 20
1112.805920244561
 30
0.0
 11
125.138087899202
 21
1112.329700412574
 31
0.0
  0
LINE
  5
4356
330
1D
100
AcDbEntity
  8
0
100
AcDbLine
 10
125.228448005713
 20
1112.950394886544
 30
0.0
 11
125.138087899202
 21
1112.329700412574
 31
0.0
  0
LINE
  5
4357
330
1D
100
AcDbEntity
  8
0
100
AcDbLine
 10
124.058625027
 20
1113.115789040217
 30
0.0
 11
124.959628140521
 21
1112.805920244561
 31
0.0
  0
LINE
  5
4358
330
1D
100
AcDbEntity
  8
0
100
AcDbLine
 10
123.094087899202
 20
1113.218700412574
 30
0.0
 11
124.058625027
 21
1113.115789040217
 31
0.0
  0
LINE
  5
4359
330
1D
100
AcDbEntity
  8
0
100
AcDbLine
 10
125.138087899202
 20
1112.329700412574
 30
0.0
 11
123.300087899202
 21
1111.534700412574
 31
0.0
  0
LINE
  5
435A
330
1D
100
AcDbEntity
  8
0
100
AcDbLine
 10
125.501901478326
 20
1118.378300939268
 30
0.0
 11
124.350901478326
 21
1117.534300939268
 31
0.0
  0
LINE
  5
435B
330
1D
100
AcDbEntity
  8
0
100
AcDbLine
 10
124.350901478326
 20
1117.534300939268
 30
0.0
 11
124.195721091641
 21
1118.782692408278
 31
0.0
  0
LINE
  5
435C
330
1D
100
AcDbEntity
  8
0
100
AcDbLine
 10
127.367441719645
 20
1117.965520771256
 30
0.0
 11
127.545901478326
 21
1117.489300939268
 31
0.0
  0
LINE
  5
435D
330
1D
100
AcDbEntity
  8
0
100
AcDbLine
 10
127.636261584837
 20
1118.109995413238
 30
0.0
 11
127.545901478326
 21
1117.489300939268
 31
0.0
  0
LINE
  5
435E
330
1D
100
AcDbEntity
  8
0
100
AcDbLine
 10
126.466438606124
 20
1118.275389566911
 30
0.0
 11
127.367441719645
 21
1117.965520771256
 31
0.0
  0
LINE
  5
435F
330
1D
100
AcDbEntity
  8
0
100
AcDbLine
 10
125.501901478326
 20
1118.378300939268
 30
0.0
 11
126.466438606124
 21
1118.275389566911
 31
0.0
  0
LINE
  5
4360
330
1D
100
AcDbEntity
  8
0
100
AcDbLine
 10
125.707901478326
 20
1116.694300939268
 30
0.0
 11
124.350901478326
 21
1117.534300939268
 31
0.0
  0
LINE
  5
4361
330
1D
100
AcDbEntity
  8
0
100
AcDbLine
 10
127.545901478326
 20
1117.489300939268
 30
0.0
 11
125.707901478326
 21
1116.694300939268
 31
0.0
  0
LINE
  5
4362
330
1D
100
AcDbEntity
  8
0
100
AcDbLine
 10
134.326129163268
 20
1116.961011991858
 30
0.0
 11
134.170948776583
 21
1118.209403460868
 31
0.0
  0
LINE
  5
4363
330
1D
100
AcDbEntity
  8
0
100
AcDbLine
 10
114.751227420998
 20
1099.004803300251
 30
0.0
 11
115.662536486425
 21
1096.547134349206
 31
0.0
  0
LINE
  5
4364
330
1D
100
AcDbEntity
  8
0
100
AcDbLine
 10
111.439455991212
 20
1089.125470803236
 30
0.0
 11
110.513964618765
 21
1088.464411199068
 31
0.0
  0
LINE
  5
4365
330
1D
100
AcDbEntity
  8
0
100
AcDbLine
 10
109.130290513799
 20
1085.976220258243
 30
0.0
 11
111.721791587685
 21
1087.191226696445
 31
0.0
  0
LINE
  5
4366
330
1D
100
AcDbEntity
  8
0
100
AcDbLine
 10
122.591665934742
 20
1079.11513579064
 30
0.0
 11
122.482
 21
1078.3875
 31
0.0
  0
LINE
  5
4367
330
1D
100
AcDbEntity
  8
0
100
AcDbLine
 10
122.482
 20
1078.3875
 30
0.0
 11
122.017212088359
 21
1073.98246510295
 31
0.0
  0
LINE
  5
4368
330
1D
100
AcDbEntity
  8
0
100
AcDbLine
 10
120.507
 20
1092.4145
 30
0.0
 11
115.576
 21
1089.3475
 31
0.0
  0
LINE
  5
4369
330
1D
100
AcDbEntity
  8
0
100
AcDbLine
 10
115.019329667033
 20
1093.151580976126
 30
0.0
 11
114.005787950097
 21
1091.601193035219
 31
0.0
  0
LINE
  5
436A
330
1D
100
AcDbEntity
  8
0
100
AcDbLine
 10
115.576
 20
1089.3475
 30
0.0
 11
113.6
 21
1088.2265
 31
0.0
  0
LINE
  5
436B
330
1D
100
AcDbEntity
  8
0
100
AcDbLine
 10
114.005787950097
 20
1091.601193035219
 30
0.0
 11
113.374482238826
 21
1090.876286792624
 31
0.0
  0
LINE
  5
436C
330
1D
100
AcDbEntity
  8
0
100
AcDbLine
 10
113.374482238826
 20
1090.876286792624
 30
0.0
 11
112.539688974531
 21
1090.033275325077
 31
0.0
  0
LINE
  5
436D
330
1D
100
AcDbEntity
  8
0
100
AcDbLine
 10
112.539688974531
 20
1090.033275325077
 30
0.0
 11
111.439455991212
 21
1089.125470803236
 31
0.0
  0
LINE
  5
436E
330
1D
100
AcDbEntity
  8
0
100
AcDbLine
 10
111.721791587685
 20
1087.191226696445
 30
0.0
 11
113.6
 21
1088.2265
 31
0.0
  0
LINE
  5
436F
330
1D
100
AcDbEntity
  8
0
100
AcDbLine
 10
115.593628299459
 20
1095.204612775566
 30
0.0
 11
115.322006594897
 21
1093.858744343954
 31
0.0
  0
LINE
  5
4370
330
1D
100
AcDbEntity
  8
0
100
AcDbLine
 10
115.322006594897
 20
1093.858744343954
 30
0.0
 11
115.019329667033
 21
1093.151580976126
 31
0.0
  0
LINE
  5
4371
330
1D
100
AcDbEntity
  8
0
100
AcDbLine
 10
115.662536486425
 20
1096.547134349206
 30
0.0
 11
115.662536486425
 21
1095.931712955272
 31
0.0
  0
LINE
  5
4372
330
1D
100
AcDbEntity
  8
0
100
AcDbLine
 10
115.662536486425
 20
1095.931712955272
 30
0.0
 11
115.593628299459
 21
1095.204612775566
 31
0.0
  0
LINE
  5
4373
330
1D
100
AcDbEntity
  8
0
100
AcDbLine
 10
105.075461327727
 20
1084.79687480149
 30
0.0
 11
103.0
 21
1084.5505
 31
0.0
  0
LINE
  5
4374
330
1D
100
AcDbEntity
  8
0
100
AcDbLine
 10
105.075461327727
 20
1084.79687480149
 30
0.0
 11
106.669517980732
 21
1085.161089356665
 31
0.0
  0
LINE
  5
4375
330
1D
100
AcDbEntity
  8
0
100
AcDbLine
 10
106.669517980732
 20
1085.161089356665
 30
0.0
 11
109.130290513799
 21
1085.976220258243
 31
0.0
  0
LINE
  5
4376
330
1D
100
AcDbEntity
  8
0
100
AcDbLine
 10
106.137
 20
1086.7615
 30
0.0
 11
103.57
 21
1086.3815
 31
0.0
  0
LINE
  5
4377
330
1D
100
AcDbEntity
  8
0
100
AcDbLine
 10
110.513964618765
 20
1088.464411199068
 30
0.0
 11
109.170757712136
 21
1087.655791656616
 31
0.0
  0
LINE
  5
4378
330
1D
100
AcDbEntity
  8
0
100
AcDbLine
 10
109.170757712136
 20
1087.655791656616
 30
0.0
 11
106.137
 21
1086.7615
 31
0.0
  0
LINE
  5
4379
330
1D
100
AcDbEntity
  8
0
100
AcDbLine
 10
113.54
 20
1117.2805
 30
0.0
 11
108.412
 21
1116.1485
 31
0.0
  0
LINE
  5
437A
330
1D
100
AcDbEntity
  8
0
100
AcDbLine
 10
108.386735576456
 20
1102.793775852002
 30
0.0
 11
111.848695322023
 21
1101.466389658653
 31
0.0
  0
LINE
  5
437B
330
1D
100
AcDbEntity
  8
0
100
AcDbLine
 10
110.643663657595
 20
1108.748560345831
 30
0.0
 11
111.544666771116
 21
1108.438691550175
 31
0.0
  0
LINE
  5
437C
330
1D
100
AcDbEntity
  8
0
100
AcDbLine
 10
111.723126529797
 20
1107.962471718188
 30
0.0
 11
109.885126529797
 21
1107.167471718188
 31
0.0
  0
LINE
  5
437D
330
1D
100
AcDbEntity
  8
0
100
AcDbLine
 10
121.54
 20
1104.4305
 30
0.0
 11
119.702
 21
1103.6355
 31
0.0
  0
LINE
  5
437E
330
1D
100
AcDbEntity
  8
0
100
AcDbLine
 10
119.702
 20
1103.6355
 30
0.0
 11
118.345
 21
1104.4755
 31
0.0
  0
LINE
  5
437F
330
1D
100
AcDbEntity
  8
0
100
AcDbLine
 10
119.496
 20
1105.3195
 30
0.0
 11
120.460537127798
 21
1105.216588627642
 31
0.0
  0
LINE
  5
4380
330
1D
100
AcDbEntity
  8
0
100
AcDbLine
 10
120.460537127798
 20
1105.216588627642
 30
0.0
 11
121.361540241319
 21
1104.906719831987
 31
0.0
  0
LINE
  5
4381
330
1D
100
AcDbEntity
  8
0
100
AcDbLine
 10
121.630360106511
 20
1105.05119447397
 30
0.0
 11
121.54
 21
1104.4305
 31
0.0
  0
LINE
  5
4382
330
1D
100
AcDbEntity
  8
0
100
AcDbLine
 10
121.361540241319
 20
1104.906719831987
 30
0.0
 11
121.54
 21
1104.4305
 31
0.0
  0
LINE
  5
4383
330
1D
100
AcDbEntity
  8
0
100
AcDbLine
 10
118.345
 20
1104.4755
 30
0.0
 11
118.189819613315
 21
1105.72389146901
 31
0.0
  0
LINE
  5
4384
330
1D
100
AcDbEntity
  8
0
100
AcDbLine
 10
119.496
 20
1105.3195
 30
0.0
 11
118.345
 21
1104.4755
 31
0.0
  0
LINE
  5
4385
330
1D
100
AcDbEntity
  8
0
100
AcDbLine
 10
111.848695322023
 20
1101.466389658653
 30
0.0
 11
113.799229807959
 21
1100.163873274357
 31
0.0
  0
LINE
  5
4386
330
1D
100
AcDbEntity
  8
0
100
AcDbLine
 10
113.799229807959
 20
1100.163873274357
 30
0.0
 11
114.751227420998
 21
1099.004803300251
 31
0.0
  0
LINE
  5
4387
330
1D
100
AcDbEntity
  8
0
100
AcDbLine
 10
111.544666771116
 20
1108.438691550175
 30
0.0
 11
111.723126529797
 21
1107.962471718188
 31
0.0
  0
LINE
  5
4388
330
1D
100
AcDbEntity
  8
0
100
AcDbLine
 10
111.813486636308
 20
1108.583166192158
 30
0.0
 11
111.723126529797
 21
1107.962471718188
 31
0.0
  0
LINE
  5
4389
330
1D
100
AcDbEntity
  8
0
100
AcDbLine
 10
117.541
 20
1118.8415
 30
0.0
 11
113.54
 21
1117.2805
 31
0.0
  0
LINE
  5
438A
330
1D
100
AcDbEntity
  8
0
100
AcDbLine
 10
121.943087899202
 20
1112.374700412574
 30
0.0
 11
121.787907512517
 21
1113.623091881584
 31
0.0
  0
LINE
  5
438B
330
1D
100
AcDbEntity
  8
0
100
AcDbLine
 10
112.660229056331
 20
1113.791989359985
 30
0.0
 11
111.509229056331
 21
1112.947989359985
 31
0.0
  0
LINE
  5
438C
330
1D
100
AcDbEntity
  8
0
100
AcDbLine
 10
111.509229056331
 20
1112.947989359985
 30
0.0
 11
111.354048669646
 21
1114.196380828995
 31
0.0
  0
LINE
  5
438D
330
1D
100
AcDbEntity
  8
0
100
AcDbLine
 10
114.52576929765
 20
1113.379209191972
 30
0.0
 11
114.704229056331
 21
1112.902989359984
 31
0.0
  0
LINE
  5
438E
330
1D
100
AcDbEntity
  8
0
100
AcDbLine
 10
114.794589162842
 20
1113.523683833955
 30
0.0
 11
114.704229056331
 21
1112.902989359984
 31
0.0
  0
LINE
  5
438F
330
1D
100
AcDbEntity
  8
0
100
AcDbLine
 10
113.624766184129
 20
1113.689077987627
 30
0.0
 11
114.52576929765
 21
1113.379209191972
 31
0.0
  0
LINE
  5
4390
330
1D
100
AcDbEntity
  8
0
100
AcDbLine
 10
112.660229056331
 20
1113.791989359985
 30
0.0
 11
113.624766184129
 21
1113.689077987627
 31
0.0
  0
LINE
  5
4391
330
1D
100
AcDbEntity
  8
0
100
AcDbLine
 10
112.866229056331
 20
1112.107989359985
 30
0.0
 11
111.509229056331
 21
1112.947989359985
 31
0.0
  0
LINE
  5
4392
330
1D
100
AcDbEntity
  8
0
100
AcDbLine
 10
114.704229056331
 20
1112.902989359984
 30
0.0
 11
112.866229056331
 21
1112.107989359985
 31
0.0
  0
LINE
  5
4393
330
1D
100
AcDbEntity
  8
0
100
AcDbLine
 10
103.0
 20
1103.5375
 30
0.0
 11
106.165145955846
 21
1103.263835116816
 31
0.0
  0
LINE
  5
4394
330
1D
100
AcDbEntity
  8
0
100
AcDbLine
 10
106.165145955846
 20
1103.263835116816
 30
0.0
 11
108.386735576456
 21
1102.793775852002
 31
0.0
  0
LINE
  5
4395
330
1D
100
AcDbEntity
  8
0
100
AcDbLine
 10
109.679126529797
 20
1108.851471718188
 30
0.0
 11
108.528126529797
 21
1108.007471718188
 31
0.0
  0
LINE
  5
4396
330
1D
100
AcDbEntity
  8
0
100
AcDbLine
 10
108.528126529797
 20
1108.007471718188
 30
0.0
 11
108.372946143112
 21
1109.255863187198
 31
0.0
  0
LINE
  5
4397
330
1D
100
AcDbEntity
  8
0
100
AcDbLine
 10
109.679126529797
 20
1108.851471718188
 30
0.0
 11
110.643663657595
 21
1108.748560345831
 31
0.0
  0
LINE
  5
4398
330
1D
100
AcDbEntity
  8
0
100
AcDbLine
 10
109.885126529797
 20
1107.167471718188
 30
0.0
 11
108.528126529797
 21
1108.007471718188
 31
0.0
  0
LINE
  5
4399
330
1D
100
AcDbEntity
  8
0
100
AcDbLine
 10
105.916
 20
1116.0595
 30
0.0
 11
103.0
 21
1115.9915
 31
0.0
  0
LINE
  5
439A
330
1D
100
AcDbEntity
  8
0
100
AcDbLine
 10
104.712077842938
 20
1121.070954335593
 30
0.0
 11
102.824077842938
 21
1120.849954335593
 31
0.0
  0
LINE
  5
439B
330
1D
100
AcDbEntity
  8
0
100
AcDbLine
 10
108.412
 20
1116.1485
 30
0.0
 11
105.916
 21
1116.0595
 31
0.0
  0
LINE
  5
439C
330
1D
100
AcDbEntity
  8
0
100
AcDbLine
 10
106.161077842938
 20
1121.738954335593
 30
0.0
 11
104.712077842938
 21
1121.070954335593
 31
0.0
  0
LINE
  5
439D
330
1D
100
AcDbEntity
  8
0
100
AcDbLine
 10
124.168
 20
1139.9115
 30
0.0
 11
122.535
 21
1141.0965
 31
0.0
  0
LINE
  5
439E
330
1D
100
AcDbEntity
  8
0
100
AcDbLine
 10
124.244141162309
 20
1157.01037146836
 30
0.0
 11
122.406141162309
 21
1156.21537146836
 31
0.0
  0
LINE
  5
439F
330
1D
100
AcDbEntity
  8
0
100
AcDbLine
 10
122.200141162309
 20
1157.89937146836
 30
0.0
 11
123.164678290107
 21
1157.796460096002
 31
0.0
  0
LINE
  5
43A0
330
1D
100
AcDbEntity
  8
0
100
AcDbLine
 10
124.244141162309
 20
1147.72309052031
 30
0.0
 11
122.406141162309
 21
1146.92809052031
 31
0.0
  0
LINE
  5
43A1
330
1D
100
AcDbEntity
  8
0
100
AcDbLine
 10
122.200141162309
 20
1148.61209052031
 30
0.0
 11
123.164678290107
 21
1148.509179147953
 31
0.0
  0
LINE
  5
43A2
330
1D
100
AcDbEntity
  8
0
100
AcDbLine
 10
143.135885479604
 20
1133.434338203654
 30
0.0
 11
141.778885479604
 21
1134.274338203654
 31
0.0
  0
LINE
  5
43A3
330
1D
100
AcDbEntity
  8
0
100
AcDbLine
 10
144.973885479604
 20
1134.229338203654
 30
0.0
 11
143.135885479604
 21
1133.434338203654
 31
0.0
  0
LINE
  5
43A4
330
1D
100
AcDbEntity
  8
0
100
AcDbLine
 10
141.553992005819
 20
1124.913794939748
 30
0.0
 11
140.402992005819
 21
1124.069794939748
 31
0.0
  0
LINE
  5
43A5
330
1D
100
AcDbEntity
  8
0
100
AcDbLine
 10
140.402992005819
 20
1124.069794939748
 30
0.0
 11
140.247811619134
 21
1125.318186408758
 31
0.0
  0
LINE
  5
43A6
330
1D
100
AcDbEntity
  8
0
100
AcDbLine
 10
143.419532247138
 20
1124.501014771735
 30
0.0
 11
143.597992005819
 21
1124.024794939748
 31
0.0
  0
LINE
  5
43A7
330
1D
100
AcDbEntity
  8
0
100
AcDbLine
 10
143.68835211233
 20
1124.645489413718
 30
0.0
 11
143.597992005819
 21
1124.024794939748
 31
0.0
  0
LINE
  5
43A8
330
1D
100
AcDbEntity
  8
0
100
AcDbLine
 10
142.518529133617
 20
1124.81088356739
 30
0.0
 11
143.419532247138
 21
1124.501014771735
 31
0.0
  0
LINE
  5
43A9
330
1D
100
AcDbEntity
  8
0
100
AcDbLine
 10
141.553992005819
 20
1124.913794939748
 30
0.0
 11
142.518529133617
 21
1124.81088356739
 31
0.0
  0
LINE
  5
43AA
330
1D
100
AcDbEntity
  8
0
100
AcDbLine
 10
141.759992005819
 20
1123.229794939748
 30
0.0
 11
140.402992005819
 21
1124.069794939748
 31
0.0
  0
LINE
  5
43AB
330
1D
100
AcDbEntity
  8
0
100
AcDbLine
 10
143.597992005819
 20
1124.024794939748
 30
0.0
 11
141.759992005819
 21
1123.229794939748
 31
0.0
  0
LINE
  5
43AC
330
1D
100
AcDbEntity
  8
0
100
AcDbLine
 10
142.929885479604
 20
1135.118338203654
 30
0.0
 11
141.778885479604
 21
1134.274338203654
 31
0.0
  0
LINE
  5
43AD
330
1D
100
AcDbEntity
  8
0
100
AcDbLine
 10
141.778885479604
 20
1134.274338203654
 30
0.0
 11
141.623705092919
 21
1135.522729672665
 31
0.0
  0
LINE
  5
43AE
330
1D
100
AcDbEntity
  8
0
100
AcDbLine
 10
144.795425720923
 20
1134.705558035642
 30
0.0
 11
144.973885479604
 21
1134.229338203654
 31
0.0
  0
LINE
  5
43AF
330
1D
100
AcDbEntity
  8
0
100
AcDbLine
 10
145.064245586115
 20
1134.850032677624
 30
0.0
 11
144.973885479604
 21
1134.229338203654
 31
0.0
  0
LINE
  5
43B0
330
1D
100
AcDbEntity
  8
0
100
AcDbLine
 10
143.894422607402
 20
1135.015426831297
 30
0.0
 11
144.795425720923
 21
1134.705558035642
 31
0.0
  0
LINE
  5
43B1
330
1D
100
AcDbEntity
  8
0
100
AcDbLine
 10
142.929885479604
 20
1135.118338203654
 30
0.0
 11
143.894422607402
 21
1135.015426831297
 31
0.0
  0
LINE
  5
43B2
330
1D
100
AcDbEntity
  8
0
100
AcDbLine
 10
137.540969373946
 20
1141.653832204134
 30
0.0
 11
136.389969373946
 21
1140.809832204134
 31
0.0
  0
LINE
  5
43B3
330
1D
100
AcDbEntity
  8
0
100
AcDbLine
 10
136.389969373946
 20
1140.809832204134
 30
0.0
 11
136.234788987261
 21
1142.058223673144
 31
0.0
  0
LINE
  5
43B4
330
1D
100
AcDbEntity
  8
0
100
AcDbLine
 10
139.406509615265
 20
1141.241052036121
 30
0.0
 11
139.584969373946
 21
1140.764832204134
 31
0.0
  0
LINE
  5
43B5
330
1D
100
AcDbEntity
  8
0
100
AcDbLine
 10
139.675329480457
 20
1141.385526678104
 30
0.0
 11
139.584969373946
 21
1140.764832204134
 31
0.0
  0
LINE
  5
43B6
330
1D
100
AcDbEntity
  8
0
100
AcDbLine
 10
138.505506501744
 20
1141.550920831776
 30
0.0
 11
139.406509615265
 21
1141.241052036121
 31
0.0
  0
LINE
  5
43B7
330
1D
100
AcDbEntity
  8
0
100
AcDbLine
 10
137.540969373946
 20
1141.653832204134
 30
0.0
 11
138.505506501744
 21
1141.550920831776
 31
0.0
  0
LINE
  5
43B8
330
1D
100
AcDbEntity
  8
0
100
AcDbLine
 10
137.746969373946
 20
1139.969832204134
 30
0.0
 11
136.389969373946
 21
1140.809832204134
 31
0.0
  0
LINE
  5
43B9
330
1D
100
AcDbEntity
  8
0
100
AcDbLine
 10
139.584969373946
 20
1140.764832204134
 30
0.0
 11
137.746969373946
 21
1139.969832204134
 31
0.0
  0
LINE
  5
43BA
330
1D
100
AcDbEntity
  8
0
100
AcDbLine
 10
127.621
 20
1131.5395
 30
0.0
 11
127.358
 21
1134.2935
 31
0.0
  0
LINE
  5
43BB
330
1D
100
AcDbEntity
  8
0
100
AcDbLine
 10
131.230368847251
 20
1133.013102519351
 30
0.0
 11
131.075188460566
 21
1134.261493988361
 31
0.0
  0
LINE
  5
43BC
330
1D
100
AcDbEntity
  8
0
100
AcDbLine
 10
130.635295418902
 20
1125.372426097676
 30
0.0
 11
129.484295418902
 21
1124.528426097676
 31
0.0
  0
LINE
  5
43BD
330
1D
100
AcDbEntity
  8
0
100
AcDbLine
 10
129.484295418902
 20
1124.528426097676
 30
0.0
 11
129.329115032217
 21
1125.776817566686
 31
0.0
  0
LINE
  5
43BE
330
1D
100
AcDbEntity
  8
0
100
AcDbLine
 10
132.50083566022
 20
1124.959645929664
 30
0.0
 11
132.679295418902
 21
1124.483426097676
 31
0.0
  0
LINE
  5
43BF
330
1D
100
AcDbEntity
  8
0
100
AcDbLine
 10
132.769655525413
 20
1125.104120571646
 30
0.0
 11
132.679295418902
 21
1124.483426097676
 31
0.0
  0
LINE
  5
43C0
330
1D
100
AcDbEntity
  8
0
100
AcDbLine
 10
131.599832546699
 20
1125.269514725319
 30
0.0
 11
132.50083566022
 21
1124.959645929664
 31
0.0
  0
LINE
  5
43C1
330
1D
100
AcDbEntity
  8
0
100
AcDbLine
 10
130.635295418902
 20
1125.372426097676
 30
0.0
 11
131.599832546699
 21
1125.269514725319
 31
0.0
  0
LINE
  5
43C2
330
1D
100
AcDbEntity
  8
0
100
AcDbLine
 10
130.841295418902
 20
1123.688426097676
 30
0.0
 11
129.484295418902
 21
1124.528426097676
 31
0.0
  0
LINE
  5
43C3
330
1D
100
AcDbEntity
  8
0
100
AcDbLine
 10
132.679295418902
 20
1124.483426097676
 30
0.0
 11
130.841295418902
 21
1123.688426097676
 31
0.0
  0
LINE
  5
43C4
330
1D
100
AcDbEntity
  8
0
100
AcDbLine
 10
132.381368847252
 20
1133.857102519351
 30
0.0
 11
131.230368847251
 21
1133.013102519351
 31
0.0
  0
LINE
  5
43C5
330
1D
100
AcDbEntity
  8
0
100
AcDbLine
 10
132.587368847251
 20
1132.173102519351
 30
0.0
 11
131.230368847251
 21
1133.013102519351
 31
0.0
  0
LINE
  5
43C6
330
1D
100
AcDbEntity
  8
0
100
AcDbLine
 10
134.24690908857
 20
1133.444322351338
 30
0.0
 11
134.425368847251
 21
1132.968102519351
 31
0.0
  0
LINE
  5
43C7
330
1D
100
AcDbEntity
  8
0
100
AcDbLine
 10
134.515728953763
 20
1133.588796993321
 30
0.0
 11
134.425368847251
 21
1132.968102519351
 31
0.0
  0
LINE
  5
43C8
330
1D
100
AcDbEntity
  8
0
100
AcDbLine
 10
133.345905975049
 20
1133.754191146994
 30
0.0
 11
134.24690908857
 21
1133.444322351338
 31
0.0
  0
LINE
  5
43C9
330
1D
100
AcDbEntity
  8
0
100
AcDbLine
 10
132.381368847252
 20
1133.857102519351
 30
0.0
 11
133.345905975049
 21
1133.754191146994
 31
0.0
  0
LINE
  5
43CA
330
1D
100
AcDbEntity
  8
0
100
AcDbLine
 10
134.425368847251
 20
1132.968102519351
 30
0.0
 11
132.587368847251
 21
1132.173102519351
 31
0.0
  0
LINE
  5
43CB
330
1D
100
AcDbEntity
  8
0
100
AcDbLine
 10
129.914869662679
 20
1130.61361234273
 30
0.0
 11
129.913590428823
 21
1130.5249797113
 31
0.0
  0
LINE
  5
43CC
330
1D
100
AcDbEntity
  8
0
100
AcDbLine
 10
127.493
 20
1129.4265
 30
0.0
 11
126.798
 21
1127.2435
 31
0.0
  0
LINE
  5
43CD
330
1D
100
AcDbEntity
  8
0
100
AcDbLine
 10
126.798
 20
1127.2435
 30
0.0
 11
125.63
 21
1125.2305
 31
0.0
  0
LINE
  5
43CE
330
1D
100
AcDbEntity
  8
0
100
AcDbLine
 10
125.63
 20
1125.2305
 30
0.0
 11
123.203
 21
1122.3065
 31
0.0
  0
LINE
  5
43CF
330
1D
100
AcDbEntity
  8
0
100
AcDbLine
 10
127.621
 20
1131.5395
 30
0.0
 11
127.493
 21
1129.4265
 31
0.0
  0
LINE
  5
43D0
330
1D
100
AcDbEntity
  8
0
100
AcDbLine
 10
127.358
 20
1134.2935
 30
0.0
 11
126.848
 21
1135.9895
 31
0.0
  0
LINE
  5
43D1
330
1D
100
AcDbEntity
  8
0
100
AcDbLine
 10
126.848
 20
1135.9895
 30
0.0
 11
126.051
 21
1137.2965
 31
0.0
  0
LINE
  5
43D2
330
1D
100
AcDbEntity
  8
0
100
AcDbLine
 10
126.051
 20
1137.2965
 30
0.0
 11
124.168
 21
1139.9115
 31
0.0
  0
LINE
  5
43D3
330
1D
100
AcDbEntity
  8
0
100
AcDbLine
 10
134.559866847411
 20
1159.425789573858
 30
0.0
 11
135.524403975209
 21
1159.322878201501
 31
0.0
  0
LINE
  5
43D4
330
1D
100
AcDbEntity
  8
0
100
AcDbLine
 10
136.603866847411
 20
1158.536789573858
 30
0.0
 11
134.765866847411
 21
1157.741789573859
 31
0.0
  0
LINE
  5
43D5
330
1D
100
AcDbEntity
  8
0
100
AcDbLine
 10
141.210018637373
 20
1151.170428731148
 30
0.0
 11
140.059018637373
 21
1150.326428731148
 31
0.0
  0
LINE
  5
43D6
330
1D
100
AcDbEntity
  8
0
100
AcDbLine
 10
140.059018637373
 20
1150.326428731148
 30
0.0
 11
139.903838250688
 21
1151.574820200158
 31
0.0
  0
LINE
  5
43D7
330
1D
100
AcDbEntity
  8
0
100
AcDbLine
 10
143.075558878692
 20
1150.757648563135
 30
0.0
 11
143.254018637373
 21
1150.281428731148
 31
0.0
  0
LINE
  5
43D8
330
1D
100
AcDbEntity
  8
0
100
AcDbLine
 10
143.344378743884
 20
1150.902123205118
 30
0.0
 11
143.254018637373
 21
1150.281428731148
 31
0.0
  0
LINE
  5
43D9
330
1D
100
AcDbEntity
  8
0
100
AcDbLine
 10
142.174555765171
 20
1151.06751735879
 30
0.0
 11
143.075558878692
 21
1150.757648563135
 31
0.0
  0
LINE
  5
43DA
330
1D
100
AcDbEntity
  8
0
100
AcDbLine
 10
141.210018637373
 20
1151.170428731148
 30
0.0
 11
142.174555765171
 21
1151.06751735879
 31
0.0
  0
LINE
  5
43DB
330
1D
100
AcDbEntity
  8
0
100
AcDbLine
 10
141.416018637373
 20
1149.486428731148
 30
0.0
 11
140.059018637373
 21
1150.326428731148
 31
0.0
  0
LINE
  5
43DC
330
1D
100
AcDbEntity
  8
0
100
AcDbLine
 10
143.254018637373
 20
1150.281428731148
 30
0.0
 11
141.416018637373
 21
1149.486428731148
 31
0.0
  0
LINE
  5
43DD
330
1D
100
AcDbEntity
  8
0
100
AcDbLine
 10
146.025645795621
 20
1160.916340837126
 30
0.0
 11
144.874645795621
 21
1160.072340837126
 31
0.0
  0
LINE
  5
43DE
330
1D
100
AcDbEntity
  8
0
100
AcDbLine
 10
144.874645795621
 20
1160.072340837126
 30
0.0
 11
144.719465408936
 21
1161.320732306136
 31
0.0
  0
LINE
  5
43DF
330
1D
100
AcDbEntity
  8
0
100
AcDbLine
 10
146.231645795621
 20
1159.232340837126
 30
0.0
 11
144.874645795621
 21
1160.072340837126
 31
0.0
  0
LINE
  5
43E0
330
1D
100
AcDbEntity
  8
0
100
AcDbLine
 10
138.687547268767
 20
1167.107861469159
 30
0.0
 11
137.536547268767
 21
1166.263861469159
 31
0.0
  0
LINE
  5
43E1
330
1D
100
AcDbEntity
  8
0
100
AcDbLine
 10
137.536547268767
 20
1166.263861469159
 30
0.0
 11
137.381366882082
 21
1167.512252938169
 31
0.0
  0
LINE
  5
43E2
330
1D
100
AcDbEntity
  8
0
100
AcDbLine
 10
140.553087510086
 20
1166.695081301146
 30
0.0
 11
140.731547268767
 21
1166.218861469159
 31
0.0
  0
LINE
  5
43E3
330
1D
100
AcDbEntity
  8
0
100
AcDbLine
 10
140.821907375278
 20
1166.839555943129
 30
0.0
 11
140.731547268767
 21
1166.218861469159
 31
0.0
  0
LINE
  5
43E4
330
1D
100
AcDbEntity
  8
0
100
AcDbLine
 10
139.652084396565
 20
1167.004950096801
 30
0.0
 11
140.553087510086
 21
1166.695081301146
 31
0.0
  0
LINE
  5
43E5
330
1D
100
AcDbEntity
  8
0
100
AcDbLine
 10
138.687547268767
 20
1167.107861469159
 30
0.0
 11
139.652084396565
 21
1167.004950096801
 31
0.0
  0
LINE
  5
43E6
330
1D
100
AcDbEntity
  8
0
100
AcDbLine
 10
138.893547268767
 20
1165.423861469159
 30
0.0
 11
137.536547268767
 21
1166.263861469159
 31
0.0
  0
LINE
  5
43E7
330
1D
100
AcDbEntity
  8
0
100
AcDbLine
 10
140.731547268767
 20
1166.218861469159
 30
0.0
 11
138.893547268767
 21
1165.423861469159
 31
0.0
  0
LINE
  5
43E8
330
1D
100
AcDbEntity
  8
0
100
AcDbLine
 10
136.42540708873
 20
1159.013009405846
 30
0.0
 11
136.603866847411
 21
1158.536789573858
 31
0.0
  0
LINE
  5
43E9
330
1D
100
AcDbEntity
  8
0
100
AcDbLine
 10
136.694226953922
 20
1159.157484047829
 30
0.0
 11
136.603866847411
 21
1158.536789573858
 31
0.0
  0
LINE
  5
43EA
330
1D
100
AcDbEntity
  8
0
100
AcDbLine
 10
135.524403975209
 20
1159.322878201501
 30
0.0
 11
136.42540708873
 21
1159.013009405846
 31
0.0
  0
LINE
  5
43EB
330
1D
100
AcDbEntity
  8
0
100
AcDbLine
 10
134.765866847411
 20
1157.741789573859
 30
0.0
 11
133.408866847411
 21
1158.581789573858
 31
0.0
  0
LINE
  5
43EC
330
1D
100
AcDbEntity
  8
0
100
AcDbLine
 10
130.635295418902
 20
1150.482481994255
 30
0.0
 11
129.484295418902
 21
1149.638481994255
 31
0.0
  0
LINE
  5
43ED
330
1D
100
AcDbEntity
  8
0
100
AcDbLine
 10
129.484295418902
 20
1149.638481994255
 30
0.0
 11
129.329115032217
 21
1150.886873463265
 31
0.0
  0
LINE
  5
43EE
330
1D
100
AcDbEntity
  8
0
100
AcDbLine
 10
132.50083566022
 20
1150.069701826242
 30
0.0
 11
132.679295418902
 21
1149.593481994255
 31
0.0
  0
LINE
  5
43EF
330
1D
100
AcDbEntity
  8
0
100
AcDbLine
 10
132.769655525413
 20
1150.214176468225
 30
0.0
 11
132.679295418902
 21
1149.593481994255
 31
0.0
  0
LINE
  5
43F0
330
1D
100
AcDbEntity
  8
0
100
AcDbLine
 10
131.599832546699
 20
1150.379570621898
 30
0.0
 11
132.50083566022
 21
1150.069701826242
 31
0.0
  0
LINE
  5
43F1
330
1D
100
AcDbEntity
  8
0
100
AcDbLine
 10
130.635295418902
 20
1150.482481994255
 30
0.0
 11
131.599832546699
 21
1150.379570621898
 31
0.0
  0
LINE
  5
43F2
330
1D
100
AcDbEntity
  8
0
100
AcDbLine
 10
130.841295418902
 20
1148.798481994255
 30
0.0
 11
129.484295418902
 21
1149.638481994255
 31
0.0
  0
LINE
  5
43F3
330
1D
100
AcDbEntity
  8
0
100
AcDbLine
 10
132.679295418902
 20
1149.593481994255
 30
0.0
 11
130.841295418902
 21
1148.798481994255
 31
0.0
  0
LINE
  5
43F4
330
1D
100
AcDbEntity
  8
0
100
AcDbLine
 10
123.164678290107
 20
1157.796460096002
 30
0.0
 11
124.065681403628
 21
1157.486591300347
 31
0.0
  0
LINE
  5
43F5
330
1D
100
AcDbEntity
  8
0
100
AcDbLine
 10
124.33450126882
 20
1157.63106594233
 30
0.0
 11
124.244141162309
 21
1157.01037146836
 31
0.0
  0
LINE
  5
43F6
330
1D
100
AcDbEntity
  8
0
100
AcDbLine
 10
124.065681403628
 20
1157.486591300347
 30
0.0
 11
124.244141162309
 21
1157.01037146836
 31
0.0
  0
LINE
  5
43F7
330
1D
100
AcDbEntity
  8
0
100
AcDbLine
 10
123.164678290107
 20
1148.509179147953
 30
0.0
 11
124.065681403628
 21
1148.199310352297
 31
0.0
  0
LINE
  5
43F8
330
1D
100
AcDbEntity
  8
0
100
AcDbLine
 10
124.33450126882
 20
1148.34378499428
 30
0.0
 11
124.244141162309
 21
1147.72309052031
 31
0.0
  0
LINE
  5
43F9
330
1D
100
AcDbEntity
  8
0
100
AcDbLine
 10
124.065681403628
 20
1148.199310352297
 30
0.0
 11
124.244141162309
 21
1147.72309052031
 31
0.0
  0
LINE
  5
43FA
330
1D
100
AcDbEntity
  8
0
100
AcDbLine
 10
134.559866847411
 20
1159.425789573858
 30
0.0
 11
133.408866847411
 21
1158.581789573858
 31
0.0
  0
LINE
  5
43FB
330
1D
100
AcDbEntity
  8
0
100
AcDbLine
 10
133.408866847411
 20
1158.581789573858
 30
0.0
 11
133.253686460726
 21
1159.830181042869
 31
0.0
  0
LINE
  5
43FC
330
1D
100
AcDbEntity
  8
0
100
AcDbLine
 10
124.355323583505
 20
1165.158679047963
 30
0.0
 11
123.204323583505
 21
1164.314679047963
 31
0.0
  0
LINE
  5
43FD
330
1D
100
AcDbEntity
  8
0
100
AcDbLine
 10
123.204323583505
 20
1164.314679047963
 30
0.0
 11
123.04914319682
 21
1165.563070516973
 31
0.0
  0
LINE
  5
43FE
330
1D
100
AcDbEntity
  8
0
100
AcDbLine
 10
126.220863824824
 20
1164.745898879951
 30
0.0
 11
126.399323583505
 21
1164.269679047963
 31
0.0
  0
LINE
  5
43FF
330
1D
100
AcDbEntity
  8
0
100
AcDbLine
 10
126.489683690016
 20
1164.890373521933
 30
0.0
 11
126.399323583505
 21
1164.269679047963
 31
0.0
  0
LINE
  5
4400
330
1D
100
AcDbEntity
  8
0
100
AcDbLine
 10
125.319860711303
 20
1165.055767675606
 30
0.0
 11
126.220863824824
 21
1164.745898879951
 31
0.0
  0
LINE
  5
4401
330
1D
100
AcDbEntity
  8
0
100
AcDbLine
 10
124.355323583505
 20
1165.158679047963
 30
0.0
 11
125.319860711303
 21
1165.055767675606
 31
0.0
  0
LINE
  5
4402
330
1D
100
AcDbEntity
  8
0
100
AcDbLine
 10
124.561323583505
 20
1163.474679047963
 30
0.0
 11
123.204323583505
 21
1164.314679047963
 31
0.0
  0
LINE
  5
4403
330
1D
100
AcDbEntity
  8
0
100
AcDbLine
 10
126.399323583505
 20
1164.269679047963
 30
0.0
 11
124.561323583505
 21
1163.474679047963
 31
0.0
  0
LINE
  5
4404
330
1D
100
AcDbEntity
  8
0
100
AcDbLine
 10
112.629
 20
1146.1495
 30
0.0
 11
107.094
 21
1147.2155
 31
0.0
  0
LINE
  5
4405
330
1D
100
AcDbEntity
  8
0
100
AcDbLine
 10
111.48173113483
 20
1142.743467320339
 30
0.0
 11
109.64973113483
 21
1142.489467320339
 31
0.0
  0
LINE
  5
4406
330
1D
100
AcDbEntity
  8
0
100
AcDbLine
 10
111.18273113483
 20
1137.985467320339
 30
0.0
 11
109.35673113483
 21
1138.262467320339
 31
0.0
  0
LINE
  5
4407
330
1D
100
AcDbEntity
  8
0
100
AcDbLine
 10
118.407
 20
1126.4075
 30
0.0
 11
116.581
 21
1126.6845
 31
0.0
  0
LINE
  5
4408
330
1D
100
AcDbEntity
  8
0
100
AcDbLine
 10
116.874
 20
1130.9115
 30
0.0
 11
115.632
 21
1130.3435
 31
0.0
  0
LINE
  5
4409
330
1D
100
AcDbEntity
  8
0
100
AcDbLine
 10
122.628
 20
1128.4005
 30
0.0
 11
121.744
 21
1127.2965
 31
0.0
  0
LINE
  5
440A
330
1D
100
AcDbEntity
  8
0
100
AcDbLine
 10
120.295
 20
1126.6285
 30
0.0
 11
118.407
 21
1126.4075
 31
0.0
  0
LINE
  5
440B
330
1D
100
AcDbEntity
  8
0
100
AcDbLine
 10
121.744
 20
1127.2965
 30
0.0
 11
120.295
 21
1126.6285
 31
0.0
  0
LINE
  5
440C
330
1D
100
AcDbEntity
  8
0
100
AcDbLine
 10
122.628
 20
1128.4005
 30
0.0
 11
122.460818418452
 21
1129.53695906558
 31
0.0
  0
LINE
  5
440D
330
1D
100
AcDbEntity
  8
0
100
AcDbLine
 10
121.399
 20
1130.6315
 30
0.0
 11
120.476
 21
1130.9835
 31
0.0
  0
LINE
  5
440E
330
1D
100
AcDbEntity
  8
0
100
AcDbLine
 10
120.476
 20
1130.9835
 30
0.0
 11
118.706
 21
1131.1655
 31
0.0
  0
LINE
  5
440F
330
1D
100
AcDbEntity
  8
0
100
AcDbLine
 10
122.460818418452
 20
1129.53695906558
 30
0.0
 11
121.399
 21
1130.6315
 31
0.0
  0
LINE
  5
4410
330
1D
100
AcDbEntity
  8
0
100
AcDbLine
 10
118.706
 20
1131.1655
 30
0.0
 11
116.874
 21
1130.9115
 31
0.0
  0
LINE
  5
4411
330
1D
100
AcDbEntity
  8
0
100
AcDbLine
 10
115.162
 20
1127.4575
 30
0.0
 11
114.477570959631
 21
1128.45028811337
 31
0.0
  0
LINE
  5
4412
330
1D
100
AcDbEntity
  8
0
100
AcDbLine
 10
116.581
 20
1126.6845
 30
0.0
 11
115.162
 21
1127.4575
 31
0.0
  0
LINE
  5
4413
330
1D
100
AcDbEntity
  8
0
100
AcDbLine
 10
115.632
 20
1130.3435
 30
0.0
 11
114.706973194643
 21
1129.399669354934
 31
0.0
  0
LINE
  5
4414
330
1D
100
AcDbEntity
  8
0
100
AcDbLine
 10
114.706973194643
 20
1129.399669354934
 30
0.0
 11
114.477570959631
 21
1128.45028811337
 31
0.0
  0
LINE
  5
4415
330
1D
100
AcDbEntity
  8
0
100
AcDbLine
 10
116.803
 20
1144.7175
 30
0.0
 11
112.629
 21
1146.1495
 31
0.0
  0
LINE
  5
4416
330
1D
100
AcDbEntity
  8
0
100
AcDbLine
 10
122.535
 20
1141.0965
 30
0.0
 11
119.807
 21
1143.1735
 31
0.0
  0
LINE
  5
4417
330
1D
100
AcDbEntity
  8
0
100
AcDbLine
 10
119.807
 20
1143.1735
 30
0.0
 11
116.803
 21
1144.7175
 31
0.0
  0
LINE
  5
4418
330
1D
100
AcDbEntity
  8
0
100
AcDbLine
 10
115.40373113483
 20
1139.978467320339
 30
0.0
 11
115.236549553282
 21
1141.114926385919
 31
0.0
  0
LINE
  5
4419
330
1D
100
AcDbEntity
  8
0
100
AcDbLine
 10
114.51973113483
 20
1138.874467320339
 30
0.0
 11
113.07073113483
 21
1138.206467320339
 31
0.0
  0
LINE
  5
441A
330
1D
100
AcDbEntity
  8
0
100
AcDbLine
 10
113.07073113483
 20
1138.206467320339
 30
0.0
 11
111.18273113483
 21
1137.985467320339
 31
0.0
  0
LINE
  5
441B
330
1D
100
AcDbEntity
  8
0
100
AcDbLine
 10
115.40373113483
 20
1139.978467320339
 30
0.0
 11
114.51973113483
 21
1138.874467320339
 31
0.0
  0
LINE
  5
441C
330
1D
100
AcDbEntity
  8
0
100
AcDbLine
 10
115.236549553282
 20
1141.114926385919
 30
0.0
 11
114.17473113483
 21
1142.209467320339
 31
0.0
  0
LINE
  5
441D
330
1D
100
AcDbEntity
  8
0
100
AcDbLine
 10
113.25173113483
 20
1142.561467320339
 30
0.0
 11
111.48173113483
 21
1142.743467320339
 31
0.0
  0
LINE
  5
441E
330
1D
100
AcDbEntity
  8
0
100
AcDbLine
 10
114.17473113483
 20
1142.209467320339
 30
0.0
 11
113.25173113483
 21
1142.561467320339
 31
0.0
  0
LINE
  5
441F
330
1D
100
AcDbEntity
  8
0
100
AcDbLine
 10
106.87789626139
 20
1123.979413401173
 30
0.0
 11
105.816077842938
 21
1125.073954335593
 31
0.0
  0
LINE
  5
4420
330
1D
100
AcDbEntity
  8
0
100
AcDbLine
 10
104.893077842938
 20
1125.425954335593
 30
0.0
 11
103.123077842938
 21
1125.607954335593
 31
0.0
  0
LINE
  5
4421
330
1D
100
AcDbEntity
  8
0
100
AcDbLine
 10
105.816077842938
 20
1125.073954335593
 30
0.0
 11
104.893077842938
 21
1125.425954335593
 31
0.0
  0
LINE
  5
4422
330
1D
100
AcDbEntity
  8
0
100
AcDbLine
 10
107.045077842938
 20
1122.842954335593
 30
0.0
 11
106.87789626139
 21
1123.979413401173
 31
0.0
  0
LINE
  5
4423
330
1D
100
AcDbEntity
  8
0
100
AcDbLine
 10
107.482704329473
 20
1140.977636675273
 30
0.0
 11
107.253302094461
 21
1140.028255433709
 31
0.0
  0
LINE
  5
4424
330
1D
100
AcDbEntity
  8
0
100
AcDbLine
 10
108.40773113483
 20
1141.921467320339
 30
0.0
 11
107.482704329473
 21
1140.977636675273
 31
0.0
  0
LINE
  5
4425
330
1D
100
AcDbEntity
  8
0
100
AcDbLine
 10
109.35673113483
 20
1138.262467320339
 30
0.0
 11
107.93773113483
 21
1139.035467320339
 31
0.0
  0
LINE
  5
4426
330
1D
100
AcDbEntity
  8
0
100
AcDbLine
 10
107.93773113483
 20
1139.035467320339
 30
0.0
 11
107.253302094461
 21
1140.028255433709
 31
0.0
  0
LINE
  5
4427
330
1D
100
AcDbEntity
  8
0
100
AcDbLine
 10
109.64973113483
 20
1142.489467320339
 30
0.0
 11
108.40773113483
 21
1141.921467320339
 31
0.0
  0
LINE
  5
4428
330
1D
100
AcDbEntity
  8
0
100
AcDbLine
 10
111.284335582546
 20
1148.798481994255
 30
0.0
 11
109.927335582546
 21
1149.638481994255
 31
0.0
  0
LINE
  5
4429
330
1D
100
AcDbEntity
  8
0
100
AcDbLine
 10
111.078335582546
 20
1150.482481994255
 30
0.0
 11
109.927335582546
 21
1149.638481994255
 31
0.0
  0
LINE
  5
442A
330
1D
100
AcDbEntity
  8
0
100
AcDbLine
 10
111.398993372028
 20
1168.82772831139
 30
0.0
 11
110.041993372028
 21
1169.66772831139
 31
0.0
  0
LINE
  5
442B
330
1D
100
AcDbEntity
  8
0
100
AcDbLine
 10
122.406141162309
 20
1156.21537146836
 30
0.0
 11
121.049141162309
 21
1157.05537146836
 31
0.0
  0
LINE
  5
442C
330
1D
100
AcDbEntity
  8
0
100
AcDbLine
 10
121.049141162309
 20
1157.05537146836
 30
0.0
 11
120.893960775624
 21
1158.30376293737
 31
0.0
  0
LINE
  5
442D
330
1D
100
AcDbEntity
  8
0
100
AcDbLine
 10
122.200141162309
 20
1157.89937146836
 30
0.0
 11
121.049141162309
 21
1157.05537146836
 31
0.0
  0
LINE
  5
442E
330
1D
100
AcDbEntity
  8
0
100
AcDbLine
 10
122.406141162309
 20
1146.92809052031
 30
0.0
 11
121.049141162309
 21
1147.76809052031
 31
0.0
  0
LINE
  5
442F
330
1D
100
AcDbEntity
  8
0
100
AcDbLine
 10
121.049141162309
 20
1147.76809052031
 30
0.0
 11
120.893960775624
 21
1149.01648198932
 31
0.0
  0
LINE
  5
4430
330
1D
100
AcDbEntity
  8
0
100
AcDbLine
 10
122.200141162309
 20
1148.61209052031
 30
0.0
 11
121.049141162309
 21
1147.76809052031
 31
0.0
  0
LINE
  5
4431
330
1D
100
AcDbEntity
  8
0
100
AcDbLine
 10
113.122335582546
 20
1149.593481994255
 30
0.0
 11
111.284335582546
 21
1148.798481994255
 31
0.0
  0
LINE
  5
4432
330
1D
100
AcDbEntity
  8
0
100
AcDbLine
 10
111.078335582546
 20
1150.482481994255
 30
0.0
 11
112.042872710344
 21
1150.379570621898
 31
0.0
  0
LINE
  5
4433
330
1D
100
AcDbEntity
  8
0
100
AcDbLine
 10
112.042872710344
 20
1150.379570621898
 30
0.0
 11
112.943875823865
 21
1150.069701826242
 31
0.0
  0
LINE
  5
4434
330
1D
100
AcDbEntity
  8
0
100
AcDbLine
 10
113.212695689057
 20
1150.214176468225
 30
0.0
 11
113.122335582546
 21
1149.593481994255
 31
0.0
  0
LINE
  5
4435
330
1D
100
AcDbEntity
  8
0
100
AcDbLine
 10
112.943875823865
 20
1150.069701826242
 30
0.0
 11
113.122335582546
 21
1149.593481994255
 31
0.0
  0
LINE
  5
4436
330
1D
100
AcDbEntity
  8
0
100
AcDbLine
 10
114.154255687885
 20
1161.023394100233
 30
0.0
 11
112.316255687885
 21
1160.228394100233
 31
0.0
  0
LINE
  5
4437
330
1D
100
AcDbEntity
  8
0
100
AcDbLine
 10
112.316255687885
 20
1160.228394100233
 30
0.0
 11
110.959255687885
 21
1161.068394100233
 31
0.0
  0
LINE
  5
4438
330
1D
100
AcDbEntity
  8
0
100
AcDbLine
 10
112.110255687885
 20
1161.912394100233
 30
0.0
 11
113.074792815683
 21
1161.809482727876
 31
0.0
  0
LINE
  5
4439
330
1D
100
AcDbEntity
  8
0
100
AcDbLine
 10
113.074792815683
 20
1161.809482727876
 30
0.0
 11
113.975795929204
 21
1161.49961393222
 31
0.0
  0
LINE
  5
443A
330
1D
100
AcDbEntity
  8
0
100
AcDbLine
 10
114.244615794396
 20
1161.644088574203
 30
0.0
 11
114.154255687885
 21
1161.023394100233
 31
0.0
  0
LINE
  5
443B
330
1D
100
AcDbEntity
  8
0
100
AcDbLine
 10
113.975795929204
 20
1161.49961393222
 30
0.0
 11
114.154255687885
 21
1161.023394100233
 31
0.0
  0
LINE
  5
443C
330
1D
100
AcDbEntity
  8
0
100
AcDbLine
 10
110.959255687885
 20
1161.068394100233
 30
0.0
 11
110.8040753012
 21
1162.316785569243
 31
0.0
  0
LINE
  5
443D
330
1D
100
AcDbEntity
  8
0
100
AcDbLine
 10
112.110255687885
 20
1161.912394100233
 30
0.0
 11
110.959255687885
 21
1161.068394100233
 31
0.0
  0
LINE
  5
443E
330
1D
100
AcDbEntity
  8
0
100
AcDbLine
 10
113.236993372028
 20
1169.62272831139
 30
0.0
 11
111.398993372028
 21
1168.82772831139
 31
0.0
  0
LINE
  5
443F
330
1D
100
AcDbEntity
  8
0
100
AcDbLine
 10
113.327353478539
 20
1170.24342278536
 30
0.0
 11
113.236993372028
 21
1169.62272831139
 31
0.0
  0
LINE
  5
4440
330
1D
100
AcDbEntity
  8
0
100
AcDbLine
 10
113.058533613347
 20
1170.098948143378
 30
0.0
 11
113.236993372028
 21
1169.62272831139
 31
0.0
  0
LINE
  5
4441
330
1D
100
AcDbEntity
  8
0
100
AcDbLine
 10
107.094
 20
1147.2155
 30
0.0
 11
103.0
 21
1147.4565
 31
0.0
  0
LINE
  5
4442
330
1D
100
AcDbEntity
  8
0
100
AcDbLine
 10
109.927335582546
 20
1149.638481994255
 30
0.0
 11
109.772155195861
 21
1150.886873463265
 31
0.0
  0
LINE
  5
4443
330
1D
100
AcDbEntity
  8
0
100
AcDbLine
 10
150.953
 20
1186.8395
 30
0.0
 11
144.994
 21
1189.6045
 31
0.0
  0
LINE
  5
4444
330
1D
100
AcDbEntity
  8
0
100
AcDbLine
 10
150.322
 20
1177.2805
 30
0.0
 11
145.54
 21
1179.5985
 31
0.0
  0
LINE
  5
4445
330
1D
100
AcDbEntity
  8
0
100
AcDbLine
 10
147.634
 20
1172.1665
 30
0.0
 11
142.374
 21
1174.7965
 31
0.0
  0
LINE
  5
4446
330
1D
100
AcDbEntity
  8
0
100
AcDbLine
 10
171.141
 20
1170.6485
 30
0.0
 11
169.683
 21
1172.5595
 31
0.0
  0
LINE
  5
4447
330
1D
100
AcDbEntity
  8
0
100
AcDbLine
 10
161.436
 20
1180.2815
 30
0.0
 11
156.179
 21
1183.8225
 31
0.0
  0
LINE
  5
4448
330
1D
100
AcDbEntity
  8
0
100
AcDbLine
 10
159.132
 20
1171.6085
 30
0.0
 11
154.617
 21
1174.7345
 31
0.0
  0
LINE
  5
4449
330
1D
100
AcDbEntity
  8
0
100
AcDbLine
 10
169.683
 20
1172.5595
 30
0.0
 11
165.862
 21
1176.5495
 31
0.0
  0
LINE
  5
444A
330
1D
100
AcDbEntity
  8
0
100
AcDbLine
 10
165.862
 20
1176.5495
 30
0.0
 11
161.436
 21
1180.2815
 31
0.0
  0
LINE
  5
444B
330
1D
100
AcDbEntity
  8
0
100
AcDbLine
 10
156.179
 20
1183.8225
 30
0.0
 11
150.953
 21
1186.8395
 31
0.0
  0
LINE
  5
444C
330
1D
100
AcDbEntity
  8
0
100
AcDbLine
 10
154.617
 20
1174.7345
 30
0.0
 11
150.322
 21
1177.2805
 31
0.0
  0
LINE
  5
444D
330
1D
100
AcDbEntity
  8
0
100
AcDbLine
 10
124.544
 20
1186.1815
 30
0.0
 11
120.729
 21
1186.6735
 31
0.0
  0
LINE
  5
444E
330
1D
100
AcDbEntity
  8
0
100
AcDbLine
 10
124.831
 20
1195.5765
 30
0.0
 11
117.671
 21
1196.6975
 31
0.0
  0
LINE
  5
444F
330
1D
100
AcDbEntity
  8
0
100
AcDbLine
 10
124.145
 20
1180.4075
 30
0.0
 11
120.808
 21
1181.1545
 31
0.0
  0
LINE
  5
4450
330
1D
100
AcDbEntity
  8
0
100
AcDbLine
 10
131.781
 20
1194.0205
 30
0.0
 11
124.831
 21
1195.5765
 31
0.0
  0
LINE
  5
4451
330
1D
100
AcDbEntity
  8
0
100
AcDbLine
 10
138.452
 20
1192.0465
 30
0.0
 11
131.781
 21
1194.0205
 31
0.0
  0
LINE
  5
4452
330
1D
100
AcDbEntity
  8
0
100
AcDbLine
 10
136.723
 20
1177.0885
 30
0.0
 11
132.266
 21
1178.5715
 31
0.0
  0
LINE
  5
4453
330
1D
100
AcDbEntity
  8
0
100
AcDbLine
 10
135.392
 20
1183.2625
 30
0.0
 11
131.822
 21
1184.4895
 31
0.0
  0
LINE
  5
4454
330
1D
100
AcDbEntity
  8
0
100
AcDbLine
 10
145.54
 20
1179.5985
 30
0.0
 11
142.246
 21
1180.8165
 31
0.0
  0
LINE
  5
4455
330
1D
100
AcDbEntity
  8
0
100
AcDbLine
 10
144.994
 20
1189.6045
 30
0.0
 11
138.633
 21
1191.9905
 31
0.0
  0
LINE
  5
4456
330
1D
100
AcDbEntity
  8
0
100
AcDbLine
 10
142.374
 20
1174.7965
 30
0.0
 11
136.723
 21
1177.0885
 31
0.0
  0
LINE
  5
4457
330
1D
100
AcDbEntity
  8
0
100
AcDbLine
 10
142.246
 20
1180.8165
 30
0.0
 11
138.927
 21
1182.2645
 31
0.0
  0
LINE
  5
4458
330
1D
100
AcDbEntity
  8
0
100
AcDbLine
 10
138.927
 20
1182.2645
 30
0.0
 11
135.392
 21
1183.2625
 31
0.0
  0
LINE
  5
4459
330
1D
100
AcDbEntity
  8
0
100
AcDbLine
 10
138.633
 20
1191.9905
 30
0.0
 11
138.452
 21
1192.0465
 31
0.0
  0
LINE
  5
445A
330
1D
100
AcDbEntity
  8
0
100
AcDbLine
 10
132.266
 20
1178.5715
 30
0.0
 11
127.476
 21
1179.8825
 31
0.0
  0
LINE
  5
445B
330
1D
100
AcDbEntity
  8
0
100
AcDbLine
 10
130.635295418902
 20
1171.694173048443
 30
0.0
 11
129.484295418902
 21
1170.850173048443
 31
0.0
  0
LINE
  5
445C
330
1D
100
AcDbEntity
  8
0
100
AcDbLine
 10
129.484295418902
 20
1170.850173048443
 30
0.0
 11
129.329115032217
 21
1172.098564517453
 31
0.0
  0
LINE
  5
445D
330
1D
100
AcDbEntity
  8
0
100
AcDbLine
 10
132.50083566022
 20
1171.28139288043
 30
0.0
 11
132.679295418902
 21
1170.805173048443
 31
0.0
  0
LINE
  5
445E
330
1D
100
AcDbEntity
  8
0
100
AcDbLine
 10
132.769655525413
 20
1171.425867522413
 30
0.0
 11
132.679295418902
 21
1170.805173048443
 31
0.0
  0
LINE
  5
445F
330
1D
100
AcDbEntity
  8
0
100
AcDbLine
 10
131.599832546699
 20
1171.591261676085
 30
0.0
 11
132.50083566022
 21
1171.28139288043
 31
0.0
  0
LINE
  5
4460
330
1D
100
AcDbEntity
  8
0
100
AcDbLine
 10
130.635295418902
 20
1171.694173048443
 30
0.0
 11
131.599832546699
 21
1171.591261676085
 31
0.0
  0
LINE
  5
4461
330
1D
100
AcDbEntity
  8
0
100
AcDbLine
 10
127.476
 20
1179.8825
 30
0.0
 11
124.145
 21
1180.4075
 31
0.0
  0
LINE
  5
4462
330
1D
100
AcDbEntity
  8
0
100
AcDbLine
 10
131.822
 20
1184.4895
 30
0.0
 11
128.203
 21
1185.2185
 31
0.0
  0
LINE
  5
4463
330
1D
100
AcDbEntity
  8
0
100
AcDbLine
 10
128.203
 20
1185.2185
 30
0.0
 11
124.544
 21
1186.1815
 31
0.0
  0
LINE
  5
4464
330
1D
100
AcDbEntity
  8
0
100
AcDbLine
 10
116.865
 20
1187.3945
 30
0.0
 11
110.137
 21
1188.0115
 31
0.0
  0
LINE
  5
4465
330
1D
100
AcDbEntity
  8
0
100
AcDbLine
 10
113.966
 20
1182.0985
 30
0.0
 11
103.006
 21
1182.7135
 31
0.0
  0
LINE
  5
4466
330
1D
100
AcDbEntity
  8
0
100
AcDbLine
 10
120.808
 20
1181.1545
 30
0.0
 11
113.966
 21
1182.0985
 31
0.0
  0
LINE
  5
4467
330
1D
100
AcDbEntity
  8
0
100
AcDbLine
 10
119.769012004221
 20
1174.101986627567
 30
0.0
 11
118.618012004221
 21
1173.257986627567
 31
0.0
  0
LINE
  5
4468
330
1D
100
AcDbEntity
  8
0
100
AcDbLine
 10
118.618012004221
 20
1173.257986627567
 30
0.0
 11
118.462831617536
 21
1174.506378096577
 31
0.0
  0
LINE
  5
4469
330
1D
100
AcDbEntity
  8
0
100
AcDbLine
 10
121.63455224554
 20
1173.689206459554
 30
0.0
 11
121.813012004221
 21
1173.212986627567
 31
0.0
  0
LINE
  5
446A
330
1D
100
AcDbEntity
  8
0
100
AcDbLine
 10
121.903372110732
 20
1173.833681101537
 30
0.0
 11
121.813012004221
 21
1173.212986627567
 31
0.0
  0
LINE
  5
446B
330
1D
100
AcDbEntity
  8
0
100
AcDbLine
 10
120.733549132019
 20
1173.999075255209
 30
0.0
 11
121.63455224554
 21
1173.689206459554
 31
0.0
  0
LINE
  5
446C
330
1D
100
AcDbEntity
  8
0
100
AcDbLine
 10
119.769012004221
 20
1174.101986627567
 30
0.0
 11
120.733549132019
 21
1173.999075255209
 31
0.0
  0
LINE
  5
446D
330
1D
100
AcDbEntity
  8
0
100
AcDbLine
 10
119.975012004221
 20
1172.417986627567
 30
0.0
 11
118.618012004221
 21
1173.257986627567
 31
0.0
  0
LINE
  5
446E
330
1D
100
AcDbEntity
  8
0
100
AcDbLine
 10
121.813012004221
 20
1173.212986627567
 30
0.0
 11
119.975012004221
 21
1172.417986627567
 31
0.0
  0
LINE
  5
446F
330
1D
100
AcDbEntity
  8
0
100
AcDbLine
 10
111.192993372028
 20
1170.51172831139
 30
0.0
 11
112.157530499826
 21
1170.408816939033
 31
0.0
  0
LINE
  5
4470
330
1D
100
AcDbEntity
  8
0
100
AcDbLine
 10
120.729
 20
1186.6735
 30
0.0
 11
116.865
 21
1187.3945
 31
0.0
  0
LINE
  5
4471
330
1D
100
AcDbEntity
  8
0
100
AcDbLine
 10
110.137
 20
1188.0115
 30
0.0
 11
103.178
 21
1188.0515
 31
0.0
  0
LINE
  5
4472
330
1D
100
AcDbEntity
  8
0
100
AcDbLine
 10
110.137
 20
1188.0115
 30
0.0
 11
103.0
 21
1188.0515
 31
0.0
  0
LINE
  5
4473
330
1D
100
AcDbEntity
  8
0
100
AcDbLine
 10
103.178
 20
1188.0515
 30
0.0
 11
103.0
 21
1188.0515
 31
0.0
  0
LINE
  5
4474
330
1D
100
AcDbEntity
  8
0
100
AcDbLine
 10
103.0
 20
1188.0515
 30
0.0
 11
102.822
 21
1188.0515
 31
0.0
  0
LINE
  5
4475
330
1D
100
AcDbEntity
  8
0
100
AcDbLine
 10
117.671
 20
1196.6975
 30
0.0
 11
110.37
 21
1197.3775
 31
0.0
  0
LINE
  5
4476
330
1D
100
AcDbEntity
  8
0
100
AcDbLine
 10
110.37
 20
1197.3775
 30
0.0
 11
103.0
 21
1197.5855
 31
0.0
  0
LINE
  5
4477
330
1D
100
AcDbEntity
  8
0
100
AcDbLine
 10
111.443
 20
1008.1405
 30
0.0
 11
108.967
 21
1007.1285
 31
0.0
  0
LINE
  5
4478
330
1D
100
AcDbEntity
  8
0
100
AcDbLine
 10
118.755
 20
1016.8735
 30
0.0
 11
117.797
 21
1008.9015
 31
0.0
  0
LINE
  5
4479
330
1D
100
AcDbEntity
  8
0
100
AcDbLine
 10
118.444818767697
 20
1017.02207772777
 30
0.0
 11
117.042
 21
1012.7185
 31
0.0
  0
LINE
  5
447A
330
1D
100
AcDbEntity
  8
0
100
AcDbLine
 10
117.797
 20
1008.9015
 30
0.0
 11
117.532
 21
1007.6765
 31
0.0
  0
LINE
  5
447B
330
1D
100
AcDbEntity
  8
0
100
AcDbLine
 10
117.532
 20
1007.6765
 30
0.0
 11
117.315
 21
1006.7515
 31
0.0
  0
LINE
  5
447C
330
1D
100
AcDbEntity
  8
0
100
AcDbLine
 10
117.042
 20
1012.7185
 30
0.0
 11
114.203
 21
1009.8155
 31
0.0
  0
LINE
  5
447D
330
1D
100
AcDbEntity
  8
0
100
AcDbLine
 10
114.203
 20
1009.8155
 30
0.0
 11
111.443
 21
1008.1405
 31
0.0
  0
LINE
  5
447E
330
1D
100
AcDbEntity
  8
0
100
AcDbLine
 10
119.087
 20
1020.7135
 30
0.0
 11
118.98
 21
1019.4975
 31
0.0
  0
LINE
  5
447F
330
1D
100
AcDbEntity
  8
0
100
AcDbLine
 10
118.98
 20
1019.4975
 30
0.0
 11
118.877
 21
1018.1525
 31
0.0
  0
LINE
  5
4480
330
1D
100
AcDbEntity
  8
0
100
AcDbLine
 10
118.877
 20
1018.1525
 30
0.0
 11
118.755
 21
1016.8735
 31
0.0
  0
LINE
  5
4481
330
1D
100
AcDbEntity
  8
0
100
AcDbLine
 10
120.177
 20
1032.8975
 30
0.0
 11
119.34
 21
1023.2245
 31
0.0
  0
LINE
  5
4482
330
1D
100
AcDbEntity
  8
0
100
AcDbLine
 10
119.34
 20
1023.2245
 30
0.0
 11
119.087
 21
1020.7135
 31
0.0
  0
LINE
  5
4483
330
1D
100
AcDbEntity
  8
0
100
AcDbLine
 10
121.451
 20
1054.5635
 30
0.0
 11
121.24
 21
1049.8025
 31
0.0
  0
LINE
  5
4484
330
1D
100
AcDbEntity
  8
0
100
AcDbLine
 10
121.24
 20
1049.8025
 30
0.0
 11
120.754
 21
1040.2835
 31
0.0
  0
LINE
  5
4485
330
1D
100
AcDbEntity
  8
0
100
AcDbLine
 10
120.754
 20
1040.2835
 30
0.0
 11
120.177
 21
1032.8975
 31
0.0
  0
LINE
  5
4486
330
1D
100
AcDbEntity
  8
0
100
AcDbLine
 10
102.43
 20
1086.3815
 30
0.0
 11
103.57
 21
1086.3815
 31
0.0
  0
LINE
  5
4487
330
1D
100
AcDbEntity
  8
0
100
AcDbLine
 10
102.050965684281
 20
1156.163534744429
 30
0.0
 11
103.888965684281
 21
1155.368534744429
 31
0.0
  0
LINE
  5
4488
330
1D
100
AcDbEntity
  8
0
100
AcDbLine
 10
103.888965684281
 20
1155.368534744429
 30
0.0
 11
105.245965684281
 21
1156.208534744429
 31
0.0
  0
LINE
  5
4489
330
1D
100
AcDbEntity
  8
0
100
AcDbLine
 10
104.094965684281
 20
1157.052534744429
 30
0.0
 11
103.130428556483
 21
1156.949623372071
 31
0.0
  0
LINE
  5
448A
330
1D
100
AcDbEntity
  8
0
100
AcDbLine
 10
103.130428556483
 20
1156.949623372071
 30
0.0
 11
102.229425442962
 21
1156.639754576416
 31
0.0
  0
LINE
  5
448B
330
1D
100
AcDbEntity
  8
0
100
AcDbLine
 10
101.96060557777
 20
1156.784229218399
 30
0.0
 11
102.050965684281
 21
1156.163534744429
 31
0.0
  0
LINE
  5
448C
330
1D
100
AcDbEntity
  8
0
100
AcDbLine
 10
102.229425442962
 20
1156.639754576416
 30
0.0
 11
102.050965684281
 21
1156.163534744429
 31
0.0
  0
LINE
  5
448D
330
1D
100
AcDbEntity
  8
0
100
AcDbLine
 10
105.245965684281
 20
1156.208534744429
 30
0.0
 11
105.401146070966
 21
1157.456926213439
 31
0.0
  0
LINE
  5
448E
330
1D
100
AcDbEntity
  8
0
100
AcDbLine
 10
104.094965684281
 20
1157.052534744429
 30
0.0
 11
105.245965684281
 21
1156.208534744429
 31
0.0
  0
LINE
  5
448F
330
1D
100
AcDbEntity
  8
0
100
AcDbLine
 10
102.113088532977
 20
1165.916821989656
 30
0.0
 11
103.951088532977
 21
1165.121821989656
 31
0.0
  0
LINE
  5
4490
330
1D
100
AcDbEntity
  8
0
100
AcDbLine
 10
103.951088532977
 20
1165.121821989656
 30
0.0
 11
105.308088532977
 21
1165.961821989656
 31
0.0
  0
LINE
  5
4491
330
1D
100
AcDbEntity
  8
0
100
AcDbLine
 10
104.157088532977
 20
1166.805821989656
 30
0.0
 11
103.192551405179
 21
1166.702910617298
 31
0.0
  0
LINE
  5
4492
330
1D
100
AcDbEntity
  8
0
100
AcDbLine
 10
103.192551405179
 20
1166.702910617298
 30
0.0
 11
102.291548291658
 21
1166.393041821643
 31
0.0
  0
LINE
  5
4493
330
1D
100
AcDbEntity
  8
0
100
AcDbLine
 10
102.022728426466
 20
1166.537516463626
 30
0.0
 11
102.113088532977
 21
1165.916821989656
 31
0.0
  0
LINE
  5
4494
330
1D
100
AcDbEntity
  8
0
100
AcDbLine
 10
102.291548291658
 20
1166.393041821643
 30
0.0
 11
102.113088532977
 21
1165.916821989656
 31
0.0
  0
LINE
  5
4495
330
1D
100
AcDbEntity
  8
0
100
AcDbLine
 10
105.308088532977
 20
1165.961821989656
 30
0.0
 11
105.463268919662
 21
1167.210213458666
 31
0.0
  0
LINE
  5
4496
330
1D
100
AcDbEntity
  8
0
100
AcDbLine
 10
104.157088532977
 20
1166.805821989656
 30
0.0
 11
105.308088532977
 21
1165.961821989656
 31
0.0
  0
LINE
  5
4497
330
1D
100
AcDbEntity
  8
0
100
AcDbLine
 10
102.547948473847
 20
1176.788320511406
 30
0.0
 11
104.385948473847
 21
1175.993320511406
 31
0.0
  0
LINE
  5
4498
330
1D
100
AcDbEntity
  8
0
100
AcDbLine
 10
104.385948473847
 20
1175.993320511406
 30
0.0
 11
105.742948473847
 21
1176.833320511406
 31
0.0
  0
LINE
  5
4499
330
1D
100
AcDbEntity
  8
0
100
AcDbLine
 10
104.591948473847
 20
1177.677320511406
 30
0.0
 11
103.627411346049
 21
1177.574409139048
 31
0.0
  0
LINE
  5
449A
330
1D
100
AcDbEntity
  8
0
100
AcDbLine
 10
103.627411346049
 20
1177.574409139048
 30
0.0
 11
102.726408232528
 21
1177.264540343393
 31
0.0
  0
LINE
  5
449B
330
1D
100
AcDbEntity
  8
0
100
AcDbLine
 10
102.457588367336
 20
1177.409014985376
 30
0.0
 11
102.547948473847
 21
1176.788320511406
 31
0.0
  0
LINE
  5
449C
330
1D
100
AcDbEntity
  8
0
100
AcDbLine
 10
102.726408232528
 20
1177.264540343393
 30
0.0
 11
102.547948473847
 21
1176.788320511406
 31
0.0
  0
LINE
  5
449D
330
1D
100
AcDbEntity
  8
0
100
AcDbLine
 10
105.742948473847
 20
1176.833320511406
 30
0.0
 11
105.898128860532
 21
1178.081711980416
 31
0.0
  0
LINE
  5
449E
330
1D
100
AcDbEntity
  8
0
100
AcDbLine
 10
104.591948473847
 20
1177.677320511406
 30
0.0
 11
105.742948473847
 21
1176.833320511406
 31
0.0
  0
LINE
  5
449F
330
1D
100
AcDbEntity
  8
0
100
AcDbLine
 10
102.45672827272
 20
1111.417501993396
 30
0.0
 11
101.555725159199
 21
1111.107633197741
 31
0.0
  0
LINE
  5
44A0
330
1D
100
AcDbEntity
  8
0
100
AcDbLine
 10
101.377265400518
 20
1110.631413365754
 30
0.0
 11
103.215265400518
 21
1109.836413365754
 31
0.0
  0
LINE
  5
44A1
330
1D
100
AcDbEntity
  8
0
100
AcDbLine
 10
101.555725159199
 20
1111.107633197741
 30
0.0
 11
101.377265400518
 21
1110.631413365754
 31
0.0
  0
LINE
  5
44A2
330
1D
100
AcDbEntity
  8
0
100
AcDbLine
 10
101.286905294007
 20
1111.252107839724
 30
0.0
 11
101.377265400518
 21
1110.631413365754
 31
0.0
  0
LINE
  5
44A3
330
1D
100
AcDbEntity
  8
0
100
AcDbLine
 10
103.421265400518
 20
1111.520413365754
 30
0.0
 11
104.572265400518
 21
1110.676413365754
 31
0.0
  0
LINE
  5
44A4
330
1D
100
AcDbEntity
  8
0
100
AcDbLine
 10
104.572265400518
 20
1110.676413365754
 30
0.0
 11
104.727445787203
 21
1111.924804834764
 31
0.0
  0
LINE
  5
44A5
330
1D
100
AcDbEntity
  8
0
100
AcDbLine
 10
103.421265400518
 20
1111.520413365754
 30
0.0
 11
102.45672827272
 21
1111.417501993396
 31
0.0
  0
LINE
  5
44A6
330
1D
100
AcDbEntity
  8
0
100
AcDbLine
 10
103.215265400518
 20
1109.836413365754
 30
0.0
 11
104.572265400518
 21
1110.676413365754
 31
0.0
  0
LINE
  5
44A7
330
1D
100
AcDbEntity
  8
0
100
AcDbLine
 10
103.0
 20
1006.3665
 30
0.0
 11
108.967
 21
1007.1285
 31
0.0
  0
LINE
  5
44A8
330
1D
100
AcDbEntity
  8
0
100
AcDbLine
 10
90.759008
 20
995.738948
 30
0.0
 11
90.0
 21
996.582007905138
 31
0.0
  0
LINE
  5
44A9
330
1D
100
AcDbEntity
  8
0
100
AcDbLine
 10
90.0
 20
996.582007905138
 30
0.0
 11
90.010691907183
 21
1004.281096671039
 31
0.0
  0
LINE
  5
44AA
330
1D
100
AcDbEntity
  8
0
100
AcDbLine
 10
116.0
 20
996.541262762763
 30
0.0
 11
116.284
 21
1004.7425
 31
0.0
  0
LINE
  5
44AB
330
1D
100
AcDbEntity
  8
0
100
AcDbLine
 10
54.0
 20
1252.7455
 30
0.0
 11
54.0
 21
1186.235060849598
 31
0.0
  0
LINE
  5
470D
330
1D
100
AcDbEntity
  8
0
100
AcDbLine
 10
296.024
 20
89.905133333333
 30
0.0
 11
296.024
 21
91.1305
 31
0.0
  0
LINE
  5
470E
330
1D
100
AcDbEntity
  8
0
100
AcDbLine
 10
296.024
 20
91.1305
 30
0.0
 11
296.024
 21
89.905133333333
 31
0.0
  0
LINE
  5
470F
330
1D
100
AcDbEntity
  8
0
100
AcDbLine
 10
295.424
 20
89.89
 30
0.0
 11
296.324
 21
89.9127
 31
0.0
  0
LINE
  5
4710
330
1D
100
AcDbEntity
  8
0
100
AcDbLine
 10
295.024
 20
89.8654
 30
0.0
 11
295.424
 21
89.89
 31
0.0
  0
LINE
  5
4711
330
1D
100
AcDbEntity
  8
0
100
AcDbLine
 10
294.024
 20
87.8655
 30
0.0
 11
296.024
 21
59.8667
 31
0.0
  0
LINE
  5
4712
330
1D
100
AcDbEntity
  8
0
100
AcDbLine
 10
294.024
 20
87.8655
 30
0.0
 11
295.024
 21
89.8654
 31
0.0
  0
LINE
  5
4713
330
1D
100
AcDbEntity
  8
0
100
AcDbLine
 10
297.887
 20
-0.1225
 30
0.0
 11
298.562
 21
-0.0645
 31
0.0
  0
LINE
  5
4714
330
1D
100
AcDbEntity
  8
0
100
AcDbLine
 10
298.562
 20
-0.0645
 30
0.0
 11
299.8
 21
0.2955
 31
0.0
  0
LINE
  5
4715
330
1D
100
AcDbEntity
  8
0
100
AcDbLine
 10
299.8
 20
0.2955
 30
0.0
 11
301.301
 21
0.9585
 31
0.0
  0
LINE
  5
4716
330
1D
100
AcDbEntity
  8
0
100
AcDbLine
 10
301.301
 20
0.9585
 30
0.0
 11
303.101
 21
2.0765
 31
0.0
  0
LINE
  5
4717
330
1D
100
AcDbEntity
  8
0
100
AcDbLine
 10
303.101
 20
2.0765
 30
0.0
 11
305.052
 21
4.0595
 31
0.0
  0
LINE
  5
4718
330
1D
100
AcDbEntity
  8
0
100
AcDbLine
 10
305.052
 20
4.0595
 30
0.0
 11
306.815
 21
5.4125
 31
0.0
  0
LINE
  5
4719
330
1D
100
AcDbEntity
  8
0
100
AcDbLine
 10
306.815
 20
5.4125
 30
0.0
 11
308.653
 21
6.6185
 31
0.0
  0
LINE
  5
471A
330
1D
100
AcDbEntity
  8
0
100
AcDbLine
 10
305.052
 20
4.2025
 30
0.0
 11
306.815
 21
5.5485
 31
0.0
  0
LINE
  5
471B
330
1D
100
AcDbEntity
  8
0
100
AcDbLine
 10
308.653
 20
6.6185
 30
0.0
 11
310.454
 21
7.8285
 31
0.0
  0
LINE
  5
471C
330
1D
100
AcDbEntity
  8
0
100
AcDbLine
 10
306.815
 20
5.5485
 30
0.0
 11
308.653
 21
6.7415
 31
0.0
  0
LINE
  5
471D
330
1D
100
AcDbEntity
  8
0
100
AcDbLine
 10
310.454
 20
7.8285
 30
0.0
 11
311.542
 21
8.8935
 31
0.0
  0
LINE
  5
471E
330
1D
100
AcDbEntity
  8
0
100
AcDbLine
 10
308.653
 20
6.7415
 30
0.0
 11
310.454
 21
7.9295
 31
0.0
  0
LINE
  5
471F
330
1D
100
AcDbEntity
  8
0
100
AcDbLine
 10
311.542
 20
8.8935
 30
0.0
 11
312.255
 21
9.6225
 31
0.0
  0
LINE
  5
4720
330
1D
100
AcDbEntity
  8
0
100
AcDbLine
 10
310.454
 20
7.9295
 30
0.0
 11
311.542
 21
8.9635
 31
0.0
  0
LINE
  5
4721
330
1D
100
AcDbEntity
  8
0
100
AcDbLine
 10
312.255
 20
9.6225
 30
0.0
 11
312.524
 21
9.8685
 31
0.0
  0
LINE
  5
4722
330
1D
100
AcDbEntity
  8
0
100
AcDbLine
 10
311.542
 20
8.9635
 30
0.0
 11
312.255
 21
9.6585
 31
0.0
  0
LINE
  5
4723
330
1D
100
AcDbEntity
  8
0
100
AcDbLine
 10
312.524
 20
9.8685
 30
0.0
 11
312.524
 21
59.8667
 31
0.0
  0
LINE
  5
4724
330
1D
100
AcDbEntity
  8
0
100
AcDbLine
 10
312.255
 20
9.6585
 30
0.0
 11
312.524
 21
9.8685
 31
0.0
  0
LINE
  5
4725
330
1D
100
AcDbEntity
  8
0
100
AcDbLine
 10
303.101
 20
2.2125
 30
0.0
 11
305.052
 21
4.2025
 31
0.0
  0
LINE
  5
4726
330
1D
100
AcDbEntity
  8
0
100
AcDbLine
 10
301.301
 20
1.0815
 30
0.0
 11
303.101
 21
2.2125
 31
0.0
  0
LINE
  5
4727
330
1D
100
AcDbEntity
  8
0
100
AcDbLine
 10
299.8
 20
0.3955
 30
0.0
 11
301.301
 21
1.0815
 31
0.0
  0
LINE
  5
4728
330
1D
100
AcDbEntity
  8
0
100
AcDbLine
 10
298.562
 20
0.0055
 30
0.0
 11
299.8
 21
0.3955
 31
0.0
  0
LINE
  5
4729
330
1D
100
AcDbEntity
  8
0
100
AcDbLine
 10
297.887
 20
-0.0865
 30
0.0
 11
298.562
 21
0.0055
 31
0.0
  0
LINE
  5
472A
330
1D
100
AcDbEntity
  8
0
100
AcDbLine
 10
297.524
 20
-0.1305
 30
0.0
 11
297.887
 21
-0.0865
 31
0.0
  0
LINE
  5
472B
330
1D
100
AcDbEntity
  8
0
100
AcDbLine
 10
297.524
 20
-0.1305
 30
0.0
 11
297.524
 21
59.8667
 31
0.0
  0
LINE
  5
472C
330
1D
100
AcDbEntity
  8
0
100
AcDbLine
 10
297.524
 20
-0.1305
 30
0.0
 11
297.887
 21
-0.1225
 31
0.0
  0
LINE
  5
472D
330
1D
100
AcDbEntity
  8
0
100
AcDbLine
 10
312.524
 20
59.820242857143
 30
0.0
 11
312.824
 21
59.8241
 31
0.0
  0
LINE
  5
472E
330
1D
100
AcDbEntity
  8
0
100
AcDbLine
 10
312.824
 20
59.8241
 30
0.0
 11
313.724
 21
59.8449
 31
0.0
  0
LINE
  5
472F
330
1D
100
AcDbEntity
  8
0
100
AcDbLine
 10
312.524
 20
59.8667
 30
0.0
 11
312.524
 21
9.8685
 31
0.0
  0
LINE
  5
4730
330
1D
100
AcDbEntity
  8
0
100
AcDbLine
 10
312.224
 20
59.8847
 30
0.0
 11
312.524
 21
59.8667
 31
0.0
  0
LINE
  5
4731
330
1D
100
AcDbEntity
  8
0
100
AcDbLine
 10
297.824
 20
59.8847
 30
0.0
 11
298.524
 21
59.9018
 31
0.0
  0
LINE
  5
4732
330
1D
100
AcDbEntity
  8
0
100
AcDbLine
 10
297.524
 20
59.8667
 30
0.0
 11
297.524
 21
-0.1305
 31
0.0
  0
LINE
  5
4733
330
1D
100
AcDbEntity
  8
0
100
AcDbLine
 10
297.524
 20
59.8667
 30
0.0
 11
297.824
 21
59.8847
 31
0.0
  0
LINE
  5
4734
330
1D
100
AcDbEntity
  8
0
100
AcDbLine
 10
313.724
 20
59.8885
 30
0.0
 11
314.024
 21
59.8667
 31
0.0
  0
LINE
  5
4735
330
1D
100
AcDbEntity
  8
0
100
AcDbLine
 10
314.024
 20
59.8667
 30
0.0
 11
316.024
 21
87.8655
 31
0.0
  0
LINE
  5
4736
330
1D
100
AcDbEntity
  8
0
100
AcDbLine
 10
313.724
 20
59.8449
 30
0.0
 11
314.024
 21
59.8667
 31
0.0
  0
LINE
  5
4737
330
1D
100
AcDbEntity
  8
0
100
AcDbLine
 10
297.224
 20
59.8241
 30
0.0
 11
297.524
 21
59.820242857143
 31
0.0
  0
LINE
  5
4738
330
1D
100
AcDbEntity
  8
0
100
AcDbLine
 10
296.324
 20
59.8449
 30
0.0
 11
297.224
 21
59.8241
 31
0.0
  0
LINE
  5
4739
330
1D
100
AcDbEntity
  8
0
100
AcDbLine
 10
296.324
 20
89.9127
 30
0.0
 11
297.924
 21
89.9326
 31
0.0
  0
LINE
  5
473A
330
1D
100
AcDbEntity
  8
0
100
AcDbLine
 10
299.724
 20
59.9169
 30
0.0
 11
301.324
 21
59.9283
 31
0.0
  0
LINE
  5
473B
330
1D
100
AcDbEntity
  8
0
100
AcDbLine
 10
298.524
 20
59.9018
 30
0.0
 11
299.724
 21
59.9169
 31
0.0
  0
LINE
  5
473C
330
1D
100
AcDbEntity
  8
0
100
AcDbLine
 10
298.624
 20
59.9273
 30
0.0
 11
300.524
 21
59.9406
 31
0.0
  0
LINE
  5
473D
330
1D
100
AcDbEntity
  8
0
100
AcDbLine
 10
308.724
 20
59.9283
 30
0.0
 11
310.324
 21
59.9169
 31
0.0
  0
LINE
  5
473E
330
1D
100
AcDbEntity
  8
0
100
AcDbLine
 10
305.024
 20
59.9378
 30
0.0
 11
306.924
 21
59.9349
 31
0.0
  0
LINE
  5
473F
330
1D
100
AcDbEntity
  8
0
100
AcDbLine
 10
306.924
 20
59.9349
 30
0.0
 11
308.724
 21
59.9283
 31
0.0
  0
LINE
  5
4740
330
1D
100
AcDbEntity
  8
0
100
AcDbLine
 10
303.124
 20
59.9349
 30
0.0
 11
305.024
 21
59.9378
 31
0.0
  0
LINE
  5
4741
330
1D
100
AcDbEntity
  8
0
100
AcDbLine
 10
301.324
 20
59.9283
 30
0.0
 11
303.124
 21
59.9349
 31
0.0
  0
LINE
  5
4742
330
1D
100
AcDbEntity
  8
0
100
AcDbLine
 10
311.524
 20
59.9018
 30
0.0
 11
312.224
 21
59.8847
 31
0.0
  0
LINE
  5
4743
330
1D
100
AcDbEntity
  8
0
100
AcDbLine
 10
310.324
 20
59.9169
 30
0.0
 11
311.524
 21
59.9018
 31
0.0
  0
LINE
  5
4744
330
1D
100
AcDbEntity
  8
0
100
AcDbLine
 10
311.424
 20
59.9273
 30
0.0
 11
312.824
 21
59.9093
 31
0.0
  0
LINE
  5
4745
330
1D
100
AcDbEntity
  8
0
100
AcDbLine
 10
312.824
 20
59.9093
 30
0.0
 11
313.724
 21
59.8885
 31
0.0
  0
LINE
  5
4746
330
1D
100
AcDbEntity
  8
0
100
AcDbLine
 10
309.524
 20
59.9406
 30
0.0
 11
311.424
 21
59.9273
 31
0.0
  0
LINE
  5
4747
330
1D
100
AcDbEntity
  8
0
100
AcDbLine
 10
307.324
 20
59.9491
 30
0.0
 11
309.524
 21
59.9406
 31
0.0
  0
LINE
  5
4748
330
1D
100
AcDbEntity
  8
0
100
AcDbLine
 10
300.524
 20
59.9406
 30
0.0
 11
302.724
 21
59.9491
 31
0.0
  0
LINE
  5
4749
330
1D
100
AcDbEntity
  8
0
100
AcDbLine
 10
297.924
 20
89.9326
 30
0.0
 11
300.024
 21
89.9478
 31
0.0
  0
LINE
  5
474A
330
1D
100
AcDbEntity
  8
0
100
AcDbLine
 10
300.024
 20
89.9478
 30
0.0
 11
302.424
 21
89.9563
 31
0.0
  0
LINE
  5
474B
330
1D
100
AcDbEntity
  8
0
100
AcDbLine
 10
305.024
 20
59.952
 30
0.0
 11
307.324
 21
59.9491
 31
0.0
  0
LINE
  5
474C
330
1D
100
AcDbEntity
  8
0
100
AcDbLine
 10
312.124
 20
89.9326
 30
0.0
 11
313.724
 21
89.9127
 31
0.0
  0
LINE
  5
474D
330
1D
100
AcDbEntity
  8
0
100
AcDbLine
 10
314.024
 20
89.905133333333
 30
0.0
 11
314.024
 21
91.1305
 31
0.0
  0
LINE
  5
474E
330
1D
100
AcDbEntity
  8
0
100
AcDbLine
 10
313.724
 20
89.9127
 30
0.0
 11
314.624
 21
89.89
 31
0.0
  0
LINE
  5
474F
330
1D
100
AcDbEntity
  8
0
100
AcDbLine
 10
314.624
 20
89.89
 30
0.0
 11
315.024
 21
89.8654
 31
0.0
  0
LINE
  5
4750
330
1D
100
AcDbEntity
  8
0
100
AcDbLine
 10
310.024
 20
89.9478
 30
0.0
 11
312.124
 21
89.9326
 31
0.0
  0
LINE
  5
4751
330
1D
100
AcDbEntity
  8
0
100
AcDbLine
 10
314.024
 20
91.1305
 30
0.0
 11
314.024
 21
89.905133333333
 31
0.0
  0
LINE
  5
4752
330
1D
100
AcDbEntity
  8
0
100
AcDbLine
 10
307.624
 20
89.9563
 30
0.0
 11
310.024
 21
89.9478
 31
0.0
  0
LINE
  5
4753
330
1D
100
AcDbEntity
  8
0
100
AcDbLine
 10
305.024
 20
89.9601
 30
0.0
 11
307.624
 21
89.9563
 31
0.0
  0
LINE
  5
4754
330
1D
100
AcDbEntity
  8
0
100
AcDbLine
 10
315.024
 20
89.8654
 30
0.0
 11
316.024
 21
87.8655
 31
0.0
  0
LINE
  5
4755
330
1D
100
AcDbEntity
  8
0
100
AcDbLine
 10
302.424
 20
89.9563
 30
0.0
 11
305.024
 21
89.9601
 31
0.0
  0
LINE
  5
4756
330
1D
100
AcDbEntity
  8
0
100
AcDbLine
 10
302.724
 20
59.9491
 30
0.0
 11
305.024
 21
59.952
 31
0.0
  0
LINE
  5
4757
330
1D
100
AcDbEntity
  8
0
100
AcDbLine
 10
297.224
 20
59.9093
 30
0.0
 11
298.624
 21
59.9273
 31
0.0
  0
LINE
  5
4758
330
1D
100
AcDbEntity
  8
0
100
AcDbLine
 10
296.324
 20
59.8885
 30
0.0
 11
297.224
 21
59.9093
 31
0.0
  0
LINE
  5
4759
330
1D
100
AcDbEntity
  8
0
100
AcDbLine
 10
296.024
 20
59.8667
 30
0.0
 11
296.324
 21
59.8885
 31
0.0
  0
LINE
  5
475A
330
1D
100
AcDbEntity
  8
0
100
AcDbLine
 10
296.024
 20
59.8667
 30
0.0
 11
296.324
 21
59.8449
 31
0.0
  0
LINE
  5
475B
330
1D
100
AcDbEntity
  8
0
100
AcDbLine
 10
155.35259
 20
152.8275
 30
0.0
 11
155.498008
 21
153.1305
 31
0.0
  0
LINE
  5
475C
330
1D
100
AcDbEntity
  8
0
100
AcDbLine
 10
155.0
 20
151.1305
 30
0.0
 11
155.35259
 21
152.8275
 31
0.0
  0
LINE
  5
475D
330
1D
100
AcDbEntity
  8
0
100
AcDbLine
 10
155.498008
 20
153.1305
 30
0.0
 11
155.986056
 21
153.1305
 31
0.0
  0
LINE
  5
475E
330
1D
100
AcDbEntity
  8
0
100
AcDbLine
 10
143.2941
 20
95.1305
 30
0.0
 11
144.0941
 21
95.1305
 31
0.0
  0
LINE
  5
475F
330
1D
100
AcDbEntity
  8
0
100
AcDbLine
 10
144.0941
 20
95.1305
 30
0.0
 11
145.0118
 21
95.1305
 31
0.0
  0
LINE
  5
4760
330
1D
100
AcDbEntity
  8
0
100
AcDbLine
 10
145.0118
 20
95.1305
 30
0.0
 11
146.0
 21
95.1305
 31
0.0
  0
LINE
  5
4761
330
1D
100
AcDbEntity
  8
0
100
AcDbLine
 10
142.6941
 20
95.1305
 30
0.0
 11
143.2941
 21
95.1305
 31
0.0
  0
LINE
  5
4762
330
1D
100
AcDbEntity
  8
0
100
AcDbLine
 10
142.3176
 20
95.1305
 30
0.0
 11
142.6941
 21
95.1305
 31
0.0
  0
LINE
  5
4763
330
1D
100
AcDbEntity
  8
0
100
AcDbLine
 10
142.1765
 20
95.1305
 30
0.0
 11
142.3176
 21
95.1305
 31
0.0
  0
LINE
  5
4764
330
1D
100
AcDbEntity
  8
0
100
AcDbLine
 10
148.70588
 20
95.1305
 30
0.0
 11
149.30588
 21
95.1305
 31
0.0
  0
LINE
  5
4765
330
1D
100
AcDbEntity
  8
0
100
AcDbLine
 10
149.30588
 20
95.1305
 30
0.0
 11
149.68235
 21
95.1305
 31
0.0
  0
LINE
  5
4766
330
1D
100
AcDbEntity
  8
0
100
AcDbLine
 10
149.82353
 20
95.1305
 30
0.0
 11
149.94118
 21
95.2843
 31
0.0
  0
LINE
  5
4767
330
1D
100
AcDbEntity
  8
0
100
AcDbLine
 10
149.68235
 20
95.1305
 30
0.0
 11
149.82353
 21
95.1305
 31
0.0
  0
LINE
  5
4768
330
1D
100
AcDbEntity
  8
0
100
AcDbLine
 10
147.90588
 20
95.1305
 30
0.0
 11
148.70588
 21
95.1305
 31
0.0
  0
LINE
  5
4769
330
1D
100
AcDbEntity
  8
0
100
AcDbLine
 10
146.98823
 20
95.1305
 30
0.0
 11
147.90588
 21
95.1305
 31
0.0
  0
LINE
  5
476A
330
1D
100
AcDbEntity
  8
0
100
AcDbLine
 10
142.0588
 20
95.2843
 30
0.0
 11
142.1765
 21
95.1305
 31
0.0
  0
LINE
  5
476B
330
1D
100
AcDbEntity
  8
0
100
AcDbLine
 10
142.0
 20
95.592
 30
0.0
 11
142.0
 21
99.1305
 31
0.0
  0
LINE
  5
476C
330
1D
100
AcDbEntity
  8
0
100
AcDbLine
 10
142.0
 20
95.592
 30
0.0
 11
142.0588
 21
95.2843
 31
0.0
  0
LINE
  5
476D
330
1D
100
AcDbEntity
  8
0
100
AcDbLine
 10
150.0
 20
95.592
 30
0.0
 11
150.0
 21
99.1305
 31
0.0
  0
LINE
  5
476E
330
1D
100
AcDbEntity
  8
0
100
AcDbLine
 10
149.94118
 20
95.2843
 30
0.0
 11
150.0
 21
95.592
 31
0.0
  0
LINE
  5
476F
330
1D
100
AcDbEntity
  8
0
100
AcDbLine
 10
146.0
 20
95.1305
 30
0.0
 11
146.98823
 21
95.1305
 31
0.0
  0
LINE
  5
4770
330
1D
100
AcDbEntity
  8
0
100
AcDbLine
 10
155.0
 20
96.8707
 30
0.0
 11
155.0
 21
96.9753
 31
0.0
  0
LINE
  5
4771
330
1D
100
AcDbEntity
  8
0
100
AcDbLine
 10
143.1765
 20
99.1305
 30
0.0
 11
144.0118
 21
99.1305
 31
0.0
  0
LINE
  5
4772
330
1D
100
AcDbEntity
  8
0
100
AcDbLine
 10
142.5412
 20
99.1305
 30
0.0
 11
143.1765
 21
99.1305
 31
0.0
  0
LINE
  5
4773
330
1D
100
AcDbEntity
  8
0
100
AcDbLine
 10
142.1412
 20
99.1305
 30
0.0
 11
142.5412
 21
99.1305
 31
0.0
  0
LINE
  5
4774
330
1D
100
AcDbEntity
  8
0
100
AcDbLine
 10
142.0
 20
99.1305
 30
0.0
 11
142.0
 21
95.592
 31
0.0
  0
LINE
  5
4775
330
1D
100
AcDbEntity
  8
0
100
AcDbLine
 10
142.0
 20
99.1305
 30
0.0
 11
142.1412
 21
99.1305
 31
0.0
  0
LINE
  5
4776
330
1D
100
AcDbEntity
  8
0
100
AcDbLine
 10
142.6177
 20
99.1305
 30
0.0
 11
143.6177
 21
99.1305
 31
0.0
  0
LINE
  5
4777
330
1D
100
AcDbEntity
  8
0
100
AcDbLine
 10
144.0118
 20
99.1305
 30
0.0
 11
144.9765
 21
99.1305
 31
0.0
  0
LINE
  5
4778
330
1D
100
AcDbEntity
  8
0
100
AcDbLine
 10
144.9765
 20
99.1305
 30
0.0
 11
146.0
 21
99.1305
 31
0.0
  0
LINE
  5
4779
330
1D
100
AcDbEntity
  8
0
100
AcDbLine
 10
147.02353
 20
99.1305
 30
0.0
 11
147.98823
 21
99.1305
 31
0.0
  0
LINE
  5
477A
330
1D
100
AcDbEntity
  8
0
100
AcDbLine
 10
143.6177
 20
99.1305
 30
0.0
 11
144.7647
 21
99.1305
 31
0.0
  0
LINE
  5
477B
330
1D
100
AcDbEntity
  8
0
100
AcDbLine
 10
144.7647
 20
99.1305
 30
0.0
 11
146.0
 21
99.1305
 31
0.0
  0
LINE
  5
477C
330
1D
100
AcDbEntity
  8
0
100
AcDbLine
 10
148.82353
 20
99.1305
 30
0.0
 11
149.45882
 21
99.1305
 31
0.0
  0
LINE
  5
477D
330
1D
100
AcDbEntity
  8
0
100
AcDbLine
 10
147.98823
 20
99.1305
 30
0.0
 11
148.82353
 21
99.1305
 31
0.0
  0
LINE
  5
477E
330
1D
100
AcDbEntity
  8
0
100
AcDbLine
 10
149.45882
 20
99.1305
 30
0.0
 11
149.85882
 21
99.1305
 31
0.0
  0
LINE
  5
477F
330
1D
100
AcDbEntity
  8
0
100
AcDbLine
 10
149.85882
 20
99.1305
 30
0.0
 11
150.0
 21
99.1305
 31
0.0
  0
LINE
  5
4780
330
1D
100
AcDbEntity
  8
0
100
AcDbLine
 10
149.38235
 20
99.1305
 30
0.0
 11
150.13235
 21
99.1305
 31
0.0
  0
LINE
  5
4781
330
1D
100
AcDbEntity
  8
0
100
AcDbLine
 10
148.38235
 20
99.1305
 30
0.0
 11
149.38235
 21
99.1305
 31
0.0
  0
LINE
  5
4782
330
1D
100
AcDbEntity
  8
0
100
AcDbLine
 10
147.23529
 20
99.1305
 30
0.0
 11
148.38235
 21
99.1305
 31
0.0
  0
LINE
  5
4783
330
1D
100
AcDbEntity
  8
0
100
AcDbLine
 10
146.0
 20
99.1305
 30
0.0
 11
147.23529
 21
99.1305
 31
0.0
  0
LINE
  5
4784
330
1D
100
AcDbEntity
  8
0
100
AcDbLine
 10
146.0
 20
99.1305
 30
0.0
 11
147.02353
 21
99.1305
 31
0.0
  0
LINE
  5
4785
330
1D
100
AcDbEntity
  8
0
100
AcDbLine
 10
141.8677
 20
99.1305
 30
0.0
 11
142.0
 21
99.1305
 31
0.0
  0
LINE
  5
4786
330
1D
100
AcDbEntity
  8
0
100
AcDbLine
 10
141.8677
 20
99.1305
 30
0.0
 11
142.6177
 21
99.1305
 31
0.0
  0
LINE
  5
4787
330
1D
100
AcDbEntity
  8
0
100
AcDbLine
 10
141.3971
 20
99.1305
 30
0.0
 11
141.8677
 21
99.1305
 31
0.0
  0
LINE
  5
4788
330
1D
100
AcDbEntity
  8
0
100
AcDbLine
 10
141.2206
 20
99.1305
 30
0.0
 11
141.3971
 21
99.1305
 31
0.0
  0
LINE
  5
4789
330
1D
100
AcDbEntity
  8
0
100
AcDbLine
 10
150.13235
 20
99.1305
 30
0.0
 11
150.60294
 21
99.1305
 31
0.0
  0
LINE
  5
478A
330
1D
100
AcDbEntity
  8
0
100
AcDbLine
 10
150.77941
 20
99.1305
 30
0.0
 11
150.92647
 21
99.3228
 31
0.0
  0
LINE
  5
478B
330
1D
100
AcDbEntity
  8
0
100
AcDbLine
 10
150.60294
 20
99.1305
 30
0.0
 11
150.77941
 21
99.1305
 31
0.0
  0
LINE
  5
478C
330
1D
100
AcDbEntity
  8
0
100
AcDbLine
 10
154.0
 20
99.1305
 30
0.0
 11
154.0
 21
99.3516
 31
0.0
  0
LINE
  5
478D
330
1D
100
AcDbEntity
  8
0
100
AcDbLine
 10
154.0
 20
99.1305
 30
0.0
 11
155.0
 21
99.1305
 31
0.0
  0
LINE
  5
478E
330
1D
100
AcDbEntity
  8
0
100
AcDbLine
 10
150.0
 20
99.1305
 30
0.0
 11
150.0
 21
95.592
 31
0.0
  0
LINE
  5
478F
330
1D
100
AcDbEntity
  8
0
100
AcDbLine
 10
150.0
 20
99.1305
 30
0.0
 11
150.13235
 21
99.1305
 31
0.0
  0
LINE
  5
4790
330
1D
100
AcDbEntity
  8
0
100
AcDbLine
 10
155.0
 20
98.6341
 30
0.0
 11
155.0
 21
99.1305
 31
0.0
  0
LINE
  5
4791
330
1D
100
AcDbEntity
  8
0
100
AcDbLine
 10
155.0
 20
98.1701
 30
0.0
 11
155.0
 21
97.4015
 31
0.0
  0
LINE
  5
4792
330
1D
100
AcDbEntity
  8
0
100
AcDbLine
 10
155.0
 20
98.1701
 30
0.0
 11
155.0
 21
100.1048
 31
0.0
  0
LINE
  5
4793
330
1D
100
AcDbEntity
  8
0
100
AcDbLine
 10
155.0
 20
97.4015
 30
0.0
 11
155.0
 21
96.9753
 31
0.0
  0
LINE
  5
4794
330
1D
100
AcDbEntity
  8
0
100
AcDbLine
 10
155.0
 20
97.4015
 30
0.0
 11
155.0
 21
98.1701
 31
0.0
  0
LINE
  5
4795
330
1D
100
AcDbEntity
  8
0
100
AcDbLine
 10
155.0
 20
96.9753
 30
0.0
 11
155.0
 21
96.8707
 31
0.0
  0
LINE
  5
4796
330
1D
100
AcDbEntity
  8
0
100
AcDbLine
 10
155.0
 20
96.9753
 30
0.0
 11
155.0
 21
97.4015
 31
0.0
  0
LINE
  5
4797
330
1D
100
AcDbEntity
  8
0
100
AcDbLine
 10
141.0735
 20
99.3228
 30
0.0
 11
141.2206
 21
99.1305
 31
0.0
  0
LINE
  5
4798
330
1D
100
AcDbEntity
  8
0
100
AcDbLine
 10
150.92647
 20
99.3228
 30
0.0
 11
151.0
 21
99.7074
 31
0.0
  0
LINE
  5
4799
330
1D
100
AcDbEntity
  8
0
100
AcDbLine
 10
151.0
 20
99.7074
 30
0.0
 11
151.0
 21
100.1305
 31
0.0
  0
LINE
  5
479A
330
1D
100
AcDbEntity
  8
0
100
AcDbLine
 10
141.0
 20
99.7074
 30
0.0
 11
141.0
 21
100.1305
 31
0.0
  0
LINE
  5
479B
330
1D
100
AcDbEntity
  8
0
100
AcDbLine
 10
141.0
 20
99.7074
 30
0.0
 11
141.0735
 21
99.3228
 31
0.0
  0
LINE
  5
479C
330
1D
100
AcDbEntity
  8
0
100
AcDbLine
 10
154.0
 20
99.8821
 30
0.0
 11
154.0
 21
100.1305
 31
0.0
  0
LINE
  5
479D
330
1D
100
AcDbEntity
  8
0
100
AcDbLine
 10
154.0
 20
99.8821
 30
0.0
 11
154.0
 21
99.3516
 31
0.0
  0
LINE
  5
479E
330
1D
100
AcDbEntity
  8
0
100
AcDbLine
 10
154.0
 20
99.8821
 30
0.0
 11
154.0
 21
100.7663
 31
0.0
  0
LINE
  5
479F
330
1D
100
AcDbEntity
  8
0
100
AcDbLine
 10
154.0
 20
99.3516
 30
0.0
 11
154.0
 21
99.8821
 31
0.0
  0
LINE
  5
47A0
330
1D
100
AcDbEntity
  8
0
100
AcDbLine
 10
154.0
 20
99.3516
 30
0.0
 11
154.0
 21
99.1305
 31
0.0
  0
LINE
  5
47A1
330
1D
100
AcDbEntity
  8
0
100
AcDbLine
 10
155.0
 20
100.1048
 30
0.0
 11
155.0
 21
98.1701
 31
0.0
  0
LINE
  5
47A2
330
1D
100
AcDbEntity
  8
0
100
AcDbLine
 10
155.0
 20
100.1048
 30
0.0
 11
155.0
 21
101.8383
 31
0.0
  0
LINE
  5
47A3
330
1D
100
AcDbEntity
  8
0
100
AcDbLine
 10
141.0
 20
100.1305
 30
0.0
 11
141.0
 21
99.7074
 31
0.0
  0
LINE
  5
47A4
330
1D
100
AcDbEntity
  8
0
100
AcDbLine
 10
130.5769
 20
100.1305
 30
0.0
 11
141.016883441478
 21
100.1305
 31
0.0
  0
LINE
  5
47A5
330
1D
100
AcDbEntity
  8
0
100
AcDbLine
 10
151.0
 20
100.1305
 30
0.0
 11
154.0
 21
100.1305
 31
0.0
  0
LINE
  5
47A6
330
1D
100
AcDbEntity
  8
0
100
AcDbLine
 10
151.0
 20
100.1305
 30
0.0
 11
154.0
 21
100.1305
 31
0.0
  0
LINE
  5
47A7
330
1D
100
AcDbEntity
  8
0
100
AcDbLine
 10
151.0
 20
100.1305
 30
0.0
 11
151.0
 21
99.7074
 31
0.0
  0
LINE
  5
47A8
330
1D
100
AcDbEntity
  8
0
100
AcDbLine
 10
130.0
 20
103.2717
 30
0.0
 11
130.0
 21
104.6481
 31
0.0
  0
LINE
  5
47A9
330
1D
100
AcDbEntity
  8
0
100
AcDbLine
 10
130.0
 20
103.2717
 30
0.0
 11
130.0
 21
102.0717
 31
0.0
  0
LINE
  5
47AA
330
1D
100
AcDbEntity
  8
0
100
AcDbLine
 10
130.0
 20
106.1305
 30
0.0
 11
130.0
 21
104.6481
 31
0.0
  0
LINE
  5
47AB
330
1D
100
AcDbEntity
  8
0
100
AcDbLine
 10
130.0
 20
106.1305
 30
0.0
 11
130.0
 21
134.1305
 31
0.0
  0
LINE
  5
47AC
330
1D
100
AcDbEntity
  8
0
100
AcDbLine
 10
130.0
 20
104.6481
 30
0.0
 11
130.0
 21
106.1305
 31
0.0
  0
LINE
  5
47AD
330
1D
100
AcDbEntity
  8
0
100
AcDbLine
 10
130.0
 20
104.6481
 30
0.0
 11
130.0
 21
103.2717
 31
0.0
  0
LINE
  5
47AE
330
1D
100
AcDbEntity
  8
0
100
AcDbLine
 10
130.0
 20
102.0717
 30
0.0
 11
130.0
 21
101.1717
 31
0.0
  0
LINE
  5
47AF
330
1D
100
AcDbEntity
  8
0
100
AcDbLine
 10
130.0
 20
102.0717
 30
0.0
 11
130.0
 21
103.2717
 31
0.0
  0
LINE
  5
47B0
330
1D
100
AcDbEntity
  8
0
100
AcDbLine
 10
130.0
 20
101.1717
 30
0.0
 11
130.0
 21
102.0717
 31
0.0
  0
LINE
  5
47B1
330
1D
100
AcDbEntity
  8
0
100
AcDbLine
 10
130.0
 20
101.1717
 30
0.0
 11
130.0
 21
100.607
 31
0.0
  0
LINE
  5
47B2
330
1D
100
AcDbEntity
  8
0
100
AcDbLine
 10
130.0
 20
100.607
 30
0.0
 11
130.0
 21
101.1717
 31
0.0
  0
LINE
  5
47B3
330
1D
100
AcDbEntity
  8
0
100
AcDbLine
 10
130.0
 20
100.607
 30
0.0
 11
130.0
 21
100.3952
 31
0.0
  0
LINE
  5
47B4
330
1D
100
AcDbEntity
  8
0
100
AcDbLine
 10
130.0
 20
100.3952
 30
0.0
 11
130.1923
 21
100.2187
 31
0.0
  0
LINE
  5
47B5
330
1D
100
AcDbEntity
  8
0
100
AcDbLine
 10
130.0
 20
100.3952
 30
0.0
 11
130.0
 21
100.607
 31
0.0
  0
LINE
  5
47B6
330
1D
100
AcDbEntity
  8
0
100
AcDbLine
 10
154.0
 20
100.3423
 30
0.0
 11
154.0
 21
100.1305
 31
0.0
  0
LINE
  5
47B7
330
1D
100
AcDbEntity
  8
0
100
AcDbLine
 10
154.0
 20
100.3423
 30
0.0
 11
154.0
 21
100.9423
 31
0.0
  0
LINE
  5
47B8
330
1D
100
AcDbEntity
  8
0
100
AcDbLine
 10
154.0
 20
103.1481
 30
0.0
 11
154.0
 21
101.8952
 31
0.0
  0
LINE
  5
47B9
330
1D
100
AcDbEntity
  8
0
100
AcDbLine
 10
154.0
 20
103.1481
 30
0.0
 11
154.0
 21
104.5952
 31
0.0
  0
LINE
  5
47BA
330
1D
100
AcDbEntity
  8
0
100
AcDbLine
 10
154.0
 20
101.8952
 30
0.0
 11
154.0
 21
100.9423
 31
0.0
  0
LINE
  5
47BB
330
1D
100
AcDbEntity
  8
0
100
AcDbLine
 10
154.0
 20
101.8952
 30
0.0
 11
154.0
 21
103.1481
 31
0.0
  0
LINE
  5
47BC
330
1D
100
AcDbEntity
  8
0
100
AcDbLine
 10
154.0
 20
100.9423
 30
0.0
 11
154.0
 21
100.3423
 31
0.0
  0
LINE
  5
47BD
330
1D
100
AcDbEntity
  8
0
100
AcDbLine
 10
154.0
 20
100.9423
 30
0.0
 11
154.0
 21
101.8952
 31
0.0
  0
LINE
  5
47BE
330
1D
100
AcDbEntity
  8
0
100
AcDbLine
 10
154.0
 20
104.5952
 30
0.0
 11
154.0
 21
103.1481
 31
0.0
  0
LINE
  5
47BF
330
1D
100
AcDbEntity
  8
0
100
AcDbLine
 10
154.0
 20
104.5952
 30
0.0
 11
154.0
 21
106.1305
 31
0.0
  0
LINE
  5
47C0
330
1D
100
AcDbEntity
  8
0
100
AcDbLine
 10
154.0
 20
106.1305
 30
0.0
 11
154.0
 21
134.1305
 31
0.0
  0
LINE
  5
47C1
330
1D
100
AcDbEntity
  8
0
100
AcDbLine
 10
154.0
 20
106.1305
 30
0.0
 11
154.0
 21
104.5952
 31
0.0
  0
LINE
  5
47C2
330
1D
100
AcDbEntity
  8
0
100
AcDbLine
 10
154.0
 20
107.3537
 30
0.0
 11
154.0
 21
105.2979
 31
0.0
  0
LINE
  5
47C3
330
1D
100
AcDbEntity
  8
0
100
AcDbLine
 10
154.0
 20
107.3537
 30
0.0
 11
154.0
 21
109.6747
 31
0.0
  0
LINE
  5
47C4
330
1D
100
AcDbEntity
  8
0
100
AcDbLine
 10
154.0
 20
109.6747
 30
0.0
 11
154.0
 21
107.3537
 31
0.0
  0
LINE
  5
47C5
330
1D
100
AcDbEntity
  8
0
100
AcDbLine
 10
154.0
 20
109.6747
 30
0.0
 11
154.0
 21
112.1063
 31
0.0
  0
LINE
  5
47C6
330
1D
100
AcDbEntity
  8
0
100
AcDbLine
 10
154.0
 20
112.1063
 30
0.0
 11
154.0
 21
109.6747
 31
0.0
  0
LINE
  5
47C7
330
1D
100
AcDbEntity
  8
0
100
AcDbLine
 10
154.0
 20
112.1063
 30
0.0
 11
154.0
 21
114.7147
 31
0.0
  0
LINE
  5
47C8
330
1D
100
AcDbEntity
  8
0
100
AcDbLine
 10
154.0
 20
105.2979
 30
0.0
 11
154.0
 21
103.5073
 31
0.0
  0
LINE
  5
47C9
330
1D
100
AcDbEntity
  8
0
100
AcDbLine
 10
154.0
 20
105.2979
 30
0.0
 11
154.0
 21
107.3537
 31
0.0
  0
LINE
  5
47CA
330
1D
100
AcDbEntity
  8
0
100
AcDbLine
 10
154.0
 20
103.5073
 30
0.0
 11
154.0
 21
101.9379
 31
0.0
  0
LINE
  5
47CB
330
1D
100
AcDbEntity
  8
0
100
AcDbLine
 10
154.0
 20
103.5073
 30
0.0
 11
154.0
 21
105.2979
 31
0.0
  0
LINE
  5
47CC
330
1D
100
AcDbEntity
  8
0
100
AcDbLine
 10
154.0
 20
101.9379
 30
0.0
 11
154.0
 21
100.7663
 31
0.0
  0
LINE
  5
47CD
330
1D
100
AcDbEntity
  8
0
100
AcDbLine
 10
154.0
 20
101.9379
 30
0.0
 11
154.0
 21
103.5073
 31
0.0
  0
LINE
  5
47CE
330
1D
100
AcDbEntity
  8
0
100
AcDbLine
 10
154.0
 20
100.7663
 30
0.0
 11
154.0
 21
99.8821
 31
0.0
  0
LINE
  5
47CF
330
1D
100
AcDbEntity
  8
0
100
AcDbLine
 10
154.0
 20
100.7663
 30
0.0
 11
154.0
 21
101.9379
 31
0.0
  0
LINE
  5
47D0
330
1D
100
AcDbEntity
  8
0
100
AcDbLine
 10
130.1923
 20
100.2187
 30
0.0
 11
130.5769
 21
100.1305
 31
0.0
  0
LINE
  5
47D1
330
1D
100
AcDbEntity
  8
0
100
AcDbLine
 10
154.0
 20
100.1305
 30
0.0
 11
154.0
 21
99.8821
 31
0.0
  0
LINE
  5
47D2
330
1D
100
AcDbEntity
  8
0
100
AcDbLine
 10
154.0
 20
100.1305
 30
0.0
 11
154.0
 21
100.3423
 31
0.0
  0
LINE
  5
47D3
330
1D
100
AcDbEntity
  8
0
100
AcDbLine
 10
155.0
 20
101.8383
 30
0.0
 11
155.0
 21
100.1048
 31
0.0
  0
LINE
  5
47D4
330
1D
100
AcDbEntity
  8
0
100
AcDbLine
 10
155.0
 20
101.8383
 30
0.0
 11
155.0
 21
105.0714
 31
0.0
  0
LINE
  5
47D5
330
1D
100
AcDbEntity
  8
0
100
AcDbLine
 10
155.0
 20
105.0714
 30
0.0
 11
155.0
 21
101.8383
 31
0.0
  0
LINE
  5
47D6
330
1D
100
AcDbEntity
  8
0
100
AcDbLine
 10
155.0
 20
105.0714
 30
0.0
 11
155.0
 21
106.5739
 31
0.0
  0
LINE
  5
47D7
330
1D
100
AcDbEntity
  8
0
100
AcDbLine
 10
154.0
 20
114.7147
 30
0.0
 11
154.0
 21
112.1063
 31
0.0
  0
LINE
  5
47D8
330
1D
100
AcDbEntity
  8
0
100
AcDbLine
 10
154.0
 20
114.7147
 30
0.0
 11
154.0
 21
117.3894
 31
0.0
  0
LINE
  5
47D9
330
1D
100
AcDbEntity
  8
0
100
AcDbLine
 10
154.0
 20
117.3894
 30
0.0
 11
154.0
 21
114.7147
 31
0.0
  0
LINE
  5
47DA
330
1D
100
AcDbEntity
  8
0
100
AcDbLine
 10
154.0
 20
117.3894
 30
0.0
 11
154.0
 21
120.1305
 31
0.0
  0
LINE
  5
47DB
330
1D
100
AcDbEntity
  8
0
100
AcDbLine
 10
154.0
 20
120.1305
 30
0.0
 11
154.0
 21
117.3894
 31
0.0
  0
LINE
  5
47DC
330
1D
100
AcDbEntity
  8
0
100
AcDbLine
 10
154.0
 20
120.1305
 30
0.0
 11
154.0
 21
122.8716
 31
0.0
  0
LINE
  5
47DD
330
1D
100
AcDbEntity
  8
0
100
AcDbLine
 10
155.0
 20
119.2842
 30
0.0
 11
155.0
 21
116.0859
 31
0.0
  0
LINE
  5
47DE
330
1D
100
AcDbEntity
  8
0
100
AcDbLine
 10
155.0
 20
119.2842
 30
0.0
 11
155.0
 21
121.6977
 31
0.0
  0
LINE
  5
47DF
330
1D
100
AcDbEntity
  8
0
100
AcDbLine
 10
155.0
 20
116.0859
 30
0.0
 11
155.0
 21
113.2054
 31
0.0
  0
LINE
  5
47E0
330
1D
100
AcDbEntity
  8
0
100
AcDbLine
 10
155.0
 20
116.0859
 30
0.0
 11
155.0
 21
119.2842
 31
0.0
  0
LINE
  5
47E1
330
1D
100
AcDbEntity
  8
0
100
AcDbLine
 10
155.0
 20
113.2054
 30
0.0
 11
155.0
 21
109.7492
 31
0.0
  0
LINE
  5
47E2
330
1D
100
AcDbEntity
  8
0
100
AcDbLine
 10
155.0
 20
113.2054
 30
0.0
 11
155.0
 21
116.0859
 31
0.0
  0
LINE
  5
47E3
330
1D
100
AcDbEntity
  8
0
100
AcDbLine
 10
155.0
 20
109.7492
 30
0.0
 11
155.0
 21
106.5739
 31
0.0
  0
LINE
  5
47E4
330
1D
100
AcDbEntity
  8
0
100
AcDbLine
 10
155.0
 20
109.7492
 30
0.0
 11
155.0
 21
113.2054
 31
0.0
  0
LINE
  5
47E5
330
1D
100
AcDbEntity
  8
0
100
AcDbLine
 10
154.0
 20
128.1547
 30
0.0
 11
154.0
 21
125.5463
 31
0.0
  0
LINE
  5
47E6
330
1D
100
AcDbEntity
  8
0
100
AcDbLine
 10
154.0
 20
128.1547
 30
0.0
 11
154.0
 21
130.5863
 31
0.0
  0
LINE
  5
47E7
330
1D
100
AcDbEntity
  8
0
100
AcDbLine
 10
154.0
 20
125.5463
 30
0.0
 11
154.0
 21
122.8716
 31
0.0
  0
LINE
  5
47E8
330
1D
100
AcDbEntity
  8
0
100
AcDbLine
 10
154.0
 20
125.5463
 30
0.0
 11
154.0
 21
128.1547
 31
0.0
  0
LINE
  5
47E9
330
1D
100
AcDbEntity
  8
0
100
AcDbLine
 10
154.0
 20
122.8716
 30
0.0
 11
154.0
 21
120.1305
 31
0.0
  0
LINE
  5
47EA
330
1D
100
AcDbEntity
  8
0
100
AcDbLine
 10
154.0
 20
122.8716
 30
0.0
 11
154.0
 21
125.5463
 31
0.0
  0
LINE
  5
47EB
330
1D
100
AcDbEntity
  8
0
100
AcDbLine
 10
155.0
 20
121.6977
 30
0.0
 11
155.0
 21
119.2842
 31
0.0
  0
LINE
  5
47EC
330
1D
100
AcDbEntity
  8
0
100
AcDbLine
 10
155.0
 20
121.6977
 30
0.0
 11
155.0
 21
125.3301
 31
0.0
  0
LINE
  5
47ED
330
1D
100
AcDbEntity
  8
0
100
AcDbLine
 10
155.0
 20
125.3301
 30
0.0
 11
155.0
 21
121.6977
 31
0.0
  0
LINE
  5
47EE
330
1D
100
AcDbEntity
  8
0
100
AcDbLine
 10
155.0
 20
125.3301
 30
0.0
 11
155.0
 21
129.0451
 31
0.0
  0
LINE
  5
47EF
330
1D
100
AcDbEntity
  8
0
100
AcDbLine
 10
154.0
 20
134.1305
 30
0.0
 11
154.0
 21
106.1305
 31
0.0
  0
LINE
  5
47F0
330
1D
100
AcDbEntity
  8
0
100
AcDbLine
 10
154.0
 20
134.1305
 30
0.0
 11
154.0
 21
135.6658
 31
0.0
  0
LINE
  5
47F1
330
1D
100
AcDbEntity
  8
0
100
AcDbLine
 10
154.0
 20
132.9073
 30
0.0
 11
154.0
 21
130.5863
 31
0.0
  0
LINE
  5
47F2
330
1D
100
AcDbEntity
  8
0
100
AcDbLine
 10
154.0
 20
132.9073
 30
0.0
 11
154.0
 21
134.9631
 31
0.0
  0
LINE
  5
47F3
330
1D
100
AcDbEntity
  8
0
100
AcDbLine
 10
154.0
 20
130.5863
 30
0.0
 11
154.0
 21
128.1547
 31
0.0
  0
LINE
  5
47F4
330
1D
100
AcDbEntity
  8
0
100
AcDbLine
 10
154.0
 20
130.5863
 30
0.0
 11
154.0
 21
132.9073
 31
0.0
  0
LINE
  5
47F5
330
1D
100
AcDbEntity
  8
0
100
AcDbLine
 10
130.0
 20
134.1305
 30
0.0
 11
130.0
 21
135.6129
 31
0.0
  0
LINE
  5
47F6
330
1D
100
AcDbEntity
  8
0
100
AcDbLine
 10
130.0
 20
134.1305
 30
0.0
 11
130.0
 21
106.1305
 31
0.0
  0
LINE
  5
47F7
330
1D
100
AcDbEntity
  8
0
100
AcDbLine
 10
155.0
 20
129.0451
 30
0.0
 11
155.0
 21
125.3301
 31
0.0
  0
LINE
  5
47F8
330
1D
100
AcDbEntity
  8
0
100
AcDbLine
 10
155.0
 20
129.0451
 30
0.0
 11
155.0
 21
131.5124
 31
0.0
  0
LINE
  5
47F9
330
1D
100
AcDbEntity
  8
0
100
AcDbLine
 10
155.0
 20
131.5124
 30
0.0
 11
155.0
 21
134.2626
 31
0.0
  0
LINE
  5
47FA
330
1D
100
AcDbEntity
  8
0
100
AcDbLine
 10
155.0
 20
131.5124
 30
0.0
 11
155.0
 21
129.0451
 31
0.0
  0
LINE
  5
47FB
330
1D
100
AcDbEntity
  8
0
100
AcDbLine
 10
130.0
 20
136.9893
 30
0.0
 11
130.0
 21
138.1893
 31
0.0
  0
LINE
  5
47FC
330
1D
100
AcDbEntity
  8
0
100
AcDbLine
 10
130.0
 20
136.9893
 30
0.0
 11
130.0
 21
135.6129
 31
0.0
  0
LINE
  5
47FD
330
1D
100
AcDbEntity
  8
0
100
AcDbLine
 10
130.0
 20
135.6129
 30
0.0
 11
130.0
 21
136.9893
 31
0.0
  0
LINE
  5
47FE
330
1D
100
AcDbEntity
  8
0
100
AcDbLine
 10
130.0
 20
135.6129
 30
0.0
 11
130.0
 21
134.1305
 31
0.0
  0
LINE
  5
47FF
330
1D
100
AcDbEntity
  8
0
100
AcDbLine
 10
154.0
 20
137.1129
 30
0.0
 11
154.0
 21
135.6658
 31
0.0
  0
LINE
  5
4800
330
1D
100
AcDbEntity
  8
0
100
AcDbLine
 10
154.0
 20
137.1129
 30
0.0
 11
154.0
 21
138.3658
 31
0.0
  0
LINE
  5
4801
330
1D
100
AcDbEntity
  8
0
100
AcDbLine
 10
154.0
 20
135.6658
 30
0.0
 11
154.0
 21
134.1305
 31
0.0
  0
LINE
  5
4802
330
1D
100
AcDbEntity
  8
0
100
AcDbLine
 10
154.0
 20
135.6658
 30
0.0
 11
154.0
 21
137.1129
 31
0.0
  0
LINE
  5
4803
330
1D
100
AcDbEntity
  8
0
100
AcDbLine
 10
154.0
 20
134.9631
 30
0.0
 11
154.0
 21
136.7537
 31
0.0
  0
LINE
  5
4804
330
1D
100
AcDbEntity
  8
0
100
AcDbLine
 10
154.0
 20
134.9631
 30
0.0
 11
154.0
 21
132.9073
 31
0.0
  0
LINE
  5
4805
330
1D
100
AcDbEntity
  8
0
100
AcDbLine
 10
154.0
 20
136.7537
 30
0.0
 11
154.0
 21
134.9631
 31
0.0
  0
LINE
  5
4806
330
1D
100
AcDbEntity
  8
0
100
AcDbLine
 10
154.0
 20
136.7537
 30
0.0
 11
154.0
 21
138.3231
 31
0.0
  0
LINE
  5
4807
330
1D
100
AcDbEntity
  8
0
100
AcDbLine
 10
154.0
 20
138.3658
 30
0.0
 11
154.0
 21
139.3187
 31
0.0
  0
LINE
  5
4808
330
1D
100
AcDbEntity
  8
0
100
AcDbLine
 10
154.0
 20
138.3658
 30
0.0
 11
154.0
 21
137.1129
 31
0.0
  0
LINE
  5
4809
330
1D
100
AcDbEntity
  8
0
100
AcDbLine
 10
154.0
 20
138.3231
 30
0.0
 11
154.0
 21
136.7537
 31
0.0
  0
LINE
  5
480A
330
1D
100
AcDbEntity
  8
0
100
AcDbLine
 10
154.0
 20
138.3231
 30
0.0
 11
154.0
 21
139.4947
 31
0.0
  0
LINE
  5
480B
330
1D
100
AcDbEntity
  8
0
100
AcDbLine
 10
130.0
 20
138.1893
 30
0.0
 11
130.0
 21
139.0893
 31
0.0
  0
LINE
  5
480C
330
1D
100
AcDbEntity
  8
0
100
AcDbLine
 10
130.0
 20
138.1893
 30
0.0
 11
130.0
 21
136.9893
 31
0.0
  0
LINE
  5
480D
330
1D
100
AcDbEntity
  8
0
100
AcDbLine
 10
130.0
 20
139.0893
 30
0.0
 11
130.0
 21
139.654
 31
0.0
  0
LINE
  5
480E
330
1D
100
AcDbEntity
  8
0
100
AcDbLine
 10
130.0
 20
139.0893
 30
0.0
 11
130.0
 21
138.1893
 31
0.0
  0
LINE
  5
480F
330
1D
100
AcDbEntity
  8
0
100
AcDbLine
 10
130.0
 20
139.8658
 30
0.0
 11
130.1923
 21
140.0423
 31
0.0
  0
LINE
  5
4810
330
1D
100
AcDbEntity
  8
0
100
AcDbLine
 10
130.0
 20
139.8658
 30
0.0
 11
130.0
 21
139.654
 31
0.0
  0
LINE
  5
4811
330
1D
100
AcDbEntity
  8
0
100
AcDbLine
 10
130.0
 20
139.654
 30
0.0
 11
130.0
 21
139.8658
 31
0.0
  0
LINE
  5
4812
330
1D
100
AcDbEntity
  8
0
100
AcDbLine
 10
130.0
 20
139.654
 30
0.0
 11
130.0
 21
139.0893
 31
0.0
  0
LINE
  5
4813
330
1D
100
AcDbEntity
  8
0
100
AcDbLine
 10
130.1923
 20
140.0423
 30
0.0
 11
130.5769
 21
140.1305
 31
0.0
  0
LINE
  5
4814
330
1D
100
AcDbEntity
  8
0
100
AcDbLine
 10
154.0
 20
139.3187
 30
0.0
 11
154.0
 21
138.3658
 31
0.0
  0
LINE
  5
4815
330
1D
100
AcDbEntity
  8
0
100
AcDbLine
 10
154.0
 20
139.3187
 30
0.0
 11
154.0
 21
139.9187
 31
0.0
  0
LINE
  5
4816
330
1D
100
AcDbEntity
  8
0
100
AcDbLine
 10
154.0
 20
139.9187
 30
0.0
 11
154.0
 21
139.3187
 31
0.0
  0
LINE
  5
4817
330
1D
100
AcDbEntity
  8
0
100
AcDbLine
 10
154.0
 20
139.9187
 30
0.0
 11
154.0
 21
140.1305
 31
0.0
  0
LINE
  5
4818
330
1D
100
AcDbEntity
  8
0
100
AcDbLine
 10
154.0
 20
139.4947
 30
0.0
 11
154.0
 21
138.3231
 31
0.0
  0
LINE
  5
4819
330
1D
100
AcDbEntity
  8
0
100
AcDbLine
 10
154.0
 20
139.4947
 30
0.0
 11
154.0
 21
140.3789
 31
0.0
  0
LINE
  5
481A
330
1D
100
AcDbEntity
  8
0
100
AcDbLine
 10
154.0
 20
140.1305
 30
0.0
 11
154.0
 21
140.3789
 31
0.0
  0
LINE
  5
481B
330
1D
100
AcDbEntity
  8
0
100
AcDbLine
 10
154.0
 20
140.1305
 30
0.0
 11
154.0
 21
139.9187
 31
0.0
  0
LINE
  5
481C
330
1D
100
AcDbEntity
  8
0
100
AcDbLine
 10
154.0
 20
140.3789
 30
0.0
 11
154.0
 21
140.9094
 31
0.0
  0
LINE
  5
481D
330
1D
100
AcDbEntity
  8
0
100
AcDbLine
 10
154.0
 20
140.3789
 30
0.0
 11
154.0
 21
140.1305
 31
0.0
  0
LINE
  5
481E
330
1D
100
AcDbEntity
  8
0
100
AcDbLine
 10
154.0
 20
140.3789
 30
0.0
 11
154.0
 21
139.4947
 31
0.0
  0
LINE
  5
481F
330
1D
100
AcDbEntity
  8
0
100
AcDbLine
 10
154.0
 20
140.9094
 30
0.0
 11
154.0
 21
141.1305
 31
0.0
  0
LINE
  5
4820
330
1D
100
AcDbEntity
  8
0
100
AcDbLine
 10
154.0
 20
140.9094
 30
0.0
 11
154.0
 21
140.3789
 31
0.0
  0
LINE
  5
4821
330
1D
100
AcDbEntity
  8
0
100
AcDbLine
 10
154.0
 20
141.1305
 30
0.0
 11
155.0
 21
141.1305
 31
0.0
  0
LINE
  5
4822
330
1D
100
AcDbEntity
  8
0
100
AcDbLine
 10
154.0
 20
141.1305
 30
0.0
 11
154.0
 21
140.9094
 31
0.0
  0
LINE
  5
4823
330
1D
100
AcDbEntity
  8
0
100
AcDbLine
 10
130.5769
 20
140.1305
 30
0.0
 11
154.0
 21
140.1305
 31
0.0
  0
LINE
  5
4824
330
1D
100
AcDbEntity
  8
0
100
AcDbLine
 10
155.0
 20
141.1305
 30
0.0
 11
155.0
 21
141.3335
 31
0.0
  0
LINE
  5
4825
330
1D
100
AcDbEntity
  8
0
100
AcDbLine
 10
155.0
 20
141.3245
 30
0.0
 11
155.0
 21
138.8897
 31
0.0
  0
LINE
  5
4826
330
1D
100
AcDbEntity
  8
0
100
AcDbLine
 10
155.0
 20
141.3245
 30
0.0
 11
155.0
 21
143.7685
 31
0.0
  0
LINE
  5
4827
330
1D
100
AcDbEntity
  8
0
100
AcDbLine
 10
155.0
 20
138.8897
 30
0.0
 11
155.0
 21
136.4322
 31
0.0
  0
LINE
  5
4828
330
1D
100
AcDbEntity
  8
0
100
AcDbLine
 10
155.0
 20
138.8897
 30
0.0
 11
155.0
 21
141.3245
 31
0.0
  0
LINE
  5
4829
330
1D
100
AcDbEntity
  8
0
100
AcDbLine
 10
155.0
 20
136.4322
 30
0.0
 11
155.0
 21
134.2626
 31
0.0
  0
LINE
  5
482A
330
1D
100
AcDbEntity
  8
0
100
AcDbLine
 10
155.0
 20
136.4322
 30
0.0
 11
155.0
 21
138.8897
 31
0.0
  0
LINE
  5
482B
330
1D
100
AcDbEntity
  8
0
100
AcDbLine
 10
155.0
 20
134.2626
 30
0.0
 11
155.0
 21
136.4322
 31
0.0
  0
LINE
  5
482C
330
1D
100
AcDbEntity
  8
0
100
AcDbLine
 10
155.0
 20
134.2626
 30
0.0
 11
155.0
 21
131.5124
 31
0.0
  0
LINE
  5
482D
330
1D
100
AcDbEntity
  8
0
100
AcDbLine
 10
155.0
 20
106.5739
 30
0.0
 11
155.0
 21
105.0714
 31
0.0
  0
LINE
  5
482E
330
1D
100
AcDbEntity
  8
0
100
AcDbLine
 10
155.0
 20
106.5739
 30
0.0
 11
155.0
 21
109.7492
 31
0.0
  0
LINE
  5
482F
330
1D
100
AcDbEntity
  8
0
100
AcDbLine
 10
155.0
 20
99.1305
 30
0.0
 11
155.0
 21
98.6341
 31
0.0
  0
LINE
  5
4830
330
1D
100
AcDbEntity
  8
0
100
AcDbLine
 10
155.119
 20
95.2866
 30
0.0
 11
155.146687458936
 21
95.166774080158
 31
0.0
  0
LINE
  5
4831
330
1D
100
AcDbEntity
  8
0
100
AcDbLine
 10
155.0
 20
143.7685
 30
0.0
 11
155.0
 21
141.3245
 31
0.0
  0
LINE
  5
4832
330
1D
100
AcDbEntity
  8
0
100
AcDbLine
 10
155.0
 20
143.7685
 30
0.0
 11
155.0
 21
146.2295
 31
0.0
  0
LINE
  5
4833
330
1D
100
AcDbEntity
  8
0
100
AcDbLine
 10
155.0
 20
146.2295
 30
0.0
 11
155.0
 21
143.7685
 31
0.0
  0
LINE
  5
4834
330
1D
100
AcDbEntity
  8
0
100
AcDbLine
 10
155.0
 20
146.2295
 30
0.0
 11
155.0
 21
148.7075
 31
0.0
  0
LINE
  5
4835
330
1D
100
AcDbEntity
  8
0
100
AcDbLine
 10
155.0
 20
148.7075
 30
0.0
 11
155.0
 21
146.2295
 31
0.0
  0
LINE
  5
4836
330
1D
100
AcDbEntity
  8
0
100
AcDbLine
 10
155.0
 20
148.7075
 30
0.0
 11
155.0
 21
149.1305
 31
0.0
  0
LINE
  5
4837
330
1D
100
AcDbEntity
  8
0
100
AcDbLine
 10
155.0
 20
151.1305
 30
0.0
 11
155.35259
 21
149.4325
 31
0.0
  0
LINE
  5
4838
330
1D
100
AcDbEntity
  8
0
100
AcDbLine
 10
155.0
 20
149.1305
 30
0.0
 11
155.156
 21
149.1305
 31
0.0
  0
LINE
  5
4839
330
1D
100
AcDbEntity
  8
0
100
AcDbLine
 10
155.0
 20
149.1305
 30
0.0
 11
155.0
 21
148.7075
 31
0.0
  0
LINE
  5
483A
330
1D
100
AcDbEntity
  8
0
100
AcDbLine
 10
155.0
 20
151.1305
 30
0.0
 11
155.35259
 21
152.8275
 31
0.0
  0
LINE
  5
483B
330
1D
100
AcDbEntity
  8
0
100
AcDbLine
 10
155.156
 20
149.1305
 30
0.0
 11
155.577
 21
149.1305
 31
0.0
  0
LINE
  5
483C
330
1D
100
AcDbEntity
  8
0
100
AcDbLine
 10
155.0
 20
141.8745
 30
0.0
 11
155.0
 21
141.3335
 31
0.0
  0
LINE
  5
483D
330
1D
100
AcDbEntity
  8
0
100
AcDbLine
 10
155.0
 20
141.3335
 30
0.0
 11
155.0
 21
141.1305
 31
0.0
  0
LINE
  5
483E
330
1D
100
AcDbEntity
  8
0
100
AcDbLine
 10
155.0
 20
141.3335
 30
0.0
 11
155.0
 21
141.8745
 31
0.0
  0
LINE
  5
483F
330
1D
100
AcDbEntity
  8
0
100
AcDbLine
 10
155.229
 20
94.731
 30
0.0
 11
155.300520278055
 21
94.500912541369
 31
0.0
  0
LINE
  5
4840
330
1D
100
AcDbEntity
  8
0
100
AcDbLine
 10
155.325560840916
 20
94.411887868142
 30
0.0
 11
155.371
 21
94.2421
 31
0.0
  0
LINE
  5
4841
330
1D
100
AcDbEntity
  8
0
100
AcDbLine
 10
155.177
 20
94.967
 30
0.0
 11
155.204513571283
 21
94.864192846273
 31
0.0
  0
LINE
  5
4842
330
1D
100
AcDbEntity
  8
0
100
AcDbLine
 10
156.896
 20
92.0068
 30
0.0
 11
157.546
 21
91.6095
 31
0.0
  0
LINE
  5
4843
330
1D
100
AcDbEntity
  8
0
100
AcDbLine
 10
155.577
 20
149.1305
 30
0.0
 11
156.218
 21
149.1305
 31
0.0
  0
LINE
  5
4844
330
1D
100
AcDbEntity
  8
0
100
AcDbLine
 10
156.218
 20
149.1305
 30
0.0
 11
157.065
 21
149.1305
 31
0.0
  0
LINE
  5
4845
330
1D
100
AcDbEntity
  8
0
100
AcDbLine
 10
157.546
 20
91.6095
 30
0.0
 11
158.247
 21
91.3396
 31
0.0
  0
LINE
  5
4846
330
1D
100
AcDbEntity
  8
0
100
AcDbLine
 10
158.247
 20
91.3396
 30
0.0
 11
159.06
 21
91.1763
 31
0.0
  0
LINE
  5
4847
330
1D
100
AcDbEntity
  8
0
100
AcDbLine
 10
159.06
 20
91.1763
 30
0.0
 11
159.695
 21
91.1305
 31
0.0
  0
LINE
  5
4848
330
1D
100
AcDbEntity
  8
0
100
AcDbLine
 10
157.065
 20
149.1305
 30
0.0
 11
158.103
 21
149.1305
 31
0.0
  0
LINE
  5
4849
330
1D
100
AcDbEntity
  8
0
100
AcDbLine
 10
158.103
 20
149.1305
 30
0.0
 11
159.324
 21
149.1305
 31
0.0
  0
LINE
  5
484A
330
1D
100
AcDbEntity
  8
0
100
AcDbLine
 10
159.695
 20
91.1305
 30
0.0
 11
312.44
 21
91.1305
 31
0.0
  0
LINE
  5
484B
330
1D
100
AcDbEntity
  8
0
100
AcDbLine
 10
164.256
 20
149.1305
 30
0.0
 11
165.913
 21
149.1305
 31
0.0
  0
LINE
  5
484C
330
1D
100
AcDbEntity
  8
0
100
AcDbLine
 10
160.911
 20
149.1305
 30
0.0
 11
162.666
 21
149.1305
 31
0.0
  0
LINE
  5
484D
330
1D
100
AcDbEntity
  8
0
100
AcDbLine
 10
162.666
 20
149.1305
 30
0.0
 11
164.256
 21
149.1305
 31
0.0
  0
LINE
  5
484E
330
1D
100
AcDbEntity
  8
0
100
AcDbLine
 10
159.324
 20
149.1305
 30
0.0
 11
160.911
 21
149.1305
 31
0.0
  0
LINE
  5
484F
330
1D
100
AcDbEntity
  8
0
100
AcDbLine
 10
155.35259
 20
149.4325
 30
0.0
 11
155.498008
 21
149.1305
 31
0.0
  0
LINE
  5
4850
330
1D
100
AcDbEntity
  8
0
100
AcDbLine
 10
155.35259
 20
152.8275
 30
0.0
 11
155.498008
 21
153.1305
 31
0.0
  0
LINE
  5
4851
330
1D
100
AcDbEntity
  8
0
100
AcDbLine
 10
157.4004
 20
153.1305
 30
0.0
 11
159.60359
 21
153.1305
 31
0.0
  0
LINE
  5
4852
330
1D
100
AcDbEntity
  8
0
100
AcDbLine
 10
159.60359
 20
153.1305
 30
0.0
 11
162.38048
 21
153.1305
 31
0.0
  0
LINE
  5
4853
330
1D
100
AcDbEntity
  8
0
100
AcDbLine
 10
162.38048
 20
153.1305
 30
0.0
 11
165.4582
 21
153.1305
 31
0.0
  0
LINE
  5
4854
330
1D
100
AcDbEntity
  8
0
100
AcDbLine
 10
155.986056
 20
153.1305
 30
0.0
 11
157.4004
 21
153.1305
 31
0.0
  0
LINE
  5
4855
330
1D
100
AcDbEntity
  8
0
100
AcDbLine
 10
155.498008
 20
153.1305
 30
0.0
 11
155.986056
 21
153.1305
 31
0.0
  0
LINE
  5
4856
330
1D
100
AcDbEntity
  8
0
100
AcDbLine
 10
165.4582
 20
153.1305
 30
0.0
 11
305.0
 21
153.1305
 31
0.0
  0
LINE
  5
4857
330
1D
100
AcDbEntity
  8
0
100
AcDbLine
 10
165.913
 20
149.1305
 30
0.0
 11
305.0
 21
149.1305
 31
0.0
  0
LINE
  5
4858
330
1D
100
AcDbEntity
  8
0
100
AcDbLine
 10
156.896
 20
92.0068
 30
0.0
 11
156.509993550921
 21
92.363391262502
 31
0.0
  0
LINE
  5
4859
330
1D
100
AcDbEntity
  8
0
100
AcDbLine
 10
156.509993550921
 20
92.363391262502
 30
0.0
 11
156.118242940781
 21
92.81317900007
 31
0.0
  0
LINE
  5
485A
330
1D
100
AcDbEntity
  8
0
100
AcDbLine
 10
156.118242940781
 20
92.81317900007
 30
0.0
 11
155.765183748926
 21
93.277476019495
 31
0.0
  0
LINE
  5
485B
330
1D
100
AcDbEntity
  8
0
100
AcDbLine
 10
155.765183748926
 20
93.277476019495
 30
0.0
 11
155.559659204653
 21
93.706364156732
 31
0.0
  0
LINE
  5
485C
330
1D
100
AcDbEntity
  8
0
100
AcDbLine
 10
155.559659204653
 20
93.706364156732
 30
0.0
 11
155.371
 21
94.2421
 31
0.0
  0
LINE
  5
485D
330
1D
100
AcDbEntity
  8
0
100
AcDbLine
 10
155.325560840916
 20
94.411887868142
 30
0.0
 11
155.300520278055
 21
94.500912541369
 31
0.0
  0
LINE
  5
485E
330
1D
100
AcDbEntity
  8
0
100
AcDbLine
 10
155.229
 20
94.731
 30
0.0
 11
155.204513571283
 21
94.864192846273
 31
0.0
  0
LINE
  5
485F
330
1D
100
AcDbEntity
  8
0
100
AcDbLine
 10
155.177
 20
94.967
 30
0.0
 11
155.146687458936
 21
95.166774080158
 31
0.0
  0
LINE
  5
4860
330
1D
100
AcDbEntity
  8
0
100
AcDbLine
 10
155.0
 20
96.8707
 30
0.0
 11
155.016218708007
 21
96.347183859896
 31
0.0
  0
LINE
  5
4861
330
1D
100
AcDbEntity
  8
0
100
AcDbLine
 10
155.016218708007
 20
96.347183859896
 30
0.0
 11
155.045080274359
 21
95.829717667797
 31
0.0
  0
LINE
  5
4862
330
1D
100
AcDbEntity
  8
0
100
AcDbLine
 10
155.045080274359
 20
95.829717667797
 30
0.0
 11
155.119
 21
95.2866
 31
0.0
  0
LINE
  5
4863
330
1D
100
AcDbEntity
  8
0
100
AcDbLine
 10
454.954919725641
 20
95.829717667797
 30
0.0
 11
454.881
 21
95.2866
 31
0.0
  0
LINE
  5
4864
330
1D
100
AcDbEntity
  8
0
100
AcDbLine
 10
454.983781291993
 20
96.347183859896
 30
0.0
 11
454.954919725641
 21
95.829717667797
 31
0.0
  0
LINE
  5
4865
330
1D
100
AcDbEntity
  8
0
100
AcDbLine
 10
455.0
 20
96.8707
 30
0.0
 11
454.983781291993
 21
96.347183859896
 31
0.0
  0
LINE
  5
4866
330
1D
100
AcDbEntity
  8
0
100
AcDbLine
 10
454.823
 20
94.967
 30
0.0
 11
454.853312541064
 21
95.166774080158
 31
0.0
  0
LINE
  5
4867
330
1D
100
AcDbEntity
  8
0
100
AcDbLine
 10
454.771
 20
94.731
 30
0.0
 11
454.795486428717
 21
94.864192846273
 31
0.0
  0
LINE
  5
4868
330
1D
100
AcDbEntity
  8
0
100
AcDbLine
 10
454.674439159084
 20
94.411887868142
 30
0.0
 11
454.699479721945
 21
94.500912541369
 31
0.0
  0
LINE
  5
4869
330
1D
100
AcDbEntity
  8
0
100
AcDbLine
 10
454.440340795347
 20
93.706364156732
 30
0.0
 11
454.629
 21
94.2421
 31
0.0
  0
LINE
  5
486A
330
1D
100
AcDbEntity
  8
0
100
AcDbLine
 10
454.234816251074
 20
93.277476019495
 30
0.0
 11
454.440340795347
 21
93.706364156732
 31
0.0
  0
LINE
  5
486B
330
1D
100
AcDbEntity
  8
0
100
AcDbLine
 10
453.881757059219
 20
92.81317900007
 30
0.0
 11
454.234816251074
 21
93.277476019495
 31
0.0
  0
LINE
  5
486C
330
1D
100
AcDbEntity
  8
0
100
AcDbLine
 10
453.490006449079
 20
92.363391262502
 30
0.0
 11
453.881757059219
 21
92.81317900007
 31
0.0
  0
LINE
  5
486D
330
1D
100
AcDbEntity
  8
0
100
AcDbLine
 10
453.104
 20
92.0068
 30
0.0
 11
453.490006449079
 21
92.363391262502
 31
0.0
  0
LINE
  5
486E
330
1D
100
AcDbEntity
  8
0
100
AcDbLine
 10
444.087
 20
149.1305
 30
0.0
 11
305.0
 21
149.1305
 31
0.0
  0
LINE
  5
486F
330
1D
100
AcDbEntity
  8
0
100
AcDbLine
 10
444.5418
 20
153.1305
 30
0.0
 11
305.0
 21
153.1305
 31
0.0
  0
LINE
  5
4870
330
1D
100
AcDbEntity
  8
0
100
AcDbLine
 10
454.501992
 20
153.1305
 30
0.0
 11
454.013944
 21
153.1305
 31
0.0
  0
LINE
  5
4871
330
1D
100
AcDbEntity
  8
0
100
AcDbLine
 10
454.013944
 20
153.1305
 30
0.0
 11
452.5996
 21
153.1305
 31
0.0
  0
LINE
  5
4872
330
1D
100
AcDbEntity
  8
0
100
AcDbLine
 10
447.61952
 20
153.1305
 30
0.0
 11
444.5418
 21
153.1305
 31
0.0
  0
LINE
  5
4873
330
1D
100
AcDbEntity
  8
0
100
AcDbLine
 10
450.39641
 20
153.1305
 30
0.0
 11
447.61952
 21
153.1305
 31
0.0
  0
LINE
  5
4874
330
1D
100
AcDbEntity
  8
0
100
AcDbLine
 10
452.5996
 20
153.1305
 30
0.0
 11
450.39641
 21
153.1305
 31
0.0
  0
LINE
  5
4875
330
1D
100
AcDbEntity
  8
0
100
AcDbLine
 10
454.64741
 20
152.8275
 30
0.0
 11
454.501992
 21
153.1305
 31
0.0
  0
LINE
  5
4876
330
1D
100
AcDbEntity
  8
0
100
AcDbLine
 10
454.64741
 20
149.4325
 30
0.0
 11
454.501992
 21
149.1305
 31
0.0
  0
LINE
  5
4877
330
1D
100
AcDbEntity
  8
0
100
AcDbLine
 10
450.676
 20
149.1305
 30
0.0
 11
449.089
 21
149.1305
 31
0.0
  0
LINE
  5
4878
330
1D
100
AcDbEntity
  8
0
100
AcDbLine
 10
447.334
 20
149.1305
 30
0.0
 11
445.744
 21
149.1305
 31
0.0
  0
LINE
  5
4879
330
1D
100
AcDbEntity
  8
0
100
AcDbLine
 10
449.089
 20
149.1305
 30
0.0
 11
447.334
 21
149.1305
 31
0.0
  0
LINE
  5
487A
330
1D
100
AcDbEntity
  8
0
100
AcDbLine
 10
445.744
 20
149.1305
 30
0.0
 11
444.087
 21
149.1305
 31
0.0
  0
LINE
  5
487B
330
1D
100
AcDbEntity
  8
0
100
AcDbLine
 10
450.305
 20
91.1305
 30
0.0
 11
312.44
 21
91.1305
 31
0.0
  0
LINE
  5
487C
330
1D
100
AcDbEntity
  8
0
100
AcDbLine
 10
451.897
 20
149.1305
 30
0.0
 11
450.676
 21
149.1305
 31
0.0
  0
LINE
  5
487D
330
1D
100
AcDbEntity
  8
0
100
AcDbLine
 10
452.935
 20
149.1305
 30
0.0
 11
451.897
 21
149.1305
 31
0.0
  0
LINE
  5
487E
330
1D
100
AcDbEntity
  8
0
100
AcDbLine
 10
450.94
 20
91.1763
 30
0.0
 11
450.305
 21
91.1305
 31
0.0
  0
LINE
  5
487F
330
1D
100
AcDbEntity
  8
0
100
AcDbLine
 10
451.753
 20
91.3396
 30
0.0
 11
450.94
 21
91.1763
 31
0.0
  0
LINE
  5
4880
330
1D
100
AcDbEntity
  8
0
100
AcDbLine
 10
452.454
 20
91.6095
 30
0.0
 11
451.753
 21
91.3396
 31
0.0
  0
LINE
  5
4881
330
1D
100
AcDbEntity
  8
0
100
AcDbLine
 10
453.782
 20
149.1305
 30
0.0
 11
452.935
 21
149.1305
 31
0.0
  0
LINE
  5
4882
330
1D
100
AcDbEntity
  8
0
100
AcDbLine
 10
454.423
 20
149.1305
 30
0.0
 11
453.782
 21
149.1305
 31
0.0
  0
LINE
  5
4883
330
1D
100
AcDbEntity
  8
0
100
AcDbLine
 10
453.104
 20
92.0068
 30
0.0
 11
452.454
 21
91.6095
 31
0.0
  0
LINE
  5
4884
330
1D
100
AcDbEntity
  8
0
100
AcDbLine
 10
454.823
 20
94.967
 30
0.0
 11
454.795486428717
 21
94.864192846273
 31
0.0
  0
LINE
  5
4885
330
1D
100
AcDbEntity
  8
0
100
AcDbLine
 10
454.674439159084
 20
94.411887868142
 30
0.0
 11
454.629
 21
94.2421
 31
0.0
  0
LINE
  5
4886
330
1D
100
AcDbEntity
  8
0
100
AcDbLine
 10
454.771
 20
94.731
 30
0.0
 11
454.699479721945
 21
94.500912541369
 31
0.0
  0
LINE
  5
4887
330
1D
100
AcDbEntity
  8
0
100
AcDbLine
 10
455.0
 20
141.3335
 30
0.0
 11
455.0
 21
141.8745
 31
0.0
  0
LINE
  5
4888
330
1D
100
AcDbEntity
  8
0
100
AcDbLine
 10
455.0
 20
141.3335
 30
0.0
 11
455.0
 21
141.1305
 31
0.0
  0
LINE
  5
4889
330
1D
100
AcDbEntity
  8
0
100
AcDbLine
 10
455.0
 20
141.8745
 30
0.0
 11
455.0
 21
141.3335
 31
0.0
  0
LINE
  5
488A
330
1D
100
AcDbEntity
  8
0
100
AcDbLine
 10
454.844
 20
149.1305
 30
0.0
 11
454.423
 21
149.1305
 31
0.0
  0
LINE
  5
488B
330
1D
100
AcDbEntity
  8
0
100
AcDbLine
 10
455.0
 20
151.1305
 30
0.0
 11
454.64741
 21
152.8275
 31
0.0
  0
LINE
  5
488C
330
1D
100
AcDbEntity
  8
0
100
AcDbLine
 10
455.0
 20
149.1305
 30
0.0
 11
455.0
 21
148.7075
 31
0.0
  0
LINE
  5
488D
330
1D
100
AcDbEntity
  8
0
100
AcDbLine
 10
455.0
 20
149.1305
 30
0.0
 11
454.844
 21
149.1305
 31
0.0
  0
LINE
  5
488E
330
1D
100
AcDbEntity
  8
0
100
AcDbLine
 10
455.0
 20
151.1305
 30
0.0
 11
454.64741
 21
149.4325
 31
0.0
  0
LINE
  5
488F
330
1D
100
AcDbEntity
  8
0
100
AcDbLine
 10
455.0
 20
148.7075
 30
0.0
 11
455.0
 21
149.1305
 31
0.0
  0
LINE
  5
4890
330
1D
100
AcDbEntity
  8
0
100
AcDbLine
 10
455.0
 20
148.7075
 30
0.0
 11
455.0
 21
146.2295
 31
0.0
  0
LINE
  5
4891
330
1D
100
AcDbEntity
  8
0
100
AcDbLine
 10
455.0
 20
146.2295
 30
0.0
 11
455.0
 21
148.7075
 31
0.0
  0
LINE
  5
4892
330
1D
100
AcDbEntity
  8
0
100
AcDbLine
 10
455.0
 20
146.2295
 30
0.0
 11
455.0
 21
143.7685
 31
0.0
  0
LINE
  5
4893
330
1D
100
AcDbEntity
  8
0
100
AcDbLine
 10
455.0
 20
143.7685
 30
0.0
 11
455.0
 21
146.2295
 31
0.0
  0
LINE
  5
4894
330
1D
100
AcDbEntity
  8
0
100
AcDbLine
 10
455.0
 20
143.7685
 30
0.0
 11
455.0
 21
141.3245
 31
0.0
  0
LINE
  5
4895
330
1D
100
AcDbEntity
  8
0
100
AcDbLine
 10
454.881
 20
95.2866
 30
0.0
 11
454.853312541064
 21
95.166774080158
 31
0.0
  0
LINE
  5
4896
330
1D
100
AcDbEntity
  8
0
100
AcDbLine
 10
455.0
 20
99.1305
 30
0.0
 11
455.0
 21
98.6341
 31
0.0
  0
LINE
  5
4897
330
1D
100
AcDbEntity
  8
0
100
AcDbLine
 10
455.0
 20
106.5739
 30
0.0
 11
455.0
 21
109.7492
 31
0.0
  0
LINE
  5
4898
330
1D
100
AcDbEntity
  8
0
100
AcDbLine
 10
455.0
 20
106.5739
 30
0.0
 11
455.0
 21
105.0714
 31
0.0
  0
LINE
  5
4899
330
1D
100
AcDbEntity
  8
0
100
AcDbLine
 10
455.0
 20
134.2626
 30
0.0
 11
455.0
 21
131.5124
 31
0.0
  0
LINE
  5
489A
330
1D
100
AcDbEntity
  8
0
100
AcDbLine
 10
455.0
 20
134.2626
 30
0.0
 11
455.0
 21
136.4322
 31
0.0
  0
LINE
  5
489B
330
1D
100
AcDbEntity
  8
0
100
AcDbLine
 10
455.0
 20
136.4322
 30
0.0
 11
455.0
 21
138.8897
 31
0.0
  0
LINE
  5
489C
330
1D
100
AcDbEntity
  8
0
100
AcDbLine
 10
455.0
 20
136.4322
 30
0.0
 11
455.0
 21
134.2626
 31
0.0
  0
LINE
  5
489D
330
1D
100
AcDbEntity
  8
0
100
AcDbLine
 10
455.0
 20
138.8897
 30
0.0
 11
455.0
 21
141.3245
 31
0.0
  0
LINE
  5
489E
330
1D
100
AcDbEntity
  8
0
100
AcDbLine
 10
455.0
 20
138.8897
 30
0.0
 11
455.0
 21
136.4322
 31
0.0
  0
LINE
  5
489F
330
1D
100
AcDbEntity
  8
0
100
AcDbLine
 10
455.0
 20
141.3245
 30
0.0
 11
455.0
 21
143.7685
 31
0.0
  0
LINE
  5
48A0
330
1D
100
AcDbEntity
  8
0
100
AcDbLine
 10
455.0
 20
141.3245
 30
0.0
 11
455.0
 21
138.8897
 31
0.0
  0
LINE
  5
48A1
330
1D
100
AcDbEntity
  8
0
100
AcDbLine
 10
455.0
 20
141.1305
 30
0.0
 11
455.0
 21
141.3335
 31
0.0
  0
LINE
  5
48A2
330
1D
100
AcDbEntity
  8
0
100
AcDbLine
 10
479.4231
 20
140.1305
 30
0.0
 11
456.0
 21
140.1305
 31
0.0
  0
LINE
  5
48A3
330
1D
100
AcDbEntity
  8
0
100
AcDbLine
 10
456.0
 20
141.1305
 30
0.0
 11
456.0
 21
140.9094
 31
0.0
  0
LINE
  5
48A4
330
1D
100
AcDbEntity
  8
0
100
AcDbLine
 10
456.0
 20
141.1305
 30
0.0
 11
455.0
 21
141.1305
 31
0.0
  0
LINE
  5
48A5
330
1D
100
AcDbEntity
  8
0
100
AcDbLine
 10
456.0
 20
140.9094
 30
0.0
 11
456.0
 21
140.3789
 31
0.0
  0
LINE
  5
48A6
330
1D
100
AcDbEntity
  8
0
100
AcDbLine
 10
456.0
 20
140.9094
 30
0.0
 11
456.0
 21
141.1305
 31
0.0
  0
LINE
  5
48A7
330
1D
100
AcDbEntity
  8
0
100
AcDbLine
 10
456.0
 20
140.3789
 30
0.0
 11
456.0
 21
139.4947
 31
0.0
  0
LINE
  5
48A8
330
1D
100
AcDbEntity
  8
0
100
AcDbLine
 10
456.0
 20
140.3789
 30
0.0
 11
456.0
 21
140.1305
 31
0.0
  0
LINE
  5
48A9
330
1D
100
AcDbEntity
  8
0
100
AcDbLine
 10
456.0
 20
140.3789
 30
0.0
 11
456.0
 21
140.9094
 31
0.0
  0
LINE
  5
48AA
330
1D
100
AcDbEntity
  8
0
100
AcDbLine
 10
456.0
 20
140.1305
 30
0.0
 11
456.0
 21
139.9187
 31
0.0
  0
LINE
  5
48AB
330
1D
100
AcDbEntity
  8
0
100
AcDbLine
 10
456.0
 20
140.1305
 30
0.0
 11
456.0
 21
140.3789
 31
0.0
  0
LINE
  5
48AC
330
1D
100
AcDbEntity
  8
0
100
AcDbLine
 10
456.0
 20
139.4947
 30
0.0
 11
456.0
 21
140.3789
 31
0.0
  0
LINE
  5
48AD
330
1D
100
AcDbEntity
  8
0
100
AcDbLine
 10
456.0
 20
139.4947
 30
0.0
 11
456.0
 21
138.3231
 31
0.0
  0
LINE
  5
48AE
330
1D
100
AcDbEntity
  8
0
100
AcDbLine
 10
456.0
 20
139.9187
 30
0.0
 11
456.0
 21
140.1305
 31
0.0
  0
LINE
  5
48AF
330
1D
100
AcDbEntity
  8
0
100
AcDbLine
 10
456.0
 20
139.9187
 30
0.0
 11
456.0
 21
139.3187
 31
0.0
  0
LINE
  5
48B0
330
1D
100
AcDbEntity
  8
0
100
AcDbLine
 10
456.0
 20
139.3187
 30
0.0
 11
456.0
 21
139.9187
 31
0.0
  0
LINE
  5
48B1
330
1D
100
AcDbEntity
  8
0
100
AcDbLine
 10
456.0
 20
139.3187
 30
0.0
 11
456.0
 21
138.3658
 31
0.0
  0
LINE
  5
48B2
330
1D
100
AcDbEntity
  8
0
100
AcDbLine
 10
479.8077
 20
140.0423
 30
0.0
 11
479.4231
 21
140.1305
 31
0.0
  0
LINE
  5
48B3
330
1D
100
AcDbEntity
  8
0
100
AcDbLine
 10
480.0
 20
139.654
 30
0.0
 11
480.0
 21
139.0893
 31
0.0
  0
LINE
  5
48B4
330
1D
100
AcDbEntity
  8
0
100
AcDbLine
 10
480.0
 20
139.654
 30
0.0
 11
480.0
 21
139.8658
 31
0.0
  0
LINE
  5
48B5
330
1D
100
AcDbEntity
  8
0
100
AcDbLine
 10
480.0
 20
139.8658
 30
0.0
 11
480.0
 21
139.654
 31
0.0
  0
LINE
  5
48B6
330
1D
100
AcDbEntity
  8
0
100
AcDbLine
 10
480.0
 20
139.8658
 30
0.0
 11
479.8077
 21
140.0423
 31
0.0
  0
LINE
  5
48B7
330
1D
100
AcDbEntity
  8
0
100
AcDbLine
 10
480.0
 20
139.0893
 30
0.0
 11
480.0
 21
138.1893
 31
0.0
  0
LINE
  5
48B8
330
1D
100
AcDbEntity
  8
0
100
AcDbLine
 10
480.0
 20
139.0893
 30
0.0
 11
480.0
 21
139.654
 31
0.0
  0
LINE
  5
48B9
330
1D
100
AcDbEntity
  8
0
100
AcDbLine
 10
480.0
 20
138.1893
 30
0.0
 11
480.0
 21
136.9893
 31
0.0
  0
LINE
  5
48BA
330
1D
100
AcDbEntity
  8
0
100
AcDbLine
 10
480.0
 20
138.1893
 30
0.0
 11
480.0
 21
139.0893
 31
0.0
  0
LINE
  5
48BB
330
1D
100
AcDbEntity
  8
0
100
AcDbLine
 10
456.0
 20
138.3231
 30
0.0
 11
456.0
 21
139.4947
 31
0.0
  0
LINE
  5
48BC
330
1D
100
AcDbEntity
  8
0
100
AcDbLine
 10
456.0
 20
138.3231
 30
0.0
 11
456.0
 21
136.7537
 31
0.0
  0
LINE
  5
48BD
330
1D
100
AcDbEntity
  8
0
100
AcDbLine
 10
456.0
 20
138.3658
 30
0.0
 11
456.0
 21
137.1129
 31
0.0
  0
LINE
  5
48BE
330
1D
100
AcDbEntity
  8
0
100
AcDbLine
 10
456.0
 20
138.3658
 30
0.0
 11
456.0
 21
139.3187
 31
0.0
  0
LINE
  5
48BF
330
1D
100
AcDbEntity
  8
0
100
AcDbLine
 10
456.0
 20
136.7537
 30
0.0
 11
456.0
 21
138.3231
 31
0.0
  0
LINE
  5
48C0
330
1D
100
AcDbEntity
  8
0
100
AcDbLine
 10
456.0
 20
136.7537
 30
0.0
 11
456.0
 21
134.9631
 31
0.0
  0
LINE
  5
48C1
330
1D
100
AcDbEntity
  8
0
100
AcDbLine
 10
456.0
 20
134.9631
 30
0.0
 11
456.0
 21
132.9073
 31
0.0
  0
LINE
  5
48C2
330
1D
100
AcDbEntity
  8
0
100
AcDbLine
 10
456.0
 20
134.9631
 30
0.0
 11
456.0
 21
136.7537
 31
0.0
  0
LINE
  5
48C3
330
1D
100
AcDbEntity
  8
0
100
AcDbLine
 10
456.0
 20
135.6658
 30
0.0
 11
456.0
 21
137.1129
 31
0.0
  0
LINE
  5
48C4
330
1D
100
AcDbEntity
  8
0
100
AcDbLine
 10
456.0
 20
135.6658
 30
0.0
 11
456.0
 21
134.1305
 31
0.0
  0
LINE
  5
48C5
330
1D
100
AcDbEntity
  8
0
100
AcDbLine
 10
456.0
 20
137.1129
 30
0.0
 11
456.0
 21
138.3658
 31
0.0
  0
LINE
  5
48C6
330
1D
100
AcDbEntity
  8
0
100
AcDbLine
 10
456.0
 20
137.1129
 30
0.0
 11
456.0
 21
135.6658
 31
0.0
  0
LINE
  5
48C7
330
1D
100
AcDbEntity
  8
0
100
AcDbLine
 10
480.0
 20
135.6129
 30
0.0
 11
480.0
 21
134.1305
 31
0.0
  0
LINE
  5
48C8
330
1D
100
AcDbEntity
  8
0
100
AcDbLine
 10
480.0
 20
135.6129
 30
0.0
 11
480.0
 21
136.9893
 31
0.0
  0
LINE
  5
48C9
330
1D
100
AcDbEntity
  8
0
100
AcDbLine
 10
480.0
 20
136.9893
 30
0.0
 11
480.0
 21
135.6129
 31
0.0
  0
LINE
  5
48CA
330
1D
100
AcDbEntity
  8
0
100
AcDbLine
 10
480.0
 20
136.9893
 30
0.0
 11
480.0
 21
138.1893
 31
0.0
  0
LINE
  5
48CB
330
1D
100
AcDbEntity
  8
0
100
AcDbLine
 10
455.0
 20
131.5124
 30
0.0
 11
455.0
 21
129.0451
 31
0.0
  0
LINE
  5
48CC
330
1D
100
AcDbEntity
  8
0
100
AcDbLine
 10
455.0
 20
131.5124
 30
0.0
 11
455.0
 21
134.2626
 31
0.0
  0
LINE
  5
48CD
330
1D
100
AcDbEntity
  8
0
100
AcDbLine
 10
455.0
 20
129.0451
 30
0.0
 11
455.0
 21
131.5124
 31
0.0
  0
LINE
  5
48CE
330
1D
100
AcDbEntity
  8
0
100
AcDbLine
 10
455.0
 20
129.0451
 30
0.0
 11
455.0
 21
125.3301
 31
0.0
  0
LINE
  5
48CF
330
1D
100
AcDbEntity
  8
0
100
AcDbLine
 10
480.0
 20
134.1305
 30
0.0
 11
480.0
 21
106.1305
 31
0.0
  0
LINE
  5
48D0
330
1D
100
AcDbEntity
  8
0
100
AcDbLine
 10
480.0
 20
134.1305
 30
0.0
 11
480.0
 21
135.6129
 31
0.0
  0
LINE
  5
48D1
330
1D
100
AcDbEntity
  8
0
100
AcDbLine
 10
456.0
 20
130.5863
 30
0.0
 11
456.0
 21
132.9073
 31
0.0
  0
LINE
  5
48D2
330
1D
100
AcDbEntity
  8
0
100
AcDbLine
 10
456.0
 20
130.5863
 30
0.0
 11
456.0
 21
128.1547
 31
0.0
  0
LINE
  5
48D3
330
1D
100
AcDbEntity
  8
0
100
AcDbLine
 10
456.0
 20
132.9073
 30
0.0
 11
456.0
 21
134.9631
 31
0.0
  0
LINE
  5
48D4
330
1D
100
AcDbEntity
  8
0
100
AcDbLine
 10
456.0
 20
132.9073
 30
0.0
 11
456.0
 21
130.5863
 31
0.0
  0
LINE
  5
48D5
330
1D
100
AcDbEntity
  8
0
100
AcDbLine
 10
456.0
 20
134.1305
 30
0.0
 11
456.0
 21
135.6658
 31
0.0
  0
LINE
  5
48D6
330
1D
100
AcDbEntity
  8
0
100
AcDbLine
 10
456.0
 20
134.1305
 30
0.0
 11
456.0
 21
106.1305
 31
0.0
  0
LINE
  5
48D7
330
1D
100
AcDbEntity
  8
0
100
AcDbLine
 10
455.0
 20
125.3301
 30
0.0
 11
455.0
 21
129.0451
 31
0.0
  0
LINE
  5
48D8
330
1D
100
AcDbEntity
  8
0
100
AcDbLine
 10
455.0
 20
125.3301
 30
0.0
 11
455.0
 21
121.6977
 31
0.0
  0
LINE
  5
48D9
330
1D
100
AcDbEntity
  8
0
100
AcDbLine
 10
455.0
 20
121.6977
 30
0.0
 11
455.0
 21
125.3301
 31
0.0
  0
LINE
  5
48DA
330
1D
100
AcDbEntity
  8
0
100
AcDbLine
 10
455.0
 20
121.6977
 30
0.0
 11
455.0
 21
119.2842
 31
0.0
  0
LINE
  5
48DB
330
1D
100
AcDbEntity
  8
0
100
AcDbLine
 10
456.0
 20
122.8716
 30
0.0
 11
456.0
 21
125.5463
 31
0.0
  0
LINE
  5
48DC
330
1D
100
AcDbEntity
  8
0
100
AcDbLine
 10
456.0
 20
122.8716
 30
0.0
 11
456.0
 21
120.1305
 31
0.0
  0
LINE
  5
48DD
330
1D
100
AcDbEntity
  8
0
100
AcDbLine
 10
456.0
 20
125.5463
 30
0.0
 11
456.0
 21
128.1547
 31
0.0
  0
LINE
  5
48DE
330
1D
100
AcDbEntity
  8
0
100
AcDbLine
 10
456.0
 20
125.5463
 30
0.0
 11
456.0
 21
122.8716
 31
0.0
  0
LINE
  5
48DF
330
1D
100
AcDbEntity
  8
0
100
AcDbLine
 10
456.0
 20
128.1547
 30
0.0
 11
456.0
 21
130.5863
 31
0.0
  0
LINE
  5
48E0
330
1D
100
AcDbEntity
  8
0
100
AcDbLine
 10
456.0
 20
128.1547
 30
0.0
 11
456.0
 21
125.5463
 31
0.0
  0
LINE
  5
48E1
330
1D
100
AcDbEntity
  8
0
100
AcDbLine
 10
455.0
 20
109.7492
 30
0.0
 11
455.0
 21
113.2054
 31
0.0
  0
LINE
  5
48E2
330
1D
100
AcDbEntity
  8
0
100
AcDbLine
 10
455.0
 20
109.7492
 30
0.0
 11
455.0
 21
106.5739
 31
0.0
  0
LINE
  5
48E3
330
1D
100
AcDbEntity
  8
0
100
AcDbLine
 10
455.0
 20
113.2054
 30
0.0
 11
455.0
 21
116.0859
 31
0.0
  0
LINE
  5
48E4
330
1D
100
AcDbEntity
  8
0
100
AcDbLine
 10
455.0
 20
113.2054
 30
0.0
 11
455.0
 21
109.7492
 31
0.0
  0
LINE
  5
48E5
330
1D
100
AcDbEntity
  8
0
100
AcDbLine
 10
455.0
 20
116.0859
 30
0.0
 11
455.0
 21
119.2842
 31
0.0
  0
LINE
  5
48E6
330
1D
100
AcDbEntity
  8
0
100
AcDbLine
 10
455.0
 20
116.0859
 30
0.0
 11
455.0
 21
113.2054
 31
0.0
  0
LINE
  5
48E7
330
1D
100
AcDbEntity
  8
0
100
AcDbLine
 10
455.0
 20
119.2842
 30
0.0
 11
455.0
 21
121.6977
 31
0.0
  0
LINE
  5
48E8
330
1D
100
AcDbEntity
  8
0
100
AcDbLine
 10
455.0
 20
119.2842
 30
0.0
 11
455.0
 21
116.0859
 31
0.0
  0
LINE
  5
48E9
330
1D
100
AcDbEntity
  8
0
100
AcDbLine
 10
456.0
 20
120.1305
 30
0.0
 11
456.0
 21
122.8716
 31
0.0
  0
LINE
  5
48EA
330
1D
100
AcDbEntity
  8
0
100
AcDbLine
 10
456.0
 20
120.1305
 30
0.0
 11
456.0
 21
117.3894
 31
0.0
  0
LINE
  5
48EB
330
1D
100
AcDbEntity
  8
0
100
AcDbLine
 10
456.0
 20
117.3894
 30
0.0
 11
456.0
 21
120.1305
 31
0.0
  0
LINE
  5
48EC
330
1D
100
AcDbEntity
  8
0
100
AcDbLine
 10
456.0
 20
117.3894
 30
0.0
 11
456.0
 21
114.7147
 31
0.0
  0
LINE
  5
48ED
330
1D
100
AcDbEntity
  8
0
100
AcDbLine
 10
456.0
 20
114.7147
 30
0.0
 11
456.0
 21
117.3894
 31
0.0
  0
LINE
  5
48EE
330
1D
100
AcDbEntity
  8
0
100
AcDbLine
 10
456.0
 20
114.7147
 30
0.0
 11
456.0
 21
112.1063
 31
0.0
  0
LINE
  5
48EF
330
1D
100
AcDbEntity
  8
0
100
AcDbLine
 10
455.0
 20
105.0714
 30
0.0
 11
455.0
 21
106.5739
 31
0.0
  0
LINE
  5
48F0
330
1D
100
AcDbEntity
  8
0
100
AcDbLine
 10
455.0
 20
105.0714
 30
0.0
 11
455.0
 21
101.8383
 31
0.0
  0
LINE
  5
48F1
330
1D
100
AcDbEntity
  8
0
100
AcDbLine
 10
455.0
 20
101.8383
 30
0.0
 11
455.0
 21
105.0714
 31
0.0
  0
LINE
  5
48F2
330
1D
100
AcDbEntity
  8
0
100
AcDbLine
 10
455.0
 20
101.8383
 30
0.0
 11
455.0
 21
100.1048
 31
0.0
  0
LINE
  5
48F3
330
1D
100
AcDbEntity
  8
0
100
AcDbLine
 10
456.0
 20
100.1305
 30
0.0
 11
456.0
 21
100.3423
 31
0.0
  0
LINE
  5
48F4
330
1D
100
AcDbEntity
  8
0
100
AcDbLine
 10
456.0
 20
100.1305
 30
0.0
 11
456.0
 21
99.8821
 31
0.0
  0
LINE
  5
48F5
330
1D
100
AcDbEntity
  8
0
100
AcDbLine
 10
479.8077
 20
100.2187
 30
0.0
 11
479.4231
 21
100.1305
 31
0.0
  0
LINE
  5
48F6
330
1D
100
AcDbEntity
  8
0
100
AcDbLine
 10
456.0
 20
100.7663
 30
0.0
 11
456.0
 21
101.9379
 31
0.0
  0
LINE
  5
48F7
330
1D
100
AcDbEntity
  8
0
100
AcDbLine
 10
456.0
 20
100.7663
 30
0.0
 11
456.0
 21
99.8821
 31
0.0
  0
LINE
  5
48F8
330
1D
100
AcDbEntity
  8
0
100
AcDbLine
 10
456.0
 20
101.9379
 30
0.0
 11
456.0
 21
103.5073
 31
0.0
  0
LINE
  5
48F9
330
1D
100
AcDbEntity
  8
0
100
AcDbLine
 10
456.0
 20
101.9379
 30
0.0
 11
456.0
 21
100.7663
 31
0.0
  0
LINE
  5
48FA
330
1D
100
AcDbEntity
  8
0
100
AcDbLine
 10
456.0
 20
103.5073
 30
0.0
 11
456.0
 21
105.2979
 31
0.0
  0
LINE
  5
48FB
330
1D
100
AcDbEntity
  8
0
100
AcDbLine
 10
456.0
 20
103.5073
 30
0.0
 11
456.0
 21
101.9379
 31
0.0
  0
LINE
  5
48FC
330
1D
100
AcDbEntity
  8
0
100
AcDbLine
 10
456.0
 20
105.2979
 30
0.0
 11
456.0
 21
107.3537
 31
0.0
  0
LINE
  5
48FD
330
1D
100
AcDbEntity
  8
0
100
AcDbLine
 10
456.0
 20
105.2979
 30
0.0
 11
456.0
 21
103.5073
 31
0.0
  0
LINE
  5
48FE
330
1D
100
AcDbEntity
  8
0
100
AcDbLine
 10
456.0
 20
112.1063
 30
0.0
 11
456.0
 21
114.7147
 31
0.0
  0
LINE
  5
48FF
330
1D
100
AcDbEntity
  8
0
100
AcDbLine
 10
456.0
 20
112.1063
 30
0.0
 11
456.0
 21
109.6747
 31
0.0
  0
LINE
  5
4900
330
1D
100
AcDbEntity
  8
0
100
AcDbLine
 10
456.0
 20
109.6747
 30
0.0
 11
456.0
 21
112.1063
 31
0.0
  0
LINE
  5
4901
330
1D
100
AcDbEntity
  8
0
100
AcDbLine
 10
456.0
 20
109.6747
 30
0.0
 11
456.0
 21
107.3537
 31
0.0
  0
LINE
  5
4902
330
1D
100
AcDbEntity
  8
0
100
AcDbLine
 10
456.0
 20
107.3537
 30
0.0
 11
456.0
 21
109.6747
 31
0.0
  0
LINE
  5
4903
330
1D
100
AcDbEntity
  8
0
100
AcDbLine
 10
456.0
 20
107.3537
 30
0.0
 11
456.0
 21
105.2979
 31
0.0
  0
LINE
  5
4904
330
1D
100
AcDbEntity
  8
0
100
AcDbLine
 10
456.0
 20
106.1305
 30
0.0
 11
456.0
 21
104.5952
 31
0.0
  0
LINE
  5
4905
330
1D
100
AcDbEntity
  8
0
100
AcDbLine
 10
456.0
 20
106.1305
 30
0.0
 11
456.0
 21
134.1305
 31
0.0
  0
LINE
  5
4906
330
1D
100
AcDbEntity
  8
0
100
AcDbLine
 10
456.0
 20
104.5952
 30
0.0
 11
456.0
 21
106.1305
 31
0.0
  0
LINE
  5
4907
330
1D
100
AcDbEntity
  8
0
100
AcDbLine
 10
456.0
 20
104.5952
 30
0.0
 11
456.0
 21
103.1481
 31
0.0
  0
LINE
  5
4908
330
1D
100
AcDbEntity
  8
0
100
AcDbLine
 10
456.0
 20
100.9423
 30
0.0
 11
456.0
 21
101.8952
 31
0.0
  0
LINE
  5
4909
330
1D
100
AcDbEntity
  8
0
100
AcDbLine
 10
456.0
 20
100.9423
 30
0.0
 11
456.0
 21
100.3423
 31
0.0
  0
LINE
  5
490A
330
1D
100
AcDbEntity
  8
0
100
AcDbLine
 10
456.0
 20
101.8952
 30
0.0
 11
456.0
 21
103.1481
 31
0.0
  0
LINE
  5
490B
330
1D
100
AcDbEntity
  8
0
100
AcDbLine
 10
456.0
 20
101.8952
 30
0.0
 11
456.0
 21
100.9423
 31
0.0
  0
LINE
  5
490C
330
1D
100
AcDbEntity
  8
0
100
AcDbLine
 10
456.0
 20
103.1481
 30
0.0
 11
456.0
 21
104.5952
 31
0.0
  0
LINE
  5
490D
330
1D
100
AcDbEntity
  8
0
100
AcDbLine
 10
456.0
 20
103.1481
 30
0.0
 11
456.0
 21
101.8952
 31
0.0
  0
LINE
  5
490E
330
1D
100
AcDbEntity
  8
0
100
AcDbLine
 10
456.0
 20
100.3423
 30
0.0
 11
456.0
 21
100.9423
 31
0.0
  0
LINE
  5
490F
330
1D
100
AcDbEntity
  8
0
100
AcDbLine
 10
456.0
 20
100.3423
 30
0.0
 11
456.0
 21
100.1305
 31
0.0
  0
LINE
  5
4910
330
1D
100
AcDbEntity
  8
0
100
AcDbLine
 10
480.0
 20
100.3952
 30
0.0
 11
480.0
 21
100.607
 31
0.0
  0
LINE
  5
4911
330
1D
100
AcDbEntity
  8
0
100
AcDbLine
 10
480.0
 20
100.3952
 30
0.0
 11
479.8077
 21
100.2187
 31
0.0
  0
LINE
  5
4912
330
1D
100
AcDbEntity
  8
0
100
AcDbLine
 10
480.0
 20
100.607
 30
0.0
 11
480.0
 21
100.3952
 31
0.0
  0
LINE
  5
4913
330
1D
100
AcDbEntity
  8
0
100
AcDbLine
 10
480.0
 20
100.607
 30
0.0
 11
480.0
 21
101.1717
 31
0.0
  0
LINE
  5
4914
330
1D
100
AcDbEntity
  8
0
100
AcDbLine
 10
480.0
 20
101.1717
 30
0.0
 11
480.0
 21
100.607
 31
0.0
  0
LINE
  5
4915
330
1D
100
AcDbEntity
  8
0
100
AcDbLine
 10
480.0
 20
101.1717
 30
0.0
 11
480.0
 21
102.0717
 31
0.0
  0
LINE
  5
4916
330
1D
100
AcDbEntity
  8
0
100
AcDbLine
 10
480.0
 20
102.0717
 30
0.0
 11
480.0
 21
103.2717
 31
0.0
  0
LINE
  5
4917
330
1D
100
AcDbEntity
  8
0
100
AcDbLine
 10
480.0
 20
102.0717
 30
0.0
 11
480.0
 21
101.1717
 31
0.0
  0
LINE
  5
4918
330
1D
100
AcDbEntity
  8
0
100
AcDbLine
 10
480.0
 20
104.6481
 30
0.0
 11
480.0
 21
103.2717
 31
0.0
  0
LINE
  5
4919
330
1D
100
AcDbEntity
  8
0
100
AcDbLine
 10
480.0
 20
104.6481
 30
0.0
 11
480.0
 21
106.1305
 31
0.0
  0
LINE
  5
491A
330
1D
100
AcDbEntity
  8
0
100
AcDbLine
 10
480.0
 20
106.1305
 30
0.0
 11
480.0
 21
134.1305
 31
0.0
  0
LINE
  5
491B
330
1D
100
AcDbEntity
  8
0
100
AcDbLine
 10
480.0
 20
106.1305
 30
0.0
 11
480.0
 21
104.6481
 31
0.0
  0
LINE
  5
491C
330
1D
100
AcDbEntity
  8
0
100
AcDbLine
 10
480.0
 20
103.2717
 30
0.0
 11
480.0
 21
102.0717
 31
0.0
  0
LINE
  5
491D
330
1D
100
AcDbEntity
  8
0
100
AcDbLine
 10
480.0
 20
103.2717
 30
0.0
 11
480.0
 21
104.6481
 31
0.0
  0
LINE
  5
491E
330
1D
100
AcDbEntity
  8
0
100
AcDbLine
 10
459.0
 20
100.1305
 30
0.0
 11
459.0
 21
99.7074
 31
0.0
  0
LINE
  5
491F
330
1D
100
AcDbEntity
  8
0
100
AcDbLine
 10
459.0
 20
100.1305
 30
0.0
 11
456.0
 21
100.1305
 31
0.0
  0
LINE
  5
4920
330
1D
100
AcDbEntity
  8
0
100
AcDbLine
 10
459.0
 20
100.1305
 30
0.0
 11
456.0
 21
100.1305
 31
0.0
  0
LINE
  5
4921
330
1D
100
AcDbEntity
  8
0
100
AcDbLine
 10
479.4231
 20
100.1305
 30
0.0
 11
468.983116558522
 21
100.1305
 31
0.0
  0
LINE
  5
4922
330
1D
100
AcDbEntity
  8
0
100
AcDbLine
 10
469.0
 20
100.1305
 30
0.0
 11
469.0
 21
99.7074
 31
0.0
  0
LINE
  5
4923
330
1D
100
AcDbEntity
  8
0
100
AcDbLine
 10
455.0
 20
100.1048
 30
0.0
 11
455.0
 21
101.8383
 31
0.0
  0
LINE
  5
4924
330
1D
100
AcDbEntity
  8
0
100
AcDbLine
 10
455.0
 20
100.1048
 30
0.0
 11
455.0
 21
98.1701
 31
0.0
  0
LINE
  5
4925
330
1D
100
AcDbEntity
  8
0
100
AcDbLine
 10
456.0
 20
99.3516
 30
0.0
 11
456.0
 21
99.1305
 31
0.0
  0
LINE
  5
4926
330
1D
100
AcDbEntity
  8
0
100
AcDbLine
 10
456.0
 20
99.3516
 30
0.0
 11
456.0
 21
99.8821
 31
0.0
  0
LINE
  5
4927
330
1D
100
AcDbEntity
  8
0
100
AcDbLine
 10
456.0
 20
99.8821
 30
0.0
 11
456.0
 21
100.7663
 31
0.0
  0
LINE
  5
4928
330
1D
100
AcDbEntity
  8
0
100
AcDbLine
 10
456.0
 20
99.8821
 30
0.0
 11
456.0
 21
99.3516
 31
0.0
  0
LINE
  5
4929
330
1D
100
AcDbEntity
  8
0
100
AcDbLine
 10
456.0
 20
99.8821
 30
0.0
 11
456.0
 21
100.1305
 31
0.0
  0
LINE
  5
492A
330
1D
100
AcDbEntity
  8
0
100
AcDbLine
 10
469.0
 20
99.7074
 30
0.0
 11
468.9265
 21
99.3228
 31
0.0
  0
LINE
  5
492B
330
1D
100
AcDbEntity
  8
0
100
AcDbLine
 10
469.0
 20
99.7074
 30
0.0
 11
469.0
 21
100.1305
 31
0.0
  0
LINE
  5
492C
330
1D
100
AcDbEntity
  8
0
100
AcDbLine
 10
459.0
 20
99.7074
 30
0.0
 11
459.0
 21
100.1305
 31
0.0
  0
LINE
  5
492D
330
1D
100
AcDbEntity
  8
0
100
AcDbLine
 10
459.07353
 20
99.3228
 30
0.0
 11
459.0
 21
99.7074
 31
0.0
  0
LINE
  5
492E
330
1D
100
AcDbEntity
  8
0
100
AcDbLine
 10
468.9265
 20
99.3228
 30
0.0
 11
468.7794
 21
99.1305
 31
0.0
  0
LINE
  5
492F
330
1D
100
AcDbEntity
  8
0
100
AcDbLine
 10
455.0
 20
96.9753
 30
0.0
 11
455.0
 21
97.4015
 31
0.0
  0
LINE
  5
4930
330
1D
100
AcDbEntity
  8
0
100
AcDbLine
 10
455.0
 20
96.9753
 30
0.0
 11
455.0
 21
96.8707
 31
0.0
  0
LINE
  5
4931
330
1D
100
AcDbEntity
  8
0
100
AcDbLine
 10
455.0
 20
97.4015
 30
0.0
 11
455.0
 21
98.1701
 31
0.0
  0
LINE
  5
4932
330
1D
100
AcDbEntity
  8
0
100
AcDbLine
 10
455.0
 20
97.4015
 30
0.0
 11
455.0
 21
96.9753
 31
0.0
  0
LINE
  5
4933
330
1D
100
AcDbEntity
  8
0
100
AcDbLine
 10
455.0
 20
98.1701
 30
0.0
 11
455.0
 21
100.1048
 31
0.0
  0
LINE
  5
4934
330
1D
100
AcDbEntity
  8
0
100
AcDbLine
 10
455.0
 20
98.1701
 30
0.0
 11
455.0
 21
97.4015
 31
0.0
  0
LINE
  5
4935
330
1D
100
AcDbEntity
  8
0
100
AcDbLine
 10
455.0
 20
98.6341
 30
0.0
 11
455.0
 21
99.1305
 31
0.0
  0
LINE
  5
4936
330
1D
100
AcDbEntity
  8
0
100
AcDbLine
 10
460.0
 20
99.1305
 30
0.0
 11
459.86765
 21
99.1305
 31
0.0
  0
LINE
  5
4937
330
1D
100
AcDbEntity
  8
0
100
AcDbLine
 10
460.0
 20
99.1305
 30
0.0
 11
460.0
 21
95.592
 31
0.0
  0
LINE
  5
4938
330
1D
100
AcDbEntity
  8
0
100
AcDbLine
 10
456.0
 20
99.1305
 30
0.0
 11
455.0
 21
99.1305
 31
0.0
  0
LINE
  5
4939
330
1D
100
AcDbEntity
  8
0
100
AcDbLine
 10
456.0
 20
99.1305
 30
0.0
 11
456.0
 21
99.3516
 31
0.0
  0
LINE
  5
493A
330
1D
100
AcDbEntity
  8
0
100
AcDbLine
 10
459.39706
 20
99.1305
 30
0.0
 11
459.22059
 21
99.1305
 31
0.0
  0
LINE
  5
493B
330
1D
100
AcDbEntity
  8
0
100
AcDbLine
 10
459.22059
 20
99.1305
 30
0.0
 11
459.07353
 21
99.3228
 31
0.0
  0
LINE
  5
493C
330
1D
100
AcDbEntity
  8
0
100
AcDbLine
 10
459.86765
 20
99.1305
 30
0.0
 11
459.39706
 21
99.1305
 31
0.0
  0
LINE
  5
493D
330
1D
100
AcDbEntity
  8
0
100
AcDbLine
 10
468.7794
 20
99.1305
 30
0.0
 11
468.6029
 21
99.1305
 31
0.0
  0
LINE
  5
493E
330
1D
100
AcDbEntity
  8
0
100
AcDbLine
 10
468.6029
 20
99.1305
 30
0.0
 11
468.1323
 21
99.1305
 31
0.0
  0
LINE
  5
493F
330
1D
100
AcDbEntity
  8
0
100
AcDbLine
 10
468.1323
 20
99.1305
 30
0.0
 11
467.3823
 21
99.1305
 31
0.0
  0
LINE
  5
4940
330
1D
100
AcDbEntity
  8
0
100
AcDbLine
 10
468.1323
 20
99.1305
 30
0.0
 11
468.0
 21
99.1305
 31
0.0
  0
LINE
  5
4941
330
1D
100
AcDbEntity
  8
0
100
AcDbLine
 10
464.0
 20
99.1305
 30
0.0
 11
462.97647
 21
99.1305
 31
0.0
  0
LINE
  5
4942
330
1D
100
AcDbEntity
  8
0
100
AcDbLine
 10
464.0
 20
99.1305
 30
0.0
 11
462.76471
 21
99.1305
 31
0.0
  0
LINE
  5
4943
330
1D
100
AcDbEntity
  8
0
100
AcDbLine
 10
462.76471
 20
99.1305
 30
0.0
 11
461.61765
 21
99.1305
 31
0.0
  0
LINE
  5
4944
330
1D
100
AcDbEntity
  8
0
100
AcDbLine
 10
461.61765
 20
99.1305
 30
0.0
 11
460.61765
 21
99.1305
 31
0.0
  0
LINE
  5
4945
330
1D
100
AcDbEntity
  8
0
100
AcDbLine
 10
460.61765
 20
99.1305
 30
0.0
 11
459.86765
 21
99.1305
 31
0.0
  0
LINE
  5
4946
330
1D
100
AcDbEntity
  8
0
100
AcDbLine
 10
460.14118
 20
99.1305
 30
0.0
 11
460.0
 21
99.1305
 31
0.0
  0
LINE
  5
4947
330
1D
100
AcDbEntity
  8
0
100
AcDbLine
 10
460.54118
 20
99.1305
 30
0.0
 11
460.14118
 21
99.1305
 31
0.0
  0
LINE
  5
4948
330
1D
100
AcDbEntity
  8
0
100
AcDbLine
 10
462.01177
 20
99.1305
 30
0.0
 11
461.17647
 21
99.1305
 31
0.0
  0
LINE
  5
4949
330
1D
100
AcDbEntity
  8
0
100
AcDbLine
 10
461.17647
 20
99.1305
 30
0.0
 11
460.54118
 21
99.1305
 31
0.0
  0
LINE
  5
494A
330
1D
100
AcDbEntity
  8
0
100
AcDbLine
 10
465.2353
 20
99.1305
 30
0.0
 11
464.0
 21
99.1305
 31
0.0
  0
LINE
  5
494B
330
1D
100
AcDbEntity
  8
0
100
AcDbLine
 10
466.3823
 20
99.1305
 30
0.0
 11
465.2353
 21
99.1305
 31
0.0
  0
LINE
  5
494C
330
1D
100
AcDbEntity
  8
0
100
AcDbLine
 10
462.97647
 20
99.1305
 30
0.0
 11
462.01177
 21
99.1305
 31
0.0
  0
LINE
  5
494D
330
1D
100
AcDbEntity
  8
0
100
AcDbLine
 10
465.0235
 20
99.1305
 30
0.0
 11
464.0
 21
99.1305
 31
0.0
  0
LINE
  5
494E
330
1D
100
AcDbEntity
  8
0
100
AcDbLine
 10
465.9882
 20
99.1305
 30
0.0
 11
465.0235
 21
99.1305
 31
0.0
  0
LINE
  5
494F
330
1D
100
AcDbEntity
  8
0
100
AcDbLine
 10
467.3823
 20
99.1305
 30
0.0
 11
466.3823
 21
99.1305
 31
0.0
  0
LINE
  5
4950
330
1D
100
AcDbEntity
  8
0
100
AcDbLine
 10
468.0
 20
99.1305
 30
0.0
 11
467.8588
 21
99.1305
 31
0.0
  0
LINE
  5
4951
330
1D
100
AcDbEntity
  8
0
100
AcDbLine
 10
468.0
 20
99.1305
 30
0.0
 11
468.0
 21
95.592
 31
0.0
  0
LINE
  5
4952
330
1D
100
AcDbEntity
  8
0
100
AcDbLine
 10
467.8588
 20
99.1305
 30
0.0
 11
467.4588
 21
99.1305
 31
0.0
  0
LINE
  5
4953
330
1D
100
AcDbEntity
  8
0
100
AcDbLine
 10
467.4588
 20
99.1305
 30
0.0
 11
466.8235
 21
99.1305
 31
0.0
  0
LINE
  5
4954
330
1D
100
AcDbEntity
  8
0
100
AcDbLine
 10
466.8235
 20
99.1305
 30
0.0
 11
465.9882
 21
99.1305
 31
0.0
  0
LINE
  5
4955
330
1D
100
AcDbEntity
  8
0
100
AcDbLine
 10
455.0
 20
96.8707
 30
0.0
 11
455.0
 21
96.9753
 31
0.0
  0
LINE
  5
4956
330
1D
100
AcDbEntity
  8
0
100
AcDbLine
 10
464.0
 20
95.1305
 30
0.0
 11
463.01177
 21
95.1305
 31
0.0
  0
LINE
  5
4957
330
1D
100
AcDbEntity
  8
0
100
AcDbLine
 10
460.05882
 20
95.2843
 30
0.0
 11
460.0
 21
95.592
 31
0.0
  0
LINE
  5
4958
330
1D
100
AcDbEntity
  8
0
100
AcDbLine
 10
460.0
 20
95.592
 30
0.0
 11
460.0
 21
99.1305
 31
0.0
  0
LINE
  5
4959
330
1D
100
AcDbEntity
  8
0
100
AcDbLine
 10
468.0
 20
95.592
 30
0.0
 11
467.9412
 21
95.2843
 31
0.0
  0
LINE
  5
495A
330
1D
100
AcDbEntity
  8
0
100
AcDbLine
 10
468.0
 20
95.592
 30
0.0
 11
468.0
 21
99.1305
 31
0.0
  0
LINE
  5
495B
330
1D
100
AcDbEntity
  8
0
100
AcDbLine
 10
467.9412
 20
95.2843
 30
0.0
 11
467.8235
 21
95.1305
 31
0.0
  0
LINE
  5
495C
330
1D
100
AcDbEntity
  8
0
100
AcDbLine
 10
463.01177
 20
95.1305
 30
0.0
 11
462.09412
 21
95.1305
 31
0.0
  0
LINE
  5
495D
330
1D
100
AcDbEntity
  8
0
100
AcDbLine
 10
462.09412
 20
95.1305
 30
0.0
 11
461.29412
 21
95.1305
 31
0.0
  0
LINE
  5
495E
330
1D
100
AcDbEntity
  8
0
100
AcDbLine
 10
460.31765
 20
95.1305
 30
0.0
 11
460.17647
 21
95.1305
 31
0.0
  0
LINE
  5
495F
330
1D
100
AcDbEntity
  8
0
100
AcDbLine
 10
460.17647
 20
95.1305
 30
0.0
 11
460.05882
 21
95.2843
 31
0.0
  0
LINE
  5
4960
330
1D
100
AcDbEntity
  8
0
100
AcDbLine
 10
460.69412
 20
95.1305
 30
0.0
 11
460.31765
 21
95.1305
 31
0.0
  0
LINE
  5
4961
330
1D
100
AcDbEntity
  8
0
100
AcDbLine
 10
461.29412
 20
95.1305
 30
0.0
 11
460.69412
 21
95.1305
 31
0.0
  0
LINE
  5
4962
330
1D
100
AcDbEntity
  8
0
100
AcDbLine
 10
467.8235
 20
95.1305
 30
0.0
 11
467.6824
 21
95.1305
 31
0.0
  0
LINE
  5
4963
330
1D
100
AcDbEntity
  8
0
100
AcDbLine
 10
467.6824
 20
95.1305
 30
0.0
 11
467.3059
 21
95.1305
 31
0.0
  0
LINE
  5
4964
330
1D
100
AcDbEntity
  8
0
100
AcDbLine
 10
467.3059
 20
95.1305
 30
0.0
 11
466.7059
 21
95.1305
 31
0.0
  0
LINE
  5
4965
330
1D
100
AcDbEntity
  8
0
100
AcDbLine
 10
464.9882
 20
95.1305
 30
0.0
 11
464.0
 21
95.1305
 31
0.0
  0
LINE
  5
4966
330
1D
100
AcDbEntity
  8
0
100
AcDbLine
 10
465.9059
 20
95.1305
 30
0.0
 11
464.9882
 21
95.1305
 31
0.0
  0
LINE
  5
4967
330
1D
100
AcDbEntity
  8
0
100
AcDbLine
 10
466.7059
 20
95.1305
 30
0.0
 11
465.9059
 21
95.1305
 31
0.0
  0
LINE
  5
4968
330
1D
100
AcDbEntity
  8
0
100
AcDbLine
 10
454.64741
 20
152.8275
 30
0.0
 11
454.501992
 21
153.1305
 31
0.0
  0
LINE
  5
4969
330
1D
100
AcDbEntity
  8
0
100
AcDbLine
 10
455.0
 20
151.1305
 30
0.0
 11
454.64741
 21
152.8275
 31
0.0
  0
LINE
  5
496A
330
1D
100
AcDbEntity
  8
0
100
AcDbLine
 10
454.501992
 20
153.1305
 30
0.0
 11
454.013944
 21
153.1305
 31
0.0
  0
ENDSEC
  0
SECTION
  2
OBJECTS
  0
DICTIONARY
  5
C
330
0
100
AcDbDictionary
281
     1
  3
ACAD_GROUP
350
D
  3
ACAD_LAYOUT
350
1A
  3
ACAD_MLEADERSTYLE
350
496D
  3
ACAD_MLINESTYLE
350
17
  3
ACAD_PLOTSETTINGS
350
19
  3
ACAD_PLOTSTYLENAME
350
E
  3
ACAD_SCALELIST
350
38EF
  3
AcDbVariableDictionary
350
496B
  3
DWGPROPS
350
4970
  0
DICTIONARY
  5
D
102
{ACAD_REACTORS
330
C
102
}
330
C
100
AcDbDictionary
281
     1
  0
DICTIONARY
  5
1A
102
{ACAD_REACTORS
330
C
102
}
330
C
100
AcDbDictionary
281
     1
  3
Layout1
350
1C
  3
Model
350
1E
  0
DICTIONARY
  5
496D
102
{ACAD_REACTORS
330
C
102
}
330
C
100
AcDbDictionary
281
     1
  0
DICTIONARY
  5
17
102
{ACAD_REACTORS
330
C
102
}
330
C
100
AcDbDictionary
281
     1
  3
Standard
350
18
  0
DICTIONARY
  5
19
102
{ACAD_REACTORS
330
C
102
}
330
C
100
AcDbDictionary
281
     1
  0
ACDBDICTIONARYWDFLT
  5
E
102
{ACAD_REACTORS
330
C
102
}
330
C
100
AcDbDictionary
281
     1
  3
Normal
350
F
100
AcDbDictionaryWithDefault
340
F
  0
DICTIONARY
  5
38EF
102
{ACAD_REACTORS
330
C
102
}
330
C
100
AcDbDictionary
281
     1
  3
A0
350
38F0
  3
A1
350
38F1
  3
A2
350
38F2
  3
A3
350
38F3
  3
A4
350
38F4
  3
A5
350
38F5
  3
A6
350
38F6
  3
A7
350
38F7
  3
A8
350
38F8
  3
A9
350
38F9
  3
B0
350
38FA
  3
B1
350
38FB
  3
B2
350
38FC
  3
B3
350
38FD
  3
B4
350
38FE
  3
B5
350
38FF
  3
B6
350
3900
  3
B7
350
3901
  3
B8
350
3902
  3
B9
350
3903
  3
C0
350
3904
  3
C1
350
3905
  3
C2
350
3906
  3
C3
350
3907
  3
C4
350
3908
  3
C5
350
3909
  3
C6
350
390A
  3
C7
350
390B
  3
C8
350
390C
  3
C9
350
390D
  3
D0
350
390E
  3
D1
350
390F
  3
D2
350
3910
  0
DICTIONARY
  5
496B
102
{ACAD_REACTORS
330
C
102
}
330
C
100
AcDbDictionary
281
     1
  3
CANNOSCALE
350
496E
  0
XRECORD
  5
4970
102
{ACAD_REACTORS
330
C
102
}
330
C
100
AcDbXrecord
280
     1
  1
DWGPROPS COOKIE
  2

  3

  4

  6

  7

  8
MARTIN
  9

300
=
301
=
302
=
303
=
304
=
305
=
306
=
307
=
308
=
309
=
 40
0.0
 41
2455824.929674838
 42
2455824.930703125
  1

 90
        0
  0
LAYOUT
  5
1C
102
{ACAD_REACTORS
330
1A
102
}
330
1A
100
AcDbPlotSettings
  1

  2
none_device
  4

  6

 40
0.0
 41
0.0
 42
0.0
 43
0.0
 44
0.0
 45
0.0
 46
0.0
 47
0.0
 48
0.0
 49
0.0
140
0.0
141
0.0
142
1.0
143
1.0
 70
   688
 72
     0
 73
     0
 74
     5
  7

 75
    16
147
1.0
148
0.0
149
0.0
100
AcDbLayout
  1
Layout1
 70
     1
 71
     1
 10
0.0
 20
0.0
 11
12.0
 21
9.0
 12
0.0
 22
0.0
 32
0.0
 14
1.000000000000E+20
 24
1.000000000000E+20
 34
1.000000000000E+20
 15
-1.000000000000E+20
 25
-1.000000000000E+20
 35
-1.000000000000E+20
146
0.0
 13
0.0
 23
0.0
 33
0.0
 16
1.0
 26
0.0
 36
0.0
 17
0.0
 27
1.0
 37
0.0
 76
     0
330
1B
  0
LAYOUT
  5
1E
102
{ACAD_REACTORS
330
1A
102
}
330
1A
100
AcDbPlotSettings
  1

  2
none_device
  4

  6

 40
0.0
 41
0.0
 42
0.0
 43
0.0
 44
0.0
 45
0.0
 46
0.0
 47
0.0
 48
0.0
 49
0.0
140
0.0
141
0.0
142
1.0
143
1.0
 70
  1712
 72
     0
 73
     0
 74
     0
  7

 75
     0
147
1.0
148
0.0
149
0.0
100
AcDbLayout
  1
Model
 70
     1
 71
     0
 10
0.0
 20
0.0
 11
12.0
 21
9.0
 12
0.0
 22
0.0
 32
0.0
 14
0.0
 24
-0.1305
 34
0.0
 15
480.0
 25
1253.1305
 35
0.0
146
0.0
 13
0.0
 23
0.0
 33
0.0
 16
1.0
 26
0.0
 36
0.0
 17
0.0
 27
1.0
 37
0.0
 76
     0
330
1D
331
38EA
  0
MLINESTYLE
  5
18
102
{ACAD_REACTORS
330
17
102
}
330
17
100
AcDbMlineStyle
  2
Standard
 70
     0
  3

 62
   256
 51
90.0
 52
90.0
 71
     2
 49
0.5
 62
   256
  6
BYLAYER
 49
-0.5
 62
   256
  6
BYLAYER
  0
ACDBPLACEHOLDER
  5
F
102
{ACAD_REACTORS
330
E
102
}
330
E
  0
SCALE
  5
38F0
102
{ACAD_REACTORS
330
38EF
102
}
330
38EF
100
AcDbScale
 70
     0
300
1:1
140
1.0
141
1.0
290
     1
  0
SCALE
  5
38F1
102
{ACAD_REACTORS
330
38EF
102
}
330
38EF
100
AcDbScale
 70
     0
300
1:2
140
1.0
141
2.0
290
     0
  0
SCALE
  5
38F2
102
{ACAD_REACTORS
330
38EF
102
}
330
38EF
100
AcDbScale
 70
     0
300
1:4
140
1.0
141
4.0
290
     0
  0
SCALE
  5
38F3
102
{ACAD_REACTORS
330
38EF
102
}
330
38EF
100
AcDbScale
 70
     0
300
1:5
140
1.0
141
5.0
290
     0
  0
SCALE
  5
38F4
102
{ACAD_REACTORS
330
38EF
102
}
330
38EF
100
AcDbScale
 70
     0
300
1:8
140
1.0
141
8.0
290
     0
  0
SCALE
  5
38F5
102
{ACAD_REACTORS
330
38EF
102
}
330
38EF
100
AcDbScale
 70
     0
300
1:10
140
1.0
141
10.0
290
     0
  0
SCALE
  5
38F6
102
{ACAD_REACTORS
330
38EF
102
}
330
38EF
100
AcDbScale
 70
     0
300
1:16
140
1.0
141
16.0
290
     0
  0
SCALE
  5
38F7
102
{ACAD_REACTORS
330
38EF
102
}
330
38EF
100
AcDbScale
 70
     0
300
1:20
140
1.0
141
20.0
290
     0
  0
SCALE
  5
38F8
102
{ACAD_REACTORS
330
38EF
102
}
330
38EF
100
AcDbScale
 70
     0
300
1:30
140
1.0
141
30.0
290
     0
  0
SCALE
  5
38F9
102
{ACAD_REACTORS
330
38EF
102
}
330
38EF
100
AcDbScale
 70
     0
300
1:40
140
1.0
141
40.0
290
     0
  0
SCALE
  5
38FA
102
{ACAD_REACTORS
330
38EF
102
}
330
38EF
100
AcDbScale
 70
     0
300
1:50
140
1.0
141
50.0
290
     0
  0
SCALE
  5
38FB
102
{ACAD_REACTORS
330
38EF
102
}
330
38EF
100
AcDbScale
 70
     0
300
1:100
140
1.0
141
100.0
290
     0
  0
SCALE
  5
38FC
102
{ACAD_REACTORS
330
38EF
102
}
330
38EF
100
AcDbScale
 70
     0
300
2:1
140
2.0
141
1.0
290
     0
  0
SCALE
  5
38FD
102
{ACAD_REACTORS
330
38EF
102
}
330
38EF
100
AcDbScale
 70
     0
300
4:1
140
4.0
141
1.0
290
     0
  0
SCALE
  5
38FE
102
{ACAD_REACTORS
330
38EF
102
}
330
38EF
100
AcDbScale
 70
     0
300
8:1
140
8.0
141
1.0
290
     0
  0
SCALE
  5
38FF
102
{ACAD_REACTORS
330
38EF
102
}
330
38EF
100
AcDbScale
 70
     0
300
10:1
140
10.0
141
1.0
290
     0
  0
SCALE
  5
3900
102
{ACAD_REACTORS
330
38EF
102
}
330
38EF
100
AcDbScale
 70
     0
300
100:1
140
100.0
141
1.0
290
     0
  0
SCALE
  5
3901
102
{ACAD_REACTORS
330
38EF
102
}
330
38EF
100
AcDbScale
 70
     0
300
1/128" = 1'-0"
140
0.0078125
141
12.0
290
     0
  0
SCALE
  5
3902
102
{ACAD_REACTORS
330
38EF
102
}
330
38EF
100
AcDbScale
 70
     0
300
1/64" = 1'-0"
140
0.015625
141
12.0
290
     0
  0
SCALE
  5
3903
102
{ACAD_REACTORS
330
38EF
102
}
330
38EF
100
AcDbScale
 70
     0
300
1/32" = 1'-0"
140
0.03125
141
12.0
290
     0
  0
SCALE
  5
3904
102
{ACAD_REACTORS
330
38EF
102
}
330
38EF
100
AcDbScale
 70
     0
300
1/16" = 1'-0"
140
0.0625
141
12.0
290
     0
  0
SCALE
  5
3905
102
{ACAD_REACTORS
330
38EF
102
}
330
38EF
100
AcDbScale
 70
     0
300
3/32" = 1'-0"
140
0.09375
141
12.0
290
     0
  0
SCALE
  5
3906
102
{ACAD_REACTORS
330
38EF
102
}
330
38EF
100
AcDbScale
 70
     0
300
1/8" = 1'-0"
140
0.125
141
12.0
290
     0
  0
SCALE
  5
3907
102
{ACAD_REACTORS
330
38EF
102
}
330
38EF
100
AcDbScale
 70
     0
300
3/16" = 1'-0"
140
0.1875
141
12.0
290
     0
  0
SCALE
  5
3908
102
{ACAD_REACTORS
330
38EF
102
}
330
38EF
100
AcDbScale
 70
     0
300
1/4" = 1'-0"
140
0.25
141
12.0
290
     0
  0
SCALE
  5
3909
102
{ACAD_REACTORS
330
38EF
102
}
330
38EF
100
AcDbScale
 70
     0
300
3/8" = 1'-0"
140
0.375
141
12.0
290
     0
  0
SCALE
  5
390A
102
{ACAD_REACTORS
330
38EF
102
}
330
38EF
100
AcDbScale
 70
     0
300
1/2" = 1'-0"
140
0.5
141
12.0
290
     0
  0
SCALE
  5
390B
102
{ACAD_REACTORS
330
38EF
102
}
330
38EF
100
AcDbScale
 70
     0
300
3/4" = 1'-0"
140
0.75
141
12.0
290
     0
  0
SCALE
  5
390C
102
{ACAD_REACTORS
330
38EF
102
}
330
38EF
100
AcDbScale
 70
     0
300
1" = 1'-0"
140
1.0
141
12.0
290
     0
  0
SCALE
  5
390D
102
{ACAD_REACTORS
330
38EF
102
}
330
38EF
100
AcDbScale
 70
     0
300
1-1/2" = 1'-0"
140
1.5
141
12.0
290
     0
  0
SCALE
  5
390E
102
{ACAD_REACTORS
330
38EF
102
}
330
38EF
100
AcDbScale
 70
     0
300
3" = 1'-0"
140
3.0
141
12.0
290
     0
  0
SCALE
  5
390F
102
{ACAD_REACTORS
330
38EF
102
}
330
38EF
100
AcDbScale
 70
     0
300
6" = 1'-0"
140
6.0
141
12.0
290
     0
  0
SCALE
  5
3910
102
{ACAD_REACTORS
330
38EF
102
}
330
38EF
100
AcDbScale
 70
     0
300
1'-0" = 1'-0"
140
12.0
141
12.0
290
     0
  0
DICTIONARYVAR
  5
496E
102
{ACAD_REACTORS
330
496B
102
}
330
496B
100
DictionaryVariables
280
     0
  1
1:1
  0
ENDSEC
  0
SECTION
  2
THUMBNAILIMAGE
 90
    16364
310
28000000B40000005500000001000800000000000000000000000000000000000000000000000000FFFFFF000000FF0000FFFF0000FF0000FFFF0000FF000000FF00FF000000000080808000C0C0C0000000FF007F7FFF000000A5005252A50000007F003F3F7F0000004C0026264C000000260013132600003FFF007F9FFF
310
000029A5005267A500001F7F003F4F7F0000134C00262F4C000009260013172600007FFF007FBFFF000052A500527CA500003F7F003F5F7F0000264C0026394C0000132600131C260000BFFF007FDFFF00007CA5005291A500005F7F003F6F7F0000394C0026424C00001C26001321260000FFFF007FFFFF0000A5A50052A5
310
A500007F7F003F7F7F00004C4C00264C4C00002626001326260000FFBF007FFFDF0000A57C0052A59100007F5F003F7F6F00004C3900264C420000261C001326210000FF7F007FFFBF0000A5520052A57C00007F3F003F7F5F00004C2600264C39000026130013261C0000FF3F007FFF9F0000A5290052A56700007F1F003F
310
7F4F00004C1300264C2F00002609001326170000FF00007FFF7F0000A5000052A55200007F00003F7F3F00004C0000264C260000260000132613003FFF00009FFF7F0029A5000067A552001F7F00004F7F3F00134C00002F4C260009260000172613007FFF0000BFFF7F0052A500007CA552003F7F00005F7F3F00264C0000
310
394C2600132600001C261300BFFF0000DFFF7F007CA5000091A552005F7F00006F7F3F00394C0000424C26001C26000021261300FFFF0000FFFF7F00A5A50000A5A552007F7F00007F7F3F004C4C00004C4C26002626000026261300FFBF0000FFDF7F00A57C0000A59152007F5F00007F6F3F004C3900004C422600261C00
310
0026211300FF7F0000FFBF7F00A5520000A57C52007F3F00007F5F3F004C2600004C39260026130000261C1300FF3F0000FF9F7F00A5290000A56752007F1F00007F4F3F004C1300004C2F26002609000026171300FF000000FF7F7F00A5000000A55252007F0000007F3F3F004C0000004C2626002600000026131300FF00
310
3F00FF7F9F00A5002900A55267007F001F007F3F4F004C0013004C262F002600090026131700FF007F00FF7FBF00A5005200A5527C007F003F007F3F5F004C0026004C2639002600130026131C00FF00BF00FF7FDF00A5007C00A55291007F005F007F3F6F004C0039004C26420026001C0026132100FF00FF00FF7FFF00A5
310
00A500A552A5007F007F007F3F7F004C004C004C264C002600260026132600BF00FF00DF7FFF007C00A5009152A5005F007F006F3F7F0039004C0042264C001C002600211326007F00FF00BF7FFF005200A5007C52A5003F007F005F3F7F0026004C0039264C00130026001C1326003F00FF009F7FFF002900A5006752A500
310
1F007F004F3F7F0013004C002F264C000900260017132600000000002D2D2D005B5B5B0089898900B7B7B700B3B3B30000000000000000000000000000000000000000000000000000000000000000000000000000000000000000000000000000000000000000000000000000000000000000000000000000000000000000
310
00000000000000000000000000000007070000000000000000000000000000000000000000000000000000000000000000000000000000000000000000000000000000000000000000000000000000000000000000000000000000000000000000000000000000000000000000000000000000000000000000000000000000
310
00000000000000000000000000000000000000000000000000000000000000000000000000000000000000000000000000000000000000000000000000000000000000000707000000000000000000000000000000000000000000000000000000000000000000000000000000000000000000000000000000000000000000
310
00000000000000000000000000000000000000000000000000000000000000000000000000000000000000000000000000000000000000000000000000000000000000000000000000000000000000000000000000000000000000000000000000000000000000000000000000000000000000000000000000070700000000
310
00000000000000000000000000000000000000000000000000000000000000000000000000000000000000000000000000000000000000000000000000000000000000000000000000000000000000000000000000000000000000000000000000000000000000000000000000000000000000000000000000000000000000
310
00000000000000000000000000000000000000000000000000000000000000000000000000000000000000000000000707000000000000000000000000000000000000000000000000000000000000000000000000000000000000000000000000000000000000000000000000000000000000000000000000000000000000
310
00000000000000000000000000000000000000000000000000000000000000000000000000000000000000000000000000000000000000000000000000000000000000000000000000000000000000000000000000000000000000000000000000000000070700000000000000000000000000000000000000000000000000
310
00000000000000000000000000000000000000000000000000000000000000000000000000000000000000000000000000000000000000000000000000000000000000000000000000000000000000000000000000000000000000000000000000000000000000000000000000000000000000000000000000000000000000
310
00000000000000000000000000000000000000000000000000000707000000000000000000000000000000000000000000000000000000000000000000000000000000000000000000000000000000000000000000000000000000000000000000000000000000000000000000000000000000000000000000000000000000
310
00000000000000000000000000000000000000000000000000000000000000000000000000000000000000000000000000000000000000000000000000000000000000000707070707070707070707070707070707070707070707000000000000000000000000000000000000000000000000000000000000000000000000
310
00000000000000000000000000000000000000000000000000000000000000000000000000000000000000000000000000000000000000000000000000000000000000000000000000000000000000000000000000000000000000000000000000000000000000000000000000000000000000000000000000070700000000
310
00000000000000000000000000000007070700000000000000000000000000000000000000000000000000000000000000000000000000000000000000000000000000000000000000000000000000000000000000000000000000000000000000000000000000000000000000000000000000000000000000000000000000
310
00000000000000000000000000000000000000000000000000000000000000000000000000000000000000000000000707000000000000000000000000000000000000000700070000000000000000000000000000000000000000000000000000000000000000000000000000000000000000000000000000000000000000
310
00000000000000000000000000000000000000000000000000000000000000000000000000000000000000000000000000000000000000000000000000000000000000000000000000000000000000000000000000000000000000000000000000000000070700000000000000000000000000000000000000070707000000
310
00000000000000000000000000000000000000000000000000000000000000000000000000000000000000000000000000000000000000000000000000000000000000000000000000000000000000000000000000000000000000000000000000000000000000000000000000000000000000000000000000000000000000
310
00000000000000000000000000000000000000000000000000000007070707070707070707000707070707070707070700000000000000000000000000000000000000000000000000000000000000000000000000000000000000000000000000000000000000000000000000000000000000000000000000000000000000
310
00000000000000000000000000000000000000000000000000000000000000000000000000000000000000000000000000000000000000000000000000000000000000000000000000000000000000000000000000000000000000000000000000000000000000000000000000000000000000000000000000000000000000
310
00000000000000000000000000000000000000000000000000000000000000000000000000000000000000000000000000000000000000000000000000000000000000000000000000000000000000000000000000000000000000000000000000000000000000000000000000000000000000000000000000000000000000
310
00000000000000000000000000000000000000000000000000000000000000000000000000000000000000000000000000000000000000000000000000000000000000000000000000000000000000000000000000000000000000000000000000000000000000000000000000000000000000000000000000000000000000
310
00000000000000000000000000000000000000000000000000000000000000000000000000000000000000000000000000000000000000000000000000000000000000000000000000000000000000000000000000000000000000000000000000000000000000000000000000000000000000000000000000000000000000
310
00000000000000000000000000000000000000000000000000000000000000000000000000000000000000000000000000000000000000000000000000000000000000000000000000000000000000000000000000000000000000000000000000000000000000000000000000000000000000000000000000000000000000
310
00000000000000000000000000000000000000000000000000000000000000000000000000000000000000000000000000000000000000000000000000000000000000000000000000000000000000000000000000000000000000000000000000000000000000000000000000000000000000000000000000000000000000
310
00000000000000000000000000000000000000000000000000000000000000000000000000000000000000000000000000000000000000000000000000000000000000000000000000000000000000000000000000000000000000000000000000000000000000000000000000000000000000000000000000000000000000
310
00000000000000000000000000000000000000000000000000000000000000000000000000000000000000000000000000000000000000000000000000000000000000000000000000000000000000000000000000000000000000000000000000000000000000000000000000000000000000000000000000000000000000
310
00000000000000000000000000000000000000000000000000000000000000000000000000000000000000000000000000000000000000000000000000000000000000000000000000000000000000000000000000000000000000000000000000000000000000000000000000000000000000000000000000000000000000
310
00000000000000000000000000000000000000000000000000000000000000000000000000000000000000000000000000000000000000000000000000000000000000000000000000000000000000000000000000000000000000000000000000000000000000000000000000000000000000000000000000000000000000
310
00000000000000000000000000000000000000000000000000000000000000000000000000000000000000000000000000000000000000000000000000000000000000000000000000000000000000000000000000000000000000000000000000000000000000000000000000000000000000000000000000000000000000
310
00000000000000000000000000000000000000000000000000000000000000000000000000000000000000000000000000000000000000000000000000000000000000000000000000000000000000000000000000000000000000000000000000000000000000000000000000000000000000000000000700000000000000
310
00000000000000000000000000000000000000000000000000000000000000000000000000000000000000000000000000000000000000000000000000000000000000000000000000000000000000000000000000000000000000000000000000000000000000000000000000000000000000000000000000000000000000
310
00000000000000000000000000000000000000000000000000000000000000000000000000000000000000000007070000000000000000000000000000000000000000000000000000000000000000000000000000000000000000000000000000000000000000000000000000000000000000000000000000000000000000
310
00000000000000000000000000000000000000000000000000000000000000000000000000000000000000000000000000000000000000000000000000000000000000000000000000000000000000000000000000000000000000000000000000000707000000000000000000000000000000000000000000000000000000
310
00000000000000000000000000000000000000000000000000000000000000000000000000000000000000000000000000000000000000000000000000000000000000000000000000000000000000000000000000000000000000000000000000000000000000000000000000000000000000000000000000000000000000
310
00000000000000000000000000000000000000000000000007070000000000000000000000000000000000000000000000000000000000000000000000000000000000000000000000000000000000000000000000000000000000000000000000000000000000000000000000000000000000000000000000000000000000
310
00000000000000000000000000000000000000000000000000000000000000000000000000000000000000000000000000000000000000000000000000000000000000000000000000000000000707000000000000000000000000000000000000000000000000000000000000000000000000000000000000000000000000
310
00000000000000000000000000000000000000000000000000000000000000000000000000000000000000000000000000000000000000000000000000000000000000000000000000000000000000000000000000000000000000000000000000000000000000000000000000000000000000000000000000000000000000
310
00000007070000000000000000000000000000000000000000000000000000000000000000000000000000000000000000000000000000000000000000000000000000000000000000000000000000000000000000000000000000000000000000000000000000000000000000000000000000000000000000000000000000
310
00000000000000000000000000000000000000000000000000000000000000000000000000000000000000000000000000000000000000000707000000000000000000000000000000000000000000000000000000000000000000000000000000000000000000000000000000000000000000000000000000000000000000
310
00000000000000000000000000000000000000000000000000000000000000000000000000000000000000000000000000000000000000000000000000000000000000000000000000000000000000000000000000000000000000000000000000000000000000000000000000070700000000000000000000000000000000
310
00000000000000000000000000000000000000000000000000000000000000000000000000000000000000000000000000000000000000000000000000000000000000000000000000000000000000000000000000000000000000000000000000000000000000000000000000000000000000000000000000000000000000
310
00000000000000000000000000000000000000000000000000000000000000000000000707000000000000000000000000000000000000000000000000000000000000000000000000000000000000000000000000000000000000000000000000000000000000000000000000000000000000000000000000000000000000
310
00000000000000000000000000000000000000000000000000000000000000000000000000000000000000000000000000000000000000000000000000000000000000000000000000000000000000000000000000000000070700000000000000000000000000000000000000000000000000000000000000000000000000
310
00000000000000000000000000000000000000000000000000000000000000000000000000000000000000000000000000000000000000000000000000000000000000000000000000000000000000000000000000000000000000000000000000000000000000000000000000000000000000000000000000000000000000
310
00000000000000000000000000000707000000000000000000000000000000000000000000000000000000000000000000000000000000000000000000000000000000000000000000000000000000000000000000000000000000000000000000000000000000000000000000000000000000000000000000000000000000
310
00000000000000000000000000000000000000000000000000000000000000000000000000000000000000000000000000000000000000000000000000000000000000070700000000000000000000000000000000000000000000000000000000000000000000000000000000000000000000000000000000000000000000
310
00000000000000000000000000000000000000000000000000000000000000000000000000000000000000000000000000000000000000000000000000000000000000000000000000000000000000000000000000000000000000000000000000000000000000000000000000000000000000000000000007070000000000
310
00000000000000000000000000000000000000000000000000000000000000000000000000000000000000000000000000000000000000000000000000000000000000000000000000000000000000000000000000000000000000000000000000000000000000000000000000000000000000000000000000000000000000
310
00000000000000000000000000000000000000000000000000000000000000000000000000000000000000000000070700000000000000000000000000000000000000000000000000000000000000000000000000000000000000000000000000000000000000000000000000000000000000000000000000000000000000
310
00000000000000000000000000000000000000000000000000000000000000000000000000000000000000000000000000000000000000000000000000000000000000000000000000000000000000000000000000000000000000000000000000070707070000000000000000000000000000000000000000000000000000
310
00000000000000000000000000000000000000000000000000000000000000000000000000000000000000000000000000000000000000000000000000000000000000000000000000000000000000000000000000000000000000000000000000000000000000000000000000000000000000000000000000000000000000
310
00000000000000000000000000000000000000000000000707070700000000000000000000000000000000000000000000000000000000000000000000000000000000000000000000000000000000000000000000000000000000000000000000000000000000000000000000000000000000000000000000000000000000
310
00000000000000000000000000000000000000000000000000000000000000000000000000000000000000000000000000000000000000000000000000000000000000000000000000000000070707070000000000000000000000000000000000000000000000000000000000000000000000000000000000000000000000
310
00000000000000000000000000000000000000000000000000000000000000000000000000000000000000000000000000000000000000000000000000000000000000000000000000000000000000000000000000000000000000000000000000000000000000000000000000000000000000000000000000000000000000
310
00000707070700000000000000000000000000000000000000000000000000000000000000000000000000000000000000000000000000000000000000000000000000000000000000000000000000000000000000000000000000000000000000000000000000000000000000000000000000000000000000000000000000
310
00000000000000000000000000000000000000000000000000000000000000000000000000000000000000000000000000000000000000070707070000000000000000000000000000000000000000000000000000000000000000000000000000000000000000000000000000000000000000000000000000000000000000
310
00000000000000000000000000000000000000000000000000000000000000000000000000000000000000000000000000000000000000000000000000000000000000000000000000000000000000000000000000000000000000000000000000000000000000000000000007070707000000000000000000000000000000
310
00000000000000000000000000000000000000000000000000000000000000000000000000000000000000000000000000000000000000000000000000000000000000000000000000000000000000000000000000000000000000000000000000000000000000000000000000000000000000000000000000000000000000
310
00000000000000000000000000000000000000000000000000000000000000000007070707070000000000000000000000000000000000000000000000000000000000000000000000000000000000000000000000000000000000000000000000000000000000000000000000000000000000000000000000000000000000
310
00000000000000000000000000000000000000000000000000000000000000000000000000000000000000000000000000000000000000000000000000000000000000000000000000000000000000000000000707070707070707070700000000000000000000000000000000000000000000000000000000000000000000
310
00000000000000000000000000000000000000000000000000000000000000000000000000000000000000000000000000000000000000000000000000000000000000000000000000000000000000000000000000000000000000000000000000000000000000000000000000000000000000000000000000000000000000
310
00000000000000000007000000000000000007000000000000000000000000000000000000000000000000000000000000000000000000000000000000000000000000000000000000000000000000000000000000000000000000000000000000000000000000000000000000000000000000000000000000000000000000
310
00000000000000000000000000000000000000000000000000000000000000000000000000000000000000000000000000000000000000000000000000000707070707070707070700000000000000000000000000000000000000000000000000000000000000000000000000000000000000000000000000000000000000
310
00000000000000000000000000000000000000000000000000000000000000000000000000000000000000000000000000000000000000000000000000000000000000000000000000000000000000000000000000000000000000000000000000000000000000000000000000000000000000000000000707070700000000
310
00000000000000000000000000000000000000000000000000000000000000000000000000000000000000000000000000000000000000000000000000000000000000000000000000000000000000000000000000000000000000000000000000000000000000000000000000000000000000000000000000000000000000
310
00000000000000000000000000000000000000000000000000000000000000000000000000000000000000000007070707000000000000000000000000000000000000000000000000000000000000000000000000000000000000000000000000000000000000000000000000000000000000000000000000000000000000
310
00000000000000000000000000000000000000000000000000000000000000000000000000000000000000000000000000000000000000000000000000000000000000000000000000000000000000000000000000000000000000000000000000000707070700000000000000000000000000000000000000000000000000
310
00000000000000000000000000000000000000000000000000000000000000000000000000000000000000000000000000000000000000000000000000000000000000000000000000000000000000000000000000000000000000000000000000000000000000000000000000000000000000000000000000000000000000
310
00000000000000000000000000000000000000000000000007070707000000000000000000000000000000000000000000000000000000000000000000000000000000000000000000000000000000000000000000000000000000000000000000000000000000000000000000000000000000000000000000000000000000
310
00000000000000000000000000000000000000000000000000000000000000000000000000000000000000000000000000000000000000000000000000000000000000000000000000000000000707070700000000000000000000000000000000000000000000000000000000000000000000000000000000000000000000
310
00000000000000000000000000000000000000000000000000000000000000000000000000000000000000000000000000000000000000000000000000000000000000000000000000000000000000000000000000000000000000000000000000000000000000000000000000000000000000000000000000000000000000
310
00000007070707000000000000000000000000000000000000000000000000000000000000000000000000000000000000000000000000000000000000000000000000000000000000000000000000000000000000000000000000000000000000000000000000000000000000000000000000000000000000000000000000
310
00000000000000000000000000000000000000000000000000000000000000000000000000000000000000000000000000000000000000000707070700000000000000000000000000000000000000000000000000000000000000000000000000000000000000000000000000000000000000000000000000000000000000
310
00000000000000000000000000000000000000000000000000000000000000000000000000000000000000000000000000000000000000000000000000000000000000000000000000000000000000000000000000000000000000000000000000000000000000000000000000070707070000000000000000000000000000
310
00000000000000000000000000000000000000000000000000000000000000000000000000000000000000000000000000000000000000000000000000000000000000000000000000000000000000000000000000000000000000000000000000000000000000000000000000000000000000000000000000000000000000
310
00000000000000000000000000000000000000000000000000000000000000000000000707070700000000000000000000000000000000000000000000000000000000000000000000000000000000000000000000000000000000000000000000000000000000000000000000000000000000000000000000000000000000
310
00000000000000000000000000000000000000000000000000000000000000000000000000000000000000000000000000000000000000000000000000000000000000000000000000000000000000000000000000000000070707070000000000000000000000000000000000000000000000000000000000000000000000
310
00000000000000000000000000000000000000000000000000000000000000000000000000000000000000000000000000000000000000000000000000000000000000000000000000000000000000000000000000000000000000000000000000000000000000000000000000000000000000000000000000000000000000
310
00000000000000000000000000000707070700000000000000000000000000000000000000000000000000000000000000000000000000000000000000000000000000000000000000000000000000000000000000000000000000000000000000000000000000000000000000000000000000000000000000000000000000
310
00000000000000000000000000000000000000000000000000000000000000000000000000000000000000000000000000000000000000000000000000000000000000070700000000000000000000000000000000000000000000000000000000000000000000000000000000000000000000000000000000000000000000
310
00000000000000000000000000000000000000000000000000000000000000000000000000000000000000000000000000000000000000000000000000000000000000000000000000000000000000000000000000000000000000000000000000000000000000000000000000000000000000000000000007070707000000
310
00000000000000000000000000000000000000000000000000000000000000000000000000000000000000000000000000000000000000000000000000000000000000000000000000000000000000000000000000000000000000000000000000000000000000000000000000000000000000000000000000000000000000
310
00000000000000000000000000000000000000000000000000000000000000000000000000000000000000000000070707070000000000000000000000000000000000000000000000000000000000000000000000000000000000000000000000000000000000000000000000000000000000000000000000000000000000
310
00000000000000000000000000000000000000000000000000000000000000000000000000000000000000000000000000000000000000000000000000000000000000000000000000000000000000000000000000000000000000000000000000000007070707000000000000000000000000000000000000000000000000
310
00000000000000000000000000000000000000000000000000000000000000000000000000000000000000000000000000000000000000000000000000000000000000000000000000000000000000000000000000000000000000000000000000000000000000000000000000000000000000000000000000000000000000
310
00000000000000000000000000000000000000000000000000070707070000000000000000000000000000000000000000000000000000000000000000000000000000000000000000000000000000000000000000000000000000000000000000000000000000000000000000000000000000000000000000000000000000
310
00000000000000000000000000000000000000000000000000000000000000000000000000000000000000000000000000000000000000000000000000000000000000000000000000000000000007070707000000000000000000000000000000000000000000000000000000000000000000000000000000000000000000
310
00000000000000000000000000000000000000000000000000000000000000000000000000000000000000000000000000000000000000000000000000000000000000000000000000000000000000000000000000000000000000000000000000000000000000000000000000000000000000000000000000000000000000
310
00000000070707070000000000000000000000000000000000000000000000000000000000000000000000000000000000000000000000000000000000000000000000000000000000000000000000000000000000000000000000000000000000000000000000000000000000000000000000000000000000000000000000
310
00000000000000000000000000000000000000000000000000000000000000000000000000000000000000000000000000000000000000000007070707000000000000000000000000000000000000000000000000000000000000000000000000000000000000000000000000000000000000000000000000000000000000
310
00000000000000000000000000000000000000000000000000000000000000000000000000000000000000000000000000000000000000000000000000000000000000000000000000000000000000000000000000000000000000000000000000000000000000000000000707070707070700000000000000000000000000
310
00000000000000000000000000000000000000000000000000000000000000000000000000000000000000000000000000000000000000000000000000000000000000000000000000000000000000000000000000000000000000000000000000000000000000000000000000000000000000000000000000000000000000
310
00000000000000000000000000000000000000000000000000000000000000000007000700000707000000000000000000000000000000000000000000000000000000000000000000000000000000000000000000000000000000000000000000000000000000000000000000000000000000000000000000000000000000
310
00000000000000000000000000000000000000000000000000000000000000000000000000000000000000000000000000000000000000000000000000000000000000000000000000000000000000000000000000000707070707070707000000000000000000000000000000000000000000000000000000000000000000
310
00000000000000000000000000000000000000000000000000000000000000000000000000000000000000000000000000000000000000000000000000000000000000000000000000000000000000000000000000000000000000000000000000000000000000000000000000000000000000000000000000000000000000
310
00000000000000000000000007000007070700070000000000000000000000000000000000000000000000000000000000000000000000000000000000000000000000000000000000000000000000000000000000000000000000000000000000000000000000000000000000000000000000000000000000000000000000
310
00000000000000000000000000000000000000000000000000000000000000000000000000000000000000000000000000000000000000000000000000000000000000000707070707000000000000000000000000000000000000000000000000000000000000000000000000000000000000000000000000000000000000
310
00000000000000000000000000000000000000000000000000000000000000000000000000000000000000000000000000000000000000000000000000000000000000000000000000000000000000000000000000000000000000000000000000000000000000000000000000000000000000000000000000070707070700
310
00000000000000000000000000000000000000000000000000000000000000000000000000000000000000000000000000000000000000000000000000000000000000000000000000000000000000000000000000000000000000000000000000000000000000000000000000000000000000000000000000000000000000
310
00000000000000000000000000000000000000000000000000000000000000000000000000000000000000000000000707070007000000000000000000000000000000000000000000000000000000000000000000000000000000000000000000000000000000000000000000000000000000000000000000000000000000
310
00000000000000000000000000000000000000000000000000000000000000000000000000000000000000000000000000000000000000000000000000000000000000000000000000000000000000000000000000000000000000000000000000000000070707000700000000000000000000000000000000000000000000
310
00000000000000000000000000000000000000000000000000000000000000000000000000000000000000000000000000000000000000000000000000000000000000000000000000000000000000000000000000000000000000000000000000000000000000000000000000000000000000000000000000000000000000
310
00000000000000000000000000000000000000000000000000000707070007000000000000000000000000000000000000000000000000000000000000000000000000000000000000000000000000000000000000000000000000000000000000000000000000000000000000000000000000000000000000000000000000
310
00000000000000000000000000000000000000000000000000000000000000000000000000000000000000000000000000000000000000000000000000000000000000000000000000000000000000070707000700000000000000000000000000000000000000000000000000000000000000000000000000000000000000
310
00000000000000000000000000000000000000000000000000000000000000000000000000000000000000000000000000000000000000000000000000000000000000000000000000000000000000000000000000000000000000000000000000000000000000000000000000000000000000000000000000000000000000
310
00000000000707070707070000000000000000000000000000000000000000000000000000000000000000000000000000000000000000000000000000000000000000000000000000000000000000000000000000000000000000000000000000000000000000000000000000000000000000000000000000000000000000
310
00000000000000000000000000000000000000000000000000000000000000000000000000000000000000000000000000000000000000000000070707070707070000000000000000000000000000000000000000000000000000000000000000000000000000000000000000000000000000000000000000000000000000
310
00000000000000000000000000000000000000000000000000000000000000000000000000000000000000000000000000000000000000000000000000000000000000000000000000000000000000000000000000000000000000000000000000000000000000000000000000070707070707070707070000000000000000
310
00000000000000000000000000000000000000000000000000000000000000000000000000000000000000000000000000000000000000000000000000000000000000000000000000000000000000000000000000000000000000000000000000000000000000000000000000000000000000000000000000000000000000
310
00000000000000000000000000000000000000000000000000000000000000000000000707070707070707070707000000000000000000000000000000000000000000000000000000000000000000000000000000000000000000000000000000000000000000000000000000000000000000000000000000000000000000
310
00000000000000000000000000000000000000000000000000000000000000000000000000000000000000000000000000000000000000000000000000000000000000000000000000000000000000000000000000000000070707070707070707070700000000000000000000000000000000000000000000000000000000
310
00000000000000000000000000000000000000000000000000000000000000000000000000000000000000000000000000000000000000000000000000000000000000000000000000000000000000000000000000000000000000000000000000000000000000000000000000000000000000000000000000000000000000
310
00000000000000000000000000000707070707070707070707000000000000000000000000000000000000000000000000000000000000000000000000000000000000000000000000000000000000000000000000000000000000000000000000000000000000000000000000000000000000000000000000000000000000
310
00000000000000000000000000000000000000000000000000000000000000000000000000000000000000000000000000000000000000000000000000000000000000070707070707070707070700000000000000000000000000000000000000000000000000000000000000000000000000000000000000000000000000
310
00000000000000000000000000000000000000000000000000000000000000000000000000000000000000000000000000000000000000000000000000000000000000000000000000000000000000000000000000000000000000000000000000000000000000000000000000000000000000000000000000070707070707
310
07070000000000000000000000000000000000000000000000000000000000000000000000000000000000000000000000000000000000000000000000000000000000000000000000000000000000000000000000000000000000000000000000000000000000000000000000000000000000000000000000000000000000
310
00000000000000000000000000000000000000000000000000000000000000000000000000000000000000000000000007070000000000000000000000000000000000000000000000000000000000000000000000000000000000000000000000000000000000000000000000000000000000000000000000000000000000
310
00000000000000000000000000000000000000000000000000000000000000000000000000000000000000000000000000000000000000000000000000000000000000000000000000000000000000000000000000000000000000000000000000000000000707000000000000000000000000000000000000000000000000
310
00000000000000000000000000000000000000000000000000000000000000000000000000000000000000000000000000000000000000000000000000000000000000000000000000000000000000000000000000000000000000000000000000000000000000000000000000000000000000000000000000000000000000
310
00000000000000000000000000000000000000000000000000000007070000000000000000000000000000000000000000000000000000000000000000000000000000000000000000000000000000000000000000000000000000000000000000000000000000000000000000000000000000000000000000000000000000
310
00000000000000000000000000000000000000000000000000000000000000000000000000000000000000000000000000000000000000000000000000000000000000000000000000000000000000000707000000000000000000000000000000000000000000000000000000000000000000000000000000000000000000
310
00000000000000000000000000000000000000000000000000000000000000000000000000000000000000000000000000000000000000000000000000000000000000000000000000000000000000000000000000000000000000000000000000000000000000000000000000000000000000000000000000000000000000
310
000000000000000000000000000000000000000000000000000000000000000000000000000000000000000000000000000000000000000000000000000000000000000000000000000000000000000000000000000000000000000000000000000000000000000000000000
  0
ENDSEC
  0
EOF
