  0
SECTION
  2
HEADER
  9
$ACADVER
  1
AC1015
  9
$ACADMAINTVER
 70
     6
  9
$DWGCODEPAGE
  3
ANSI_1252
  9
$INSBASE
 10
0.0
 20
0.0
 30
0.0
  9
$EXTMIN
 10
-4.113528779721
 20
0.0
 30
0.0
  9
$EXTMAX
 10
217.94954
 20
1008.0
 30
0.0
  9
$LIMMIN
 10
0.0
 20
0.0
  9
$LIMMAX
 10
12.0
 20
9.0
  9
$ORTHOMODE
 70
     0
  9
$REGENMODE
 70
     1
  9
$FILLMODE
 70
     1
  9
$QTEXTMODE
 70
     0
  9
$MIRRTEXT
 70
     1
  9
$LTSCALE
 40
1.0
  9
$ATTMODE
 70
     1
  9
$TEXTSIZE
 40
0.2
  9
$TRACEWID
 40
0.05
  9
$TEXTSTYLE
  7
Standard
  9
$CLAYER
  8
0
  9
$CELTYPE
  6
ByBlock
  9
$CECOLOR
 62
   256
  9
$CELTSCALE
 40
1.0
  9
$DISPSILH
 70
     0
  9
$DIMSCALE
 40
1.0
  9
$DIMASZ
 40
0.18
  9
$DIMEXO
 40
0.0625
  9
$DIMDLI
 40
0.38
  9
$DIMRND
 40
0.0
  9
$DIMDLE
 40
0.0
  9
$DIMEXE
 40
0.18
  9
$DIMTP
 40
0.0
  9
$DIMTM
 40
0.0
  9
$DIMTXT
 40
0.18
  9
$DIMCEN
 40
0.09
  9
$DIMTSZ
 40
0.0
  9
$DIMTOL
 70
     0
  9
$DIMLIM
 70
     0
  9
$DIMTIH
 70
     1
  9
$DIMTOH
 70
     1
  9
$DIMSE1
 70
     0
  9
$DIMSE2
 70
     0
  9
$DIMTAD
 70
     0
  9
$DIMZIN
 70
     0
  9
$DIMBLK
  1

  9
$DIMASO
 70
     1
  9
$DIMSHO
 70
     1
  9
$DIMPOST
  1

  9
$DIMAPOST
  1

  9
$DIMALT
 70
     0
  9
$DIMALTD
 70
     2
  9
$DIMALTF
 40
25.4
  9
$DIMLFAC
 40
1.0
  9
$DIMTOFL
 70
     0
  9
$DIMTVP
 40
0.0
  9
$DIMTIX
 70
     0
  9
$DIMSOXD
 70
     0
  9
$DIMSAH
 70
     0
  9
$DIMBLK1
  1

  9
$DIMBLK2
  1

  9
$DIMSTYLE
  2
Standard
  9
$DIMCLRD
 70
     0
  9
$DIMCLRE
 70
     0
  9
$DIMCLRT
 70
     0
  9
$DIMTFAC
 40
1.0
  9
$DIMGAP
 40
0.09
  9
$DIMJUST
 70
     0
  9
$DIMSD1
 70
     0
  9
$DIMSD2
 70
     0
  9
$DIMTOLJ
 70
     1
  9
$DIMTZIN
 70
     0
  9
$DIMALTZ
 70
     0
  9
$DIMALTTZ
 70
     0
  9
$DIMUPT
 70
     0
  9
$DIMDEC
 70
     4
  9
$DIMTDEC
 70
     4
  9
$DIMALTU
 70
     2
  9
$DIMALTTD
 70
     2
  9
$DIMTXSTY
  7
Standard
  9
$DIMAUNIT
 70
     0
  9
$DIMADEC
 70
     0
  9
$DIMALTRND
 40
0.0
  9
$DIMAZIN
 70
     0
  9
$DIMDSEP
 70
    46
  9
$DIMATFIT
 70
     3
  9
$DIMFRAC
 70
     0
  9
$DIMLDRBLK
  1

  9
$DIMLUNIT
 70
     2
  9
$DIMLWD
 70
    -2
  9
$DIMLWE
 70
    -2
  9
$DIMTMOVE
 70
     2
  9
$LUNITS
 70
     2
  9
$LUPREC
 70
     4
  9
$SKETCHINC
 40
0.1
  9
$FILLETRAD
 40
0.5
  9
$AUNITS
 70
     0
  9
$AUPREC
 70
     0
  9
$MENU
  1
.
  9
$ELEVATION
 40
0.0
  9
$PELEVATION
 40
0.0
  9
$THICKNESS
 40
0.0
  9
$LIMCHECK
 70
     0
  9
$CHAMFERA
 40
0.5
  9
$CHAMFERB
 40
0.5
  9
$CHAMFERC
 40
1.0
  9
$CHAMFERD
 40
0.0
  9
$SKPOLY
 70
     0
  9
$TDCREATE
 40
2455825.007718993
  9
$TDUCREATE
 40
2455824.92438566
  9
$TDUPDATE
 40
2455825.008640405
  9
$TDUUPDATE
 40
2455824.925307072
  9
$TDINDWG
 40
0.0009203356
  9
$TDUSRTIMER
 40
0.0009203356
  9
$USRTIMER
 70
     1
  9
$ANGBASE
 50
0.0
  9
$ANGDIR
 70
     0
  9
$PDMODE
 70
     0
  9
$PDSIZE
 40
0.0
  9
$PLINEWID
 40
0.0
  9
$SPLFRAME
 70
     0
  9
$SPLINETYPE
 70
     6
  9
$SPLINESEGS
 70
     8
  9
$HANDSEED
  5
1DA7
  9
$SURFTAB1
 70
     6
  9
$SURFTAB2
 70
     6
  9
$SURFTYPE
 70
     6
  9
$SURFU
 70
     6
  9
$SURFV
 70
     6
  9
$UCSBASE
  2

  9
$UCSNAME
  2

  9
$UCSORG
 10
0.0
 20
0.0
 30
0.0
  9
$UCSXDIR
 10
1.0
 20
0.0
 30
0.0
  9
$UCSYDIR
 10
0.0
 20
1.0
 30
0.0
  9
$UCSORTHOREF
  2

  9
$UCSORTHOVIEW
 70
     0
  9
$UCSORGTOP
 10
0.0
 20
0.0
 30
0.0
  9
$UCSORGBOTTOM
 10
0.0
 20
0.0
 30
0.0
  9
$UCSORGLEFT
 10
0.0
 20
0.0
 30
0.0
  9
$UCSORGRIGHT
 10
0.0
 20
0.0
 30
0.0
  9
$UCSORGFRONT
 10
0.0
 20
0.0
 30
0.0
  9
$UCSORGBACK
 10
0.0
 20
0.0
 30
0.0
  9
$PUCSBASE
  2

  9
$PUCSNAME
  2

  9
$PUCSORG
 10
0.0
 20
0.0
 30
0.0
  9
$PUCSXDIR
 10
1.0
 20
0.0
 30
0.0
  9
$PUCSYDIR
 10
0.0
 20
1.0
 30
0.0
  9
$PUCSORTHOREF
  2

  9
$PUCSORTHOVIEW
 70
     0
  9
$PUCSORGTOP
 10
0.0
 20
0.0
 30
0.0
  9
$PUCSORGBOTTOM
 10
0.0
 20
0.0
 30
0.0
  9
$PUCSORGLEFT
 10
0.0
 20
0.0
 30
0.0
  9
$PUCSORGRIGHT
 10
0.0
 20
0.0
 30
0.0
  9
$PUCSORGFRONT
 10
0.0
 20
0.0
 30
0.0
  9
$PUCSORGBACK
 10
0.0
 20
0.0
 30
0.0
  9
$USERI1
 70
     0
  9
$USERI2
 70
     0
  9
$USERI3
 70
     0
  9
$USERI4
 70
     0
  9
$USERI5
 70
     0
  9
$USERR1
 40
0.0
  9
$USERR2
 40
0.0
  9
$USERR3
 40
0.0
  9
$USERR4
 40
0.0
  9
$USERR5
 40
0.0
  9
$WORLDVIEW
 70
     1
  9
$SHADEDGE
 70
     3
  9
$SHADEDIF
 70
    70
  9
$TILEMODE
 70
     1
  9
$MAXACTVP
 70
    64
  9
$PINSBASE
 10
0.0
 20
0.0
 30
0.0
  9
$PLIMCHECK
 70
     0
  9
$PEXTMIN
 10
1.000000000000E+20
 20
1.000000000000E+20
 30
1.000000000000E+20
  9
$PEXTMAX
 10
-1.000000000000E+20
 20
-1.000000000000E+20
 30
-1.000000000000E+20
  9
$PLIMMIN
 10
0.0
 20
0.0
  9
$PLIMMAX
 10
12.0
 20
9.0
  9
$UNITMODE
 70
     0
  9
$VISRETAIN
 70
     1
  9
$PLINEGEN
 70
     0
  9
$PSLTSCALE
 70
     1
  9
$TREEDEPTH
 70
  3020
  9
$CMLSTYLE
  2
Standard
  9
$CMLJUST
 70
     0
  9
$CMLSCALE
 40
1.0
  9
$PROXYGRAPHICS
 70
     1
  9
$MEASUREMENT
 70
     0
  9
$CELWEIGHT
370
    -1
  9
$ENDCAPS
280
     0
  9
$JOINSTYLE
280
     0
  9
$LWDISPLAY
290
     0
  9
$INSUNITS
 70
     0
  9
$HYPERLINKBASE
  1

  9
$STYLESHEET
  1

  9
$XEDIT
290
     1
  9
$CEPSNTYPE
380
     0
  9
$PSTYLEMODE
290
     1
  9
$FINGERPRINTGUID
  2
{156D45D0-1009-4B27-A9C8-2DEC494DFDB4}
  9
$VERSIONGUID
  2
{FAEB1C32-E019-11D5-929B-00C0DF256EC4}
  9
$EXTNAMES
290
     1
  9
$PSVPSCALE
 40
0.0
  9
$OLESTARTUP
290
     0
  0
ENDSEC
  0
SECTION
  2
CLASSES
  0
CLASS
  1
ACDBDICTIONARYWDFLT
  2
AcDbDictionaryWithDefault
  3
ObjectDBX Classes
 90
        0
280
     0
281
     0
  0
CLASS
  1
SCALE
  2
AcDbScale
  3
ObjectDBX Classes
 90
     1153
280
     0
281
     0
  0
CLASS
  1
DICTIONARYVAR
  2
AcDbDictionaryVar
  3
ObjectDBX Classes
 90
        0
280
     0
281
     0
  0
CLASS
  1
ACDBPLACEHOLDER
  2
AcDbPlaceHolder
  3
ObjectDBX Classes
 90
        0
280
     0
281
     0
  0
CLASS
  1
LAYOUT
  2
AcDbLayout
  3
ObjectDBX Classes
 90
        0
280
     0
281
     0
  0
ENDSEC
  0
SECTION
  2
TABLES
  0
TABLE
  2
VPORT
  5
8
330
0
100
AcDbSymbolTable
 70
     1
  0
VPORT
  5
1307
330
8
100
AcDbSymbolTableRecord
100
AcDbViewportTableRecord
  2
*Active
 70
     0
 10
0.0
 20
0.0
 11
1.0
 21
1.0
 12
106.91800561014
 22
504.0
 13
0.0
 23
0.0
 14
0.5
 24
0.5
 15
0.5
 25
0.5
 16
0.0
 26
0.0
 36
1.0
 17
0.0
 27
0.0
 37
0.0
 40
1028.16
 41
1.790857142857
 42
50.0
 43
0.0
 44
0.0
 50
0.0
 51
0.0
 71
    16
 72
   100
 73
     1
 74
     3
 75
     0
 76
     0
 77
     0
 78
     0
281
     0
 65
     1
110
0.0
120
0.0
130
0.0
111
1.0
121
0.0
131
0.0
112
0.0
122
1.0
132
0.0
 79
     0
146
0.0
  0
ENDTAB
  0
TABLE
  2
LTYPE
  5
5
330
0
100
AcDbSymbolTable
 70
     1
  0
LTYPE
  5
14
330
5
100
AcDbSymbolTableRecord
100
AcDbLinetypeTableRecord
  2
ByBlock
 70
     0
  3

 72
    65
 73
     0
 40
0.0
  0
LTYPE
  5
15
330
5
100
AcDbSymbolTableRecord
100
AcDbLinetypeTableRecord
  2
ByLayer
 70
     0
  3

 72
    65
 73
     0
 40
0.0
  0
LTYPE
  5
16
330
5
100
AcDbSymbolTableRecord
100
AcDbLinetypeTableRecord
  2
Continuous
 70
     0
  3
Solid line
 72
    65
 73
     0
 40
0.0
  0
ENDTAB
  0
TABLE
  2
LAYER
  5
2
330
0
100
AcDbSymbolTable
 70
     1
  0
LAYER
  5
10
330
2
100
AcDbSymbolTableRecord
100
AcDbLayerTableRecord
  2
0
 70
     0
 62
     7
  6
Continuous
370
    -3
390
F
  0
ENDTAB
  0
TABLE
  2
STYLE
  5
3
330
0
100
AcDbSymbolTable
 70
     1
  0
STYLE
  5
11
330
3
100
AcDbSymbolTableRecord
100
AcDbTextStyleTableRecord
  2
Standard
 70
     0
 40
0.0
 41
1.0
 50
0.0
 71
     0
 42
0.2
  3
txt
  4

  0
ENDTAB
  0
TABLE
  2
VIEW
  5
6
330
0
100
AcDbSymbolTable
 70
     0
  0
ENDTAB
  0
TABLE
  2
UCS
  5
7
330
0
100
AcDbSymbolTable
 70
     0
  0
ENDTAB
  0
TABLE
  2
APPID
  5
9
330
0
100
AcDbSymbolTable
 70
     1
  0
APPID
  5
12
330
9
100
AcDbSymbolTableRecord
100
AcDbRegAppTableRecord
  2
ACAD
 70
     0
  0
ENDTAB
  0
TABLE
  2
DIMSTYLE
  5
A
330
0
100
AcDbSymbolTable
 70
     1
100
AcDbDimStyleTable
  0
DIMSTYLE
105
20
330
A
100
AcDbSymbolTableRecord
100
AcDbDimStyleTableRecord
  2
Standard
 70
     0
340
11
  0
ENDTAB
  0
TABLE
  2
BLOCK_RECORD
  5
1
330
0
100
AcDbSymbolTable
 70
     1
  0
BLOCK_RECORD
  5
1D
330
1
100
AcDbSymbolTableRecord
100
AcDbBlockTableRecord
  2
*Model_Space
340
1E
  0
BLOCK_RECORD
  5
1B
330
1
100
AcDbSymbolTableRecord
100
AcDbBlockTableRecord
  2
*Paper_Space
340
1C
  0
ENDTAB
  0
ENDSEC
  0
SECTION
  2
BLOCKS
  0
BLOCK
  5
130A
330
1D
100
AcDbEntity
  8
0
100
AcDbBlockBegin
  2
*Model_Space
 70
     0
 10
0.0
 20
0.0
 30
0.0
  3
*Model_Space
  1
*Model_Space
  0
ENDBLK
  5
130B
330
1D
100
AcDbEntity
  8
0
100
AcDbBlockEnd
  0
BLOCK
  5
1308
330
1B
100
AcDbEntity
 67
     1
  8
0
100
AcDbBlockBegin
  2
*Paper_Space
 70
     0
 10
0.0
 20
0.0
 30
0.0
  3
*Paper_Space
  1
*Paper_Space
  0
ENDBLK
  5
1309
330
1B
100
AcDbEntity
 67
     1
  8
0
100
AcDbBlockEnd
  0
ENDSEC
  0
SECTION
  2
ENTITIES
  0
LINE
  5
21
330
1D
100
AcDbEntity
  8
0
100
AcDbLine
 10
166.19054
 20
0.384615
 30
0.0
 11
166.58654
 21
0.384615
 31
0.0
  0
LINE
  5
22
330
1D
100
AcDbEntity
  8
0
100
AcDbLine
 10
166.19054
 20
0.384615
 30
0.0
 11
166.45454
 21
0.0
 31
0.0
  0
LINE
  5
23
330
1D
100
AcDbEntity
  8
0
100
AcDbLine
 10
166.19054
 20
0.384615
 30
0.0
 11
166.19054
 21
69.6154
 31
0.0
  0
LINE
  5
24
330
1D
100
AcDbEntity
  8
0
100
AcDbLine
 10
166.19054
 20
0.384615
 30
0.0
 11
166.45454
 21
0.0
 31
0.0
  0
LINE
  5
25
330
1D
100
AcDbEntity
  8
0
100
AcDbLine
 10
166.19054
 20
69.6154
 30
0.0
 11
166.58654
 21
69.6154
 31
0.0
  0
LINE
  5
26
330
1D
100
AcDbEntity
  8
0
100
AcDbLine
 10
166.19054
 20
69.6154
 30
0.0
 11
166.45454
 21
70.0
 31
0.0
  0
LINE
  5
27
330
1D
100
AcDbEntity
  8
0
100
AcDbLine
 10
166.19054
 20
69.6154
 30
0.0
 11
166.19054
 21
0.384615
 31
0.0
  0
LINE
  5
28
330
1D
100
AcDbEntity
  8
0
100
AcDbLine
 10
165.62254
 20
100.0
 30
0.0
 11
166.77454
 21
100.0
 31
0.0
  0
LINE
  5
29
330
1D
100
AcDbEntity
  8
0
100
AcDbLine
 10
165.62254
 20
100.0
 30
0.0
 11
166.19054
 21
100.0
 31
0.0
  0
LINE
  5
2A
330
1D
100
AcDbEntity
  8
0
100
AcDbLine
 10
165.19054
 20
100.0
 30
0.0
 11
165.62254
 21
100.0
 31
0.0
  0
LINE
  5
2B
330
1D
100
AcDbEntity
  8
0
100
AcDbLine
 10
166.19054
 20
70.6
 30
0.0
 11
166.45454
 21
70.0
 31
0.0
  0
LINE
  5
2C
330
1D
100
AcDbEntity
  8
0
100
AcDbLine
 10
166.19054
 20
70.6
 30
0.0
 11
166.19054
 21
100.0
 31
0.0
  0
LINE
  5
2D
330
1D
100
AcDbEntity
  8
0
100
AcDbLine
 10
166.45454
 20
0.0
 30
0.0
 11
166.85054
 21
0.0
 31
0.0
  0
LINE
  5
2E
330
1D
100
AcDbEntity
  8
0
100
AcDbLine
 10
166.58654
 20
0.384615
 30
0.0
 11
167.64254
 21
0.384615
 31
0.0
  0
LINE
  5
2F
330
1D
100
AcDbEntity
  8
0
100
AcDbLine
 10
166.85054
 20
0.0
 30
0.0
 11
167.90654
 21
0.0
 31
0.0
  0
LINE
  5
30
330
1D
100
AcDbEntity
  8
0
100
AcDbLine
 10
166.58654
 20
69.6154
 30
0.0
 11
167.64254
 21
69.6154
 31
0.0
  0
LINE
  5
31
330
1D
100
AcDbEntity
  8
0
100
AcDbLine
 10
166.45454
 20
70.0
 30
0.0
 11
166.85054
 21
70.0
 31
0.0
  0
LINE
  5
32
330
1D
100
AcDbEntity
  8
0
100
AcDbLine
 10
167.90654
 20
0.0
 30
0.0
 11
169.62254
 21
0.0
 31
0.0
  0
LINE
  5
33
330
1D
100
AcDbEntity
  8
0
100
AcDbLine
 10
167.64254
 20
0.384615
 30
0.0
 11
169.40254
 21
0.384615
 31
0.0
  0
LINE
  5
34
330
1D
100
AcDbEntity
  8
0
100
AcDbLine
 10
167.64254
 20
69.6154
 30
0.0
 11
169.40254
 21
69.6154
 31
0.0
  0
LINE
  5
35
330
1D
100
AcDbEntity
  8
0
100
AcDbLine
 10
166.85054
 20
70.0
 30
0.0
 11
167.90654
 21
70.0
 31
0.0
  0
LINE
  5
36
330
1D
100
AcDbEntity
  8
0
100
AcDbLine
 10
168.69454
 20
100.0
 30
0.0
 11
171.23854
 21
100.0
 31
0.0
  0
LINE
  5
37
330
1D
100
AcDbEntity
  8
0
100
AcDbLine
 10
166.77454
 20
100.0
 30
0.0
 11
168.69454
 21
100.0
 31
0.0
  0
LINE
  5
38
330
1D
100
AcDbEntity
  8
0
100
AcDbLine
 10
167.90654
 20
70.0
 30
0.0
 11
169.62254
 21
70.0
 31
0.0
  0
LINE
  5
39
330
1D
100
AcDbEntity
  8
0
100
AcDbLine
 10
166.19054
 20
100.0
 30
0.0
 11
166.19054
 21
70.6
 31
0.0
  0
LINE
  5
3A
330
1D
100
AcDbEntity
  8
0
100
AcDbLine
 10
167.27854
 20
100.0
 30
0.0
 11
170.24654
 21
100.0
 31
0.0
  0
LINE
  5
3B
330
1D
100
AcDbEntity
  8
0
100
AcDbLine
 10
169.40254
 20
0.384615
 30
0.0
 11
171.73454
 21
0.384615
 31
0.0
  0
LINE
  5
3C
330
1D
100
AcDbEntity
  8
0
100
AcDbLine
 10
169.62254
 20
0.0
 30
0.0
 11
171.86654
 21
0.0
 31
0.0
  0
LINE
  5
3D
330
1D
100
AcDbEntity
  8
0
100
AcDbLine
 10
169.40254
 20
69.6154
 30
0.0
 11
171.73454
 21
69.6154
 31
0.0
  0
LINE
  5
3E
330
1D
100
AcDbEntity
  8
0
100
AcDbLine
 10
169.62254
 20
70.0
 30
0.0
 11
171.86654
 21
70.0
 31
0.0
  0
LINE
  5
3F
330
1D
100
AcDbEntity
  8
0
100
AcDbLine
 10
171.86654
 20
0.0
 30
0.0
 11
174.41854
 21
0.0
 31
0.0
  0
LINE
  5
40
330
1D
100
AcDbEntity
  8
0
100
AcDbLine
 10
171.73454
 20
0.384615
 30
0.0
 11
174.37454
 21
0.384615
 31
0.0
  0
LINE
  5
41
330
1D
100
AcDbEntity
  8
0
100
AcDbLine
 10
174.37454
 20
0.384615
 30
0.0
 11
177.19054
 21
0.384615
 31
0.0
  0
LINE
  5
42
330
1D
100
AcDbEntity
  8
0
100
AcDbLine
 10
171.73454
 20
69.6154
 30
0.0
 11
174.37454
 21
69.6154
 31
0.0
  0
LINE
  5
43
330
1D
100
AcDbEntity
  8
0
100
AcDbLine
 10
174.41854
 20
0.0
 30
0.0
 11
177.19054
 21
0.0
 31
0.0
  0
LINE
  5
44
330
1D
100
AcDbEntity
  8
0
100
AcDbLine
 10
174.37454
 20
69.6154
 30
0.0
 11
177.19054
 21
69.6154
 31
0.0
  0
LINE
  5
45
330
1D
100
AcDbEntity
  8
0
100
AcDbLine
 10
174.11854
 20
100.0
 30
0.0
 11
177.19054
 21
100.0
 31
0.0
  0
LINE
  5
46
330
1D
100
AcDbEntity
  8
0
100
AcDbLine
 10
171.23854
 20
100.0
 30
0.0
 11
174.11854
 21
100.0
 31
0.0
  0
LINE
  5
47
330
1D
100
AcDbEntity
  8
0
100
AcDbLine
 10
171.86654
 20
70.0
 30
0.0
 11
174.41854
 21
70.0
 31
0.0
  0
LINE
  5
48
330
1D
100
AcDbEntity
  8
0
100
AcDbLine
 10
177.19054
 20
0.0
 30
0.0
 11
179.96254
 21
0.0
 31
0.0
  0
LINE
  5
49
330
1D
100
AcDbEntity
  8
0
100
AcDbLine
 10
177.19054
 20
0.384615
 30
0.0
 11
180.00654
 21
0.384615
 31
0.0
  0
LINE
  5
4A
330
1D
100
AcDbEntity
  8
0
100
AcDbLine
 10
179.96254
 20
0.0
 30
0.0
 11
182.51454
 21
0.0
 31
0.0
  0
LINE
  5
4B
330
1D
100
AcDbEntity
  8
0
100
AcDbLine
 10
180.00654
 20
0.384615
 30
0.0
 11
182.64654
 21
0.384615
 31
0.0
  0
LINE
  5
4C
330
1D
100
AcDbEntity
  8
0
100
AcDbLine
 10
179.96254
 20
70.0
 30
0.0
 11
201.992434739518
 21
70.0
 31
0.0
  0
LINE
  5
4D
330
1D
100
AcDbEntity
  8
0
100
AcDbLine
 10
180.00654
 20
69.6154
 30
0.0
 11
182.64654
 21
69.6154
 31
0.0
  0
LINE
  5
4E
330
1D
100
AcDbEntity
  8
0
100
AcDbLine
 10
177.19054
 20
69.6154
 30
0.0
 11
180.00654
 21
69.6154
 31
0.0
  0
LINE
  5
4F
330
1D
100
AcDbEntity
  8
0
100
AcDbLine
 10
180.26254
 20
100.0
 30
0.0
 11
183.14254
 21
100.0
 31
0.0
  0
LINE
  5
50
330
1D
100
AcDbEntity
  8
0
100
AcDbLine
 10
177.19054
 20
70.0
 30
0.0
 11
179.96254
 21
70.0
 31
0.0
  0
LINE
  5
51
330
1D
100
AcDbEntity
  8
0
100
AcDbLine
 10
174.41854
 20
70.0
 30
0.0
 11
177.19054
 21
70.0
 31
0.0
  0
LINE
  5
52
330
1D
100
AcDbEntity
  8
0
100
AcDbLine
 10
177.19054
 20
100.0
 30
0.0
 11
181.28654
 21
100.0
 31
0.0
  0
LINE
  5
53
330
1D
100
AcDbEntity
  8
0
100
AcDbLine
 10
177.19054
 20
100.0
 30
0.0
 11
180.77454
 21
100.0
 31
0.0
  0
LINE
  5
54
330
1D
100
AcDbEntity
  8
0
100
AcDbLine
 10
177.19054
 20
100.0
 30
0.0
 11
180.26254
 21
100.0
 31
0.0
  0
LINE
  5
55
330
1D
100
AcDbEntity
  8
0
100
AcDbLine
 10
182.51454
 20
0.0
 30
0.0
 11
184.75854
 21
0.0
 31
0.0
  0
LINE
  5
56
330
1D
100
AcDbEntity
  8
0
100
AcDbLine
 10
183.14254
 20
100.0
 30
0.0
 11
185.68654
 21
100.0
 31
0.0
  0
LINE
  5
57
330
1D
100
AcDbEntity
  8
0
100
AcDbLine
 10
181.707873532474
 20
25.0
 30
0.0
 11
202.027096259239
 21
25.0
 31
0.0
  0
LINE
  5
58
330
1D
100
AcDbEntity
  8
0
100
AcDbLine
 10
181.707873532474
 20
25.0
 30
0.0
 11
202.027096259239
 21
25.0
 31
0.0
  0
LINE
  5
59
330
1D
100
AcDbEntity
  8
0
100
AcDbLine
 10
182.64654
 20
0.384615
 30
0.0
 11
184.97854
 21
0.384615
 31
0.0
  0
LINE
  5
5A
330
1D
100
AcDbEntity
  8
0
100
AcDbLine
 10
180.77454
 20
100.0
 30
0.0
 11
184.13454
 21
100.0
 31
0.0
  0
LINE
  5
5B
330
1D
100
AcDbEntity
  8
0
100
AcDbLine
 10
181.28654
 20
100.0
 30
0.0
 11
185.12654
 21
100.0
 31
0.0
  0
LINE
  5
5C
330
1D
100
AcDbEntity
  8
0
100
AcDbLine
 10
186.47454
 20
0.0
 30
0.0
 11
187.53054
 21
0.0
 31
0.0
  0
LINE
  5
5D
330
1D
100
AcDbEntity
  8
0
100
AcDbLine
 10
184.75854
 20
0.0
 30
0.0
 11
186.47454
 21
0.0
 31
0.0
  0
LINE
  5
5E
330
1D
100
AcDbEntity
  8
0
100
AcDbLine
 10
186.73854
 20
0.384615
 30
0.0
 11
187.79454
 21
0.384615
 31
0.0
  0
LINE
  5
5F
330
1D
100
AcDbEntity
  8
0
100
AcDbLine
 10
185.68654
 20
100.0
 30
0.0
 11
187.60654
 21
100.0
 31
0.0
  0
LINE
  5
60
330
1D
100
AcDbEntity
  8
0
100
AcDbLine
 10
184.97854
 20
0.384615
 30
0.0
 11
186.73854
 21
0.384615
 31
0.0
  0
LINE
  5
61
330
1D
100
AcDbEntity
  8
0
100
AcDbLine
 10
184.13454
 20
100.0
 30
0.0
 11
187.10254
 21
100.0
 31
0.0
  0
LINE
  5
62
330
1D
100
AcDbEntity
  8
0
100
AcDbLine
 10
185.12654
 20
100.0
 30
0.0
 11
188.51854
 21
100.0
 31
0.0
  0
LINE
  5
63
330
1D
100
AcDbEntity
  8
0
100
AcDbLine
 10
187.92654
 20
0.0
 30
0.0
 11
188.19054
 21
0.384615
 31
0.0
  0
LINE
  5
64
330
1D
100
AcDbEntity
  8
0
100
AcDbLine
 10
187.53054
 20
0.0
 30
0.0
 11
187.92654
 21
0.0
 31
0.0
  0
LINE
  5
65
330
1D
100
AcDbEntity
  8
0
100
AcDbLine
 10
187.92654
 20
0.0
 30
0.0
 11
188.19054
 21
0.384615
 31
0.0
  0
LINE
  5
66
330
1D
100
AcDbEntity
  8
0
100
AcDbLine
 10
188.19054
 20
25.0
 30
0.0
 11
188.19054
 21
0.384615
 31
0.0
  0
LINE
  5
67
330
1D
100
AcDbEntity
  8
0
100
AcDbLine
 10
187.79454
 20
0.384615
 30
0.0
 11
188.19054
 21
0.384615
 31
0.0
  0
LINE
  5
68
330
1D
100
AcDbEntity
  8
0
100
AcDbLine
 10
188.19054
 20
0.384615
 30
0.0
 11
188.19054
 21
25.0
 31
0.0
  0
LINE
  5
69
330
1D
100
AcDbEntity
  8
0
100
AcDbLine
 10
187.60654
 20
100.0
 30
0.0
 11
188.75854
 21
100.0
 31
0.0
  0
LINE
  5
6A
330
1D
100
AcDbEntity
  8
0
100
AcDbLine
 10
188.19054
 20
70.6
 30
0.0
 11
188.19054
 21
100.0
 31
0.0
  0
LINE
  5
6B
330
1D
100
AcDbEntity
  8
0
100
AcDbLine
 10
187.92654
 20
70.0
 30
0.0
 11
188.19054
 21
70.6
 31
0.0
  0
LINE
  5
6C
330
1D
100
AcDbEntity
  8
0
100
AcDbLine
 10
187.10254
 20
100.0
 30
0.0
 11
189.34254
 21
100.0
 31
0.0
  0
LINE
  5
6D
330
1D
100
AcDbEntity
  8
0
100
AcDbLine
 10
173.60654
 20
100.0
 30
0.0
 11
177.19054
 21
100.0
 31
0.0
  0
LINE
  5
6E
330
1D
100
AcDbEntity
  8
0
100
AcDbLine
 10
170.24654
 20
100.0
 30
0.0
 11
173.60654
 21
100.0
 31
0.0
  0
LINE
  5
6F
330
1D
100
AcDbEntity
  8
0
100
AcDbLine
 10
173.09454
 20
100.0
 30
0.0
 11
177.19054
 21
100.0
 31
0.0
  0
LINE
  5
70
330
1D
100
AcDbEntity
  8
0
100
AcDbLine
 10
169.25454
 20
100.0
 30
0.0
 11
173.09454
 21
100.0
 31
0.0
  0
LINE
  5
71
330
1D
100
AcDbEntity
  8
0
100
AcDbLine
 10
165.86254
 20
100.0
 30
0.0
 11
166.19054
 21
100.0
 31
0.0
  0
LINE
  5
72
330
1D
100
AcDbEntity
  8
0
100
AcDbLine
 10
165.86254
 20
100.0
 30
0.0
 11
169.25454
 21
100.0
 31
0.0
  0
LINE
  5
73
330
1D
100
AcDbEntity
  8
0
100
AcDbLine
 10
163.30254
 20
100.0
 30
0.0
 11
165.86254
 21
100.0
 31
0.0
  0
LINE
  5
74
330
1D
100
AcDbEntity
  8
0
100
AcDbLine
 10
165.03854
 20
100.0
 30
0.0
 11
166.19054
 21
100.0
 31
0.0
  0
LINE
  5
75
330
1D
100
AcDbEntity
  8
0
100
AcDbLine
 10
165.03854
 20
100.0
 30
0.0
 11
167.27854
 21
100.0
 31
0.0
  0
LINE
  5
76
330
1D
100
AcDbEntity
  8
0
100
AcDbLine
 10
161.76654
 20
100.0
 30
0.0
 11
163.30254
 21
100.0
 31
0.0
  0
LINE
  5
77
330
1D
100
AcDbEntity
  8
0
100
AcDbLine
 10
163.69454
 20
100.0
 30
0.0
 11
165.03854
 21
100.0
 31
0.0
  0
LINE
  5
78
330
1D
100
AcDbEntity
  8
0
100
AcDbLine
 10
161.19054
 20
100.0
 30
0.0
 11
161.76654
 21
100.0
 31
0.0
  0
LINE
  5
79
330
1D
100
AcDbEntity
  8
0
100
AcDbLine
 10
161.19054
 20
100.0
 30
0.0
 11
161.19054
 21
112.0
 31
0.0
  0
LINE
  5
7A
330
1D
100
AcDbEntity
  8
0
100
AcDbLine
 10
163.19054
 20
100.0
 30
0.0
 11
163.69454
 21
100.0
 31
0.0
  0
LINE
  5
7B
330
1D
100
AcDbEntity
  8
0
100
AcDbLine
 10
163.19054
 20
100.0
 30
0.0
 11
165.19054
 21
100.0
 31
0.0
  0
LINE
  5
7C
330
1D
100
AcDbEntity
  8
0
100
AcDbLine
 10
189.19054
 20
100.0
 30
0.0
 11
191.19054
 21
100.0
 31
0.0
  0
LINE
  5
7D
330
1D
100
AcDbEntity
  8
0
100
AcDbLine
 10
188.75854
 20
100.0
 30
0.0
 11
189.19054
 21
100.0
 31
0.0
  0
LINE
  5
7E
330
1D
100
AcDbEntity
  8
0
100
AcDbLine
 10
189.34254
 20
100.0
 30
0.0
 11
190.68654
 21
100.0
 31
0.0
  0
LINE
  5
7F
330
1D
100
AcDbEntity
  8
0
100
AcDbLine
 10
190.68654
 20
100.0
 30
0.0
 11
191.19054
 21
100.0
 31
0.0
  0
LINE
  5
80
330
1D
100
AcDbEntity
  8
0
100
AcDbLine
 10
188.19054
 20
100.0
 30
0.0
 11
188.51854
 21
100.0
 31
0.0
  0
LINE
  5
81
330
1D
100
AcDbEntity
  8
0
100
AcDbLine
 10
188.19054
 20
100.0
 30
0.0
 11
189.34254
 21
100.0
 31
0.0
  0
LINE
  5
82
330
1D
100
AcDbEntity
  8
0
100
AcDbLine
 10
188.19054
 20
100.0
 30
0.0
 11
188.19054
 21
70.6
 31
0.0
  0
LINE
  5
83
330
1D
100
AcDbEntity
  8
0
100
AcDbLine
 10
188.19054
 20
100.0
 30
0.0
 11
188.75854
 21
100.0
 31
0.0
  0
LINE
  5
84
330
1D
100
AcDbEntity
  8
0
100
AcDbLine
 10
188.51854
 20
100.0
 30
0.0
 11
191.07854
 21
100.0
 31
0.0
  0
LINE
  5
85
330
1D
100
AcDbEntity
  8
0
100
AcDbLine
 10
191.07854
 20
100.0
 30
0.0
 11
192.61454
 21
100.0
 31
0.0
  0
LINE
  5
86
330
1D
100
AcDbEntity
  8
0
100
AcDbLine
 10
131.19054
 20
112.0
 30
0.0
 11
139.29054
 21
112.0
 31
0.0
  0
LINE
  5
87
330
1D
100
AcDbEntity
  8
0
100
AcDbLine
 10
139.29054
 20
112.0
 30
0.0
 11
147.19054
 21
112.0
 31
0.0
  0
LINE
  5
88
330
1D
100
AcDbEntity
  8
0
100
AcDbLine
 10
147.19054
 20
112.0
 30
0.0
 11
154.89054
 21
112.0
 31
0.0
  0
LINE
  5
89
330
1D
100
AcDbEntity
  8
0
100
AcDbLine
 10
154.89054
 20
112.0
 30
0.0
 11
162.09054
 21
112.0
 31
0.0
  0
LINE
  5
8A
330
1D
100
AcDbEntity
  8
0
100
AcDbLine
 10
123.09054
 20
112.0
 30
0.0
 11
131.19054
 21
112.0
 31
0.0
  0
LINE
  5
8B
330
1D
100
AcDbEntity
  8
0
100
AcDbLine
 10
115.19054
 20
112.0
 30
0.0
 11
123.09054
 21
112.0
 31
0.0
  0
LINE
  5
8C
330
1D
100
AcDbEntity
  8
0
100
AcDbLine
 10
107.49054
 20
112.0
 30
0.0
 11
115.19054
 21
112.0
 31
0.0
  0
LINE
  5
8D
330
1D
100
AcDbEntity
  8
0
100
AcDbLine
 10
100.29054
 20
112.0
 30
0.0
 11
107.49054
 21
112.0
 31
0.0
  0
LINE
  5
8E
330
1D
100
AcDbEntity
  8
0
100
AcDbLine
 10
93.49054
 20
112.0
 30
0.0
 11
100.29054
 21
112.0
 31
0.0
  0
LINE
  5
8F
330
1D
100
AcDbEntity
  8
0
100
AcDbLine
 10
87.39054
 20
112.0
 30
0.0
 11
93.49054
 21
112.0
 31
0.0
  0
LINE
  5
90
330
1D
100
AcDbEntity
  8
0
100
AcDbLine
 10
82.09054
 20
112.0
 30
0.0
 11
87.39054
 21
112.0
 31
0.0
  0
LINE
  5
91
330
1D
100
AcDbEntity
  8
0
100
AcDbLine
 10
77.49054
 20
112.0
 30
0.0
 11
82.09054
 21
112.0
 31
0.0
  0
LINE
  5
92
330
1D
100
AcDbEntity
  8
0
100
AcDbLine
 10
73.99054
 20
112.0
 30
0.0
 11
77.49054
 21
112.0
 31
0.0
  0
LINE
  5
93
330
1D
100
AcDbEntity
  8
0
100
AcDbLine
 10
71.39054
 20
112.0
 30
0.0
 11
73.99054
 21
112.0
 31
0.0
  0
LINE
  5
94
330
1D
100
AcDbEntity
  8
0
100
AcDbLine
 10
69.79054
 20
112.0
 30
0.0
 11
71.39054
 21
112.0
 31
0.0
  0
LINE
  5
95
330
1D
100
AcDbEntity
  8
0
100
AcDbLine
 10
80.89054
 20
112.5
 30
0.0
 11
86.39054
 21
112.5
 31
0.0
  0
LINE
  5
96
330
1D
100
AcDbEntity
  8
0
100
AcDbLine
 10
76.19054
 20
112.5
 30
0.0
 11
80.89054
 21
112.5
 31
0.0
  0
LINE
  5
97
330
1D
100
AcDbEntity
  8
0
100
AcDbLine
 10
72.69054
 20
112.5
 30
0.0
 11
76.19054
 21
112.5
 31
0.0
  0
LINE
  5
98
330
1D
100
AcDbEntity
  8
0
100
AcDbLine
 10
69.99054
 20
112.5
 30
0.0
 11
72.69054
 21
112.5
 31
0.0
  0
LINE
  5
99
330
1D
100
AcDbEntity
  8
0
100
AcDbLine
 10
68.29054
 20
112.5
 30
0.0
 11
69.99054
 21
112.5
 31
0.0
  0
LINE
  5
9A
330
1D
100
AcDbEntity
  8
0
100
AcDbLine
 10
86.39054
 20
112.5
 30
0.0
 11
92.59054
 21
112.5
 31
0.0
  0
LINE
  5
9B
330
1D
100
AcDbEntity
  8
0
100
AcDbLine
 10
92.59054
 20
112.5
 30
0.0
 11
99.29054
 21
112.5
 31
0.0
  0
LINE
  5
9C
330
1D
100
AcDbEntity
  8
0
100
AcDbLine
 10
99.29054
 20
112.5
 30
0.0
 11
106.89054
 21
112.5
 31
0.0
  0
LINE
  5
9D
330
1D
100
AcDbEntity
  8
0
100
AcDbLine
 10
106.89054
 20
112.5
 30
0.0
 11
114.79054
 21
112.5
 31
0.0
  0
LINE
  5
9E
330
1D
100
AcDbEntity
  8
0
100
AcDbLine
 10
114.79054
 20
112.5
 30
0.0
 11
122.89054
 21
112.5
 31
0.0
  0
LINE
  5
9F
330
1D
100
AcDbEntity
  8
0
100
AcDbLine
 10
155.49054
 20
112.5
 30
0.0
 11
163.09054
 21
112.5
 31
0.0
  0
LINE
  5
A0
330
1D
100
AcDbEntity
  8
0
100
AcDbLine
 10
147.59054
 20
112.5
 30
0.0
 11
155.49054
 21
112.5
 31
0.0
  0
LINE
  5
A1
330
1D
100
AcDbEntity
  8
0
100
AcDbLine
 10
139.49054
 20
112.5
 30
0.0
 11
147.59054
 21
112.5
 31
0.0
  0
LINE
  5
A2
330
1D
100
AcDbEntity
  8
0
100
AcDbLine
 10
131.19054
 20
112.5
 30
0.0
 11
139.49054
 21
112.5
 31
0.0
  0
LINE
  5
A3
330
1D
100
AcDbEntity
  8
0
100
AcDbLine
 10
122.89054
 20
112.5
 30
0.0
 11
131.19054
 21
112.5
 31
0.0
  0
LINE
  5
A4
330
1D
100
AcDbEntity
  8
0
100
AcDbLine
 10
69.19054
 20
112.0
 30
0.0
 11
69.79054
 21
112.0
 31
0.0
  0
LINE
  5
A5
330
1D
100
AcDbEntity
  8
0
100
AcDbLine
 10
162.09054
 20
112.0
 30
0.0
 11
168.89054
 21
112.0
 31
0.0
  0
LINE
  5
A6
330
1D
100
AcDbEntity
  8
0
100
AcDbLine
 10
168.89054
 20
112.0
 30
0.0
 11
174.99054
 21
112.0
 31
0.0
  0
LINE
  5
A7
330
1D
100
AcDbEntity
  8
0
100
AcDbLine
 10
177.19054
 20
112.0
 30
0.0
 11
181.28654
 21
112.0
 31
0.0
  0
LINE
  5
A8
330
1D
100
AcDbEntity
  8
0
100
AcDbLine
 10
174.99054
 20
112.0
 30
0.0
 11
180.29054
 21
112.0
 31
0.0
  0
LINE
  5
A9
330
1D
100
AcDbEntity
  8
0
100
AcDbLine
 10
181.28654
 20
112.0
 30
0.0
 11
185.12654
 21
112.0
 31
0.0
  0
LINE
  5
AA
330
1D
100
AcDbEntity
  8
0
100
AcDbLine
 10
185.12654
 20
112.0
 30
0.0
 11
188.51854
 21
112.0
 31
0.0
  0
LINE
  5
AB
330
1D
100
AcDbEntity
  8
0
100
AcDbLine
 10
180.29054
 20
112.0
 30
0.0
 11
184.89054
 21
112.0
 31
0.0
  0
LINE
  5
AC
330
1D
100
AcDbEntity
  8
0
100
AcDbLine
 10
184.89054
 20
112.0
 30
0.0
 11
188.39054
 21
112.0
 31
0.0
  0
LINE
  5
AD
330
1D
100
AcDbEntity
  8
0
100
AcDbLine
 10
188.51854
 20
112.0
 30
0.0
 11
191.07854
 21
112.0
 31
0.0
  0
LINE
  5
AE
330
1D
100
AcDbEntity
  8
0
100
AcDbLine
 10
191.07854
 20
112.0
 30
0.0
 11
192.61454
 21
112.0
 31
0.0
  0
LINE
  5
AF
330
1D
100
AcDbEntity
  8
0
100
AcDbLine
 10
188.39054
 20
112.0
 30
0.0
 11
190.99054
 21
112.0
 31
0.0
  0
LINE
  5
B0
330
1D
100
AcDbEntity
  8
0
100
AcDbLine
 10
190.99054
 20
112.0
 30
0.0
 11
192.59054
 21
112.0
 31
0.0
  0
LINE
  5
B1
330
1D
100
AcDbEntity
  8
0
100
AcDbLine
 10
192.61454
 20
112.0
 30
0.0
 11
193.19054
 21
112.0
 31
0.0
  0
LINE
  5
B2
330
1D
100
AcDbEntity
  8
0
100
AcDbLine
 10
192.59054
 20
112.0
 30
0.0
 11
193.19054
 21
112.0
 31
0.0
  0
LINE
  5
B3
330
1D
100
AcDbEntity
  8
0
100
AcDbLine
 10
173.09454
 20
112.0
 30
0.0
 11
177.19054
 21
112.0
 31
0.0
  0
LINE
  5
B4
330
1D
100
AcDbEntity
  8
0
100
AcDbLine
 10
169.25454
 20
112.0
 30
0.0
 11
173.09454
 21
112.0
 31
0.0
  0
LINE
  5
B5
330
1D
100
AcDbEntity
  8
0
100
AcDbLine
 10
165.86254
 20
112.0
 30
0.0
 11
169.25454
 21
112.0
 31
0.0
  0
LINE
  5
B6
330
1D
100
AcDbEntity
  8
0
100
AcDbLine
 10
163.30254
 20
112.0
 30
0.0
 11
165.86254
 21
112.0
 31
0.0
  0
LINE
  5
B7
330
1D
100
AcDbEntity
  8
0
100
AcDbLine
 10
169.79054
 20
112.5
 30
0.0
 11
175.99054
 21
112.5
 31
0.0
  0
LINE
  5
B8
330
1D
100
AcDbEntity
  8
0
100
AcDbLine
 10
163.09054
 20
112.5
 30
0.0
 11
169.79054
 21
112.5
 31
0.0
  0
LINE
  5
B9
330
1D
100
AcDbEntity
  8
0
100
AcDbLine
 10
175.99054
 20
112.5
 30
0.0
 11
181.49054
 21
112.5
 31
0.0
  0
LINE
  5
BA
330
1D
100
AcDbEntity
  8
0
100
AcDbLine
 10
181.49054
 20
112.5
 30
0.0
 11
186.19054
 21
112.5
 31
0.0
  0
LINE
  5
BB
330
1D
100
AcDbEntity
  8
0
100
AcDbLine
 10
186.19054
 20
112.5
 30
0.0
 11
189.69054
 21
112.5
 31
0.0
  0
LINE
  5
BC
330
1D
100
AcDbEntity
  8
0
100
AcDbLine
 10
189.69054
 20
112.5
 30
0.0
 11
192.39054
 21
112.5
 31
0.0
  0
LINE
  5
BD
330
1D
100
AcDbEntity
  8
0
100
AcDbLine
 10
193.19054
 20
112.142857142857
 30
0.0
 11
193.19054
 21
112.0
 31
0.0
  0
LINE
  5
BE
330
1D
100
AcDbEntity
  8
0
100
AcDbLine
 10
193.19054
 20
112.142857142857
 30
0.0
 11
193.19054
 21
100.0
 31
0.0
  0
LINE
  5
BF
330
1D
100
AcDbEntity
  8
0
100
AcDbLine
 10
192.39054
 20
112.5
 30
0.0
 11
194.09054
 21
112.5
 31
0.0
  0
LINE
  5
C0
330
1D
100
AcDbEntity
  8
0
100
AcDbLine
 10
161.76654
 20
112.0
 30
0.0
 11
163.30254
 21
112.0
 31
0.0
  0
LINE
  5
C1
330
1D
100
AcDbEntity
  8
0
100
AcDbLine
 10
161.19054
 20
112.0
 30
0.0
 11
161.19054
 21
100.0
 31
0.0
  0
LINE
  5
C2
330
1D
100
AcDbEntity
  8
0
100
AcDbLine
 10
161.19054
 20
112.0
 30
0.0
 11
161.76654
 21
112.0
 31
0.0
  0
LINE
  5
C3
330
1D
100
AcDbEntity
  8
0
100
AcDbLine
 10
192.61454
 20
100.0
 30
0.0
 11
193.19054
 21
100.0
 31
0.0
  0
LINE
  5
C4
330
1D
100
AcDbEntity
  8
0
100
AcDbLine
 10
193.19054
 20
100.0
 30
0.0
 11
193.19054
 21
112.142857142857
 31
0.0
  0
LINE
  5
D25
330
1D
100
AcDbEntity
  8
0
100
AcDbLine
 10
66.19054
 20
138.0
 30
0.0
 11
66.19054
 21
115.0
 31
0.0
  0
LINE
  5
D26
330
1D
100
AcDbEntity
  8
0
100
AcDbLine
 10
66.19054
 20
138.0
 30
0.0
 11
66.89054
 21
138.0
 31
0.0
  0
LINE
  5
D27
330
1D
100
AcDbEntity
  8
0
100
AcDbLine
 10
66.19054
 20
115.0
 30
0.0
 11
66.69054
 21
113.5
 31
0.0
  0
LINE
  5
D28
330
1D
100
AcDbEntity
  8
0
100
AcDbLine
 10
66.19054
 20
115.0
 30
0.0
 11
66.19054
 21
138.0
 31
0.0
  0
LINE
  5
D29
330
1D
100
AcDbEntity
  8
0
100
AcDbLine
 10
79.69054
 20
138.0
 30
0.0
 11
85.29054
 21
138.0
 31
0.0
  0
LINE
  5
D2A
330
1D
100
AcDbEntity
  8
0
100
AcDbLine
 10
74.89054
 20
138.0
 30
0.0
 11
79.69054
 21
138.0
 31
0.0
  0
LINE
  5
D2B
330
1D
100
AcDbEntity
  8
0
100
AcDbLine
 10
71.29054
 20
138.0
 30
0.0
 11
74.89054
 21
138.0
 31
0.0
  0
LINE
  5
D2C
330
1D
100
AcDbEntity
  8
0
100
AcDbLine
 10
68.49054
 20
138.0
 30
0.0
 11
71.29054
 21
138.0
 31
0.0
  0
LINE
  5
D2D
330
1D
100
AcDbEntity
  8
0
100
AcDbLine
 10
66.89054
 20
138.0
 30
0.0
 11
68.49054
 21
138.0
 31
0.0
  0
LINE
  5
D2E
330
1D
100
AcDbEntity
  8
0
100
AcDbLine
 10
85.29054
 20
138.0
 30
0.0
 11
91.69054
 21
138.0
 31
0.0
  0
LINE
  5
D2F
330
1D
100
AcDbEntity
  8
0
100
AcDbLine
 10
91.69054
 20
138.0
 30
0.0
 11
98.79054
 21
138.0
 31
0.0
  0
LINE
  5
D30
330
1D
100
AcDbEntity
  8
0
100
AcDbLine
 10
98.79054
 20
138.0
 30
0.0
 11
106.39054
 21
138.0
 31
0.0
  0
LINE
  5
D31
330
1D
100
AcDbEntity
  8
0
100
AcDbLine
 10
106.39054
 20
138.0
 30
0.0
 11
114.39054
 21
138.0
 31
0.0
  0
LINE
  5
D32
330
1D
100
AcDbEntity
  8
0
100
AcDbLine
 10
166.19054
 20
138.0
 30
0.0
 11
166.19054
 21
504.0
 31
0.0
  0
LINE
  5
D33
330
1D
100
AcDbEntity
  8
0
100
AcDbLine
 10
166.19054
 20
138.0
 30
0.0
 11
166.19054
 21
504.0
 31
0.0
  0
LINE
  5
D34
330
1D
100
AcDbEntity
  8
0
100
AcDbLine
 10
170.69054
 20
138.0
 30
0.0
 11
177.09054
 21
138.0
 31
0.0
  0
LINE
  5
D35
330
1D
100
AcDbEntity
  8
0
100
AcDbLine
 10
163.59054
 20
138.0
 30
0.0
 11
170.69054
 21
138.0
 31
0.0
  0
LINE
  5
D36
330
1D
100
AcDbEntity
  8
0
100
AcDbLine
 10
155.99054
 20
138.0
 30
0.0
 11
163.59054
 21
138.0
 31
0.0
  0
LINE
  5
D37
330
1D
100
AcDbEntity
  8
0
100
AcDbLine
 10
147.99054
 20
138.0
 30
0.0
 11
155.99054
 21
138.0
 31
0.0
  0
LINE
  5
D38
330
1D
100
AcDbEntity
  8
0
100
AcDbLine
 10
139.69054
 20
138.0
 30
0.0
 11
147.99054
 21
138.0
 31
0.0
  0
LINE
  5
D39
330
1D
100
AcDbEntity
  8
0
100
AcDbLine
 10
131.19054
 20
138.0
 30
0.0
 11
139.69054
 21
138.0
 31
0.0
  0
LINE
  5
D3A
330
1D
100
AcDbEntity
  8
0
100
AcDbLine
 10
177.09054
 20
138.0
 30
0.0
 11
182.69054
 21
138.0
 31
0.0
  0
LINE
  5
D3B
330
1D
100
AcDbEntity
  8
0
100
AcDbLine
 10
182.69054
 20
138.0
 30
0.0
 11
187.49054
 21
138.0
 31
0.0
  0
LINE
  5
D3C
330
1D
100
AcDbEntity
  8
0
100
AcDbLine
 10
188.19054
 20
138.0
 30
0.0
 11
188.19054
 21
504.0
 31
0.0
  0
LINE
  5
D3D
330
1D
100
AcDbEntity
  8
0
100
AcDbLine
 10
187.49054
 20
138.0
 30
0.0
 11
191.09054
 21
138.0
 31
0.0
  0
LINE
  5
D3E
330
1D
100
AcDbEntity
  8
0
100
AcDbLine
 10
191.09054
 20
138.0
 30
0.0
 11
193.89054
 21
138.0
 31
0.0
  0
LINE
  5
D3F
330
1D
100
AcDbEntity
  8
0
100
AcDbLine
 10
114.39054
 20
138.0
 30
0.0
 11
122.69054
 21
138.0
 31
0.0
  0
LINE
  5
D40
330
1D
100
AcDbEntity
  8
0
100
AcDbLine
 10
151.25854
 20
696.979
 30
0.0
 11
167.55754
 21
671.747
 31
0.0
  0
LINE
  5
D52
330
1D
100
AcDbEntity
  8
0
100
AcDbLine
 10
162.15054
 20
665.032
 30
0.0
 11
163.68654
 21
668.744
 31
0.0
  0
LINE
  5
D54
330
1D
100
AcDbEntity
  8
0
100
AcDbLine
 10
161.57454
 20
661.0
 30
0.0
 11
162.15054
 21
656.968
 31
0.0
  0
LINE
  5
D55
330
1D
100
AcDbEntity
  8
0
100
AcDbLine
 10
161.57454
 20
661.0
 30
0.0
 11
162.15054
 21
665.032
 31
0.0
  0
LINE
  5
D59
330
1D
100
AcDbEntity
  8
0
100
AcDbLine
 10
162.15054
 20
656.968
 30
0.0
 11
163.68654
 21
653.256
 31
0.0
  0
LINE
  5
D60
330
1D
100
AcDbEntity
  8
0
100
AcDbLine
 10
166.19054
 20
504.0
 30
0.0
 11
166.19054
 21
673.863212282962
 31
0.0
  0
LINE
  5
D62
330
1D
100
AcDbEntity
  8
0
100
AcDbLine
 10
163.68654
 20
668.744
 30
0.0
 11
166.18254
 21
672.008
 31
0.0
  0
LINE
  5
D63
330
1D
100
AcDbEntity
  8
0
100
AcDbLine
 10
163.68654
 20
653.256
 30
0.0
 11
166.18254
 21
649.992
 31
0.0
  0
LINE
  5
D67
330
1D
100
AcDbEntity
  8
0
100
AcDbLine
 10
166.19054
 20
673.863212282962
 30
0.0
 11
166.19054
 21
504.0
 31
0.0
  0
LINE
  5
D6B
330
1D
100
AcDbEntity
  8
0
100
AcDbLine
 10
167.55754
 20
671.747
 30
0.0
 11
167.90454
 21
671.948
 31
0.0
  0
LINE
  5
D6C
330
1D
100
AcDbEntity
  8
0
100
AcDbLine
 10
168.223349364981
 20
672.131755333603
 30
0.0
 11
170.696252050104
 21
667.848546574245
 31
0.0
  0
LINE
  5
D6E
330
1D
100
AcDbEntity
  8
0
100
AcDbLine
 10
167.90454
 20
671.948
 30
0.0
 11
168.223349364981
 21
672.131755333603
 31
0.0
  0
LINE
  5
10C0
330
1D
100
AcDbEntity
  8
0
100
AcDbLine
 10
166.19054
 20
723.05755375371
 30
0.0
 11
166.19054
 21
937.4
 31
0.0
  0
LINE
  5
125D
330
1D
100
AcDbEntity
  8
0
100
AcDbLine
 10
166.45454
 20
938.0
 30
0.0
 11
166.85054
 21
938.0
 31
0.0
  0
LINE
  5
125E
330
1D
100
AcDbEntity
  8
0
100
AcDbLine
 10
166.19054
 20
938.385
 30
0.0
 11
166.58654
 21
938.385
 31
0.0
  0
LINE
  5
125F
330
1D
100
AcDbEntity
  8
0
100
AcDbLine
 10
166.19054
 20
938.385
 30
0.0
 11
166.45454
 21
938.0
 31
0.0
  0
LINE
  5
1260
330
1D
100
AcDbEntity
  8
0
100
AcDbLine
 10
166.19054
 20
938.385
 30
0.0
 11
166.19054
 21
1007.62
 31
0.0
  0
LINE
  5
1261
330
1D
100
AcDbEntity
  8
0
100
AcDbLine
 10
166.19054
 20
1007.62
 30
0.0
 11
166.58654
 21
1007.62
 31
0.0
  0
LINE
  5
1262
330
1D
100
AcDbEntity
  8
0
100
AcDbLine
 10
166.19054
 20
1007.62
 30
0.0
 11
166.45454
 21
1008.0
 31
0.0
  0
LINE
  5
1263
330
1D
100
AcDbEntity
  8
0
100
AcDbLine
 10
166.45454
 20
1008.0
 30
0.0
 11
166.85054
 21
1008.0
 31
0.0
  0
LINE
  5
1264
330
1D
100
AcDbEntity
  8
0
100
AcDbLine
 10
166.85054
 20
1008.0
 30
0.0
 11
167.90654
 21
1008.0
 31
0.0
  0
LINE
  5
1265
330
1D
100
AcDbEntity
  8
0
100
AcDbLine
 10
166.58654
 20
1007.62
 30
0.0
 11
167.64254
 21
1007.62
 31
0.0
  0
LINE
  5
1266
330
1D
100
AcDbEntity
  8
0
100
AcDbLine
 10
167.64254
 20
1007.62
 30
0.0
 11
169.40254
 21
1007.62
 31
0.0
  0
LINE
  5
1267
330
1D
100
AcDbEntity
  8
0
100
AcDbLine
 10
166.58654
 20
938.385
 30
0.0
 11
167.64254
 21
938.385
 31
0.0
  0
LINE
  5
1268
330
1D
100
AcDbEntity
  8
0
100
AcDbLine
 10
167.64254
 20
938.385
 30
0.0
 11
169.40254
 21
938.385
 31
0.0
  0
LINE
  5
1269
330
1D
100
AcDbEntity
  8
0
100
AcDbLine
 10
166.85054
 20
938.0
 30
0.0
 11
167.90654
 21
938.0
 31
0.0
  0
LINE
  5
126A
330
1D
100
AcDbEntity
  8
0
100
AcDbLine
 10
167.90654
 20
1008.0
 30
0.0
 11
169.62254
 21
1008.0
 31
0.0
  0
LINE
  5
126B
330
1D
100
AcDbEntity
  8
0
100
AcDbLine
 10
167.90654
 20
938.0
 30
0.0
 11
169.62254
 21
938.0
 31
0.0
  0
LINE
  5
126C
330
1D
100
AcDbEntity
  8
0
100
AcDbLine
 10
166.19054
 20
937.4
 30
0.0
 11
166.19054
 21
723.05755375371
 31
0.0
  0
LINE
  5
126D
330
1D
100
AcDbEntity
  8
0
100
AcDbLine
 10
166.19054
 20
937.4
 30
0.0
 11
166.45454
 21
938.0
 31
0.0
  0
LINE
  5
1278
330
1D
100
AcDbEntity
  8
0
100
AcDbLine
 10
170.76354
 20
667.732
 30
0.0
 11
173.10154
 21
669.082
 31
0.0
  0
LINE
  5
127B
330
1D
100
AcDbEntity
  8
0
100
AcDbLine
 10
170.696252050104
 20
667.848546574245
 30
0.0
 11
178.24154
 21
650.254
 31
0.0
  0
LINE
  5
1283
330
1D
100
AcDbEntity
  8
0
100
AcDbLine
 10
173.10154
 20
669.082
 30
0.0
 11
175.78654
 21
670.632
 31
0.0
  0
LINE
  5
1286
330
1D
100
AcDbEntity
  8
0
100
AcDbLine
 10
188.19054
 20
504.0
 30
0.0
 11
188.19054
 21
138.0
 31
0.0
  0
LINE
  5
1287
330
1D
100
AcDbEntity
  8
0
100
AcDbLine
 10
188.19054
 20
504.0
 30
0.0
 11
188.19054
 21
619.39912
 31
0.0
  0
LINE
  5
1288
330
1D
100
AcDbEntity
  8
0
100
AcDbLine
 10
192.34254
 20
603.061
 30
0.0
 11
196.94154
 21
578.854
 31
0.0
  0
LINE
  5
1289
330
1D
100
AcDbEntity
  8
0
100
AcDbLine
 10
186.14254
 20
627.458
 30
0.0
 11
192.34254
 21
603.061
 31
0.0
  0
LINE
  5
128A
330
1D
100
AcDbEntity
  8
0
100
AcDbLine
 10
178.24154
 20
650.254
 30
0.0
 11
186.14254
 21
627.458
 31
0.0
  0
LINE
  5
128B
330
1D
100
AcDbEntity
  8
0
100
AcDbLine
 10
175.78654
 20
670.632
 30
0.0
 11
178.73054
 21
672.332
 31
0.0
  0
LINE
  5
128C
330
1D
100
AcDbEntity
  8
0
100
AcDbLine
 10
188.19054
 20
666.437818551991
 30
0.0
 11
188.19054
 21
677.793242440901
 31
0.0
  0
LINE
  5
128D
330
1D
100
AcDbEntity
  8
0
100
AcDbLine
 10
190.69454
 20
668.744
 30
0.0
 11
192.23054
 21
665.032
 31
0.0
  0
LINE
  5
128E
330
1D
100
AcDbEntity
  8
0
100
AcDbLine
 10
188.19854
 20
672.008
 30
0.0
 11
190.69454
 21
668.744
 31
0.0
  0
LINE
  5
1297
330
1D
100
AcDbEntity
  8
0
100
AcDbLine
 10
181.67554
 20
674.032
 30
0.0
 11
184.35954
 21
675.582
 31
0.0
  0
LINE
  5
1298
330
1D
100
AcDbEntity
  8
0
100
AcDbLine
 10
178.73054
 20
672.332
 30
0.0
 11
181.67554
 21
674.032
 31
0.0
  0
LINE
  5
129A
330
1D
100
AcDbEntity
  8
0
100
AcDbLine
 10
192.23054
 20
665.032
 30
0.0
 11
192.80654
 21
661.0
 31
0.0
  0
LINE
  5
129B
330
1D
100
AcDbEntity
  8
0
100
AcDbLine
 10
192.265115364609
 20
657.210027552261
 30
0.0
 11
192.80654
 21
661.0
 31
0.0
  0
LINE
  5
12A1
330
1D
100
AcDbEntity
  8
0
100
AcDbLine
 10
191.64254
 20
658.951
 30
0.0
 11
200.04154
 21
635.464
 31
0.0
  0
LINE
  5
12A2
330
1D
100
AcDbEntity
  8
0
100
AcDbLine
 10
184.091140000149
 20
675.427000000086
 30
0.0
 11
184.719386153507
 21
675.789692307497
 31
0.0
  0
LINE
  5
12A3
330
1D
100
AcDbEntity
  8
0
100
AcDbLine
 10
184.09114000015
 20
675.427000000087
 30
0.0
 11
184.719386153507
 21
675.789692307496
 31
0.0
  0
LINE
  5
12A4
330
1D
100
AcDbEntity
  8
0
100
AcDbLine
 10
186.406165000512
 20
676.763250000295
 30
0.0
 11
186.95854
 21
677.082
 31
0.0
  0
LINE
  5
12A5
330
1D
100
AcDbEntity
  8
0
100
AcDbLine
 10
186.406165000514
 20
676.763250000296
 30
0.0
 11
186.95854
 21
677.082
 31
0.0
  0
LINE
  5
12A6
330
1D
100
AcDbEntity
  8
0
100
AcDbLine
 10
186.69854
 20
676.932
 30
0.0
 11
188.51754
 21
677.982
 31
0.0
  0
LINE
  5
12A7
330
1D
100
AcDbEntity
  8
0
100
AcDbLine
 10
184.35954
 20
675.582
 30
0.0
 11
186.69854
 21
676.932
 31
0.0
  0
LINE
  5
12A8
330
1D
100
AcDbEntity
  8
0
100
AcDbLine
 10
188.19054
 20
677.793242440901
 30
0.0
 11
188.19054
 21
666.437818551991
 31
0.0
  0
LINE
  5
12A9
330
1D
100
AcDbEntity
  8
0
100
AcDbLine
 10
188.19054
 20
681.9479708
 30
0.0
 11
188.19054
 21
937.4
 31
0.0
  0
LINE
  5
12AA
330
1D
100
AcDbEntity
  8
0
100
AcDbLine
 10
186.95854
 20
677.082
 30
0.0
 11
187.60804000011
 21
677.457000000063
 31
0.0
  0
LINE
  5
12AB
330
1D
100
AcDbEntity
  8
0
100
AcDbLine
 10
186.95854
 20
677.082
 30
0.0
 11
187.60804000011
 21
677.457000000063
 31
0.0
  0
LINE
  5
12AC
330
1D
100
AcDbEntity
  8
0
100
AcDbLine
 10
189.55654
 20
678.582
 30
0.0
 11
189.98954
 21
678.832
 31
0.0
  0
LINE
  5
12AD
330
1D
100
AcDbEntity
  8
0
100
AcDbLine
 10
188.51754
 20
677.982
 30
0.0
 11
189.55654
 21
678.582
 31
0.0
  0
LINE
  5
12AE
330
1D
100
AcDbEntity
  8
0
100
AcDbLine
 10
184.05536169029
 20
675.406338159445
 30
0.0
 11
191.64254
 21
658.951
 31
0.0
  0
LINE
  5
12B0
330
1D
100
AcDbEntity
  8
0
100
AcDbLine
 10
172.48954
 20
709.143
 30
0.0
 11
189.98954
 21
678.832
 31
0.0
  0
LINE
  5
12B4
330
1D
100
AcDbEntity
  8
0
100
AcDbLine
 10
169.62254
 20
938.0
 30
0.0
 11
171.86654
 21
938.0
 31
0.0
  0
LINE
  5
12B5
330
1D
100
AcDbEntity
  8
0
100
AcDbLine
 10
169.62254
 20
1008.0
 30
0.0
 11
171.86654
 21
1008.0
 31
0.0
  0
LINE
  5
12B6
330
1D
100
AcDbEntity
  8
0
100
AcDbLine
 10
169.40254
 20
1007.62
 30
0.0
 11
171.73454
 21
1007.62
 31
0.0
  0
LINE
  5
12B7
330
1D
100
AcDbEntity
  8
0
100
AcDbLine
 10
169.40254
 20
938.385
 30
0.0
 11
171.73454
 21
938.385
 31
0.0
  0
LINE
  5
12B8
330
1D
100
AcDbEntity
  8
0
100
AcDbLine
 10
171.86654
 20
1008.0
 30
0.0
 11
174.41854
 21
1008.0
 31
0.0
  0
LINE
  5
12B9
330
1D
100
AcDbEntity
  8
0
100
AcDbLine
 10
171.73454
 20
1007.62
 30
0.0
 11
174.37454
 21
1007.62
 31
0.0
  0
LINE
  5
12BA
330
1D
100
AcDbEntity
  8
0
100
AcDbLine
 10
171.73454
 20
938.385
 30
0.0
 11
174.37454
 21
938.385
 31
0.0
  0
LINE
  5
12BB
330
1D
100
AcDbEntity
  8
0
100
AcDbLine
 10
171.86654
 20
938.0
 30
0.0
 11
174.41854
 21
938.0
 31
0.0
  0
LINE
  5
12BC
330
1D
100
AcDbEntity
  8
0
100
AcDbLine
 10
187.53054
 20
938.0
 30
0.0
 11
187.92654
 21
938.0
 31
0.0
  0
LINE
  5
12BD
330
1D
100
AcDbEntity
  8
0
100
AcDbLine
 10
186.47454
 20
938.0
 30
0.0
 11
187.53054
 21
938.0
 31
0.0
  0
LINE
  5
12BE
330
1D
100
AcDbEntity
  8
0
100
AcDbLine
 10
184.75854
 20
938.0
 30
0.0
 11
186.47454
 21
938.0
 31
0.0
  0
LINE
  5
12BF
330
1D
100
AcDbEntity
  8
0
100
AcDbLine
 10
182.51454
 20
938.0
 30
0.0
 11
184.75854
 21
938.0
 31
0.0
  0
LINE
  5
12C0
330
1D
100
AcDbEntity
  8
0
100
AcDbLine
 10
179.96254
 20
938.0
 30
0.0
 11
182.51454
 21
938.0
 31
0.0
  0
LINE
  5
12C1
330
1D
100
AcDbEntity
  8
0
100
AcDbLine
 10
179.96254
 20
938.0
 30
0.0
 11
212.19054
 21
938.0
 31
0.0
  0
LINE
  5
12C2
330
1D
100
AcDbEntity
  8
0
100
AcDbLine
 10
177.19054
 20
938.0
 30
0.0
 11
179.96254
 21
938.0
 31
0.0
  0
LINE
  5
12C3
330
1D
100
AcDbEntity
  8
0
100
AcDbLine
 10
187.92654
 20
938.0
 30
0.0
 11
188.19054
 21
937.4
 31
0.0
  0
LINE
  5
12C4
330
1D
100
AcDbEntity
  8
0
100
AcDbLine
 10
187.92654
 20
938.0
 30
0.0
 11
212.19054
 21
938.0
 31
0.0
  0
LINE
  5
12C5
330
1D
100
AcDbEntity
  8
0
100
AcDbLine
 10
174.37454
 20
1007.62
 30
0.0
 11
177.19054
 21
1007.62
 31
0.0
  0
LINE
  5
12C6
330
1D
100
AcDbEntity
  8
0
100
AcDbLine
 10
180.00654
 20
938.385
 30
0.0
 11
182.64654
 21
938.385
 31
0.0
  0
LINE
  5
12C7
330
1D
100
AcDbEntity
  8
0
100
AcDbLine
 10
180.945325296454
 20
983.0
 30
0.0
 11
212.19054
 21
983.0
 31
0.0
  0
LINE
  5
12C8
330
1D
100
AcDbEntity
  8
0
100
AcDbLine
 10
188.19054
 20
1007.62
 30
0.0
 11
188.19054
 21
983.0
 31
0.0
  0
LINE
  5
12C9
330
1D
100
AcDbEntity
  8
0
100
AcDbLine
 10
187.79454
 20
1007.62
 30
0.0
 11
188.19054
 21
1007.62
 31
0.0
  0
LINE
  5
12CA
330
1D
100
AcDbEntity
  8
0
100
AcDbLine
 10
188.19054
 20
983.0
 30
0.0
 11
188.19054
 21
1007.62
 31
0.0
  0
LINE
  5
12CB
330
1D
100
AcDbEntity
  8
0
100
AcDbLine
 10
186.73854
 20
1007.62
 30
0.0
 11
187.79454
 21
1007.62
 31
0.0
  0
LINE
  5
12CC
330
1D
100
AcDbEntity
  8
0
100
AcDbLine
 10
184.97854
 20
1007.62
 30
0.0
 11
186.73854
 21
1007.62
 31
0.0
  0
LINE
  5
12CD
330
1D
100
AcDbEntity
  8
0
100
AcDbLine
 10
182.64654
 20
1007.62
 30
0.0
 11
184.97854
 21
1007.62
 31
0.0
  0
LINE
  5
12CE
330
1D
100
AcDbEntity
  8
0
100
AcDbLine
 10
180.00654
 20
1007.62
 30
0.0
 11
182.64654
 21
1007.62
 31
0.0
  0
LINE
  5
12CF
330
1D
100
AcDbEntity
  8
0
100
AcDbLine
 10
187.92654
 20
1008.0
 30
0.0
 11
188.19054
 21
1007.62
 31
0.0
  0
LINE
  5
12D0
330
1D
100
AcDbEntity
  8
0
100
AcDbLine
 10
187.53054
 20
1008.0
 30
0.0
 11
187.92654
 21
1008.0
 31
0.0
  0
LINE
  5
12D1
330
1D
100
AcDbEntity
  8
0
100
AcDbLine
 10
186.47454
 20
1008.0
 30
0.0
 11
187.53054
 21
1008.0
 31
0.0
  0
LINE
  5
12D2
330
1D
100
AcDbEntity
  8
0
100
AcDbLine
 10
184.75854
 20
1008.0
 30
0.0
 11
186.47454
 21
1008.0
 31
0.0
  0
LINE
  5
12D3
330
1D
100
AcDbEntity
  8
0
100
AcDbLine
 10
182.51454
 20
1008.0
 30
0.0
 11
184.75854
 21
1008.0
 31
0.0
  0
LINE
  5
12D4
330
1D
100
AcDbEntity
  8
0
100
AcDbLine
 10
179.96254
 20
1008.0
 30
0.0
 11
182.51454
 21
1008.0
 31
0.0
  0
LINE
  5
12D5
330
1D
100
AcDbEntity
  8
0
100
AcDbLine
 10
177.19054
 20
1008.0
 30
0.0
 11
179.96254
 21
1008.0
 31
0.0
  0
LINE
  5
12D6
330
1D
100
AcDbEntity
  8
0
100
AcDbLine
 10
177.19054
 20
1007.62
 30
0.0
 11
180.00654
 21
1007.62
 31
0.0
  0
LINE
  5
12D7
330
1D
100
AcDbEntity
  8
0
100
AcDbLine
 10
174.41854
 20
1008.0
 30
0.0
 11
177.19054
 21
1008.0
 31
0.0
  0
LINE
  5
12D8
330
1D
100
AcDbEntity
  8
0
100
AcDbLine
 10
177.19054
 20
938.385
 30
0.0
 11
180.00654
 21
938.385
 31
0.0
  0
LINE
  5
12D9
330
1D
100
AcDbEntity
  8
0
100
AcDbLine
 10
174.37454
 20
938.385
 30
0.0
 11
177.19054
 21
938.385
 31
0.0
  0
LINE
  5
12DA
330
1D
100
AcDbEntity
  8
0
100
AcDbLine
 10
174.41854
 20
938.0
 30
0.0
 11
177.19054
 21
938.0
 31
0.0
  0
LINE
  5
12DE
330
1D
100
AcDbEntity
  8
0
100
AcDbLine
 10
122.69054
 20
138.0
 30
0.0
 11
131.19054
 21
138.0
 31
0.0
  0
LINE
  5
12DF
330
1D
100
AcDbEntity
  8
0
100
AcDbLine
 10
66.69054
 20
113.5
 30
0.0
 11
67.69054
 21
112.5
 31
0.0
  0
LINE
  5
12E0
330
1D
100
AcDbEntity
  8
0
100
AcDbLine
 10
67.69054
 20
112.5
 30
0.0
 11
69.19054
 21
112.0
 31
0.0
  0
LINE
  5
12E1
330
1D
100
AcDbEntity
  8
0
100
AcDbLine
 10
67.69054
 20
112.5
 30
0.0
 11
68.29054
 21
112.5
 31
0.0
  0
LINE
  5
12E2
330
1D
100
AcDbEntity
  8
0
100
AcDbLine
 10
213.86554
 20
0.722386
 30
0.0
 11
216.25754
 21
1.67339
 31
0.0
  0
LINE
  5
12E3
330
1D
100
AcDbEntity
  8
0
100
AcDbLine
 10
210.95954
 20
0.214086
 30
0.0
 11
213.86554
 21
0.722386
 31
0.0
  0
LINE
  5
12E4
330
1D
100
AcDbEntity
  8
0
100
AcDbLine
 10
207.81654
 20
0.342986
 30
0.0
 11
210.95954
 21
0.214086
 31
0.0
  0
LINE
  5
12E5
330
1D
100
AcDbEntity
  8
0
100
AcDbLine
 10
217.68654
 20
3.04719
 30
0.0
 11
217.94954
 21
4.58899
 31
0.0
  0
LINE
  5
12E6
330
1D
100
AcDbEntity
  8
0
100
AcDbLine
 10
216.25754
 20
1.67339
 30
0.0
 11
217.68654
 21
3.04719
 31
0.0
  0
LINE
  5
12E7
330
1D
100
AcDbEntity
  8
0
100
AcDbLine
 10
205.01754
 20
1.04569
 30
0.0
 11
207.81654
 21
0.342986
 31
0.0
  0
LINE
  5
12E8
330
1D
100
AcDbEntity
  8
0
100
AcDbLine
 10
203.07754
 20
2.22189
 30
0.0
 11
205.01754
 21
1.04569
 31
0.0
  0
LINE
  5
12E9
330
1D
100
AcDbEntity
  8
0
100
AcDbLine
 10
216.91954
 20
6.01659
 30
0.0
 11
217.94954
 21
4.58899
 31
0.0
  0
LINE
  5
12EA
330
1D
100
AcDbEntity
  8
0
100
AcDbLine
 10
214.98354
 20
7.19269
 30
0.0
 11
216.91954
 21
6.01659
 31
0.0
  0
LINE
  5
12EB
330
1D
100
AcDbEntity
  8
0
100
AcDbLine
 10
212.18954
 20
7.89649
 30
0.0
 11
214.98354
 21
7.19269
 31
0.0
  0
LINE
  5
12EC
330
1D
100
AcDbEntity
  8
0
100
AcDbLine
 10
209.04654
 20
8.02759
 30
0.0
 11
212.18954
 21
7.89649
 31
0.0
  0
LINE
  5
12ED
330
1D
100
AcDbEntity
  8
0
100
AcDbLine
 10
206.13654
 20
7.52239
 30
0.0
 11
209.04654
 21
8.02759
 31
0.0
  0
LINE
  5
12EE
330
1D
100
AcDbEntity
  8
0
100
AcDbLine
 10
203.74154
 20
6.57029
 30
0.0
 11
206.13654
 21
7.52239
 31
0.0
  0
LINE
  5
12EF
330
1D
100
AcDbEntity
  8
0
100
AcDbLine
 10
202.30854
 20
5.19659
 30
0.0
 11
203.74154
 21
6.57029
 31
0.0
  0
LINE
  5
12F0
330
1D
100
AcDbEntity
  8
0
100
AcDbLine
 10
202.04354
 20
3.65159
 30
0.0
 11
203.07754
 21
2.22189
 31
0.0
  0
LINE
  5
12F1
330
1D
100
AcDbEntity
  8
0
100
AcDbLine
 10
202.04354
 20
3.65159
 30
0.0
 11
202.30854
 21
5.19659
 31
0.0
  0
LINE
  5
12F2
330
1D
100
AcDbEntity
  8
0
100
AcDbLine
 10
194.09054
 20
112.5
 30
0.0
 11
194.69054
 21
112.5
 31
0.0
  0
LINE
  5
12F3
330
1D
100
AcDbEntity
  8
0
100
AcDbLine
 10
193.89054
 20
138.0
 30
0.0
 11
195.49054
 21
138.0
 31
0.0
  0
LINE
  5
12F4
330
1D
100
AcDbEntity
  8
0
100
AcDbLine
 10
195.49054
 20
138.0
 30
0.0
 11
196.19054
 21
138.0
 31
0.0
  0
LINE
  5
12F5
330
1D
100
AcDbEntity
  8
0
100
AcDbLine
 10
196.19054
 20
115.0
 30
0.0
 11
196.19054
 21
138.0
 31
0.0
  0
LINE
  5
12F6
330
1D
100
AcDbEntity
  8
0
100
AcDbLine
 10
199.84054
 20
557.157
 30
0.0
 11
201.64154
 21
525.556
 31
0.0
  0
LINE
  5
12F7
330
1D
100
AcDbEntity
  8
0
100
AcDbLine
 10
196.94154
 20
578.854
 30
0.0
 11
199.84054
 21
557.157
 31
0.0
  0
LINE
  5
12F8
330
1D
100
AcDbEntity
  8
0
100
AcDbLine
 10
201.64154
 20
525.556
 30
0.0
 11
202.04354
 21
3.65159
 31
0.0
  0
LINE
  5
12F9
330
1D
100
AcDbEntity
  8
0
100
AcDbLine
 10
201.64154
 20
525.556
 30
0.0
 11
202.04354
 21
3.65159
 31
0.0
  0
LINE
  5
12FA
330
1D
100
AcDbEntity
  8
0
100
AcDbLine
 10
217.64154
 20
525.56
 30
0.0
 11
217.94954
 21
4.58899
 31
0.0
  0
LINE
  5
12FB
330
1D
100
AcDbEntity
  8
0
100
AcDbLine
 10
217.64154
 20
525.56
 30
0.0
 11
217.94954
 21
4.58899
 31
0.0
  0
LINE
  5
12FC
330
1D
100
AcDbEntity
  8
0
100
AcDbLine
 10
215.64154
 20
559.961
 30
0.0
 11
217.64154
 21
525.56
 31
0.0
  0
LINE
  5
12FD
330
1D
100
AcDbEntity
  8
0
100
AcDbLine
 10
211.94154
 20
584.359
 30
0.0
 11
215.64154
 21
559.961
 31
0.0
  0
LINE
  5
12FE
330
1D
100
AcDbEntity
  8
0
100
AcDbLine
 10
212.19054
 20
983.0
 30
0.0
 11
212.19054
 21
938.0
 31
0.0
  0
LINE
  5
12FF
330
1D
100
AcDbEntity
  8
0
100
AcDbLine
 10
212.19054
 20
938.0
 30
0.0
 11
212.19054
 21
983.0
 31
0.0
  0
LINE
  5
1300
330
1D
100
AcDbEntity
  8
0
100
AcDbLine
 10
206.84154
 20
609.756
 30
0.0
 11
211.94154
 21
584.359
 31
0.0
  0
LINE
  5
1301
330
1D
100
AcDbEntity
  8
0
100
AcDbLine
 10
200.04154
 20
635.464
 30
0.0
 11
206.84154
 21
609.756
 31
0.0
  0
LINE
  5
1302
330
1D
100
AcDbEntity
  8
0
100
AcDbLine
 10
196.19054
 20
138.0
 30
0.0
 11
196.19054
 21
115.0
 31
0.0
  0
LINE
  5
1303
330
1D
100
AcDbEntity
  8
0
100
AcDbLine
 10
195.69054
 20
113.5
 30
0.0
 11
196.19054
 21
115.0
 31
0.0
  0
LINE
  5
1304
330
1D
100
AcDbEntity
  8
0
100
AcDbLine
 10
194.69054
 20
112.5
 30
0.0
 11
195.69054
 21
113.5
 31
0.0
  0
LINE
  5
1305
330
1D
100
AcDbEntity
  8
0
100
AcDbLine
 10
193.19054
 20
112.0
 30
0.0
 11
194.69054
 21
112.5
 31
0.0
  0
LINE
  5
1306
330
1D
100
AcDbEntity
  8
0
100
AcDbLine
 10
193.19054
 20
112.0
 30
0.0
 11
193.19054
 21
112.142857142857
 31
0.0
  0
LINE
  5
1869
330
1D
100
AcDbEntity
  8
0
100
AcDbLine
 10
148.687146049142
 20
696.875424718137
 30
0.0
 11
149.575690560626
 21
696.36773693823
 31
0.0
  0
LINE
  5
186A
330
1D
100
AcDbEntity
  8
0
100
AcDbLine
 10
149.575690560626
 20
696.36773693823
 30
0.0
 11
150.584766647702
 21
696.17948988899
 31
0.0
  0
LINE
  5
186B
330
1D
100
AcDbEntity
  8
0
100
AcDbLine
 10
148.211088624611
 20
697.337970745552
 30
0.0
 11
148.687146049142
 21
696.875424718137
 31
0.0
  0
LINE
  5
186C
330
1D
100
AcDbEntity
  8
0
100
AcDbLine
 10
148.211088624611
 20
697.337970745552
 30
0.0
 11
148.687146049142
 21
696.875424718137
 31
0.0
  0
LINE
  5
186D
330
1D
100
AcDbEntity
  8
0
100
AcDbLine
 10
148.687146049142
 20
696.875424718137
 30
0.0
 11
149.575690560626
 21
696.36773693823
 31
0.0
  0
LINE
  5
186E
330
1D
100
AcDbEntity
  8
0
100
AcDbLine
 10
147.46441812225
 20
698.436338542608
 30
0.0
 11
148.211088624611
 21
697.337970745552
 31
0.0
  0
LINE
  5
186F
330
1D
100
AcDbEntity
  8
0
100
AcDbLine
 10
147.46441812225
 20
698.436338542608
 30
0.0
 11
148.211088624611
 21
697.337970745552
 31
0.0
  0
LINE
  5
1870
330
1D
100
AcDbEntity
  8
0
100
AcDbLine
 10
145.113208032296
 20
702.588360977027
 30
0.0
 11
145.118623748836
 21
702.439242793983
 31
0.0
  0
LINE
  5
1871
330
1D
100
AcDbEntity
  8
0
100
AcDbLine
 10
151.672892367059
 20
696.346812125928
 30
0.0
 11
151.807040984945
 21
696.41956368893
 31
0.0
  0
LINE
  5
1872
330
1D
100
AcDbEntity
  8
0
100
AcDbLine
 10
145.147063233244
 20
702.372013602953
 30
0.0
 11
147.46441812225
 21
698.436338542608
 31
0.0
  0
LINE
  5
1873
330
1D
100
AcDbEntity
  8
0
100
AcDbLine
 10
145.147063233244
 20
702.372013602953
 30
0.0
 11
147.46441812225
 21
698.436338542608
 31
0.0
  0
LINE
  5
1874
330
1D
100
AcDbEntity
  8
0
100
AcDbLine
 10
145.118623748836
 20
702.439242793983
 30
0.0
 11
145.161417807756
 21
702.387564994871
 31
0.0
  0
LINE
  5
1875
330
1D
100
AcDbEntity
  8
0
100
AcDbLine
 10
150.584766647702
 20
696.17948988899
 30
0.0
 11
151.672892367059
 21
696.346812125928
 31
0.0
  0
LINE
  5
1876
330
1D
100
AcDbEntity
  8
0
100
AcDbLine
 10
151.807040984945
 20
696.41956368893
 30
0.0
 11
152.131671213452
 21
696.597975937219
 31
0.0
  0
LINE
  5
1877
330
1D
100
AcDbEntity
  8
0
100
AcDbLine
 10
145.181003084369
 20
702.722050584008
 30
0.0
 11
145.457531776493
 21
703.040714579514
 31
0.0
  0
LINE
  5
1878
330
1D
100
AcDbEntity
  8
0
100
AcDbLine
 10
145.181003084369
 20
702.722050584008
 30
0.0
 11
145.113208032296
 21
702.588360977027
 31
0.0
  0
LINE
  5
1879
330
1D
100
AcDbEntity
  8
0
100
AcDbLine
 10
152.131671213452
 20
696.597975937219
 30
0.0
 11
152.634590955501
 21
696.883076133567
 31
0.0
  0
LINE
  5
187A
330
1D
100
AcDbEntity
  8
0
100
AcDbLine
 10
152.634590955501
 20
696.883076133567
 30
0.0
 11
153.290954672291
 21
697.265478927596
 31
0.0
  0
LINE
  5
187B
330
1D
100
AcDbEntity
  8
0
100
AcDbLine
 10
152.131671213452
 20
696.597975937219
 30
0.0
 11
152.634590955501
 21
696.883076133567
 31
0.0
  0
LINE
  5
187C
330
1D
100
AcDbEntity
  8
0
100
AcDbLine
 10
-0.354227104536
 20
896.712326309075
 30
0.0
 11
-1.723076945083
 21
894.67495067507
 31
0.0
  0
LINE
  5
187D
330
1D
100
AcDbEntity
  8
0
100
AcDbLine
 10
0.2386987707
 20
897.348940278821
 30
0.0
 11
0.617239809842
 21
897.555819281345
 31
0.0
  0
LINE
  5
187E
330
1D
100
AcDbEntity
  8
0
100
AcDbLine
 10
0.2386987707
 20
897.348940278821
 30
0.0
 11
0.617239809842
 21
897.555819281345
 31
0.0
  0
LINE
  5
187F
330
1D
100
AcDbEntity
  8
0
100
AcDbLine
 10
-0.354227104536
 20
896.712326309075
 30
0.0
 11
0.2386987707
 21
897.348940278821
 31
0.0
  0
LINE
  5
1880
330
1D
100
AcDbEntity
  8
0
100
AcDbLine
 10
-0.354227104536
 20
896.712326309075
 30
0.0
 11
-1.723076945083
 21
894.67495067507
 31
0.0
  0
LINE
  5
1881
330
1D
100
AcDbEntity
  8
0
100
AcDbLine
 10
-4.027804229847
 20
888.353059169756
 30
0.0
 11
-4.033175389766
 21
888.220628883412
 31
0.0
  0
LINE
  5
1882
330
1D
100
AcDbEntity
  8
0
100
AcDbLine
 10
-3.828335292186
 20
888.556551068633
 30
0.0
 11
-3.680542366029
 21
888.563078807737
 31
0.0
  0
LINE
  5
1883
330
1D
100
AcDbEntity
  8
0
100
AcDbLine
 10
-3.954203448603
 20
888.481237541958
 30
0.0
 11
-3.828335292186
 21
888.556551068633
 31
0.0
  0
LINE
  5
1884
330
1D
100
AcDbEntity
  8
0
100
AcDbLine
 10
-3.954203448603
 20
888.481237541958
 30
0.0
 11
-4.027804229847
 21
888.353059169756
 31
0.0
  0
LINE
  5
1885
330
1D
100
AcDbEntity
  8
0
100
AcDbLine
 10
-4.033175389766
 20
888.220628883412
 30
0.0
 11
-3.763577097257
 21
886.910529383269
 31
0.0
  0
LINE
  5
1886
330
1D
100
AcDbEntity
  8
0
100
AcDbLine
 10
-3.763577097257
 20
886.910529383269
 30
0.0
 11
-1.658962217254
 21
882.894939431983
 31
0.0
  0
LINE
  5
1887
330
1D
100
AcDbEntity
  8
0
100
AcDbLine
 10
-3.763577097257
 20
886.910529383269
 30
0.0
 11
-1.658962217254
 21
882.894939431983
 31
0.0
  0
LINE
  5
1888
330
1D
100
AcDbEntity
  8
0
100
AcDbLine
 10
-1.81842828924
 20
882.472252226728
 30
0.0
 11
4.770830217801
 21
871.894675692976
 31
0.0
  0
LINE
  5
1889
330
1D
100
AcDbEntity
  8
0
100
AcDbLine
 10
-1.689241291319
 20
882.828315377965
 30
0.0
 11
-1.81842828924
 21
882.472252226728
 31
0.0
  0
LINE
  5
188A
330
1D
100
AcDbEntity
  8
0
100
AcDbLine
 10
-1.658962217254
 20
882.894939431983
 30
0.0
 11
-1.567787607634
 21
882.818434850678
 31
0.0
  0
LINE
  5
188B
330
1D
100
AcDbEntity
  8
0
100
AcDbLine
 10
4.424777703615
 20
873.290577623158
 30
0.0
 11
4.541424908963
 21
872.937361330379
 31
0.0
  0
LINE
  5
188C
330
1D
100
AcDbEntity
  8
0
100
AcDbLine
 10
4.541424908963
 20
872.937361330379
 30
0.0
 11
5.344081579479
 21
871.455022057717
 31
0.0
  0
LINE
  5
188D
330
1D
100
AcDbEntity
  8
0
100
AcDbLine
 10
4.497774202971
 20
873.185595143278
 30
0.0
 11
5.033489484202
 21
872.123318466769
 31
0.0
  0
LINE
  5
188E
330
1D
100
AcDbEntity
  8
0
100
AcDbLine
 10
4.5142944529
 20
873.650686942112
 30
0.0
 11
5.113264795211
 21
873.321710318274
 31
0.0
  0
LINE
  5
188F
330
1D
100
AcDbEntity
  8
0
100
AcDbLine
 10
4.87919779208
 20
873.45026855731
 30
0.0
 11
4.937715508828
 21
873.462225541827
 31
0.0
  0
LINE
  5
1890
330
1D
100
AcDbEntity
  8
0
100
AcDbLine
 10
4.413383375399
 20
873.332382159808
 30
0.0
 11
4.497774202971
 21
873.185595143278
 31
0.0
  0
LINE
  5
1891
330
1D
100
AcDbEntity
  8
0
100
AcDbLine
 10
4.429804698692
 20
873.300457872168
 30
0.0
 11
4.684832469801
 21
872.814674915757
 31
0.0
  0
LINE
  5
1892
330
1D
100
AcDbEntity
  8
0
100
AcDbLine
 10
5.395960228234
 20
872.805143524772
 30
0.0
 11
5.542464165514
 21
871.911891283599
 31
0.0
  0
LINE
  5
1893
330
1D
100
AcDbEntity
  8
0
100
AcDbLine
 10
5.181215363169
 20
873.19754486349
 30
0.0
 11
5.556810658386
 21
872.868334814678
 31
0.0
  0
LINE
  5
1894
330
1D
100
AcDbEntity
  8
0
100
AcDbLine
 10
5.656858483294
 20
871.121165294359
 30
0.0
 11
5.98858810684
 21
871.059900321807
 31
0.0
  0
LINE
  5
1895
330
1D
100
AcDbEntity
  8
0
100
AcDbLine
 10
5.656858483294
 20
871.121165294359
 30
0.0
 11
5.706349768582
 21
871.131689894162
 31
0.0
  0
LINE
  5
1896
330
1D
100
AcDbEntity
  8
0
100
AcDbLine
 10
5.531158828401
 20
871.17625110705
 30
0.0
 11
5.656858483294
 21
871.121165294359
 31
0.0
  0
LINE
  5
1897
330
1D
100
AcDbEntity
  8
0
100
AcDbLine
 10
5.531158828401
 20
871.17625110705
 30
0.0
 11
5.98858810684
 21
871.059900321807
 31
0.0
  0
LINE
  5
1898
330
1D
100
AcDbEntity
  8
0
100
AcDbLine
 10
5.545136288872
 20
872.098252896034
 30
0.0
 11
5.596223690133
 21
872.095750124868
 31
0.0
  0
LINE
  5
1899
330
1D
100
AcDbEntity
  8
0
100
AcDbLine
 10
5.544935307349
 20
872.084995457492
 30
0.0
 11
5.596223690133
 21
872.095750124868
 31
0.0
  0
LINE
  5
189A
330
1D
100
AcDbEntity
  8
0
100
AcDbLine
 10
5.596223690133
 20
872.095750124868
 30
0.0
 11
5.542778425427
 21
871.942720042353
 31
0.0
  0
LINE
  5
189B
330
1D
100
AcDbEntity
  8
0
100
AcDbLine
 10
5.033489484202
 20
872.123318466769
 30
0.0
 11
5.531158828401
 21
871.17625110705
 31
0.0
  0
LINE
  5
189C
330
1D
100
AcDbEntity
  8
0
100
AcDbLine
 10
5.542464165514
 20
871.911891283599
 30
0.0
 11
5.531158828401
 21
871.17625110705
 31
0.0
  0
LINE
  5
189D
330
1D
100
AcDbEntity
  8
0
100
AcDbLine
 10
5.542464165514
 20
871.911891283599
 30
0.0
 11
5.98858810684
 21
871.059900321807
 31
0.0
  0
LINE
  5
189E
330
1D
100
AcDbEntity
  8
0
100
AcDbLine
 10
5.709231753362
 20
872.017266600383
 30
0.0
 11
5.99489042858
 21
871.490879162054
 31
0.0
  0
LINE
  5
189F
330
1D
100
AcDbEntity
  8
0
100
AcDbLine
 10
5.344081579479
 20
871.455022057717
 30
0.0
 11
5.3978361632
 21
871.429964834837
 31
0.0
  0
LINE
  5
18A0
330
1D
100
AcDbEntity
  8
0
100
AcDbLine
 10
5.926484832737
 20
871.178502852029
 30
0.0
 11
6.154195389191
 21
871.226926780885
 31
0.0
  0
LINE
  5
18A1
330
1D
100
AcDbEntity
  8
0
100
AcDbLine
 10
5.98858810684
 20
871.059900321807
 30
0.0
 11
6.154195389191
 21
871.226926780885
 31
0.0
  0
LINE
  5
18A2
330
1D
100
AcDbEntity
  8
0
100
AcDbLine
 10
5.960548290714
 20
871.453318319676
 30
0.0
 11
6.055821328823
 21
871.39967606235
 31
0.0
  0
LINE
  5
18A3
330
1D
100
AcDbEntity
  8
0
100
AcDbLine
 10
6.055821328823
 20
871.39967606235
 30
0.0
 11
6.0539800671
 21
871.205615429743
 31
0.0
  0
LINE
  5
18A4
330
1D
100
AcDbEntity
  8
0
100
AcDbLine
 10
5.847390306985
 20
871.329554644648
 30
0.0
 11
5.99489042858
 21
871.490879162054
 31
0.0
  0
LINE
  5
18A5
330
1D
100
AcDbEntity
  8
0
100
AcDbLine
 10
5.624050404837
 20
871.911211518376
 30
0.0
 11
5.631047384733
 21
871.742718336018
 31
0.0
  0
LINE
  5
18A6
330
1D
100
AcDbEntity
  8
0
100
AcDbLine
 10
6.185920990026
 20
869.556213037838
 30
0.0
 11
6.067740996073
 21
869.413438218811
 31
0.0
  0
LINE
  5
18A7
330
1D
100
AcDbEntity
  8
0
100
AcDbLine
 10
6.024602571975
 20
869.567383392059
 30
0.0
 11
6.065561036165
 21
869.47601211443
 31
0.0
  0
LINE
  5
18A8
330
1D
100
AcDbEntity
  8
0
100
AcDbLine
 10
6.024602571975
 20
869.567383392059
 30
0.0
 11
6.066526512601
 21
869.44829893425
 31
0.0
  0
LINE
  5
18A9
330
1D
100
AcDbEntity
  8
0
100
AcDbLine
 10
6.406466432512
 20
868.655612065455
 30
0.0
 11
7.188712825218
 21
867.421978302502
 31
0.0
  0
LINE
  5
18AA
330
1D
100
AcDbEntity
  8
0
100
AcDbLine
 10
6.406466432512
 20
868.655612065455
 30
0.0
 11
6.543239776687
 21
868.687255970408
 31
0.0
  0
LINE
  5
18AB
330
1D
100
AcDbEntity
  8
0
100
AcDbLine
 10
6.406466432512
 20
868.655612065455
 30
0.0
 11
6.504879880708
 21
868.762450310179
 31
0.0
  0
LINE
  5
18AC
330
1D
100
AcDbEntity
  8
0
100
AcDbLine
 10
6.820466514438
 20
868.362268611182
 30
0.0
 11
7.263598480789
 21
868.843389864503
 31
0.0
  0
LINE
  5
18AD
330
1D
100
AcDbEntity
  8
0
100
AcDbLine
 10
6.820466514438
 20
868.362268611182
 30
0.0
 11
7.188712825218
 21
867.421978302502
 31
0.0
  0
LINE
  5
18AE
330
1D
100
AcDbEntity
  8
0
100
AcDbLine
 10
6.360163914144
 20
869.046127345339
 30
0.0
 11
6.406466432512
 21
868.655612065455
 31
0.0
  0
LINE
  5
18AF
330
1D
100
AcDbEntity
  8
0
100
AcDbLine
 10
6.415027726156
 20
868.938581482236
 30
0.0
 11
6.406466432512
 21
868.655612065455
 31
0.0
  0
LINE
  5
18B0
330
1D
100
AcDbEntity
  8
0
100
AcDbLine
 10
6.333604048069
 20
869.098190875311
 30
0.0
 11
6.820466514438
 21
868.362268611182
 31
0.0
  0
LINE
  5
18B1
330
1D
100
AcDbEntity
  8
0
100
AcDbLine
 10
6.333604048069
 20
869.098190875311
 30
0.0
 11
7.188712825218
 21
867.421978302502
 31
0.0
  0
LINE
  5
18B2
330
1D
100
AcDbEntity
  8
0
100
AcDbLine
 10
6.146062541127
 20
869.043950363015
 30
0.0
 11
6.406466432512
 21
868.655612065455
 31
0.0
  0
LINE
  5
18B3
330
1D
100
AcDbEntity
  8
0
100
AcDbLine
 10
6.146062541127
 20
869.043950363015
 30
0.0
 11
6.209115814855
 21
869.097142117091
 31
0.0
  0
LINE
  5
18B4
330
1D
100
AcDbEntity
  8
0
100
AcDbLine
 10
6.067740996073
 20
869.413438218811
 30
0.0
 11
6.146062541127
 21
869.043950363015
 31
0.0
  0
LINE
  5
18B5
330
1D
100
AcDbEntity
  8
0
100
AcDbLine
 10
6.067740996073
 20
869.413438218811
 30
0.0
 11
6.219387001496
 21
869.452422019774
 31
0.0
  0
LINE
  5
18B6
330
1D
100
AcDbEntity
  8
0
100
AcDbLine
 10
6.067740996073
 20
869.413438218811
 30
0.0
 11
6.406466432512
 21
868.655612065455
 31
0.0
  0
LINE
  5
18B7
330
1D
100
AcDbEntity
  8
0
100
AcDbLine
 10
6.028076441833
 20
872.441305013198
 30
0.0
 11
5.998719217172
 21
872.377693116825
 31
0.0
  0
LINE
  5
18B8
330
1D
100
AcDbEntity
  8
0
100
AcDbLine
 10
6.01828937687
 20
872.499025628755
 30
0.0
 11
6.028076441833
 21
872.441305013198
 31
0.0
  0
LINE
  5
18B9
330
1D
100
AcDbEntity
  8
0
100
AcDbLine
 10
5.998719217172
 20
872.377693116825
 30
0.0
 11
5.574877731844
 21
871.849989056451
 31
0.0
  0
LINE
  5
18BA
330
1D
100
AcDbEntity
  8
0
100
AcDbLine
 10
6.003660201884
 20
869.994182291542
 30
0.0
 11
6.024602571975
 21
869.567383392059
 31
0.0
  0
LINE
  5
18BB
330
1D
100
AcDbEntity
  8
0
100
AcDbLine
 10
7.263598480789
 20
868.843389864503
 30
0.0
 11
7.785852710345
 21
867.810031349896
 31
0.0
  0
LINE
  5
18BC
330
1D
100
AcDbEntity
  8
0
100
AcDbLine
 10
6.168977362603
 20
869.608761766013
 30
0.0
 11
6.067740996073
 21
869.413438218811
 31
0.0
  0
LINE
  5
18BD
330
1D
100
AcDbEntity
  8
0
100
AcDbLine
 10
6.168977362603
 20
869.608761766013
 30
0.0
 11
6.333604048069
 21
869.098190875311
 31
0.0
  0
LINE
  5
18BE
330
1D
100
AcDbEntity
  8
0
100
AcDbLine
 10
5.556810658386
 20
872.868334814678
 30
0.0
 11
5.776631310743
 21
872.783224881078
 31
0.0
  0
LINE
  5
18BF
330
1D
100
AcDbEntity
  8
0
100
AcDbLine
 10
5.556810658386
 20
872.868334814678
 30
0.0
 11
5.54232401839
 21
871.912745777581
 31
0.0
  0
LINE
  5
18C0
330
1D
100
AcDbEntity
  8
0
100
AcDbLine
 10
5.556810658386
 20
872.868334814678
 30
0.0
 11
5.418005948452
 21
872.670728099778
 31
0.0
  0
LINE
  5
18C1
330
1D
100
AcDbEntity
  8
0
100
AcDbLine
 10
4.937715508828
 20
873.462225541827
 30
0.0
 11
5.005361735575
 21
873.41434038748
 31
0.0
  0
LINE
  5
18C2
330
1D
100
AcDbEntity
  8
0
100
AcDbLine
 10
5.115122974319
 20
873.318314884491
 30
0.0
 11
5.18070732876
 21
873.247757396299
 31
0.0
  0
LINE
  5
18C3
330
1D
100
AcDbEntity
  8
0
100
AcDbLine
 10
5.107366252999
 20
873.326659782868
 30
0.0
 11
5.638261012794
 21
872.919042997121
 31
0.0
  0
LINE
  5
18C4
330
1D
100
AcDbEntity
  8
0
100
AcDbLine
 10
4.960308646981
 20
873.453058202606
 30
0.0
 11
5.039684358548
 21
873.413084381008
 31
0.0
  0
LINE
  5
18C5
330
1D
100
AcDbEntity
  8
0
100
AcDbLine
 10
5.288320116008
 20
873.184654751659
 30
0.0
 11
5.638261012794
 21
872.919042997121
 31
0.0
  0
LINE
  5
18C6
330
1D
100
AcDbEntity
  8
0
100
AcDbLine
 10
4.963563010692
 20
873.449935845029
 30
0.0
 11
5.039684358548
 21
873.413084381008
 31
0.0
  0
LINE
  5
18C7
330
1D
100
AcDbEntity
  8
0
100
AcDbLine
 10
5.039684358548
 20
873.413084381008
 30
0.0
 11
5.188220376069
 21
873.288447863489
 31
0.0
  0
LINE
  5
18C8
330
1D
100
AcDbEntity
  8
0
100
AcDbLine
 10
5.652673121932
 20
872.898725735736
 30
0.0
 11
5.795846828351
 21
872.778588731486
 31
0.0
  0
LINE
  5
18C9
330
1D
100
AcDbEntity
  8
0
100
AcDbLine
 10
5.087179114022
 20
873.373231549207
 30
0.0
 11
5.579305479426
 21
873.120723053362
 31
0.0
  0
LINE
  5
18CA
330
1D
100
AcDbEntity
  8
0
100
AcDbLine
 10
5.087179114022
 20
873.373231549207
 30
0.0
 11
5.522928702907
 21
873.007594229887
 31
0.0
  0
LINE
  5
18CB
330
1D
100
AcDbEntity
  8
0
100
AcDbLine
 10
5.087179114022
 20
873.373231549207
 30
0.0
 11
5.525733331568
 21
873.005440858247
 31
0.0
  0
LINE
  5
18CC
330
1D
100
AcDbEntity
  8
0
100
AcDbLine
 10
5.694048978554
 20
872.864284016908
 30
0.0
 11
5.945954562152
 21
872.653025009603
 31
0.0
  0
LINE
  5
18CD
330
1D
100
AcDbEntity
  8
0
100
AcDbLine
 10
5.638261012794
 20
872.919042997121
 30
0.0
 11
5.945954562152
 21
872.653025009603
 31
0.0
  0
LINE
  5
18CE
330
1D
100
AcDbEntity
  8
0
100
AcDbLine
 10
5.638261012794
 20
872.919042997121
 30
0.0
 11
5.795846828351
 21
872.778588731486
 31
0.0
  0
LINE
  5
18CF
330
1D
100
AcDbEntity
  8
0
100
AcDbLine
 10
5.188220376069
 20
873.288447863489
 30
0.0
 11
5.258645929101
 21
873.210508447442
 31
0.0
  0
LINE
  5
18D0
330
1D
100
AcDbEntity
  8
0
100
AcDbLine
 10
5.188220376069
 20
873.288447863489
 30
0.0
 11
5.406423103444
 21
873.097046305084
 31
0.0
  0
LINE
  5
18D1
330
1D
100
AcDbEntity
  8
0
100
AcDbLine
 10
5.188220376069
 20
873.288447863489
 30
0.0
 11
5.522928702907
 21
873.007594229887
 31
0.0
  0
LINE
  5
18D2
330
1D
100
AcDbEntity
  8
0
100
AcDbLine
 10
5.200721123448
 20
873.274613382836
 30
0.0
 11
5.274676265178
 21
873.210718767507
 31
0.0
  0
LINE
  5
18D3
330
1D
100
AcDbEntity
  8
0
100
AcDbLine
 10
6.030932616223
 20
872.57741211172
 30
0.0
 11
6.028076441833
 21
872.441305013198
 31
0.0
  0
LINE
  5
18D4
330
1D
100
AcDbEntity
  8
0
100
AcDbLine
 10
5.945954562152
 20
872.653025009603
 30
0.0
 11
6.030932616223
 21
872.57741211172
 31
0.0
  0
LINE
  5
18D5
330
1D
100
AcDbEntity
  8
0
100
AcDbLine
 10
5.776631310743
 20
872.783224881078
 30
0.0
 11
5.596223690133
 21
872.095750124868
 31
0.0
  0
LINE
  5
18D6
330
1D
100
AcDbEntity
  8
0
100
AcDbLine
 10
5.776631310743
 20
872.783224881078
 30
0.0
 11
6.030932616223
 21
872.57741211172
 31
0.0
  0
LINE
  5
18D7
330
1D
100
AcDbEntity
  8
0
100
AcDbLine
 10
5.776631310743
 20
872.783224881078
 30
0.0
 11
5.945954562152
 21
872.653025009603
 31
0.0
  0
LINE
  5
18D8
330
1D
100
AcDbEntity
  8
0
100
AcDbLine
 10
4.772118532636
 20
873.624094898131
 30
0.0
 11
4.959684068511
 21
873.452977778881
 31
0.0
  0
LINE
  5
18D9
330
1D
100
AcDbEntity
  8
0
100
AcDbLine
 10
5.113264795211
 20
873.321710318274
 30
0.0
 11
5.395960228234
 21
872.805143524772
 31
0.0
  0
LINE
  5
18DA
330
1D
100
AcDbEntity
  8
0
100
AcDbLine
 10
4.234582505746
 20
874.114492113083
 30
0.0
 11
4.412487847396
 21
873.32882575297
 31
0.0
  0
LINE
  5
18DB
330
1D
100
AcDbEntity
  8
0
100
AcDbLine
 10
4.270302285364
 20
874.095065808572
 30
0.0
 11
4.40524896945
 21
874.021674667703
 31
0.0
  0
LINE
  5
18DC
330
1D
100
AcDbEntity
  8
0
100
AcDbLine
 10
4.432619961002
 20
873.96717331704
 30
0.0
 11
4.974374818566
 21
873.445974440805
 31
0.0
  0
LINE
  5
18DD
330
1D
100
AcDbEntity
  8
0
100
AcDbLine
 10
4.770830217801
 20
871.894675692976
 30
0.0
 11
6.049997502654
 21
869.922750110713
 31
0.0
  0
LINE
  5
18DE
330
1D
100
AcDbEntity
  8
0
100
AcDbLine
 10
5.579305479426
 20
873.120723053362
 30
0.0
 11
5.865267043862
 21
872.722783804606
 31
0.0
  0
LINE
  5
18DF
330
1D
100
AcDbEntity
  8
0
100
AcDbLine
 10
5.579305479426
 20
873.120723053362
 30
0.0
 11
5.830040142867
 21
872.753239396961
 31
0.0
  0
LINE
  5
18E0
330
1D
100
AcDbEntity
  8
0
100
AcDbLine
 10
4.40524896945
 20
874.021674667703
 30
0.0
 11
4.433766418865
 21
873.964890480415
 31
0.0
  0
LINE
  5
18E1
330
1D
100
AcDbEntity
  8
0
100
AcDbLine
 10
4.368787648763
 20
874.030338505983
 30
0.0
 11
4.436006896043
 21
873.790720150225
 31
0.0
  0
LINE
  5
18E2
330
1D
100
AcDbEntity
  8
0
100
AcDbLine
 10
4.368787648763
 20
874.030338505983
 30
0.0
 11
4.933651709346
 21
873.461395181551
 31
0.0
  0
LINE
  5
18E3
330
1D
100
AcDbEntity
  8
0
100
AcDbLine
 10
4.263276697733
 20
874.099683218924
 30
0.0
 11
4.413383375399
 21
873.332382159808
 31
0.0
  0
LINE
  5
18E4
330
1D
100
AcDbEntity
  8
0
100
AcDbLine
 10
4.263276697733
 20
874.099683218924
 30
0.0
 11
4.368787648763
 21
874.030338505983
 31
0.0
  0
LINE
  5
18E5
330
1D
100
AcDbEntity
  8
0
100
AcDbLine
 10
4.263276697733
 20
874.099683218924
 30
0.0
 11
4.5142944529
 21
873.650686942112
 31
0.0
  0
LINE
  5
18E6
330
1D
100
AcDbEntity
  8
0
100
AcDbLine
 10
6.94841850804
 20
869.402629562776
 30
0.0
 11
6.993238343147
 21
869.369056684812
 31
0.0
  0
LINE
  5
18E7
330
1D
100
AcDbEntity
  8
0
100
AcDbLine
 10
6.947115699331
 20
869.40494120188
 30
0.0
 11
6.993238343147
 21
869.369056684812
 31
0.0
  0
LINE
  5
18E8
330
1D
100
AcDbEntity
  8
0
100
AcDbLine
 10
6.145972818551
 20
870.617302514299
 30
0.0
 11
6.190773182329
 21
870.496815869833
 31
0.0
  0
LINE
  5
18E9
330
1D
100
AcDbEntity
  8
0
100
AcDbLine
 10
6.561659091474
 20
870.088876272991
 30
0.0
 11
7.263598480789
 21
868.843389864503
 31
0.0
  0
LINE
  5
18EA
330
1D
100
AcDbEntity
  8
0
100
AcDbLine
 10
6.0235919339
 20
870.680699510064
 30
0.0
 11
6.067740996073
 21
869.413438218811
 31
0.0
  0
LINE
  5
18EB
330
1D
100
AcDbEntity
  8
0
100
AcDbLine
 10
6.0235919339
 20
870.680699510064
 30
0.0
 11
6.333604048069
 21
869.098190875311
 31
0.0
  0
LINE
  5
18EC
330
1D
100
AcDbEntity
  8
0
100
AcDbLine
 10
6.0235919339
 20
870.680699510064
 30
0.0
 11
6.561659091474
 21
870.088876272991
 31
0.0
  0
LINE
  5
18ED
330
1D
100
AcDbEntity
  8
0
100
AcDbLine
 10
6.0235919339
 20
870.680699510064
 30
0.0
 11
6.145972818551
 21
870.617302514299
 31
0.0
  0
LINE
  5
18EE
330
1D
100
AcDbEntity
  8
0
100
AcDbLine
 10
5.18070732876
 20
873.247757396299
 30
0.0
 11
5.776631310743
 21
872.783224881078
 31
0.0
  0
LINE
  5
18EF
330
1D
100
AcDbEntity
  8
0
100
AcDbLine
 10
7.635366713152
 20
867.542921885249
 30
0.0
 11
8.308437976229
 21
866.538419313982
 31
0.0
  0
LINE
  5
18F0
330
1D
100
AcDbEntity
  8
0
100
AcDbLine
 10
7.188712825218
 20
867.421978302502
 30
0.0
 11
7.785852710345
 21
867.810031349896
 31
0.0
  0
LINE
  5
18F1
330
1D
100
AcDbEntity
  8
0
100
AcDbLine
 10
7.188712825218
 20
867.421978302502
 30
0.0
 11
7.761862106969
 21
867.577173923668
 31
0.0
  0
LINE
  5
18F2
330
1D
100
AcDbEntity
  8
0
100
AcDbLine
 10
7.785852710345
 20
867.810031349896
 30
0.0
 11
7.761862106969
 21
867.577173923668
 31
0.0
  0
LINE
  5
18F3
330
1D
100
AcDbEntity
  8
0
100
AcDbLine
 10
8.066357067139
 20
864.523531790209
 30
0.0
 11
8.2290232035
 21
864.280386919646
 31
0.0
  0
LINE
  5
18F4
330
1D
100
AcDbEntity
  8
0
100
AcDbLine
 10
8.2290232035
 20
864.280386919646
 30
0.0
 11
8.92672368089
 21
863.268382324493
 31
0.0
  0
LINE
  5
18F5
330
1D
100
AcDbEntity
  8
0
100
AcDbLine
 10
8.308437976229
 20
866.538419313982
 30
0.0
 11
8.495664343578
 21
866.29232484067
 31
0.0
  0
LINE
  5
18F6
330
1D
100
AcDbEntity
  8
0
100
AcDbLine
 10
8.308437976229
 20
866.538419313982
 30
0.0
 11
8.668248570788
 21
866.065476319822
 31
0.0
  0
LINE
  5
18F7
330
1D
100
AcDbEntity
  8
0
100
AcDbLine
 10
8.495664343578
 20
866.29232484067
 30
0.0
 11
7.775209217345
 21
865.247048859504
 31
0.0
  0
LINE
  5
18F8
330
1D
100
AcDbEntity
  8
0
100
AcDbLine
 10
9.21854541975
 20
865.259281316183
 30
0.0
 11
8.431412497029
 21
864.220085809666
 31
0.0
  0
LINE
  5
18F9
330
1D
100
AcDbEntity
  8
0
100
AcDbLine
 10
10.972246702619
 20
867.20970772384
 30
0.0
 11
10.800397766926
 21
866.056070175343
 31
0.0
  0
LINE
  5
18FA
330
1D
100
AcDbEntity
  8
0
100
AcDbLine
 10
10.972246702619
 20
867.20970772384
 30
0.0
 11
11.351031028374
 21
866.89213101726
 31
0.0
  0
LINE
  5
18FB
330
1D
100
AcDbEntity
  8
0
100
AcDbLine
 10
7.775209217345
 20
865.247048859504
 30
0.0
 11
8.431412497029
 21
864.220085809666
 31
0.0
  0
LINE
  5
18FC
330
1D
100
AcDbEntity
  8
0
100
AcDbLine
 10
7.775209217345
 20
865.247048859504
 30
0.0
 11
8.066357067139
 21
864.523531790209
 31
0.0
  0
LINE
  5
18FD
330
1D
100
AcDbEntity
  8
0
100
AcDbLine
 10
8.431412497029
 20
864.220085809666
 30
0.0
 11
9.037608369447
 21
863.107545664654
 31
0.0
  0
LINE
  5
18FE
330
1D
100
AcDbEntity
  8
0
100
AcDbLine
 10
8.431412497029
 20
864.220085809666
 30
0.0
 11
9.190540089035
 21
862.761478779292
 31
0.0
  0
LINE
  5
18FF
330
1D
100
AcDbEntity
  8
0
100
AcDbLine
 10
9.581473324501
 20
862.556546752981
 30
0.0
 11
9.711502847306
 21
862.672920162811
 31
0.0
  0
LINE
  5
1900
330
1D
100
AcDbEntity
  8
0
100
AcDbLine
 10
10.422009825424
 20
861.691079410665
 30
0.0
 11
10.703863568412
 21
861.416980308945
 31
0.0
  0
LINE
  5
1901
330
1D
100
AcDbEntity
  8
0
100
AcDbLine
 10
11.242236441614
 20
860.919020411563
 30
0.0
 11
11.967616996395
 21
861.593567037248
 31
0.0
  0
LINE
  5
1902
330
1D
100
AcDbEntity
  8
0
100
AcDbLine
 10
11.054868325323
 20
861.093211223599
 30
0.0
 11
12.059800909136
 21
861.948304075593
 31
0.0
  0
LINE
  5
1903
330
1D
100
AcDbEntity
  8
0
100
AcDbLine
 10
11.081045378128
 20
861.115485166249
 30
0.0
 11
11.242236441614
 21
860.919020411563
 31
0.0
  0
LINE
  5
1904
330
1D
100
AcDbEntity
  8
0
100
AcDbLine
 10
10.703863568412
 20
861.416980308945
 30
0.0
 11
11.242236441614
 21
860.919020411563
 31
0.0
  0
LINE
  5
1905
330
1D
100
AcDbEntity
  8
0
100
AcDbLine
 10
10.145535828837
 20
862.101648356412
 30
0.0
 11
11.054868325323
 21
861.093211223599
 31
0.0
  0
LINE
  5
1906
330
1D
100
AcDbEntity
  8
0
100
AcDbLine
 10
10.145535828837
 20
862.101648356412
 30
0.0
 11
10.22238841115
 21
862.1118843364
 31
0.0
  0
LINE
  5
1907
330
1D
100
AcDbEntity
  8
0
100
AcDbLine
 10
10.145535828837
 20
862.101648356412
 30
0.0
 11
10.205507033878
 21
862.132541417539
 31
0.0
  0
LINE
  5
1908
330
1D
100
AcDbEntity
  8
0
100
AcDbLine
 10
9.190540089035
 20
862.761478779292
 30
0.0
 11
9.581473324501
 21
862.556546752981
 31
0.0
  0
LINE
  5
1909
330
1D
100
AcDbEntity
  8
0
100
AcDbLine
 10
9.89060016011
 20
862.437193271629
 30
0.0
 11
9.951625839995
 21
862.310047411657
 31
0.0
  0
LINE
  5
190A
330
1D
100
AcDbEntity
  8
0
100
AcDbLine
 10
9.037608369447
 20
863.107545664654
 30
0.0
 11
9.190540089035
 21
862.761478779292
 31
0.0
  0
LINE
  5
190B
330
1D
100
AcDbEntity
  8
0
100
AcDbLine
 10
9.951625839995
 20
862.310047411657
 30
0.0
 11
10.422009825424
 21
861.691079410665
 31
0.0
  0
LINE
  5
190C
330
1D
100
AcDbEntity
  8
0
100
AcDbLine
 10
8.808612309271
 20
863.439701185081
 30
0.0
 11
8.948854758277
 21
863.225859110469
 31
0.0
  0
LINE
  5
190D
330
1D
100
AcDbEntity
  8
0
100
AcDbLine
 10
9.492961919586
 20
862.960562521486
 30
0.0
 11
9.716402522576
 21
862.73103947921
 31
0.0
  0
LINE
  5
190E
330
1D
100
AcDbEntity
  8
0
100
AcDbLine
 10
9.492961919586
 20
862.960562521486
 30
0.0
 11
10.145535828837
 21
862.101648356412
 31
0.0
  0
LINE
  5
190F
330
1D
100
AcDbEntity
  8
0
100
AcDbLine
 10
9.716402522576
 20
862.73103947921
 30
0.0
 11
11.054868325323
 21
861.093211223599
 31
0.0
  0
LINE
  5
1910
330
1D
100
AcDbEntity
  8
0
100
AcDbLine
 10
9.716402522576
 20
862.73103947921
 30
0.0
 11
10.540605002146
 21
861.987365731743
 31
0.0
  0
LINE
  5
1911
330
1D
100
AcDbEntity
  8
0
100
AcDbLine
 10
10.540605002146
 20
861.987365731743
 30
0.0
 11
11.054868325323
 21
861.093211223599
 31
0.0
  0
LINE
  5
1912
330
1D
100
AcDbEntity
  8
0
100
AcDbLine
 10
10.540605002146
 20
861.987365731743
 30
0.0
 11
11.354852101389
 21
862.938447827044
 31
0.0
  0
LINE
  5
1913
330
1D
100
AcDbEntity
  8
0
100
AcDbLine
 10
14.535460026831
 20
856.302652068616
 30
0.0
 11
15.106789959196
 21
855.970760356782
 31
0.0
  0
LINE
  5
1914
330
1D
100
AcDbEntity
  8
0
100
AcDbLine
 10
14.66340473699
 20
856.228327608319
 30
0.0
 11
14.822699646829
 21
856.083821333335
 31
0.0
  0
LINE
  5
1915
330
1D
100
AcDbEntity
  8
0
100
AcDbLine
 10
14.395366911328
 20
856.470331790075
 30
0.0
 11
14.535460026831
 21
856.302652068616
 31
0.0
  0
LINE
  5
1916
330
1D
100
AcDbEntity
  8
0
100
AcDbLine
 10
13.979263448898
 20
856.936187463598
 30
0.0
 11
14.061971297217
 21
856.852603940877
 31
0.0
  0
LINE
  5
1917
330
1D
100
AcDbEntity
  8
0
100
AcDbLine
 10
13.979263448898
 20
856.936187463598
 30
0.0
 11
14.061971297217
 21
856.852603940877
 31
0.0
  0
LINE
  5
1918
330
1D
100
AcDbEntity
  8
0
100
AcDbLine
 10
14.701747928559
 20
856.20605363532
 30
0.0
 11
14.822699646829
 21
856.083821333335
 31
0.0
  0
LINE
  5
1919
330
1D
100
AcDbEntity
  8
0
100
AcDbLine
 10
15.106789959196
 20
855.970760356782
 30
0.0
 11
15.389232535274
 21
856.251865734031
 31
0.0
  0
LINE
  5
191A
330
1D
100
AcDbEntity
  8
0
100
AcDbLine
 10
15.67578190695
 20
855.542272196629
 30
0.0
 11
15.816454585109
 21
855.390684836933
 31
0.0
  0
LINE
  5
191B
330
1D
100
AcDbEntity
  8
0
100
AcDbLine
 10
14.760059169126
 20
856.17218000757
 30
0.0
 11
14.822699646829
 21
856.083821333335
 31
0.0
  0
LINE
  5
191C
330
1D
100
AcDbEntity
  8
0
100
AcDbLine
 10
12.913664501871
 20
859.681268142576
 30
0.0
 11
13.091887278763
 21
859.640493597694
 31
0.0
  0
LINE
  5
191D
330
1D
100
AcDbEntity
  8
0
100
AcDbLine
 10
12.913664501871
 20
859.681268142576
 30
0.0
 11
13.259493585319
 21
859.4527539336
 31
0.0
  0
LINE
  5
191E
330
1D
100
AcDbEntity
  8
0
100
AcDbLine
 10
12.624896037644
 20
860.259153665983
 30
0.0
 11
12.913664501871
 21
859.681268142576
 31
0.0
  0
LINE
  5
191F
330
1D
100
AcDbEntity
  8
0
100
AcDbLine
 10
12.370789275149
 20
860.625800115677
 30
0.0
 11
12.606731603587
 21
860.617042143603
 31
0.0
  0
LINE
  5
1920
330
1D
100
AcDbEntity
  8
0
100
AcDbLine
 10
12.370789275149
 20
860.625800115677
 30
0.0
 11
12.606731603587
 21
860.617042143603
 31
0.0
  0
LINE
  5
1921
330
1D
100
AcDbEntity
  8
0
100
AcDbLine
 10
12.976949641612
 20
860.11403819825
 30
0.0
 11
13.758294823483
 21
859.154382386634
 31
0.0
  0
LINE
  5
1922
330
1D
100
AcDbEntity
  8
0
100
AcDbLine
 10
13.399014454922
 20
857.696685756308
 30
0.0
 11
13.410601804835
 21
857.609162332796
 31
0.0
  0
LINE
  5
1923
330
1D
100
AcDbEntity
  8
0
100
AcDbLine
 10
13.410601804835
 20
857.609162332796
 30
0.0
 11
14.535460026831
 21
856.302652068616
 31
0.0
  0
LINE
  5
1924
330
1D
100
AcDbEntity
  8
0
100
AcDbLine
 10
13.767930563339
 20
857.217166148699
 30
0.0
 11
14.395366911328
 21
856.470331790075
 31
0.0
  0
LINE
  5
1925
330
1D
100
AcDbEntity
  8
0
100
AcDbLine
 10
13.472142347559
 20
857.546688805592
 30
0.0
 11
13.767930563339
 21
857.217166148699
 31
0.0
  0
LINE
  5
1926
330
1D
100
AcDbEntity
  8
0
100
AcDbLine
 10
14.064164005302
 20
857.094307498769
 30
0.0
 11
15.106789959196
 21
855.970760356782
 31
0.0
  0
LINE
  5
1927
330
1D
100
AcDbEntity
  8
0
100
AcDbLine
 10
15.443607567388
 20
855.861886536184
 30
0.0
 11
15.67578190695
 21
855.542272196629
 31
0.0
  0
LINE
  5
1928
330
1D
100
AcDbEntity
  8
0
100
AcDbLine
 10
15.443607567388
 20
855.861886536184
 30
0.0
 11
15.681531083863
 21
855.615032283829
 31
0.0
  0
LINE
  5
1929
330
1D
100
AcDbEntity
  8
0
100
AcDbLine
 10
15.443607567388
 20
855.861886536184
 30
0.0
 11
15.542882359613
 21
855.978231225118
 31
0.0
  0
LINE
  5
192A
330
1D
100
AcDbEntity
  8
0
100
AcDbLine
 10
13.460644400378
 20
857.535319671473
 30
0.0
 11
13.979263448898
 21
856.936187463598
 31
0.0
  0
LINE
  5
192B
330
1D
100
AcDbEntity
  8
0
100
AcDbLine
 10
13.481214713154
 20
859.209216082047
 30
0.0
 11
12.958789783952
 21
858.467753730252
 31
0.0
  0
LINE
  5
192C
330
1D
100
AcDbEntity
  8
0
100
AcDbLine
 10
13.087239872581
 20
858.223656326905
 30
0.0
 11
13.00021477748
 21
858.08431974648
 31
0.0
  0
LINE
  5
192D
330
1D
100
AcDbEntity
  8
0
100
AcDbLine
 10
15.527977344007
 20
856.004775522471
 30
0.0
 11
15.443607567388
 21
855.861886536184
 31
0.0
  0
LINE
  5
192E
330
1D
100
AcDbEntity
  8
0
100
AcDbLine
 10
15.385060155384
 20
856.259296312797
 30
0.0
 11
15.64445519281
 21
855.890602409188
 31
0.0
  0
LINE
  5
192F
330
1D
100
AcDbEntity
  8
0
100
AcDbLine
 10
15.385060155384
 20
856.259296312797
 30
0.0
 11
15.660956767581
 21
855.767952867957
 31
0.0
  0
LINE
  5
1930
330
1D
100
AcDbEntity
  8
0
100
AcDbLine
 10
15.385060155384
 20
856.259296312797
 30
0.0
 11
15.660956767581
 21
855.767952867957
 31
0.0
  0
LINE
  5
1931
330
1D
100
AcDbEntity
  8
0
100
AcDbLine
 10
13.694766571525
 20
858.999583407917
 30
0.0
 11
13.140744593753
 21
858.226438361512
 31
0.0
  0
LINE
  5
1932
330
1D
100
AcDbEntity
  8
0
100
AcDbLine
 10
15.820015632058
 20
856.903560331444
 30
0.0
 11
15.106789959196
 21
855.970760356782
 31
0.0
  0
LINE
  5
1933
330
1D
100
AcDbEntity
  8
0
100
AcDbLine
 10
13.903395933878
 20
858.794782890302
 30
0.0
 11
14.99870799965
 21
859.775924986639
 31
0.0
  0
LINE
  5
1934
330
1D
100
AcDbEntity
  8
0
100
AcDbLine
 10
13.140744593753
 20
858.226438361512
 30
0.0
 11
13.472142347559
 21
857.546688805592
 31
0.0
  0
LINE
  5
1935
330
1D
100
AcDbEntity
  8
0
100
AcDbLine
 10
13.140744593753
 20
858.226438361512
 30
0.0
 11
14.064164005302
 21
857.094307498769
 31
0.0
  0
LINE
  5
1936
330
1D
100
AcDbEntity
  8
0
100
AcDbLine
 10
12.958789783952
 20
858.467753730252
 30
0.0
 11
13.140744593753
 21
858.226438361512
 31
0.0
  0
LINE
  5
1937
330
1D
100
AcDbEntity
  8
0
100
AcDbLine
 10
12.958789783952
 20
858.467753730252
 30
0.0
 11
13.410601804835
 21
857.609162332796
 31
0.0
  0
LINE
  5
1938
330
1D
100
AcDbEntity
  8
0
100
AcDbLine
 10
13.00021477748
 20
858.08431974648
 30
0.0
 11
13.460644400378
 21
857.535319671473
 31
0.0
  0
LINE
  5
1939
330
1D
100
AcDbEntity
  8
0
100
AcDbLine
 10
13.00021477748
 20
858.08431974648
 30
0.0
 11
13.319534097786
 21
857.78222091965
 31
0.0
  0
LINE
  5
193A
330
1D
100
AcDbEntity
  8
0
100
AcDbLine
 10
15.64445519281
 20
855.890602409188
 30
0.0
 11
15.686467412837
 21
855.578342544062
 31
0.0
  0
LINE
  5
193B
330
1D
100
AcDbEntity
  8
0
100
AcDbLine
 10
15.64445519281
 20
855.890602409188
 30
0.0
 11
17.025614514641
 21
854.390308125482
 31
0.0
  0
LINE
  5
193C
330
1D
100
AcDbEntity
  8
0
100
AcDbLine
 10
16.04465774295
 20
857.236304340619
 30
0.0
 11
15.385060155384
 21
856.259296312797
 31
0.0
  0
LINE
  5
193D
330
1D
100
AcDbEntity
  8
0
100
AcDbLine
 10
16.258025254707
 20
857.019981393892
 30
0.0
 11
15.64445519281
 21
855.890602409188
 31
0.0
  0
LINE
  5
193E
330
1D
100
AcDbEntity
  8
0
100
AcDbLine
 10
13.758294823483
 20
859.154382386634
 30
0.0
 11
13.903395933878
 21
858.794782890302
 31
0.0
  0
LINE
  5
193F
330
1D
100
AcDbEntity
  8
0
100
AcDbLine
 10
13.446428263114
 20
859.243364118038
 30
0.0
 11
13.903395933878
 21
858.794782890302
 31
0.0
  0
LINE
  5
1940
330
1D
100
AcDbEntity
  8
0
100
AcDbLine
 10
13.446428263114
 20
859.243364118038
 30
0.0
 11
13.758294823483
 21
859.154382386634
 31
0.0
  0
LINE
  5
1941
330
1D
100
AcDbEntity
  8
0
100
AcDbLine
 10
13.446428263114
 20
859.243364118038
 30
0.0
 11
13.595437923862
 21
859.354404827175
 31
0.0
  0
LINE
  5
1942
330
1D
100
AcDbEntity
  8
0
100
AcDbLine
 10
13.039509382968
 20
859.699163278832
 30
0.0
 11
13.446428263114
 21
859.243364118038
 31
0.0
  0
LINE
  5
1943
330
1D
100
AcDbEntity
  8
0
100
AcDbLine
 10
13.039509382968
 20
859.699163278832
 30
0.0
 11
13.285409620956
 21
859.735184627898
 31
0.0
  0
LINE
  5
1944
330
1D
100
AcDbEntity
  8
0
100
AcDbLine
 10
13.039509382968
 20
859.699163278832
 30
0.0
 11
13.318855379105
 21
859.694106219883
 31
0.0
  0
LINE
  5
1945
330
1D
100
AcDbEntity
  8
0
100
AcDbLine
 10
15.686467412837
 20
855.578342544062
 30
0.0
 11
16.102622381734
 21
855.229538685335
 31
0.0
  0
LINE
  5
1946
330
1D
100
AcDbEntity
  8
0
100
AcDbLine
 10
15.686467412837
 20
855.578342544062
 30
0.0
 11
16.563310365719
 21
854.869866958046
 31
0.0
  0
LINE
  5
1947
330
1D
100
AcDbEntity
  8
0
100
AcDbLine
 10
12.181543663648
 20
860.85795992815
 30
0.0
 11
12.471941756701
 21
860.800176993376
 31
0.0
  0
LINE
  5
1948
330
1D
100
AcDbEntity
  8
0
100
AcDbLine
 10
12.181543663648
 20
860.85795992815
 30
0.0
 11
12.370789275149
 21
860.625800115677
 31
0.0
  0
LINE
  5
1949
330
1D
100
AcDbEntity
  8
0
100
AcDbLine
 10
12.181543663648
 20
860.85795992815
 30
0.0
 11
13.039509382968
 21
859.699163278832
 31
0.0
  0
LINE
  5
194A
330
1D
100
AcDbEntity
  8
0
100
AcDbLine
 10
12.181543663648
 20
860.85795992815
 30
0.0
 11
12.431952034201
 21
861.029282366718
 31
0.0
  0
LINE
  5
194B
330
1D
100
AcDbEntity
  8
0
100
AcDbLine
 10
10.07162914415
 20
864.645097919386
 30
0.0
 11
9.280589271488
 21
863.644479116064
 31
0.0
  0
LINE
  5
194C
330
1D
100
AcDbEntity
  8
0
100
AcDbLine
 10
10.035042670381
 20
864.691736475087
 30
0.0
 11
9.280589271488
 21
863.644479116064
 31
0.0
  0
LINE
  5
194D
330
1D
100
AcDbEntity
  8
0
100
AcDbLine
 10
10.181299692144
 20
864.515917518059
 30
0.0
 11
10.242694701015
 21
864.427032342672
 31
0.0
  0
LINE
  5
194E
330
1D
100
AcDbEntity
  8
0
100
AcDbLine
 10
10.242694701015
 20
864.427032342672
 30
0.0
 11
10.627530457866
 21
863.919401669594
 31
0.0
  0
LINE
  5
194F
330
1D
100
AcDbEntity
  8
0
100
AcDbLine
 10
10.76661497495
 20
863.794080214498
 30
0.0
 11
11.392420564119
 21
862.887396424765
 31
0.0
  0
LINE
  5
1950
330
1D
100
AcDbEntity
  8
0
100
AcDbLine
 10
11.056895940614
 20
863.343337426454
 30
0.0
 11
11.392420564119
 21
862.887396424765
 31
0.0
  0
LINE
  5
1951
330
1D
100
AcDbEntity
  8
0
100
AcDbLine
 10
10.725759238555
 20
863.830893085128
 30
0.0
 11
10.950741667245
 21
863.527312563249
 31
0.0
  0
LINE
  5
1952
330
1D
100
AcDbEntity
  8
0
100
AcDbLine
 10
10.627530457866
 20
863.919401669594
 30
0.0
 11
11.056895940614
 21
863.343337426454
 31
0.0
  0
LINE
  5
1953
330
1D
100
AcDbEntity
  8
0
100
AcDbLine
 10
10.627530457866
 20
863.919401669594
 30
0.0
 11
10.76661497495
 21
863.794080214498
 31
0.0
  0
LINE
  5
1954
330
1D
100
AcDbEntity
  8
0
100
AcDbLine
 10
9.280589271488
 20
863.644479116064
 30
0.0
 11
9.492961919586
 21
862.960562521486
 31
0.0
  0
LINE
  5
1955
330
1D
100
AcDbEntity
  8
0
100
AcDbLine
 10
9.280589271488
 20
863.644479116064
 30
0.0
 11
9.716402522576
 21
862.73103947921
 31
0.0
  0
LINE
  5
1956
330
1D
100
AcDbEntity
  8
0
100
AcDbLine
 10
10.800397766926
 20
866.056070175343
 30
0.0
 11
11.124964507447
 21
865.929018174383
 31
0.0
  0
LINE
  5
1957
330
1D
100
AcDbEntity
  8
0
100
AcDbLine
 10
10.800397766926
 20
866.056070175343
 30
0.0
 11
11.150765805194
 21
865.879933633751
 31
0.0
  0
LINE
  5
1958
330
1D
100
AcDbEntity
  8
0
100
AcDbLine
 10
10.800397766926
 20
866.056070175343
 30
0.0
 11
12.143008702264
 21
864.073921897259
 31
0.0
  0
LINE
  5
1959
330
1D
100
AcDbEntity
  8
0
100
AcDbLine
 10
11.351031028374
 20
866.89213101726
 30
0.0
 11
11.935293986712
 21
866.243660820941
 31
0.0
  0
LINE
  5
195A
330
1D
100
AcDbEntity
  8
0
100
AcDbLine
 10
11.935293986712
 20
866.243660820941
 30
0.0
 11
12.7267464833
 21
864.878027445673
 31
0.0
  0
LINE
  5
195B
330
1D
100
AcDbEntity
  8
0
100
AcDbLine
 10
11.124964507447
 20
865.929018174383
 30
0.0
 11
11.853965062893
 21
864.542163228774
 31
0.0
  0
LINE
  5
195C
330
1D
100
AcDbEntity
  8
0
100
AcDbLine
 10
11.853965062893
 20
864.542163228774
 30
0.0
 11
12.143008702264
 21
864.073921897259
 31
0.0
  0
LINE
  5
195D
330
1D
100
AcDbEntity
  8
0
100
AcDbLine
 10
12.158679715235
 20
861.353868185946
 30
0.0
 11
12.340263880176
 21
861.119864561269
 31
0.0
  0
LINE
  5
195E
330
1D
100
AcDbEntity
  8
0
100
AcDbLine
 10
12.158679715235
 20
861.353868185946
 30
0.0
 11
12.340263880176
 21
861.119864561269
 31
0.0
  0
LINE
  5
195F
330
1D
100
AcDbEntity
  8
0
100
AcDbLine
 10
11.836387125423
 20
861.758202239342
 30
0.0
 11
12.158679715235
 21
861.353868185946
 31
0.0
  0
LINE
  5
1960
330
1D
100
AcDbEntity
  8
0
100
AcDbLine
 10
11.836387125423
 20
861.758202239342
 30
0.0
 11
12.158679715235
 21
861.353868185946
 31
0.0
  0
LINE
  5
1961
330
1D
100
AcDbEntity
  8
0
100
AcDbLine
 10
11.392420564119
 20
862.887396424765
 30
0.0
 11
11.837572405813
 21
862.269627974748
 31
0.0
  0
LINE
  5
1962
330
1D
100
AcDbEntity
  8
0
100
AcDbLine
 10
12.158973058719
 20
861.353490160481
 30
0.0
 11
12.088147072899
 21
861.256153758887
 31
0.0
  0
LINE
  5
1963
330
1D
100
AcDbEntity
  8
0
100
AcDbLine
 10
13.068698673418
 20
862.321856666921
 30
0.0
 11
12.181543663648
 21
860.85795992815
 31
0.0
  0
LINE
  5
1964
330
1D
100
AcDbEntity
  8
0
100
AcDbLine
 10
12.088147072899
 20
861.256153758887
 30
0.0
 11
12.248105579461
 21
860.967793914785
 31
0.0
  0
LINE
  5
1965
330
1D
100
AcDbEntity
  8
0
100
AcDbLine
 10
12.088147072899
 20
861.256153758887
 30
0.0
 11
12.262243225404
 21
860.991122480324
 31
0.0
  0
LINE
  5
1966
330
1D
100
AcDbEntity
  8
0
100
AcDbLine
 10
12.431952034201
 20
861.029282366718
 30
0.0
 11
13.284520989108
 21
860.177999172283
 31
0.0
  0
LINE
  5
1967
330
1D
100
AcDbEntity
  8
0
100
AcDbLine
 10
13.284520989108
 20
860.177999172283
 30
0.0
 11
13.758294823483
 21
859.154382386634
 31
0.0
  0
LINE
  5
1968
330
1D
100
AcDbEntity
  8
0
100
AcDbLine
 10
12.7267464833
 20
864.878027445673
 30
0.0
 11
12.143008702264
 21
864.073921897259
 31
0.0
  0
LINE
  5
1969
330
1D
100
AcDbEntity
  8
0
100
AcDbLine
 10
12.471941756701
 20
860.800176993376
 30
0.0
 11
12.370789275149
 21
860.625800115677
 31
0.0
  0
LINE
  5
196A
330
1D
100
AcDbEntity
  8
0
100
AcDbLine
 10
12.471941756701
 20
860.800176993376
 30
0.0
 11
12.976949641612
 21
860.11403819825
 31
0.0
  0
LINE
  5
196B
330
1D
100
AcDbEntity
  8
0
100
AcDbLine
 10
16.737030471591
 20
854.397081774986
 30
0.0
 11
16.893421490498
 21
854.173182391476
 31
0.0
  0
LINE
  5
196C
330
1D
100
AcDbEntity
  8
0
100
AcDbLine
 10
17.514489452705
 20
853.77579710448
 30
0.0
 11
18.380464088969
 21
854.609204312121
 31
0.0
  0
LINE
  5
196D
330
1D
100
AcDbEntity
  8
0
100
AcDbLine
 10
16.655701295583
 20
854.462073718672
 30
0.0
 11
17.118708839539
 21
854.204888232613
 31
0.0
  0
LINE
  5
196E
330
1D
100
AcDbEntity
  8
0
100
AcDbLine
 10
16.655701295583
 20
854.462073718672
 30
0.0
 11
17.514489452705
 21
853.77579710448
 31
0.0
  0
LINE
  5
196F
330
1D
100
AcDbEntity
  8
0
100
AcDbLine
 10
16.655701295583
 20
854.462073718672
 30
0.0
 11
16.820020285583
 21
854.562508109645
 31
0.0
  0
LINE
  5
1970
330
1D
100
AcDbEntity
  8
0
100
AcDbLine
 10
16.893421490498
 20
854.173182391476
 30
0.0
 11
17.354262825158
 21
853.903837747035
 31
0.0
  0
LINE
  5
1971
330
1D
100
AcDbEntity
  8
0
100
AcDbLine
 10
17.60549882174
 20
853.75699963795
 30
0.0
 11
18.157461089174
 21
854.300309706106
 31
0.0
  0
LINE
  5
1972
330
1D
100
AcDbEntity
  8
0
100
AcDbLine
 10
17.546261609924
 20
853.806374379748
 30
0.0
 11
17.60549882174
 21
853.75699963795
 31
0.0
  0
LINE
  5
1973
330
1D
100
AcDbEntity
  8
0
100
AcDbLine
 10
18.875674745065
 20
851.385004955451
 30
0.0
 11
19.739396877803
 21
850.911300025667
 31
0.0
  0
LINE
  5
1974
330
1D
100
AcDbEntity
  8
0
100
AcDbLine
 10
18.875674745065
 20
851.385004955451
 30
0.0
 11
19.62693267952
 21
851.059698383248
 31
0.0
  0
LINE
  5
1975
330
1D
100
AcDbEntity
  8
0
100
AcDbLine
 10
18.875674745065
 20
851.385004955451
 30
0.0
 11
19.739508996405
 21
852.062593182349
 31
0.0
  0
LINE
  5
1976
330
1D
100
AcDbEntity
  8
0
100
AcDbLine
 10
17.536724328603
 20
853.7971957749
 30
0.0
 11
17.60549882174
 21
853.75699963795
 31
0.0
  0
LINE
  5
1977
330
1D
100
AcDbEntity
  8
0
100
AcDbLine
 10
15.841917279614
 20
855.448050904113
 30
0.0
 11
16.655701295583
 21
854.462073718672
 31
0.0
  0
LINE
  5
1978
330
1D
100
AcDbEntity
  8
0
100
AcDbLine
 10
15.879639403311
 20
855.334107393548
 30
0.0
 11
16.237914969491
 21
854.968261819978
 31
0.0
  0
LINE
  5
1979
330
1D
100
AcDbEntity
  8
0
100
AcDbLine
 10
16.027701814426
 20
855.201528193024
 30
0.0
 11
16.237351128369
 21
854.968944967437
 31
0.0
  0
LINE
  5
197A
330
1D
100
AcDbEntity
  8
0
100
AcDbLine
 10
16.049493797344
 20
855.182015045485
 30
0.0
 11
16.152413085256
 21
855.071855532208
 31
0.0
  0
LINE
  5
197B
330
1D
100
AcDbEntity
  8
0
100
AcDbLine
 10
16.682280219066
 20
854.727424324203
 30
0.0
 11
16.655701295583
 21
854.462073718672
 31
0.0
  0
LINE
  5
197C
330
1D
100
AcDbEntity
  8
0
100
AcDbLine
 10
16.613218122232
 20
854.802588688769
 30
0.0
 11
16.655701295583
 21
854.462073718672
 31
0.0
  0
LINE
  5
197D
330
1D
100
AcDbEntity
  8
0
100
AcDbLine
 10
16.102622381734
 20
855.229538685335
 30
0.0
 11
16.655701295583
 21
854.462073718672
 31
0.0
  0
LINE
  5
197E
330
1D
100
AcDbEntity
  8
0
100
AcDbLine
 10
16.102622381734
 20
855.229538685335
 30
0.0
 11
16.634052464137
 21
854.785167426703
 31
0.0
  0
LINE
  5
197F
330
1D
100
AcDbEntity
  8
0
100
AcDbLine
 10
15.816454585109
 20
855.390684836933
 30
0.0
 11
16.024824980409
 21
855.226440726859
 31
0.0
  0
LINE
  5
1980
330
1D
100
AcDbEntity
  8
0
100
AcDbLine
 10
15.816454585109
 20
855.390684836933
 30
0.0
 11
16.095472695992
 21
855.140844260964
 31
0.0
  0
LINE
  5
1981
330
1D
100
AcDbEntity
  8
0
100
AcDbLine
 10
16.563310365719
 20
854.869866958046
 30
0.0
 11
17.118708839539
 21
854.204888232613
 31
0.0
  0
LINE
  5
1982
330
1D
100
AcDbEntity
  8
0
100
AcDbLine
 10
19.606467841325
 20
852.258839741862
 30
0.0
 11
18.875674745065
 21
851.385004955451
 31
0.0
  0
LINE
  5
1983
330
1D
100
AcDbEntity
  8
0
100
AcDbLine
 10
19.497522146274
 20
852.419543531712
 30
0.0
 11
18.875674745065
 21
851.385004955451
 31
0.0
  0
LINE
  5
1984
330
1D
100
AcDbEntity
  8
0
100
AcDbLine
 10
19.452033465936
 20
852.474659430446
 30
0.0
 11
19.492915804125
 21
852.41188017469
 31
0.0
  0
LINE
  5
1985
330
1D
100
AcDbEntity
  8
0
100
AcDbLine
 10
19.452033465936
 20
852.474659430446
 30
0.0
 11
19.485901686804
 21
852.436684657625
 31
0.0
  0
LINE
  5
1986
330
1D
100
AcDbEntity
  8
0
100
AcDbLine
 10
17.025614514641
 20
854.390308125482
 30
0.0
 11
17.514489452705
 21
853.77579710448
 31
0.0
  0
LINE
  5
1987
330
1D
100
AcDbEntity
  8
0
100
AcDbLine
 10
17.025614514641
 20
854.390308125482
 30
0.0
 11
18.018194150834
 21
855.043173001592
 31
0.0
  0
LINE
  5
1988
330
1D
100
AcDbEntity
  8
0
100
AcDbLine
 10
19.786358538467
 20
851.993486285021
 30
0.0
 11
19.957850535764
 21
851.943968360358
 31
0.0
  0
LINE
  5
1989
330
1D
100
AcDbEntity
  8
0
100
AcDbLine
 10
19.786358538467
 20
851.993486285021
 30
0.0
 11
21.253500745333
 21
850.509942030598
 31
0.0
  0
LINE
  5
198A
330
1D
100
AcDbEntity
  8
0
100
AcDbLine
 10
19.786358538467
 20
851.993486285021
 30
0.0
 11
20.024520434529
 21
851.870178081527
 31
0.0
  0
LINE
  5
198B
330
1D
100
AcDbEntity
  8
0
100
AcDbLine
 10
19.336560236447
 20
851.132234161397
 30
0.0
 11
19.408911353044
 21
851.026072928583
 31
0.0
  0
LINE
  5
198C
330
1D
100
AcDbEntity
  8
0
100
AcDbLine
 10
19.437231704482
 20
851.077021299657
 30
0.0
 11
19.408911353044
 21
851.026072928583
 31
0.0
  0
LINE
  5
198D
330
1D
100
AcDbEntity
  8
0
100
AcDbLine
 10
19.408911353044
 20
851.026072928583
 30
0.0
 11
20.200090610823
 21
850.303407075097
 31
0.0
  0
LINE
  5
198E
330
1D
100
AcDbEntity
  8
0
100
AcDbLine
 10
19.408911353044
 20
851.026072928583
 30
0.0
 11
19.45427269408
 21
851.067675237452
 31
0.0
  0
LINE
  5
198F
330
1D
100
AcDbEntity
  8
0
100
AcDbLine
 10
20.666820063513
 20
849.687549893246
 30
0.0
 11
21.055560928999
 21
849.631457137914
 31
0.0
  0
LINE
  5
1990
330
1D
100
AcDbEntity
  8
0
100
AcDbLine
 10
20.666820063513
 20
849.687549893246
 30
0.0
 11
20.841884887635
 21
849.848301296748
 31
0.0
  0
LINE
  5
1991
330
1D
100
AcDbEntity
  8
0
100
AcDbLine
 10
21.62409902392
 20
848.874245834507
 30
0.0
 11
21.918243090254
 21
848.727432388473
 31
0.0
  0
LINE
  5
1992
330
1D
100
AcDbEntity
  8
0
100
AcDbLine
 10
21.62409902392
 20
848.874245834507
 30
0.0
 11
21.706629198979
 21
848.915398490191
 31
0.0
  0
LINE
  5
1993
330
1D
100
AcDbEntity
  8
0
100
AcDbLine
 10
22.359760082053
 20
848.371045509043
 30
0.0
 11
23.265121374292
 21
849.224008593152
 31
0.0
  0
LINE
  5
1994
330
1D
100
AcDbEntity
  8
0
100
AcDbLine
 10
21.567833938134
 20
849.03868342182
 30
0.0
 11
21.974191233652
 21
848.677736433498
 31
0.0
  0
LINE
  5
1995
330
1D
100
AcDbEntity
  8
0
100
AcDbLine
 10
21.567833938134
 20
849.03868342182
 30
0.0
 11
21.960084880353
 21
848.745187181602
 31
0.0
  0
LINE
  5
1996
330
1D
100
AcDbEntity
  8
0
100
AcDbLine
 10
21.974191233652
 20
848.677736433498
 30
0.0
 11
22.165376274451
 21
848.553010971462
 31
0.0
  0
LINE
  5
1997
330
1D
100
AcDbEntity
  8
0
100
AcDbLine
 10
24.552082109909
 20
846.581988166145
 30
0.0
 11
24.680452016716
 21
846.464026341228
 31
0.0
  0
LINE
  5
1998
330
1D
100
AcDbEntity
  8
0
100
AcDbLine
 10
24.808316982789
 20
846.29322606697
 30
0.0
 11
25.471168373846
 21
845.674629240778
 31
0.0
  0
LINE
  5
1999
330
1D
100
AcDbEntity
  8
0
100
AcDbLine
 10
24.808316982789
 20
846.29322606697
 30
0.0
 11
24.854035685296
 21
846.337389414159
 31
0.0
  0
LINE
  5
199A
330
1D
100
AcDbEntity
  8
0
100
AcDbLine
 10
24.808316982789
 20
846.29322606697
 30
0.0
 11
24.905629133613
 21
846.295054205369
 31
0.0
  0
LINE
  5
199B
330
1D
100
AcDbEntity
  8
0
100
AcDbLine
 10
25.724984133212
 20
845.455340474258
 30
0.0
 11
25.879791743023
 21
845.279667771566
 31
0.0
  0
LINE
  5
199C
330
1D
100
AcDbEntity
  8
0
100
AcDbLine
 10
25.722960698834
 20
845.457088657389
 30
0.0
 11
25.879791743023
 21
845.279667771566
 31
0.0
  0
LINE
  5
199D
330
1D
100
AcDbEntity
  8
0
100
AcDbLine
 10
25.471168373846
 20
845.674629240778
 30
0.0
 11
25.948846259094
 21
845.261930697112
 31
0.0
  0
LINE
  5
199E
330
1D
100
AcDbEntity
  8
0
100
AcDbLine
 10
25.471168373846
 20
845.674629240778
 30
0.0
 11
25.654913312406
 21
845.680226098567
 31
0.0
  0
LINE
  5
199F
330
1D
100
AcDbEntity
  8
0
100
AcDbLine
 10
22.394349608228
 20
848.403633150217
 30
0.0
 11
22.567752771893
 21
848.290508244543
 31
0.0
  0
LINE
  5
19A0
330
1D
100
AcDbEntity
  8
0
100
AcDbLine
 10
21.574424140254
 20
849.106209716217
 30
0.0
 11
21.567833938134
 21
849.03868342182
 31
0.0
  0
LINE
  5
19A1
330
1D
100
AcDbEntity
  8
0
100
AcDbLine
 10
20.911804232904
 20
849.652200285593
 30
0.0
 11
21.62409902392
 21
848.874245834507
 31
0.0
  0
LINE
  5
19A2
330
1D
100
AcDbEntity
  8
0
100
AcDbLine
 10
22.394349608228
 20
848.403633150217
 30
0.0
 11
22.567752771893
 21
848.290508244543
 31
0.0
  0
LINE
  5
19A3
330
1D
100
AcDbEntity
  8
0
100
AcDbLine
 10
24.64979043136
 20
846.504983667922
 30
0.0
 11
24.808316982789
 21
846.29322606697
 31
0.0
  0
LINE
  5
19A4
330
1D
100
AcDbEntity
  8
0
100
AcDbLine
 10
25.67628253778
 20
845.662691495873
 30
0.0
 11
25.948846259094
 21
845.261930697112
 31
0.0
  0
LINE
  5
19A5
330
1D
100
AcDbEntity
  8
0
100
AcDbLine
 10
25.67628253778
 20
845.662691495873
 30
0.0
 11
26.570825620882
 21
845.261407715395
 31
0.0
  0
LINE
  5
19A6
330
1D
100
AcDbEntity
  8
0
100
AcDbLine
 10
24.627489110861
 20
846.523283104971
 30
0.0
 11
25.67628253778
 21
845.662691495873
 31
0.0
  0
LINE
  5
19A7
330
1D
100
AcDbEntity
  8
0
100
AcDbLine
 10
31.00901241974
 20
841.009883446303
 30
0.0
 11
31.60521072066
 21
840.412158565564
 31
0.0
  0
LINE
  5
19A8
330
1D
100
AcDbEntity
  8
0
100
AcDbLine
 10
30.724996182887
 20
841.270321567268
 30
0.0
 11
30.96084446799
 21
841.150797678631
 31
0.0
  0
LINE
  5
19A9
330
1D
100
AcDbEntity
  8
0
100
AcDbLine
 10
30.724996182887
 20
841.270321567268
 30
0.0
 11
31.98374786225
 21
840.116067409943
 31
0.0
  0
LINE
  5
19AA
330
1D
100
AcDbEntity
  8
0
100
AcDbLine
 10
30.458386053819
 20
841.550297082408
 30
0.0
 11
30.695122247727
 21
841.326963174387
 31
0.0
  0
LINE
  5
19AB
330
1D
100
AcDbEntity
  8
0
100
AcDbLine
 10
30.637255794912
 20
841.378921375794
 30
0.0
 11
30.701113188241
 21
841.315604225621
 31
0.0
  0
LINE
  5
19AC
330
1D
100
AcDbEntity
  8
0
100
AcDbLine
 10
26.311332103431
 20
845.016251205384
 30
0.0
 11
26.570825620882
 21
845.261407715395
 31
0.0
  0
LINE
  5
19AD
330
1D
100
AcDbEntity
  8
0
100
AcDbLine
 10
26.311332103431
 20
845.016251205384
 30
0.0
 11
27.007850972794
 21
845.657543891975
 31
0.0
  0
LINE
  5
19AE
330
1D
100
AcDbEntity
  8
0
100
AcDbLine
 10
25.948846259094
 20
845.261930697112
 30
0.0
 11
26.311332103431
 21
845.016251205384
 31
0.0
  0
LINE
  5
19AF
330
1D
100
AcDbEntity
  8
0
100
AcDbLine
 10
32.00789773764
 20
840.168138636056
 30
0.0
 11
31.98374786225
 21
840.116067409943
 31
0.0
  0
LINE
  5
19B0
330
1D
100
AcDbEntity
  8
0
100
AcDbLine
 10
31.60521072066
 20
840.412158565564
 30
0.0
 11
31.982182244926
 21
840.111245704602
 31
0.0
  0
LINE
  5
19B1
330
1D
100
AcDbEntity
  8
0
100
AcDbLine
 10
31.131825143565
 20
840.961586718645
 30
0.0
 11
31.77775432908
 21
840.465015950981
 31
0.0
  0
LINE
  5
19B2
330
1D
100
AcDbEntity
  8
0
100
AcDbLine
 10
31.131825143565
 20
840.961586718645
 30
0.0
 11
32.429245495904
 21
840.102020758793
 31
0.0
  0
LINE
  5
19B3
330
1D
100
AcDbEntity
  8
0
100
AcDbLine
 10
31.77775432908
 20
840.465015950981
 30
0.0
 11
32.115638969871
 21
840.029156042848
 31
0.0
  0
LINE
  5
19B4
330
1D
100
AcDbEntity
  8
0
100
AcDbLine
 10
25.879791743023
 20
845.279667771566
 30
0.0
 11
25.980957123491
 21
845.240167141466
 31
0.0
  0
LINE
  5
19B5
330
1D
100
AcDbEntity
  8
0
100
AcDbLine
 10
21.549075916654
 20
849.206049663107
 30
0.0
 11
21.557796073933
 21
849.121775486918
 31
0.0
  0
LINE
  5
19B6
330
1D
100
AcDbEntity
  8
0
100
AcDbLine
 10
21.549050558713
 20
849.130650669552
 30
0.0
 11
21.567833938134
 21
849.03868342182
 31
0.0
  0
LINE
  5
19B7
330
1D
100
AcDbEntity
  8
0
100
AcDbLine
 10
21.551939777808
 20
849.203316910721
 30
0.0
 11
22.359760082053
 21
848.371045509043
 31
0.0
  0
LINE
  5
19B8
330
1D
100
AcDbEntity
  8
0
100
AcDbLine
 10
21.496569162196
 20
849.256152636253
 30
0.0
 11
21.557796073933
 21
849.121775486918
 31
0.0
  0
LINE
  5
19B9
330
1D
100
AcDbEntity
  8
0
100
AcDbLine
 10
21.475904155971
 20
849.275871589799
 30
0.0
 11
21.557796073933
 21
849.121775486918
 31
0.0
  0
LINE
  5
19BA
330
1D
100
AcDbEntity
  8
0
100
AcDbLine
 10
21.093973635189
 20
849.59247489681
 30
0.0
 11
21.567833938134
 21
849.03868342182
 31
0.0
  0
LINE
  5
19BB
330
1D
100
AcDbEntity
  8
0
100
AcDbLine
 10
22.567752771893
 20
848.290508244543
 30
0.0
 11
23.260808614827
 21
849.033807004858
 31
0.0
  0
LINE
  5
19BC
330
1D
100
AcDbEntity
  8
0
100
AcDbLine
 10
22.567752771893
 20
848.290508244543
 30
0.0
 11
23.234368640306
 21
849.059892549146
 31
0.0
  0
LINE
  5
19BD
330
1D
100
AcDbEntity
  8
0
100
AcDbLine
 10
22.436535666176
 20
848.443377670336
 30
0.0
 11
22.567752771893
 21
848.290508244543
 31
0.0
  0
LINE
  5
19BE
330
1D
100
AcDbEntity
  8
0
100
AcDbLine
 10
22.419890368233
 20
848.427695726794
 30
0.0
 11
22.567752771893
 21
848.290508244543
 31
0.0
  0
LINE
  5
19BF
330
1D
100
AcDbEntity
  8
0
100
AcDbLine
 10
22.404182758407
 20
848.412897202231
 30
0.0
 11
22.567752771893
 21
848.290508244543
 31
0.0
  0
LINE
  5
19C0
330
1D
100
AcDbEntity
  8
0
100
AcDbLine
 10
20.304590346043
 20
850.39356216069
 30
0.0
 11
21.551939777808
 21
849.203316910721
 31
0.0
  0
LINE
  5
19C1
330
1D
100
AcDbEntity
  8
0
100
AcDbLine
 10
20.304590346043
 20
850.39356216069
 30
0.0
 11
20.588977113659
 21
850.33390466824
 31
0.0
  0
LINE
  5
19C2
330
1D
100
AcDbEntity
  8
0
100
AcDbLine
 10
20.304590346043
 20
850.39356216069
 30
0.0
 11
21.557796073933
 21
849.121775486918
 31
0.0
  0
LINE
  5
19C3
330
1D
100
AcDbEntity
  8
0
100
AcDbLine
 10
24.342068839084
 20
846.916033965516
 30
0.0
 11
24.81786945301
 21
846.659470862581
 31
0.0
  0
LINE
  5
19C4
330
1D
100
AcDbEntity
  8
0
100
AcDbLine
 10
24.342068839084
 20
846.916033965516
 30
0.0
 11
24.627489110861
 21
846.523283104971
 31
0.0
  0
LINE
  5
19C5
330
1D
100
AcDbEntity
  8
0
100
AcDbLine
 10
20.588977113659
 20
850.33390466824
 30
0.0
 11
21.551939777808
 21
849.203316910721
 31
0.0
  0
LINE
  5
19C6
330
1D
100
AcDbEntity
  8
0
100
AcDbLine
 10
20.588977113659
 20
850.33390466824
 30
0.0
 11
20.971608853142
 21
850.769867339972
 31
0.0
  0
LINE
  5
19C7
330
1D
100
AcDbEntity
  8
0
100
AcDbLine
 10
24.195444292987
 20
847.185141643745
 30
0.0
 11
24.348253747405
 21
846.926707037348
 31
0.0
  0
LINE
  5
19C8
330
1D
100
AcDbEntity
  8
0
100
AcDbLine
 10
24.195444292987
 20
847.185141643745
 30
0.0
 11
24.37881741391
 21
846.979449647452
 31
0.0
  0
LINE
  5
19C9
330
1D
100
AcDbEntity
  8
0
100
AcDbLine
 10
26.514682896379
 20
845.03177070948
 30
0.0
 11
26.627151697213
 21
845.134180797005
 31
0.0
  0
LINE
  5
19CA
330
1D
100
AcDbEntity
  8
0
100
AcDbLine
 10
26.534080027926
 20
845.221337702269
 30
0.0
 11
30.697447036607
 21
841.32255532595
 31
0.0
  0
LINE
  5
19CB
330
1D
100
AcDbEntity
  8
0
100
AcDbLine
 10
26.534080027926
 20
845.221337702269
 30
0.0
 11
30.697447036607
 21
841.32255532595
 31
0.0
  0
LINE
  5
19CC
330
1D
100
AcDbEntity
  8
0
100
AcDbLine
 10
26.570825620882
 20
845.261407715395
 30
0.0
 11
27.005204998768
 21
845.660424143039
 31
0.0
  0
LINE
  5
19CD
330
1D
100
AcDbEntity
  8
0
100
AcDbLine
 10
24.81786945301
 20
846.659470862581
 30
0.0
 11
25.67628253778
 21
845.662691495873
 31
0.0
  0
LINE
  5
19CE
330
1D
100
AcDbEntity
  8
0
100
AcDbLine
 10
26.383724888725
 20
845.082904049712
 30
0.0
 11
26.514682896379
 21
845.03177070948
 31
0.0
  0
LINE
  5
19CF
330
1D
100
AcDbEntity
  8
0
100
AcDbLine
 10
24.409120373343
 20
846.823768102208
 30
0.0
 11
24.552082109909
 21
846.581988166145
 31
0.0
  0
LINE
  5
19D0
330
1D
100
AcDbEntity
  8
0
100
AcDbLine
 10
21.557796073933
 20
849.121775486918
 30
0.0
 11
22.359760082053
 21
848.371045509043
 31
0.0
  0
LINE
  5
19D1
330
1D
100
AcDbEntity
  8
0
100
AcDbLine
 10
35.711271201878
 20
836.709730034913
 30
0.0
 11
43.769791536982
 21
829.676434418439
 31
0.0
  0
LINE
  5
19D2
330
1D
100
AcDbEntity
  8
0
100
AcDbLine
 10
38.220954235108
 20
834.832171662261
 30
0.0
 11
38.624510311316
 21
834.445639460037
 31
0.0
  0
LINE
  5
19D3
330
1D
100
AcDbEntity
  8
0
100
AcDbLine
 10
38.220954235108
 20
834.832171662261
 30
0.0
 11
38.353463319552
 21
834.810403737696
 31
0.0
  0
LINE
  5
19D4
330
1D
100
AcDbEntity
  8
0
100
AcDbLine
 10
32.024365206508
 20
840.089302080718
 30
0.0
 11
35.711271201878
 21
836.709730034913
 31
0.0
  0
LINE
  5
19D5
330
1D
100
AcDbEntity
  8
0
100
AcDbLine
 10
32.140308061124
 20
840.014978757233
 30
0.0
 11
32.387425183794
 21
839.784130036225
 31
0.0
  0
LINE
  5
19D6
330
1D
100
AcDbEntity
  8
0
100
AcDbLine
 10
32.387425183794
 20
839.784130036225
 30
0.0
 11
32.457927073853
 21
839.826924235576
 31
0.0
  0
LINE
  5
19D7
330
1D
100
AcDbEntity
  8
0
100
AcDbLine
 10
32.320226581282
 20
839.859568920263
 30
0.0
 11
32.395902586377
 21
839.789275765733
 31
0.0
  0
LINE
  5
19D8
330
1D
100
AcDbEntity
  8
0
100
AcDbLine
 10
32.225303497971
 20
839.966132021382
 30
0.0
 11
32.320226581282
 21
839.859568920263
 31
0.0
  0
LINE
  5
19D9
330
1D
100
AcDbEntity
  8
0
100
AcDbLine
 10
32.225303497971
 20
839.966132021382
 30
0.0
 11
32.387425183794
 21
839.784130036225
 31
0.0
  0
LINE
  5
19DA
330
1D
100
AcDbEntity
  8
0
100
AcDbLine
 10
32.395902586377
 20
839.789275765733
 30
0.0
 11
32.457927073853
 21
839.826924235576
 31
0.0
  0
LINE
  5
19DB
330
1D
100
AcDbEntity
  8
0
100
AcDbLine
 10
32.693293670446
 20
839.697178849499
 30
0.0
 11
33.531367275838
 21
840.486541769493
 31
0.0
  0
LINE
  5
19DC
330
1D
100
AcDbEntity
  8
0
100
AcDbLine
 10
32.115638969871
 20
840.029156042848
 30
0.0
 11
32.693293670446
 21
839.697178849499
 31
0.0
  0
LINE
  5
19DD
330
1D
100
AcDbEntity
  8
0
100
AcDbLine
 10
32.429245495904
 20
840.102020758793
 30
0.0
 11
32.693293670446
 21
839.697178849499
 31
0.0
  0
LINE
  5
19DE
330
1D
100
AcDbEntity
  8
0
100
AcDbLine
 10
38.069289475028
 20
835.325208628978
 30
0.0
 11
39.669837636503
 21
834.099284290856
 31
0.0
  0
LINE
  5
19DF
330
1D
100
AcDbEntity
  8
0
100
AcDbLine
 10
38.069289475028
 20
835.325208628978
 30
0.0
 11
38.220954235108
 21
834.832171662261
 31
0.0
  0
LINE
  5
19E0
330
1D
100
AcDbEntity
  8
0
100
AcDbLine
 10
38.069289475028
 20
835.325208628978
 30
0.0
 11
38.786442142426
 21
836.177912814944
 31
0.0
  0
LINE
  5
19E1
330
1D
100
AcDbEntity
  8
0
100
AcDbLine
 10
31.98374786225
 20
840.116067409943
 30
0.0
 11
32.115638969871
 21
840.029156042848
 31
0.0
  0
LINE
  5
19E2
330
1D
100
AcDbEntity
  8
0
100
AcDbLine
 10
31.975778349697
 20
840.121971380613
 30
0.0
 11
32.115638969871
 21
840.029156042848
 31
0.0
  0
LINE
  5
19E3
330
1D
100
AcDbEntity
  8
0
100
AcDbLine
 10
24.563548300725
 20
847.727761126185
 30
0.0
 11
24.195444292987
 21
847.185141643745
 31
0.0
  0
LINE
  5
19E4
330
1D
100
AcDbEntity
  8
0
100
AcDbLine
 10
21.298734088988
 20
850.448881039599
 30
0.0
 11
22.372586516417
 21
851.345834841246
 31
0.0
  0
LINE
  5
19E5
330
1D
100
AcDbEntity
  8
0
100
AcDbLine
 10
21.253500745333
 20
850.509942030598
 30
0.0
 11
22.339803208948
 21
851.386345080061
 31
0.0
  0
LINE
  5
19E6
330
1D
100
AcDbEntity
  8
0
100
AcDbLine
 10
21.253500745333
 20
850.509942030598
 30
0.0
 11
21.298734088988
 21
850.448881039599
 31
0.0
  0
LINE
  5
19E7
330
1D
100
AcDbEntity
  8
0
100
AcDbLine
 10
34.878336987795
 20
838.734434456778
 30
0.0
 11
34.816369498202
 21
838.654175609044
 31
0.0
  0
LINE
  5
19E8
330
1D
100
AcDbEntity
  8
0
100
AcDbLine
 10
34.830656104104
 20
838.776858331107
 30
0.0
 11
34.816369498202
 21
838.654175609044
 31
0.0
  0
LINE
  5
19E9
330
1D
100
AcDbEntity
  8
0
100
AcDbLine
 10
34.33999554951
 20
839.21342158445
 30
0.0
 11
35.438008688723
 21
838.236468813782
 31
0.0
  0
LINE
  5
19EA
330
1D
100
AcDbEntity
  8
0
100
AcDbLine
 10
34.33999554951
 20
839.21342158445
 30
0.0
 11
34.411046750967
 21
839.226210645022
 31
0.0
  0
LINE
  5
19EB
330
1D
100
AcDbEntity
  8
0
100
AcDbLine
 10
34.810034512403
 20
838.795206309313
 30
0.0
 11
34.816369498202
 21
838.654175609044
 31
0.0
  0
LINE
  5
19EC
330
1D
100
AcDbEntity
  8
0
100
AcDbLine
 10
36.17042774048
 20
837.660797394808
 30
0.0
 11
37.112743988838
 21
838.57367473995
 31
0.0
  0
LINE
  5
19ED
330
1D
100
AcDbEntity
  8
0
100
AcDbLine
 10
35.438008688723
 20
838.236468813782
 30
0.0
 11
35.902195634708
 21
838.013670229457
 31
0.0
  0
LINE
  5
19EE
330
1D
100
AcDbEntity
  8
0
100
AcDbLine
 10
35.438008688723
 20
838.236468813782
 30
0.0
 11
35.584108531891
 21
838.337095691334
 31
0.0
  0
LINE
  5
19EF
330
1D
100
AcDbEntity
  8
0
100
AcDbLine
 10
35.902195634708
 20
838.013670229457
 30
0.0
 11
36.17042774048
 21
837.660797394808
 31
0.0
  0
LINE
  5
19F0
330
1D
100
AcDbEntity
  8
0
100
AcDbLine
 10
34.097862280531
 20
839.431868786431
 30
0.0
 11
34.305962070763
 21
839.635689902376
 31
0.0
  0
LINE
  5
19F1
330
1D
100
AcDbEntity
  8
0
100
AcDbLine
 10
34.097862280531
 20
839.431868786431
 30
0.0
 11
35.254205218657
 21
838.672535671491
 31
0.0
  0
LINE
  5
19F2
330
1D
100
AcDbEntity
  8
0
100
AcDbLine
 10
34.097862280531
 20
839.431868786431
 30
0.0
 11
34.816369498202
 21
838.654175609044
 31
0.0
  0
LINE
  5
19F3
330
1D
100
AcDbEntity
  8
0
100
AcDbLine
 10
35.186626795989
 20
838.716912242226
 30
0.0
 11
35.438008688723
 21
838.236468813782
 31
0.0
  0
LINE
  5
19F4
330
1D
100
AcDbEntity
  8
0
100
AcDbLine
 10
35.297054352801
 20
838.628967413367
 30
0.0
 11
35.438008688723
 21
838.236468813782
 31
0.0
  0
LINE
  5
19F5
330
1D
100
AcDbEntity
  8
0
100
AcDbLine
 10
35.452049088705
 20
838.471371447971
 30
0.0
 11
35.438008688723
 21
838.236468813782
 31
0.0
  0
LINE
  5
19F6
330
1D
100
AcDbEntity
  8
0
100
AcDbLine
 10
35.254205218657
 20
838.672535671491
 30
0.0
 11
35.902195634708
 21
838.013670229457
 31
0.0
  0
LINE
  5
19F7
330
1D
100
AcDbEntity
  8
0
100
AcDbLine
 10
27.475565717773
 20
845.148417242002
 30
0.0
 11
28.017346803586
 21
845.017158318285
 31
0.0
  0
LINE
  5
19F8
330
1D
100
AcDbEntity
  8
0
100
AcDbLine
 10
34.816369498202
 20
838.654175609044
 30
0.0
 11
35.438008688723
 21
838.236468813782
 31
0.0
  0
LINE
  5
19F9
330
1D
100
AcDbEntity
  8
0
100
AcDbLine
 10
34.816369498202
 20
838.654175609044
 30
0.0
 11
36.17042774048
 21
837.660797394808
 31
0.0
  0
LINE
  5
19FA
330
1D
100
AcDbEntity
  8
0
100
AcDbLine
 10
19.62693267952
 20
851.059698383248
 30
0.0
 11
20.666820063513
 21
849.687549893246
 31
0.0
  0
LINE
  5
19FB
330
1D
100
AcDbEntity
  8
0
100
AcDbLine
 10
19.62693267952
 20
851.059698383248
 30
0.0
 11
20.114655312952
 21
851.599851065465
 31
0.0
  0
LINE
  5
19FC
330
1D
100
AcDbEntity
  8
0
100
AcDbLine
 10
20.699879856061
 20
851.034478194285
 30
0.0
 11
20.304590346043
 21
850.39356216069
 31
0.0
  0
LINE
  5
19FD
330
1D
100
AcDbEntity
  8
0
100
AcDbLine
 10
20.833088114995
 20
850.905788554206
 30
0.0
 11
21.298734088988
 21
850.448881039599
 31
0.0
  0
LINE
  5
19FE
330
1D
100
AcDbEntity
  8
0
100
AcDbLine
 10
23.164299797791
 20
849.129022112534
 30
0.0
 11
23.757211984402
 21
848.544057967038
 31
0.0
  0
LINE
  5
19FF
330
1D
100
AcDbEntity
  8
0
100
AcDbLine
 10
23.757211984402
 20
848.544057967038
 30
0.0
 11
24.720423939504
 21
847.568947631433
 31
0.0
  0
LINE
  5
1A00
330
1D
100
AcDbEntity
  8
0
100
AcDbLine
 10
26.442507496154
 20
846.272943413661
 30
0.0
 11
27.267429910508
 21
845.499946608818
 31
0.0
  0
LINE
  5
1A01
330
1D
100
AcDbEntity
  8
0
100
AcDbLine
 10
26.442507496154
 20
846.272943413661
 30
0.0
 11
28.017346803586
 21
845.017158318285
 31
0.0
  0
LINE
  5
1A02
330
1D
100
AcDbEntity
  8
0
100
AcDbLine
 10
26.442507496154
 20
846.272943413661
 30
0.0
 11
27.475565717773
 21
845.148417242002
 31
0.0
  0
LINE
  5
1A03
330
1D
100
AcDbEntity
  8
0
100
AcDbLine
 10
28.017346803586
 20
845.017158318285
 30
0.0
 11
28.793522775636
 21
845.713229896631
 31
0.0
  0
LINE
  5
1A04
330
1D
100
AcDbEntity
  8
0
100
AcDbLine
 10
34.305962070763
 20
839.635689902376
 30
0.0
 11
35.254205218657
 21
838.672535671491
 31
0.0
  0
LINE
  5
1A05
330
1D
100
AcDbEntity
  8
0
100
AcDbLine
 10
27.267429910508
 20
845.499946608818
 30
0.0
 11
27.475565717773
 21
845.148417242002
 31
0.0
  0
LINE
  5
1A06
330
1D
100
AcDbEntity
  8
0
100
AcDbLine
 10
26.057246821488
 20
846.500659690101
 30
0.0
 11
26.442507496154
 21
846.272943413661
 31
0.0
  0
LINE
  5
1A07
330
1D
100
AcDbEntity
  8
0
100
AcDbLine
 10
26.057246821488
 20
846.500659690101
 30
0.0
 11
26.999175986628
 21
845.666986969605
 31
0.0
  0
LINE
  5
1A08
330
1D
100
AcDbEntity
  8
0
100
AcDbLine
 10
19.953076887113
 20
851.75594851492
 30
0.0
 11
20.833088114995
 21
850.905788554206
 31
0.0
  0
LINE
  5
1A09
330
1D
100
AcDbEntity
  8
0
100
AcDbLine
 10
19.953076887113
 20
851.75594851492
 30
0.0
 11
20.045720453731
 21
851.731224810022
 31
0.0
  0
LINE
  5
1A0A
330
1D
100
AcDbEntity
  8
0
100
AcDbLine
 10
19.957850535764
 20
851.943968360358
 30
0.0
 11
21.253500745333
 21
850.509942030598
 31
0.0
  0
LINE
  5
1A0B
330
1D
100
AcDbEntity
  8
0
100
AcDbLine
 10
19.957850535764
 20
851.943968360358
 30
0.0
 11
20.925984496321
 21
851.205363022972
 31
0.0
  0
LINE
  5
1A0C
330
1D
100
AcDbEntity
  8
0
100
AcDbLine
 10
20.925984496321
 20
851.205363022972
 30
0.0
 11
21.253500745333
 21
850.509942030598
 31
0.0
  0
LINE
  5
1A0D
330
1D
100
AcDbEntity
  8
0
100
AcDbLine
 10
30.687199032378
 20
842.915259470477
 30
0.0
 11
31.067702451914
 21
842.509990983654
 31
0.0
  0
LINE
  5
1A0E
330
1D
100
AcDbEntity
  8
0
100
AcDbLine
 10
30.486842838917
 20
843.20869737829
 30
0.0
 11
30.599503037942
 21
843.167163782786
 31
0.0
  0
LINE
  5
1A0F
330
1D
100
AcDbEntity
  8
0
100
AcDbLine
 10
32.828072538521
 20
841.223416424951
 30
0.0
 11
33.328857695892
 21
840.71535387353
 31
0.0
  0
LINE
  5
1A10
330
1D
100
AcDbEntity
  8
0
100
AcDbLine
 10
30.841829685934
 20
842.918921571079
 30
0.0
 11
31.128221743956
 21
842.614336341421
 31
0.0
  0
LINE
  5
1A11
330
1D
100
AcDbEntity
  8
0
100
AcDbLine
 10
30.618255256385
 20
843.071276795643
 30
0.0
 11
30.77407150588
 21
842.877219184627
 31
0.0
  0
LINE
  5
1A12
330
1D
100
AcDbEntity
  8
0
100
AcDbLine
 10
30.52264550158
 20
843.119128804861
 30
0.0
 11
30.77407150588
 21
842.877219184627
 31
0.0
  0
LINE
  5
1A13
330
1D
100
AcDbEntity
  8
0
100
AcDbLine
 10
30.52264550158
 20
843.119128804861
 30
0.0
 11
30.687199032378
 21
842.915259470477
 31
0.0
  0
LINE
  5
1A14
330
1D
100
AcDbEntity
  8
0
100
AcDbLine
 10
33.376793879248
 20
840.781990121335
 30
0.0
 11
33.459124464912
 21
840.683898575977
 31
0.0
  0
LINE
  5
1A15
330
1D
100
AcDbEntity
  8
0
100
AcDbLine
 10
38.968665986614
 20
836.042649929997
 30
0.0
 11
39.83994012543
 21
835.375920700826
 31
0.0
  0
LINE
  5
1A16
330
1D
100
AcDbEntity
  8
0
100
AcDbLine
 10
38.653413182246
 20
836.276658843574
 30
0.0
 11
38.069289475028
 21
835.325208628978
 31
0.0
  0
LINE
  5
1A17
330
1D
100
AcDbEntity
  8
0
100
AcDbLine
 10
33.008403745359
 20
841.040464650725
 30
0.0
 11
32.429245495904
 21
840.102020758793
 31
0.0
  0
LINE
  5
1A18
330
1D
100
AcDbEntity
  8
0
100
AcDbLine
 10
32.54194178598
 20
841.525821897877
 30
0.0
 11
32.812729105907
 21
841.267359787085
 31
0.0
  0
LINE
  5
1A19
330
1D
100
AcDbEntity
  8
0
100
AcDbLine
 10
30.584809705123
 20
843.157431569746
 30
0.0
 11
30.618255256385
 21
843.071276795643
 31
0.0
  0
LINE
  5
1A1A
330
1D
100
AcDbEntity
  8
0
100
AcDbLine
 10
30.584809705123
 20
843.157431569746
 30
0.0
 11
30.644143711768
 21
843.135444708995
 31
0.0
  0
LINE
  5
1A1B
330
1D
100
AcDbEntity
  8
0
100
AcDbLine
 10
30.584809705123
 20
843.157431569746
 30
0.0
 11
30.636367157598
 21
843.140970277372
 31
0.0
  0
LINE
  5
1A1C
330
1D
100
AcDbEntity
  8
0
100
AcDbLine
 10
25.818066385336
 20
847.07235265749
 30
0.0
 11
26.442507496154
 21
846.272943413661
 31
0.0
  0
LINE
  5
1A1D
330
1D
100
AcDbEntity
  8
0
100
AcDbLine
 10
25.818066385336
 20
847.07235265749
 30
0.0
 11
26.057246821488
 21
846.500659690101
 31
0.0
  0
LINE
  5
1A1E
330
1D
100
AcDbEntity
  8
0
100
AcDbLine
 10
19.801636913856
 20
851.978037103668
 30
0.0
 11
19.953076887113
 21
851.75594851492
 31
0.0
  0
LINE
  5
1A1F
330
1D
100
AcDbEntity
  8
0
100
AcDbLine
 10
18.111624689596
 20
854.35047537971
 30
0.0
 11
19.352665656571
 21
852.992217387067
 31
0.0
  0
LINE
  5
1A20
330
1D
100
AcDbEntity
  8
0
100
AcDbLine
 10
18.399874312275
 20
854.610480289462
 30
0.0
 11
18.475929582522
 21
854.513219328703
 31
0.0
  0
LINE
  5
1A21
330
1D
100
AcDbEntity
  8
0
100
AcDbLine
 10
18.345615204679
 20
854.653504227845
 30
0.0
 11
18.525066846954
 21
854.425385228012
 31
0.0
  0
LINE
  5
1A22
330
1D
100
AcDbEntity
  8
0
100
AcDbLine
 10
18.091203191936
 20
854.958751386345
 30
0.0
 11
18.345615204679
 21
854.653504227845
 31
0.0
  0
LINE
  5
1A23
330
1D
100
AcDbEntity
  8
0
100
AcDbLine
 10
18.091203191936
 20
854.958751386345
 30
0.0
 11
19.711270093395
 21
853.130843170707
 31
0.0
  0
LINE
  5
1A24
330
1D
100
AcDbEntity
  8
0
100
AcDbLine
 10
18.304276202664
 20
854.535881687043
 30
0.0
 11
18.4496800266
 21
854.399482963305
 31
0.0
  0
LINE
  5
1A25
330
1D
100
AcDbEntity
  8
0
100
AcDbLine
 10
18.4496800266
 20
854.399482963305
 30
0.0
 11
18.603350521735
 21
854.289988676126
 31
0.0
  0
LINE
  5
1A26
330
1D
100
AcDbEntity
  8
0
100
AcDbLine
 10
18.403313773885
 20
854.488908130955
 30
0.0
 11
18.548461861529
 21
854.384922075081
 31
0.0
  0
LINE
  5
1A27
330
1D
100
AcDbEntity
  8
0
100
AcDbLine
 10
18.403313773885
 20
854.488908130955
 30
0.0
 11
18.603350521735
 21
854.289988676126
 31
0.0
  0
LINE
  5
1A28
330
1D
100
AcDbEntity
  8
0
100
AcDbLine
 10
18.475929582522
 20
854.513219328703
 30
0.0
 11
18.525066846954
 21
854.425385228012
 31
0.0
  0
LINE
  5
1A29
330
1D
100
AcDbEntity
  8
0
100
AcDbLine
 10
18.56813000841
 20
854.420638765622
 30
0.0
 11
19.487011096971
 21
853.383872759563
 31
0.0
  0
LINE
  5
1A2A
330
1D
100
AcDbEntity
  8
0
100
AcDbLine
 10
18.470734908351
 20
854.519862379199
 30
0.0
 11
18.56813000841
 21
854.420638765622
 31
0.0
  0
LINE
  5
1A2B
330
1D
100
AcDbEntity
  8
0
100
AcDbLine
 10
18.525066846954
 20
854.425385228012
 30
0.0
 11
18.603350521735
 21
854.289988676126
 31
0.0
  0
LINE
  5
1A2C
330
1D
100
AcDbEntity
  8
0
100
AcDbLine
 10
18.525066846954
 20
854.425385228012
 30
0.0
 11
19.711270093395
 21
853.130843170707
 31
0.0
  0
LINE
  5
1A2D
330
1D
100
AcDbEntity
  8
0
100
AcDbLine
 10
18.351643335894
 20
854.491448079006
 30
0.0
 11
18.42009444246
 21
854.558826190823
 31
0.0
  0
LINE
  5
1A2E
330
1D
100
AcDbEntity
  8
0
100
AcDbLine
 10
21.713204644572
 20
850.795074735312
 30
0.0
 11
22.085597444686
 21
850.424879800867
 31
0.0
  0
LINE
  5
1A2F
330
1D
100
AcDbEntity
  8
0
100
AcDbLine
 10
22.085597444686
 20
850.424879800867
 30
0.0
 11
22.477601896329
 21
850.030025941962
 31
0.0
  0
LINE
  5
1A30
330
1D
100
AcDbEntity
  8
0
100
AcDbLine
 10
21.73154698447
 20
850.810395491761
 30
0.0
 11
22.477601896329
 21
850.030025941962
 31
0.0
  0
LINE
  5
1A31
330
1D
100
AcDbEntity
  8
0
100
AcDbLine
 10
19.352665656571
 20
852.992217387067
 30
0.0
 11
19.565670523017
 21
852.765142573502
 31
0.0
  0
LINE
  5
1A32
330
1D
100
AcDbEntity
  8
0
100
AcDbLine
 10
19.295985386229
 20
853.067779229466
 30
0.0
 11
19.352665656571
 21
852.992217387067
 31
0.0
  0
LINE
  5
1A33
330
1D
100
AcDbEntity
  8
0
100
AcDbLine
 10
19.330417766485
 20
853.32196414048
 30
0.0
 11
19.687581986744
 21
852.948372227421
 31
0.0
  0
LINE
  5
1A34
330
1D
100
AcDbEntity
  8
0
100
AcDbLine
 10
19.330417766485
 20
853.32196414048
 30
0.0
 11
19.684517724667
 21
852.943766723864
 31
0.0
  0
LINE
  5
1A35
330
1D
100
AcDbEntity
  8
0
100
AcDbLine
 10
22.339726092292
 20
850.168903939508
 30
0.0
 11
21.551939777808
 21
849.203316910721
 31
0.0
  0
LINE
  5
1A36
330
1D
100
AcDbEntity
  8
0
100
AcDbLine
 10
25.144654630116
 20
847.899276915165
 30
0.0
 11
25.888562966067
 21
847.183074768299
 31
0.0
  0
LINE
  5
1A37
330
1D
100
AcDbEntity
  8
0
100
AcDbLine
 10
25.438078635737
 20
847.616781219645
 30
0.0
 11
24.81786945301
 21
846.659470862581
 31
0.0
  0
LINE
  5
1A38
330
1D
100
AcDbEntity
  8
0
100
AcDbLine
 10
24.990742593675
 20
848.035426722807
 30
0.0
 11
24.342068839084
 21
846.916033965516
 31
0.0
  0
LINE
  5
1A39
330
1D
100
AcDbEntity
  8
0
100
AcDbLine
 10
28.974710083243
 20
845.560621184299
 30
0.0
 11
29.091954392812
 21
845.469916330767
 31
0.0
  0
LINE
  5
1A3A
330
1D
100
AcDbEntity
  8
0
100
AcDbLine
 10
26.247320080018
 20
847.908441280545
 30
0.0
 11
26.308479375571
 21
847.842596559867
 31
0.0
  0
LINE
  5
1A3B
330
1D
100
AcDbEntity
  8
0
100
AcDbLine
 10
26.09830965204
 20
848.206442341539
 30
0.0
 11
26.247320080018
 21
847.908441280545
 31
0.0
  0
LINE
  5
1A3C
330
1D
100
AcDbEntity
  8
0
100
AcDbLine
 10
29.05715955631
 20
845.531936774816
 30
0.0
 11
29.091209430971
 21
845.473942258996
 31
0.0
  0
LINE
  5
1A3D
330
1D
100
AcDbEntity
  8
0
100
AcDbLine
 10
29.05715955631
 20
845.531936774816
 30
0.0
 11
29.104476752372
 21
845.451345057434
 31
0.0
  0
LINE
  5
1A3E
330
1D
100
AcDbEntity
  8
0
100
AcDbLine
 10
22.375999200801
 20
851.348685344866
 30
0.0
 11
22.420135784867
 21
851.385551189612
 31
0.0
  0
LINE
  5
1A3F
330
1D
100
AcDbEntity
  8
0
100
AcDbLine
 10
22.342520531422
 20
851.388537351352
 30
0.0
 11
22.385755289833
 21
851.423418128467
 31
0.0
  0
LINE
  5
1A40
330
1D
100
AcDbEntity
  8
0
100
AcDbLine
 10
27.754517311465
 20
846.599890954605
 30
0.0
 11
28.589759708086
 21
845.853350112529
 31
0.0
  0
LINE
  5
1A41
330
1D
100
AcDbEntity
  8
0
100
AcDbLine
 10
28.589759708086
 20
845.853350112529
 30
0.0
 11
29.094037058001
 21
845.506577500631
 31
0.0
  0
LINE
  5
1A42
330
1D
100
AcDbEntity
  8
0
100
AcDbLine
 10
28.589759708086
 20
845.853350112529
 30
0.0
 11
29.139297160638
 21
845.476040586751
 31
0.0
  0
LINE
  5
1A43
330
1D
100
AcDbEntity
  8
0
100
AcDbLine
 10
29.094037058001
 20
845.506577500631
 30
0.0
 11
29.139297160638
 21
845.476040586751
 31
0.0
  0
LINE
  5
1A44
330
1D
100
AcDbEntity
  8
0
100
AcDbLine
 10
26.266762410122
 20
848.106475105434
 30
0.0
 11
26.38800886911
 21
847.967505786739
 31
0.0
  0
LINE
  5
1A45
330
1D
100
AcDbEntity
  8
0
100
AcDbLine
 10
20.28832996926
 20
853.148039381534
 30
0.0
 11
21.445631810943
 21
854.199573742385
 31
0.0
  0
LINE
  5
1A46
330
1D
100
AcDbEntity
  8
0
100
AcDbLine
 10
19.98316028051
 20
853.39261846003
 30
0.0
 11
19.41586687619
 21
852.539991717916
 31
0.0
  0
LINE
  5
1A47
330
1D
100
AcDbEntity
  8
0
100
AcDbLine
 10
19.539349509274
 20
853.748311811818
 30
0.0
 11
20.28832996926
 21
853.148039381534
 31
0.0
  0
LINE
  5
1A48
330
1D
100
AcDbEntity
  8
0
100
AcDbLine
 10
19.343050604899
 20
853.950752420741
 30
0.0
 11
19.539349509274
 21
853.748311811818
 31
0.0
  0
LINE
  5
1A49
330
1D
100
AcDbEntity
  8
0
100
AcDbLine
 10
17.586270761544
 20
855.542613476858
 30
0.0
 11
18.091203191936
 21
854.958751386345
 31
0.0
  0
LINE
  5
1A4A
330
1D
100
AcDbEntity
  8
0
100
AcDbLine
 10
17.626836589568
 20
855.495706509255
 30
0.0
 11
17.025614514641
 21
854.390308125482
 31
0.0
  0
LINE
  5
1A4B
330
1D
100
AcDbEntity
  8
0
100
AcDbLine
 10
26.169185911138
 20
848.340692540408
 30
0.0
 11
26.565273677047
 21
848.054938482349
 31
0.0
  0
LINE
  5
1A4C
330
1D
100
AcDbEntity
  8
0
100
AcDbLine
 10
27.149947566513
 20
847.538883395197
 30
0.0
 11
27.709599283977
 21
847.015854550467
 31
0.0
  0
LINE
  5
1A4D
330
1D
100
AcDbEntity
  8
0
100
AcDbLine
 10
26.229728017378
 20
848.297014966823
 30
0.0
 11
26.266762410122
 21
848.106475105434
 31
0.0
  0
LINE
  5
1A4E
330
1D
100
AcDbEntity
  8
0
100
AcDbLine
 10
26.049991151746
 20
848.361992759505
 30
0.0
 11
26.09830965204
 21
848.206442341539
 31
0.0
  0
LINE
  5
1A4F
330
1D
100
AcDbEntity
  8
0
100
AcDbLine
 10
26.049991151746
 20
848.361992759505
 30
0.0
 11
26.169185911138
 21
848.340692540408
 31
0.0
  0
LINE
  5
1A50
330
1D
100
AcDbEntity
  8
0
100
AcDbLine
 10
19.663542445831
 20
853.972024818202
 30
0.0
 11
19.539349509274
 21
853.748311811818
 31
0.0
  0
LINE
  5
1A51
330
1D
100
AcDbEntity
  8
0
100
AcDbLine
 10
21.278941156137
 20
852.584948557214
 30
0.0
 11
21.783504869837
 21
852.020715884624
 31
0.0
  0
LINE
  5
1A52
330
1D
100
AcDbEntity
  8
0
100
AcDbLine
 10
19.673292047074
 20
853.959166799858
 30
0.0
 11
19.539349509274
 21
853.748311811818
 31
0.0
  0
LINE
  5
1A53
330
1D
100
AcDbEntity
  8
0
100
AcDbLine
 10
20.819760035291
 20
853.049093866636
 30
0.0
 11
21.278941156137
 21
852.584948557214
 31
0.0
  0
LINE
  5
1A54
330
1D
100
AcDbEntity
  8
0
100
AcDbLine
 10
20.489240804751
 20
853.330588686631
 30
0.0
 11
20.819760035291
 21
853.049093866636
 31
0.0
  0
LINE
  5
1A55
330
1D
100
AcDbEntity
  8
0
100
AcDbLine
 10
19.562271761032
 20
854.10558313412
 30
0.0
 11
19.539349509274
 21
853.748311811818
 31
0.0
  0
LINE
  5
1A56
330
1D
100
AcDbEntity
  8
0
100
AcDbLine
 10
19.58014119481
 20
854.082016477228
 30
0.0
 11
19.539349509274
 21
853.748311811818
 31
0.0
  0
LINE
  5
1A57
330
1D
100
AcDbEntity
  8
0
100
AcDbLine
 10
26.565273677047
 20
848.054938482349
 30
0.0
 11
27.149947566513
 21
847.538883395197
 31
0.0
  0
LINE
  5
1A58
330
1D
100
AcDbEntity
  8
0
100
AcDbLine
 10
26.481950721142
 20
848.115051100886
 30
0.0
 11
25.818066385336
 21
847.07235265749
 31
0.0
  0
LINE
  5
1A59
330
1D
100
AcDbEntity
  8
0
100
AcDbLine
 10
21.691101326792
 20
852.12404693407
 30
0.0
 11
20.925984496321
 21
851.205363022972
 31
0.0
  0
LINE
  5
1A5A
330
1D
100
AcDbEntity
  8
0
100
AcDbLine
 10
21.691101326792
 20
852.12404693407
 30
0.0
 11
20.925984496321
 21
851.205363022972
 31
0.0
  0
LINE
  5
1A5B
330
1D
100
AcDbEntity
  8
0
100
AcDbLine
 10
19.07923786322
 20
854.228772271341
 30
0.0
 11
19.343050604899
 21
853.950752420741
 31
0.0
  0
LINE
  5
1A5C
330
1D
100
AcDbEntity
  8
0
100
AcDbLine
 10
19.07923786322
 20
854.228772271341
 30
0.0
 11
19.539349509274
 21
853.748311811818
 31
0.0
  0
LINE
  5
1A5D
330
1D
100
AcDbEntity
  8
0
100
AcDbLine
 10
19.07923786322
 20
854.228772271341
 30
0.0
 11
19.39280298837
 21
854.329082796657
 31
0.0
  0
LINE
  5
1A5E
330
1D
100
AcDbEntity
  8
0
100
AcDbLine
 10
19.265953888745
 20
854.47468513406
 30
0.0
 11
19.07923786322
 21
854.228772271341
 31
0.0
  0
LINE
  5
1A5F
330
1D
100
AcDbEntity
  8
0
100
AcDbLine
 10
19.094757335384
 20
854.598321612887
 30
0.0
 11
19.07923786322
 21
854.228772271341
 31
0.0
  0
LINE
  5
1A60
330
1D
100
AcDbEntity
  8
0
100
AcDbLine
 10
20.330965596895
 20
853.540176351554
 30
0.0
 11
20.28832996926
 21
853.148039381534
 31
0.0
  0
LINE
  5
1A61
330
1D
100
AcDbEntity
  8
0
100
AcDbLine
 10
20.330965596895
 20
853.540176351554
 30
0.0
 11
21.231221368702
 21
854.436349751761
 31
0.0
  0
LINE
  5
1A62
330
1D
100
AcDbEntity
  8
0
100
AcDbLine
 10
19.216739074469
 20
854.561280296665
 30
0.0
 11
20.28832996926
 21
853.148039381534
 31
0.0
  0
LINE
  5
1A63
330
1D
100
AcDbEntity
  8
0
100
AcDbLine
 10
19.216739074469
 20
854.561280296665
 30
0.0
 11
20.330965596895
 21
853.540176351554
 31
0.0
  0
LINE
  5
1A64
330
1D
100
AcDbEntity
  8
0
100
AcDbLine
 10
27.661402424988
 20
847.462181780206
 30
0.0
 11
29.255262465552
 21
846.1066292467
 31
0.0
  0
LINE
  5
1A65
330
1D
100
AcDbEntity
  8
0
100
AcDbLine
 10
27.661402424988
 20
847.462181780206
 30
0.0
 11
27.754517311465
 21
846.599890954605
 31
0.0
  0
LINE
  5
1A66
330
1D
100
AcDbEntity
  8
0
100
AcDbLine
 10
18.751214440766
 20
854.846424936131
 30
0.0
 11
19.302306833836
 21
854.44843139216
 31
0.0
  0
LINE
  5
1A67
330
1D
100
AcDbEntity
  8
0
100
AcDbLine
 10
18.458097992389
 20
855.121881044596
 30
0.0
 11
18.580877450834
 21
855.266492609085
 31
0.0
  0
LINE
  5
1A68
330
1D
100
AcDbEntity
  8
0
100
AcDbLine
 10
18.458097992389
 20
855.121881044596
 30
0.0
 11
18.689751715715
 21
854.860141474662
 31
0.0
  0
LINE
  5
1A69
330
1D
100
AcDbEntity
  8
0
100
AcDbLine
 10
18.458097992389
 20
855.121881044596
 30
0.0
 11
19.07923786322
 21
854.228772271341
 31
0.0
  0
LINE
  5
1A6A
330
1D
100
AcDbEntity
  8
0
100
AcDbLine
 10
18.458097992389
 20
855.121881044596
 30
0.0
 11
18.751214440766
 21
854.846424936131
 31
0.0
  0
LINE
  5
1A6B
330
1D
100
AcDbEntity
  8
0
100
AcDbLine
 10
19.334203762496
 20
856.564607723651
 30
0.0
 11
18.458097992389
 21
855.121881044596
 31
0.0
  0
LINE
  5
1A6C
330
1D
100
AcDbEntity
  8
0
100
AcDbLine
 10
20.721559122838
 20
856.872399885096
 30
0.0
 11
21.124680353844
 21
857.123662940702
 31
0.0
  0
LINE
  5
1A6D
330
1D
100
AcDbEntity
  8
0
100
AcDbLine
 10
20.721559122838
 20
856.872399885096
 30
0.0
 11
21.939884825542
 21
855.520618437476
 31
0.0
  0
LINE
  5
1A6E
330
1D
100
AcDbEntity
  8
0
100
AcDbLine
 10
20.721559122838
 20
856.872399885096
 30
0.0
 11
21.773526699827
 21
855.7662085513
 31
0.0
  0
LINE
  5
1A6F
330
1D
100
AcDbEntity
  8
0
100
AcDbLine
 10
20.721559122838
 20
856.872399885096
 30
0.0
 11
21.286138633944
 21
856.927364892149
 31
0.0
  0
LINE
  5
1A70
330
1D
100
AcDbEntity
  8
0
100
AcDbLine
 10
22.080099513371
 20
857.471512735308
 30
0.0
 11
22.662151448083
 21
856.741221200852
 31
0.0
  0
LINE
  5
1A71
330
1D
100
AcDbEntity
  8
0
100
AcDbLine
 10
21.504063373702
 20
857.974837179176
 30
0.0
 11
22.080099513371
 21
857.471512735308
 31
0.0
  0
LINE
  5
1A72
330
1D
100
AcDbEntity
  8
0
100
AcDbLine
 10
20.695844971598
 20
857.780478710103
 30
0.0
 11
20.721559122838
 21
856.872399885096
 31
0.0
  0
LINE
  5
1A73
330
1D
100
AcDbEntity
  8
0
100
AcDbLine
 10
20.695844971598
 20
857.780478710103
 30
0.0
 11
21.504063373702
 21
857.974837179176
 31
0.0
  0
LINE
  5
1A74
330
1D
100
AcDbEntity
  8
0
100
AcDbLine
 10
21.124680353844
 20
857.123662940702
 30
0.0
 11
21.917942428359
 21
856.15922929802
 31
0.0
  0
LINE
  5
1A75
330
1D
100
AcDbEntity
  8
0
100
AcDbLine
 10
28.352962057917
 20
848.537936757743
 30
0.0
 11
27.661402424988
 21
847.462181780206
 31
0.0
  0
LINE
  5
1A76
330
1D
100
AcDbEntity
  8
0
100
AcDbLine
 10
21.939884825542
 20
855.520618437476
 30
0.0
 11
22.643926546209
 21
855.33988571891
 31
0.0
  0
LINE
  5
1A77
330
1D
100
AcDbEntity
  8
0
100
AcDbLine
 10
22.973310333721
 20
856.205992363916
 30
0.0
 11
22.643926546209
 21
855.33988571891
 31
0.0
  0
LINE
  5
1A78
330
1D
100
AcDbEntity
  8
0
100
AcDbLine
 10
22.662151448083
 20
856.741221200852
 30
0.0
 11
22.973310333721
 21
856.205992363916
 31
0.0
  0
LINE
  5
1A79
330
1D
100
AcDbEntity
  8
0
100
AcDbLine
 10
21.773526699827
 20
855.7662085513
 30
0.0
 11
22.012438080889
 21
855.854755273425
 31
0.0
  0
LINE
  5
1A7A
330
1D
100
AcDbEntity
  8
0
100
AcDbLine
 10
21.773526699827
 20
855.7662085513
 30
0.0
 11
21.973323708576
 21
855.980785519671
 31
0.0
  0
LINE
  5
1A7B
330
1D
100
AcDbEntity
  8
0
100
AcDbLine
 10
21.917942428359
 20
856.15922929802
 30
0.0
 11
22.012438080889
 21
855.854755273425
 31
0.0
  0
LINE
  5
1A7C
330
1D
100
AcDbEntity
  8
0
100
AcDbLine
 10
21.917942428359
 20
856.15922929802
 30
0.0
 11
21.773526699827
 21
855.7662085513
 31
0.0
  0
LINE
  5
1A7D
330
1D
100
AcDbEntity
  8
0
100
AcDbLine
 10
18.580877450834
 20
855.266492609085
 30
0.0
 11
19.216739074469
 21
854.561280296665
 31
0.0
  0
LINE
  5
1A7E
330
1D
100
AcDbEntity
  8
0
100
AcDbLine
 10
29.255262465552
 20
846.1066292467
 30
0.0
 11
29.723558364182
 21
845.219455131136
 31
0.0
  0
LINE
  5
1A7F
330
1D
100
AcDbEntity
  8
0
100
AcDbLine
 10
30.612885035392
 20
843.160017581598
 30
0.0
 11
30.69077439197
 21
843.167191951315
 31
0.0
  0
LINE
  5
1A80
330
1D
100
AcDbEntity
  8
0
100
AcDbLine
 10
30.666671766551
 20
843.13129460481
 30
0.0
 11
30.747124979489
 21
843.10560745781
 31
0.0
  0
LINE
  5
1A81
330
1D
100
AcDbEntity
  8
0
100
AcDbLine
 10
30.860467461311
 20
842.981737598724
 30
0.0
 11
31.250176398317
 21
842.665045691001
 31
0.0
  0
LINE
  5
1A82
330
1D
100
AcDbEntity
  8
0
100
AcDbLine
 10
30.761860384018
 20
843.051802068922
 30
0.0
 11
30.841829685934
 21
842.918921571079
 31
0.0
  0
LINE
  5
1A83
330
1D
100
AcDbEntity
  8
0
100
AcDbLine
 10
30.692354106714
 20
843.117579823404
 30
0.0
 11
30.860467461311
 21
842.981737598724
 31
0.0
  0
LINE
  5
1A84
330
1D
100
AcDbEntity
  8
0
100
AcDbLine
 10
30.599503037942
 20
843.167163782786
 30
0.0
 11
30.692354106714
 21
843.117579823404
 31
0.0
  0
LINE
  5
1A85
330
1D
100
AcDbEntity
  8
0
100
AcDbLine
 10
30.599503037942
 20
843.167163782786
 30
0.0
 11
30.860467461311
 21
842.981737598724
 31
0.0
  0
LINE
  5
1A86
330
1D
100
AcDbEntity
  8
0
100
AcDbLine
 10
32.289234067466
 20
841.73886784081
 30
0.0
 11
32.828072538521
 21
841.223416424951
 31
0.0
  0
LINE
  5
1A87
330
1D
100
AcDbEntity
  8
0
100
AcDbLine
 10
31.724965315704
 20
842.25372695337
 30
0.0
 11
32.289234067466
 21
841.73886784081
 31
0.0
  0
LINE
  5
1A88
330
1D
100
AcDbEntity
  8
0
100
AcDbLine
 10
31.974207593502
 20
842.026309330901
 30
0.0
 11
31.131825143565
 21
840.961586718645
 31
0.0
  0
LINE
  5
1A89
330
1D
100
AcDbEntity
  8
0
100
AcDbLine
 10
31.187278030244
 20
842.716159233151
 30
0.0
 11
30.545782656635
 21
841.61011416873
 31
0.0
  0
LINE
  5
1A8A
330
1D
100
AcDbEntity
  8
0
100
AcDbLine
 10
30.244751752722
 20
843.654641675243
 30
0.0
 11
30.860467461311
 21
842.981737598724
 31
0.0
  0
LINE
  5
1A8B
330
1D
100
AcDbEntity
  8
0
100
AcDbLine
 10
30.244751752722
 20
843.654641675243
 30
0.0
 11
30.486842838917
 21
843.20869737829
 31
0.0
  0
LINE
  5
1A8C
330
1D
100
AcDbEntity
  8
0
100
AcDbLine
 10
31.250176398317
 20
842.665045691001
 30
0.0
 11
31.724965315704
 21
842.25372695337
 31
0.0
  0
LINE
  5
1A8D
330
1D
100
AcDbEntity
  8
0
100
AcDbLine
 10
31.26551791696
 20
842.651755039407
 30
0.0
 11
30.545782656635
 21
841.61011416873
 31
0.0
  0
LINE
  5
1A8E
330
1D
100
AcDbEntity
  8
0
100
AcDbLine
 10
38.489049427841
 20
837.336689186183
 30
0.0
 11
39.292965620237
 21
836.670739093756
 31
0.0
  0
LINE
  5
1A8F
330
1D
100
AcDbEntity
  8
0
100
AcDbLine
 10
38.489049427841
 20
837.336689186183
 30
0.0
 11
39.010530164263
 21
837.455129537847
 31
0.0
  0
LINE
  5
1A90
330
1D
100
AcDbEntity
  8
0
100
AcDbLine
 10
29.723558364182
 20
845.219455131136
 30
0.0
 11
30.694386943793
 21
846.146867664733
 31
0.0
  0
LINE
  5
1A91
330
1D
100
AcDbEntity
  8
0
100
AcDbLine
 10
32.954130996687
 20
845.824417341613
 30
0.0
 11
33.405865395626
 21
846.127703564208
 31
0.0
  0
LINE
  5
1A92
330
1D
100
AcDbEntity
  8
0
100
AcDbLine
 10
32.954130996687
 20
845.824417341613
 30
0.0
 11
32.941399107359
 21
845.626757661875
 31
0.0
  0
LINE
  5
1A93
330
1D
100
AcDbEntity
  8
0
100
AcDbLine
 10
32.954130996687
 20
845.824417341613
 30
0.0
 11
33.111470456835
 21
845.309517900673
 31
0.0
  0
LINE
  5
1A94
330
1D
100
AcDbEntity
  8
0
100
AcDbLine
 10
32.954130996687
 20
845.824417341613
 30
0.0
 11
33.828820880696
 21
844.628612283581
 31
0.0
  0
LINE
  5
1A95
330
1D
100
AcDbEntity
  8
0
100
AcDbLine
 10
32.941399107359
 20
845.626757661875
 30
0.0
 11
33.111470456835
 21
845.309517900673
 31
0.0
  0
LINE
  5
1A96
330
1D
100
AcDbEntity
  8
0
100
AcDbLine
 10
34.855459299887
 20
840.704335394202
 30
0.0
 11
34.097862280531
 21
839.431868786431
 31
0.0
  0
LINE
  5
1A97
330
1D
100
AcDbEntity
  8
0
100
AcDbLine
 10
34.960803698933
 20
840.625684068096
 30
0.0
 11
34.305962070763
 21
839.635689902376
 31
0.0
  0
LINE
  5
1A98
330
1D
100
AcDbEntity
  8
0
100
AcDbLine
 10
38.905304230553
 20
839.397922065447
 30
0.0
 11
38.005092948509
 21
837.940415553102
 31
0.0
  0
LINE
  5
1A99
330
1D
100
AcDbEntity
  8
0
100
AcDbLine
 10
33.967365557922
 20
845.296448951334
 30
0.0
 11
33.828820880696
 21
844.628612283581
 31
0.0
  0
LINE
  5
1A9A
330
1D
100
AcDbEntity
  8
0
100
AcDbLine
 10
33.467023068138
 20
844.97202904982
 30
0.0
 11
33.442468105941
 21
844.911810965498
 31
0.0
  0
LINE
  5
1A9B
330
1D
100
AcDbEntity
  8
0
100
AcDbLine
 10
33.86840344509
 20
845.442954185554
 30
0.0
 11
33.828820880696
 21
844.628612283581
 31
0.0
  0
LINE
  5
1A9C
330
1D
100
AcDbEntity
  8
0
100
AcDbLine
 10
33.828820880696
 20
844.628612283581
 30
0.0
 11
34.359907871905
 21
844.715322477724
 31
0.0
  0
LINE
  5
1A9D
330
1D
100
AcDbEntity
  8
0
100
AcDbLine
 10
33.442468105941
 20
844.911810965498
 30
0.0
 11
34.342601588007
 21
844.195932592823
 31
0.0
  0
LINE
  5
1A9E
330
1D
100
AcDbEntity
  8
0
100
AcDbLine
 10
33.442468105941
 20
844.911810965498
 30
0.0
 11
33.828820880696
 21
844.628612283581
 31
0.0
  0
LINE
  5
1A9F
330
1D
100
AcDbEntity
  8
0
100
AcDbLine
 10
33.111470456835
 20
845.309517900673
 30
0.0
 11
33.442468105941
 21
844.911810965498
 31
0.0
  0
LINE
  5
1AA0
330
1D
100
AcDbEntity
  8
0
100
AcDbLine
 10
33.111470456835
 20
845.309517900673
 30
0.0
 11
33.828820880696
 21
844.628612283581
 31
0.0
  0
LINE
  5
1AA1
330
1D
100
AcDbEntity
  8
0
100
AcDbLine
 10
32.79762250092
 20
847.021869695885
 30
0.0
 11
33.405865395626
 21
846.127703564208
 31
0.0
  0
LINE
  5
1AA2
330
1D
100
AcDbEntity
  8
0
100
AcDbLine
 10
32.79762250092
 20
847.021869695885
 30
0.0
 11
33.473780172206
 21
846.939987014194
 31
0.0
  0
LINE
  5
1AA3
330
1D
100
AcDbEntity
  8
0
100
AcDbLine
 10
32.79762250092
 20
847.021869695885
 30
0.0
 11
32.941399107359
 21
845.626757661875
 31
0.0
  0
LINE
  5
1AA4
330
1D
100
AcDbEntity
  8
0
100
AcDbLine
 10
33.737857203497
 20
845.636217113696
 30
0.0
 11
33.506610428271
 21
845.0691122777
 31
0.0
  0
LINE
  5
1AA5
330
1D
100
AcDbEntity
  8
0
100
AcDbLine
 10
34.742089905013
 20
844.848132167015
 30
0.0
 11
34.342601588007
 21
844.195932592823
 31
0.0
  0
LINE
  5
1AA6
330
1D
100
AcDbEntity
  8
0
100
AcDbLine
 10
33.405865395626
 20
846.127703564208
 30
0.0
 11
34.143228322934
 21
845.29594013424
 31
0.0
  0
LINE
  5
1AA7
330
1D
100
AcDbEntity
  8
0
100
AcDbLine
 10
33.405865395626
 20
846.127703564208
 30
0.0
 11
34.359907871905
 21
844.715322477724
 31
0.0
  0
LINE
  5
1AA8
330
1D
100
AcDbEntity
  8
0
100
AcDbLine
 10
34.143228322934
 20
845.29594013424
 30
0.0
 11
34.359907871905
 21
844.715322477724
 31
0.0
  0
LINE
  5
1AA9
330
1D
100
AcDbEntity
  8
0
100
AcDbLine
 10
38.71947020233
 20
837.720325611653
 30
0.0
 11
38.489049427841
 21
837.336689186183
 31
0.0
  0
LINE
  5
1AAA
330
1D
100
AcDbEntity
  8
0
100
AcDbLine
 10
39.404534141178
 20
837.096137160305
 30
0.0
 11
39.292965620237
 21
836.670739093756
 31
0.0
  0
LINE
  5
1AAB
330
1D
100
AcDbEntity
  8
0
100
AcDbLine
 10
38.939377645071
 20
837.640633172415
 30
0.0
 11
40.011374490308
 21
836.543221269891
 31
0.0
  0
LINE
  5
1AAC
330
1D
100
AcDbEntity
  8
0
100
AcDbLine
 10
38.33158038918
 20
838.073747136322
 30
0.0
 11
38.489049427841
 21
837.336689186183
 31
0.0
  0
LINE
  5
1AAD
330
1D
100
AcDbEntity
  8
0
100
AcDbLine
 10
38.33158038918
 20
838.073747136322
 30
0.0
 11
38.939377645071
 21
837.640633172415
 31
0.0
  0
LINE
  5
1AAE
330
1D
100
AcDbEntity
  8
0
100
AcDbLine
 10
38.33158038918
 20
838.073747136322
 30
0.0
 11
40.011374490308
 21
836.543221269891
 31
0.0
  0
LINE
  5
1AAF
330
1D
100
AcDbEntity
  8
0
100
AcDbLine
 10
39.599793019267
 20
836.507922364872
 30
0.0
 11
39.704075617192
 21
836.514277659518
 31
0.0
  0
LINE
  5
1AB0
330
1D
100
AcDbEntity
  8
0
100
AcDbLine
 10
39.704075617192
 20
836.514277659518
 30
0.0
 11
40.011374490308
 21
836.543221269891
 31
0.0
  0
LINE
  5
1AB1
330
1D
100
AcDbEntity
  8
0
100
AcDbLine
 10
39.338090140357
 20
836.641751895134
 30
0.0
 11
39.599793019267
 21
836.507922364872
 31
0.0
  0
LINE
  5
1AB2
330
1D
100
AcDbEntity
  8
0
100
AcDbLine
 10
39.338090140357
 20
836.641751895134
 30
0.0
 11
39.704075617192
 21
836.514277659518
 31
0.0
  0
LINE
  5
1AB3
330
1D
100
AcDbEntity
  8
0
100
AcDbLine
 10
38.005092948509
 20
837.940415553102
 30
0.0
 11
38.489049427841
 21
837.336689186183
 31
0.0
  0
LINE
  5
1AB4
330
1D
100
AcDbEntity
  8
0
100
AcDbLine
 10
38.005092948509
 20
837.940415553102
 30
0.0
 11
38.33158038918
 21
838.073747136322
 31
0.0
  0
LINE
  5
1AB5
330
1D
100
AcDbEntity
  8
0
100
AcDbLine
 10
39.292965620237
 20
836.670739093756
 30
0.0
 11
39.807827922379
 21
836.266262419727
 31
0.0
  0
LINE
  5
1AB6
330
1D
100
AcDbEntity
  8
0
100
AcDbLine
 10
39.292965620237
 20
836.670739093756
 30
0.0
 11
39.338090140357
 21
836.641751895134
 31
0.0
  0
LINE
  5
1AB7
330
1D
100
AcDbEntity
  8
0
100
AcDbLine
 10
39.292965620237
 20
836.670739093756
 30
0.0
 11
39.704075617192
 21
836.514277659518
 31
0.0
  0
LINE
  5
1AB8
330
1D
100
AcDbEntity
  8
0
100
AcDbLine
 10
29.139297160638
 20
845.476040586751
 30
0.0
 11
29.723558364182
 21
845.219455131136
 31
0.0
  0
LINE
  5
1AB9
330
1D
100
AcDbEntity
  8
0
100
AcDbLine
 10
19.41586687619
 20
852.539991717916
 30
0.0
 11
19.786358538467
 21
851.993486285021
 31
0.0
  0
LINE
  5
1ABA
330
1D
100
AcDbEntity
  8
0
100
AcDbLine
 10
19.41586687619
 20
852.539991717916
 30
0.0
 11
19.957850535764
 21
851.943968360358
 31
0.0
  0
LINE
  5
1ABB
330
1D
100
AcDbEntity
  8
0
100
AcDbLine
 10
38.624510311316
 20
834.445639460037
 30
0.0
 11
39.533902758337
 21
833.80480403167
 31
0.0
  0
LINE
  5
1ABC
330
1D
100
AcDbEntity
  8
0
100
AcDbLine
 10
38.624510311316
 20
834.445639460037
 30
0.0
 11
38.913848212518
 21
834.365659099762
 31
0.0
  0
LINE
  5
1ABD
330
1D
100
AcDbEntity
  8
0
100
AcDbLine
 10
39.807827922379
 20
836.266262419727
 30
0.0
 11
41.267088109753
 21
837.42030931456
 31
0.0
  0
LINE
  5
1ABE
330
1D
100
AcDbEntity
  8
0
100
AcDbLine
 10
40.011374490308
 20
836.543221269891
 30
0.0
 11
39.807827922379
 21
836.266262419727
 31
0.0
  0
LINE
  5
1ABF
330
1D
100
AcDbEntity
  8
0
100
AcDbLine
 10
40.011374490308
 20
836.543221269891
 30
0.0
 11
41.089706119746
 21
837.658408445803
 31
0.0
  0
LINE
  5
1AC0
330
1D
100
AcDbEntity
  8
0
100
AcDbLine
 10
38.687294637835
 20
834.56372801327
 30
0.0
 11
38.624510311316
 21
834.445639460037
 31
0.0
  0
LINE
  5
1AC1
330
1D
100
AcDbEntity
  8
0
100
AcDbLine
 10
38.663042793979
 20
834.58493066421
 30
0.0
 11
38.624510311316
 21
834.445639460037
 31
0.0
  0
LINE
  5
1AC2
330
1D
100
AcDbEntity
  8
0
100
AcDbLine
 10
38.550632142874
 20
834.683207884344
 30
0.0
 11
39.156751413175
 21
834.197066433561
 31
0.0
  0
LINE
  5
1AC3
330
1D
100
AcDbEntity
  8
0
100
AcDbLine
 10
38.550632142874
 20
834.683207884344
 30
0.0
 11
39.567639387245
 21
833.79406932096
 31
0.0
  0
LINE
  5
1AC4
330
1D
100
AcDbEntity
  8
0
100
AcDbLine
 10
38.353463319552
 20
834.810403737696
 30
0.0
 11
38.550632142874
 21
834.683207884344
 31
0.0
  0
LINE
  5
1AC5
330
1D
100
AcDbEntity
  8
0
100
AcDbLine
 10
0.617239809842
 20
897.555819281345
 30
0.0
 11
1.571437256787
 21
897.63042814304
 31
0.0
  0
LINE
  5
1AC6
330
1D
100
AcDbEntity
  8
0
100
AcDbLine
 10
-3.158549855218
 20
892.058789410112
 30
0.0
 11
-3.812394436275
 21
890.562379097457
 31
0.0
  0
LINE
  5
1AC7
330
1D
100
AcDbEntity
  8
0
100
AcDbLine
 10
-3.812394436275
 20
890.562379097457
 30
0.0
 11
-4.113528779721
 21
889.2825126563
 31
0.0
  0
LINE
  5
1AC8
330
1D
100
AcDbEntity
  8
0
100
AcDbLine
 10
-1.723076945083
 20
894.67495067507
 30
0.0
 11
-3.158549855218
 21
892.058789410112
 31
0.0
  0
LINE
  5
1AC9
330
1D
100
AcDbEntity
  8
0
100
AcDbLine
 10
1.571437256787
 20
897.63042814304
 30
0.0
 11
2.455477579986
 21
897.235607491403
 31
0.0
  0
LINE
  5
1ACA
330
1D
100
AcDbEntity
  8
0
100
AcDbLine
 10
-4.113528779721
 20
889.2825126563
 30
0.0
 11
-4.085748349305
 21
889.130488948656
 31
0.0
  0
LINE
  5
1ACB
330
1D
100
AcDbEntity
  8
0
100
AcDbLine
 10
2.455477579986
 20
897.235607491403
 30
0.0
 11
9.771213257816
 21
892.72273062048
 31
0.0
  0
LINE
  5
1ACC
330
1D
100
AcDbEntity
  8
0
100
AcDbLine
 10
9.771213257816
 20
892.72273062048
 30
0.0
 11
17.005402402228
 21
888.062887212931
 31
0.0
  0
LINE
  5
1ACD
330
1D
100
AcDbEntity
  8
0
100
AcDbLine
 10
17.005402402228
 20
888.062887212931
 30
0.0
 11
24.008699491942
 21
883.35345732459
 31
0.0
  0
LINE
  5
1ACE
330
1D
100
AcDbEntity
  8
0
100
AcDbLine
 10
31.373164694986
 20
878.277920233487
 30
0.0
 11
44.437523855393
 21
868.913831424751
 31
0.0
  0
LINE
  5
1ACF
330
1D
100
AcDbEntity
  8
0
100
AcDbLine
 10
24.008699491942
 20
883.35345732459
 30
0.0
 11
31.373164694986
 21
878.277920233487
 31
0.0
  0
LINE
  5
1AD0
330
1D
100
AcDbEntity
  8
0
100
AcDbLine
 10
2.455477579986
 20
897.235607491403
 30
0.0
 11
9.771213257816
 21
892.72273062048
 31
0.0
  0
LINE
  5
1AD1
330
1D
100
AcDbEntity
  8
0
100
AcDbLine
 10
-4.085748349305
 20
889.130488948656
 30
0.0
 11
-4.008242661341
 21
889.029946876202
 31
0.0
  0
LINE
  5
1AD2
330
1D
100
AcDbEntity
  8
0
100
AcDbLine
 10
0.617239809842
 20
897.555819281345
 30
0.0
 11
1.571437256787
 21
897.63042814304
 31
0.0
  0
LINE
  5
1AD3
330
1D
100
AcDbEntity
  8
0
100
AcDbLine
 10
57.134656379586
 20
859.319010221985
 30
0.0
 11
63.429611871592
 21
854.372143982266
 31
0.0
  0
LINE
  5
1AD4
330
1D
100
AcDbEntity
  8
0
100
AcDbLine
 10
44.437523855393
 20
868.913831424751
 30
0.0
 11
57.134656379586
 21
859.319010221985
 31
0.0
  0
LINE
  5
1AD5
330
1D
100
AcDbEntity
  8
0
100
AcDbLine
 10
43.769791536982
 20
829.676434418439
 30
0.0
 11
49.656514120823
 21
824.767956362982
 31
0.0
  0
LINE
  5
1AD6
330
1D
100
AcDbEntity
  8
0
100
AcDbLine
 10
39.786828587171
 20
833.541744402183
 30
0.0
 11
40.429052947735
 21
833.315499223896
 31
0.0
  0
LINE
  5
1AD7
330
1D
100
AcDbEntity
  8
0
100
AcDbLine
 10
47.023632750478
 20
827.305646623768
 30
0.0
 11
47.333258239047
 21
827.046753775609
 31
0.0
  0
LINE
  5
1AD8
330
1D
100
AcDbEntity
  8
0
100
AcDbLine
 10
47.023632750478
 20
827.305646623768
 30
0.0
 11
47.273241100375
 21
827.275171688798
 31
0.0
  0
LINE
  5
1AD9
330
1D
100
AcDbEntity
  8
0
100
AcDbLine
 10
47.333258239047
 20
827.046753775609
 30
0.0
 11
47.524676172818
 21
826.900102915977
 31
0.0
  0
LINE
  5
1ADA
330
1D
100
AcDbEntity
  8
0
100
AcDbLine
 10
47.333258239047
 20
827.046753775609
 30
0.0
 11
47.749579253594
 21
826.743108220978
 31
0.0
  0
LINE
  5
1ADB
330
1D
100
AcDbEntity
  8
0
100
AcDbLine
 10
49.656514120823
 20
824.767956362982
 30
0.0
 11
52.022073666703
 21
822.802336248388
 31
0.0
  0
LINE
  5
1ADC
330
1D
100
AcDbEntity
  8
0
100
AcDbLine
 10
52.338119080337
 20
822.548760783248
 30
0.0
 11
52.734229389997
 21
822.231919115249
 31
0.0
  0
LINE
  5
1ADD
330
1D
100
AcDbEntity
  8
0
100
AcDbLine
 10
52.096899508462
 20
822.742160726745
 30
0.0
 11
52.338119080337
 21
822.548760783248
 31
0.0
  0
LINE
  5
1ADE
330
1D
100
AcDbEntity
  8
0
100
AcDbLine
 10
52.734229389997
 20
822.231919115249
 30
0.0
 11
53.265436538757
 21
821.806939368547
 31
0.0
  0
LINE
  5
1ADF
330
1D
100
AcDbEntity
  8
0
100
AcDbLine
 10
53.265436538757
 20
821.806939368547
 30
0.0
 11
53.906473385675
 21
821.294892651056
 31
0.0
  0
LINE
  5
1AE0
330
1D
100
AcDbEntity
  8
0
100
AcDbLine
 10
53.906473385675
 20
821.294892651056
 30
0.0
 11
54.987948139837
 21
820.432333594464
 31
0.0
  0
LINE
  5
1AE1
330
1D
100
AcDbEntity
  8
0
100
AcDbLine
 10
53.906473385675
 20
821.294892651056
 30
0.0
 11
54.194644104344
 21
821.077463408764
 31
0.0
  0
LINE
  5
1AE2
330
1D
100
AcDbEntity
  8
0
100
AcDbLine
 10
52.295261475522
 20
822.593628657655
 30
0.0
 11
52.338119080337
 21
822.548760783248
 31
0.0
  0
LINE
  5
1AE3
330
1D
100
AcDbEntity
  8
0
100
AcDbLine
 10
52.022073666703
 20
822.802336248388
 30
0.0
 11
52.096899508462
 21
822.742160726745
 31
0.0
  0
LINE
  5
1AE4
330
1D
100
AcDbEntity
  8
0
100
AcDbLine
 10
54.987948139837
 20
820.432333594464
 30
0.0
 11
56.15690251906
 21
819.495587172374
 31
0.0
  0
LINE
  5
1AE5
330
1D
100
AcDbEntity
  8
0
100
AcDbLine
 10
56.893325150867
 20
818.907418499831
 30
0.0
 11
57.893975989554
 21
818.10706550956
 31
0.0
  0
LINE
  5
1AE6
330
1D
100
AcDbEntity
  8
0
100
AcDbLine
 10
56.15690251906
 20
819.495587172374
 30
0.0
 11
56.893325150867
 21
818.907418499831
 31
0.0
  0
LINE
  5
1AE7
330
1D
100
AcDbEntity
  8
0
100
AcDbLine
 10
53.986731469642
 20
821.34137963803
 30
0.0
 11
54.723089694919
 21
820.741777424836
 31
0.0
  0
LINE
  5
1AE8
330
1D
100
AcDbEntity
  8
0
100
AcDbLine
 10
53.986731469642
 20
821.34137963803
 30
0.0
 11
54.055466528404
 21
821.343836394928
 31
0.0
  0
LINE
  5
1AE9
330
1D
100
AcDbEntity
  8
0
100
AcDbLine
 10
57.893975989554
 20
818.10706550956
 30
0.0
 11
58.570666505476
 21
817.56719046322
 31
0.0
  0
LINE
  5
1AEA
330
1D
100
AcDbEntity
  8
0
100
AcDbLine
 10
58.570666505476
 20
817.56719046322
 30
0.0
 11
58.888886795606
 21
817.313095467304
 31
0.0
  0
LINE
  5
1AEB
330
1D
100
AcDbEntity
  8
0
100
AcDbLine
 10
58.888886795606
 20
817.313095467304
 30
0.0
 11
58.997107800434
 21
817.227378350495
 31
0.0
  0
LINE
  5
1AEC
330
1D
100
AcDbEntity
  8
0
100
AcDbLine
 10
58.997107800434
 20
817.227378350495
 30
0.0
 11
59.497230601847
 21
816.887158965055
 31
0.0
  0
LINE
  5
1AED
330
1D
100
AcDbEntity
  8
0
100
AcDbLine
 10
53.983924247492
 20
821.408352837922
 30
0.0
 11
54.544625927736
 21
821.042170307247
 31
0.0
  0
LINE
  5
1AEE
330
1D
100
AcDbEntity
  8
0
100
AcDbLine
 10
53.983924247492
 20
821.408352837922
 30
0.0
 11
53.986731469642
 21
821.34137963803
 31
0.0
  0
LINE
  5
1AEF
330
1D
100
AcDbEntity
  8
0
100
AcDbLine
 10
53.983924247492
 20
821.408352837922
 30
0.0
 11
54.723089694919
 21
820.741777424836
 31
0.0
  0
LINE
  5
1AF0
330
1D
100
AcDbEntity
  8
0
100
AcDbLine
 10
54.723089694919
 20
820.741777424836
 30
0.0
 11
55.298728911567
 21
820.419513120837
 31
0.0
  0
LINE
  5
1AF1
330
1D
100
AcDbEntity
  8
0
100
AcDbLine
 10
54.723089694919
 20
820.741777424836
 30
0.0
 11
54.816687532984
 21
820.832690904062
 31
0.0
  0
LINE
  5
1AF2
330
1D
100
AcDbEntity
  8
0
100
AcDbLine
 10
60.620852386883
 20
815.690884075212
 30
0.0
 11
61.357647822844
 21
815.133340735598
 31
0.0
  0
LINE
  5
1AF3
330
1D
100
AcDbEntity
  8
0
100
AcDbLine
 10
60.160719058648
 20
816.044216058264
 30
0.0
 11
60.6163823529
 21
815.731392949094
 31
0.0
  0
LINE
  5
1AF4
330
1D
100
AcDbEntity
  8
0
100
AcDbLine
 10
60.160719058648
 20
816.044216058264
 30
0.0
 11
60.254739153414
 21
816.049352312417
 31
0.0
  0
LINE
  5
1AF5
330
1D
100
AcDbEntity
  8
0
100
AcDbLine
 10
60.160719058648
 20
816.044216058264
 30
0.0
 11
60.227092807329
 21
816.067606143103
 31
0.0
  0
LINE
  5
1AF6
330
1D
100
AcDbEntity
  8
0
100
AcDbLine
 10
60.160719058648
 20
816.044216058264
 30
0.0
 11
60.210722008681
 21
816.078415158726
 31
0.0
  0
LINE
  5
1AF7
330
1D
100
AcDbEntity
  8
0
100
AcDbLine
 10
59.930138212502
 20
816.26367396628
 30
0.0
 11
60.606958456486
 21
815.816795304588
 31
0.0
  0
LINE
  5
1AF8
330
1D
100
AcDbEntity
  8
0
100
AcDbLine
 10
59.930138212502
 20
816.26367396628
 30
0.0
 11
60.160719058648
 21
816.044216058264
 31
0.0
  0
LINE
  5
1AF9
330
1D
100
AcDbEntity
  8
0
100
AcDbLine
 10
54.544625927736
 20
821.042170307247
 30
0.0
 11
54.835433354217
 21
820.818257175199
 31
0.0
  0
LINE
  5
1AFA
330
1D
100
AcDbEntity
  8
0
100
AcDbLine
 10
54.544625927736
 20
821.042170307247
 30
0.0
 11
54.999818273036
 21
820.67677619623
 31
0.0
  0
LINE
  5
1AFB
330
1D
100
AcDbEntity
  8
0
100
AcDbLine
 10
54.835433354217
 20
820.818257175199
 30
0.0
 11
55.458807591858
 21
820.281738387228
 31
0.0
  0
LINE
  5
1AFC
330
1D
100
AcDbEntity
  8
0
100
AcDbLine
 10
47.682836774951
 20
826.867719731799
 30
0.0
 11
47.749579253594
 21
826.743108220978
 31
0.0
  0
LINE
  5
1AFD
330
1D
100
AcDbEntity
  8
0
100
AcDbLine
 10
54.848011459112
 20
820.808355595665
 30
0.0
 11
55.851191842162
 21
820.304426712723
 31
0.0
  0
LINE
  5
1AFE
330
1D
100
AcDbEntity
  8
0
100
AcDbLine
 10
59.497230601847
 20
816.887158965055
 30
0.0
 11
60.579736795515
 21
816.063486679943
 31
0.0
  0
LINE
  5
1AFF
330
1D
100
AcDbEntity
  8
0
100
AcDbLine
 10
60.0470599391
 20
816.468797214068
 30
0.0
 11
59.930138212502
 21
816.26367396628
 31
0.0
  0
LINE
  5
1B00
330
1D
100
AcDbEntity
  8
0
100
AcDbLine
 10
55.458807591858
 20
820.281738387228
 30
0.0
 11
56.077143754783
 21
819.924502163394
 31
0.0
  0
LINE
  5
1B01
330
1D
100
AcDbEntity
  8
0
100
AcDbLine
 10
55.083075659271
 20
820.690275495807
 30
0.0
 11
55.458807591858
 21
820.281738387228
 31
0.0
  0
LINE
  5
1B02
330
1D
100
AcDbEntity
  8
0
100
AcDbLine
 10
47.749579253594
 20
826.743108220978
 30
0.0
 11
48.366472385529
 21
826.398309346603
 31
0.0
  0
LINE
  5
1B03
330
1D
100
AcDbEntity
  8
0
100
AcDbLine
 10
47.749579253594
 20
826.743108220978
 30
0.0
 11
47.841806214935
 21
826.709582296654
 31
0.0
  0
LINE
  5
1B04
330
1D
100
AcDbEntity
  8
0
100
AcDbLine
 10
47.524676172818
 20
826.900102915977
 30
0.0
 11
47.749579253594
 21
826.743108220978
 31
0.0
  0
LINE
  5
1B05
330
1D
100
AcDbEntity
  8
0
100
AcDbLine
 10
47.301069493198
 20
827.247488942569
 30
0.0
 11
47.319942433314
 21
827.129793683394
 31
0.0
  0
LINE
  5
1B06
330
1D
100
AcDbEntity
  8
0
100
AcDbLine
 10
47.273241100375
 20
827.275171688798
 30
0.0
 11
47.841806214935
 21
826.709582296654
 31
0.0
  0
LINE
  5
1B07
330
1D
100
AcDbEntity
  8
0
100
AcDbLine
 10
47.273241100375
 20
827.275171688798
 30
0.0
 11
47.333258239047
 21
827.046753775609
 31
0.0
  0
LINE
  5
1B08
330
1D
100
AcDbEntity
  8
0
100
AcDbLine
 10
46.961062087739
 20
827.532421516921
 30
0.0
 11
47.273241100375
 21
827.275171688798
 31
0.0
  0
LINE
  5
1B09
330
1D
100
AcDbEntity
  8
0
100
AcDbLine
 10
46.961062087739
 20
827.532421516921
 30
0.0
 11
47.333258239047
 21
827.046753775609
 31
0.0
  0
LINE
  5
1B0A
330
1D
100
AcDbEntity
  8
0
100
AcDbLine
 10
46.961062087739
 20
827.532421516921
 30
0.0
 11
47.524676172818
 21
826.900102915977
 31
0.0
  0
LINE
  5
1B0B
330
1D
100
AcDbEntity
  8
0
100
AcDbLine
 10
46.898438353648
 20
827.581313928689
 30
0.0
 11
46.961062087739
 21
827.532421516921
 31
0.0
  0
LINE
  5
1B0C
330
1D
100
AcDbEntity
  8
0
100
AcDbLine
 10
46.898438353648
 20
827.581313928689
 30
0.0
 11
47.023632750478
 21
827.305646623768
 31
0.0
  0
LINE
  5
1B0D
330
1D
100
AcDbEntity
  8
0
100
AcDbLine
 10
39.156751413175
 20
834.197066433561
 30
0.0
 11
39.567639387245
 21
833.79406932096
 31
0.0
  0
LINE
  5
1B0E
330
1D
100
AcDbEntity
  8
0
100
AcDbLine
 10
39.156751413175
 20
834.197066433561
 30
0.0
 11
39.786828587171
 21
833.541744402183
 31
0.0
  0
LINE
  5
1B0F
330
1D
100
AcDbEntity
  8
0
100
AcDbLine
 10
48.366472385529
 20
826.398309346603
 30
0.0
 11
49.196387934517
 21
827.221030091248
 31
0.0
  0
LINE
  5
1B10
330
1D
100
AcDbEntity
  8
0
100
AcDbLine
 10
56.077143754783
 20
819.924502163394
 30
0.0
 11
56.835972850794
 21
820.704030608261
 31
0.0
  0
LINE
  5
1B11
330
1D
100
AcDbEntity
  8
0
100
AcDbLine
 10
40.429052947735
 20
833.315499223896
 30
0.0
 11
41.140796808395
 21
834.053101782789
 31
0.0
  0
LINE
  5
1B12
330
1D
100
AcDbEntity
  8
0
100
AcDbLine
 10
48.267248875167
 20
826.671635058879
 30
0.0
 11
48.366472385529
 21
826.398309346603
 31
0.0
  0
LINE
  5
1B13
330
1D
100
AcDbEntity
  8
0
100
AcDbLine
 10
48.267248875167
 20
826.671635058879
 30
0.0
 11
49.059456729255
 21
827.364762994438
 31
0.0
  0
LINE
  5
1B14
330
1D
100
AcDbEntity
  8
0
100
AcDbLine
 10
47.007159188081
 20
827.703259326963
 30
0.0
 11
48.267248875167
 21
826.671635058879
 31
0.0
  0
LINE
  5
1B15
330
1D
100
AcDbEntity
  8
0
100
AcDbLine
 10
47.007159188081
 20
827.703259326963
 30
0.0
 11
47.784782814869
 21
828.505447072665
 31
0.0
  0
LINE
  5
1B16
330
1D
100
AcDbEntity
  8
0
100
AcDbLine
 10
60.846901566301
 20
815.973502649415
 30
0.0
 11
62.227206170264
 21
814.809937395431
 31
0.0
  0
LINE
  5
1B17
330
1D
100
AcDbEntity
  8
0
100
AcDbLine
 10
60.67183838768
 20
816.137020160784
 30
0.0
 11
60.846901566301
 21
815.973502649415
 31
0.0
  0
LINE
  5
1B18
330
1D
100
AcDbEntity
  8
0
100
AcDbLine
 10
60.552321523028
 20
816.311932624602
 30
0.0
 11
61.357647822844
 21
815.133340735598
 31
0.0
  0
LINE
  5
1B19
330
1D
100
AcDbEntity
  8
0
100
AcDbLine
 10
60.552321523028
 20
816.311932624602
 30
0.0
 11
60.620852386883
 21
815.690884075212
 31
0.0
  0
LINE
  5
1B1A
330
1D
100
AcDbEntity
  8
0
100
AcDbLine
 10
55.851191842162
 20
820.304426712723
 30
0.0
 11
56.077143754783
 21
819.924502163394
 31
0.0
  0
LINE
  5
1B1B
330
1D
100
AcDbEntity
  8
0
100
AcDbLine
 10
53.855610080128
 20
821.832451935367
 30
0.0
 11
55.851191842162
 21
820.304426712723
 31
0.0
  0
LINE
  5
1B1C
330
1D
100
AcDbEntity
  8
0
100
AcDbLine
 10
53.855610080128
 20
821.832451935367
 30
0.0
 11
53.986731469642
 21
821.34137963803
 31
0.0
  0
LINE
  5
1B1D
330
1D
100
AcDbEntity
  8
0
100
AcDbLine
 10
53.855610080128
 20
821.832451935367
 30
0.0
 11
54.507191861033
 21
822.59117526733
 31
0.0
  0
LINE
  5
1B1E
330
1D
100
AcDbEntity
  8
0
100
AcDbLine
 10
39.567639387245
 20
833.79406932096
 30
0.0
 11
39.786828587171
 21
833.541744402183
 31
0.0
  0
LINE
  5
1B1F
330
1D
100
AcDbEntity
  8
0
100
AcDbLine
 10
46.167478075525
 20
828.213329752705
 30
0.0
 11
46.898438353648
 21
827.581313928689
 31
0.0
  0
LINE
  5
1B20
330
1D
100
AcDbEntity
  8
0
100
AcDbLine
 10
46.167478075525
 20
828.213329752705
 30
0.0
 11
47.007159188081
 21
827.703259326963
 31
0.0
  0
LINE
  5
1B21
330
1D
100
AcDbEntity
  8
0
100
AcDbLine
 10
46.167478075525
 20
828.213329752705
 30
0.0
 11
47.023632750478
 21
827.305646623768
 31
0.0
  0
LINE
  5
1B22
330
1D
100
AcDbEntity
  8
0
100
AcDbLine
 10
65.289128847969
 20
811.745637491712
 30
0.0
 11
65.609062028244
 21
811.375913342538
 31
0.0
  0
LINE
  5
1B23
330
1D
100
AcDbEntity
  8
0
100
AcDbLine
 10
64.374566815439
 20
812.4451962469
 30
0.0
 11
64.437773742663
 21
812.497147363641
 31
0.0
  0
LINE
  5
1B24
330
1D
100
AcDbEntity
  8
0
100
AcDbLine
 10
64.374566815439
 20
812.4451962469
 30
0.0
 11
64.517521319187
 21
812.437195060909
 31
0.0
  0
LINE
  5
1B25
330
1D
100
AcDbEntity
  8
0
100
AcDbLine
 10
64.259707247971
 20
812.423435507915
 30
0.0
 11
64.374566815439
 21
812.4451962469
 31
0.0
  0
LINE
  5
1B26
330
1D
100
AcDbEntity
  8
0
100
AcDbLine
 10
64.259707247971
 20
812.423435507915
 30
0.0
 11
65.517619057724
 21
811.595193581371
 31
0.0
  0
LINE
  5
1B27
330
1D
100
AcDbEntity
  8
0
100
AcDbLine
 10
64.259707247971
 20
812.423435507915
 30
0.0
 11
64.544179271228
 21
812.417154256153
 31
0.0
  0
LINE
  5
1B28
330
1D
100
AcDbEntity
  8
0
100
AcDbLine
 10
61.011677117656
 20
815.389834577926
 30
0.0
 11
61.089436394188
 21
815.336300048804
 31
0.0
  0
LINE
  5
1B29
330
1D
100
AcDbEntity
  8
0
100
AcDbLine
 10
61.334029199689
 20
815.16790649818
 30
0.0
 11
61.668563101862
 21
814.937591663384
 31
0.0
  0
LINE
  5
1B2A
330
1D
100
AcDbEntity
  8
0
100
AcDbLine
 10
61.66907733195
 20
814.938204498939
 30
0.0
 11
62.303845771202
 21
814.661691445847
 31
0.0
  0
LINE
  5
1B2B
330
1D
100
AcDbEntity
  8
0
100
AcDbLine
 10
61.668563101862
 20
814.937591663384
 30
0.0
 11
62.303845771202
 21
814.661691445847
 31
0.0
  0
LINE
  5
1B2C
330
1D
100
AcDbEntity
  8
0
100
AcDbLine
 10
65.414349832218
 20
811.79146797709
 30
0.0
 11
65.517619057724
 21
811.595193581371
 31
0.0
  0
LINE
  5
1B2D
330
1D
100
AcDbEntity
  8
0
100
AcDbLine
 10
65.439988159573
 20
811.646307788381
 30
0.0
 11
65.479703178633
 21
811.609124701668
 31
0.0
  0
LINE
  5
1B2E
330
1D
100
AcDbEntity
  8
0
100
AcDbLine
 10
65.199794083848
 20
811.924278868159
 30
0.0
 11
66.335598664906
 21
811.221211159011
 31
0.0
  0
LINE
  5
1B2F
330
1D
100
AcDbEntity
  8
0
100
AcDbLine
 10
65.479703178633
 20
811.609124701668
 30
0.0
 11
65.600169015479
 21
811.396429539163
 31
0.0
  0
LINE
  5
1B30
330
1D
100
AcDbEntity
  8
0
100
AcDbLine
 10
65.479703178633
 20
811.609124701668
 30
0.0
 11
66.631431775953
 21
810.655894274062
 31
0.0
  0
LINE
  5
1B31
330
1D
100
AcDbEntity
  8
0
100
AcDbLine
 10
64.296871580384
 20
812.603074207521
 30
0.0
 11
64.259707247971
 21
812.423435507915
 31
0.0
  0
LINE
  5
1B32
330
1D
100
AcDbEntity
  8
0
100
AcDbLine
 10
64.296871580384
 20
812.603074207521
 30
0.0
 11
65.199794083848
 21
811.924278868159
 31
0.0
  0
LINE
  5
1B33
330
1D
100
AcDbEntity
  8
0
100
AcDbLine
 10
64.296871580384
 20
812.603074207521
 30
0.0
 11
64.352138608733
 21
812.588516109081
 31
0.0
  0
LINE
  5
1B34
330
1D
100
AcDbEntity
  8
0
100
AcDbLine
 10
63.696341113675
 20
813.102410175135
 30
0.0
 11
64.259707247971
 21
812.423435507915
 31
0.0
  0
LINE
  5
1B35
330
1D
100
AcDbEntity
  8
0
100
AcDbLine
 10
63.696341113675
 20
813.102410175135
 30
0.0
 11
64.296871580384
 21
812.603074207521
 31
0.0
  0
LINE
  5
1B36
330
1D
100
AcDbEntity
  8
0
100
AcDbLine
 10
63.696341113675
 20
813.102410175135
 30
0.0
 11
64.227289966977
 21
812.963531360419
 31
0.0
  0
LINE
  5
1B37
330
1D
100
AcDbEntity
  8
0
100
AcDbLine
 10
63.696341113675
 20
813.102410175135
 30
0.0
 11
64.309951889933
 21
812.62157433913
 31
0.0
  0
LINE
  5
1B38
330
1D
100
AcDbEntity
  8
0
100
AcDbLine
 10
65.609062028244
 20
811.375913342538
 30
0.0
 11
67.25982876179
 21
810.143096615925
 31
0.0
  0
LINE
  5
1B39
330
1D
100
AcDbEntity
  8
0
100
AcDbLine
 10
65.609062028244
 20
811.375913342538
 30
0.0
 11
66.922646620483
 21
810.408664109387
 31
0.0
  0
LINE
  5
1B3A
330
1D
100
AcDbEntity
  8
0
100
AcDbLine
 10
65.600169015479
 20
811.396429539163
 30
0.0
 11
66.631431775953
 21
810.655894274062
 31
0.0
  0
LINE
  5
1B3B
330
1D
100
AcDbEntity
  8
0
100
AcDbLine
 10
65.600169015479
 20
811.396429539163
 30
0.0
 11
67.25982876179
 21
810.143096615925
 31
0.0
  0
LINE
  5
1B3C
330
1D
100
AcDbEntity
  8
0
100
AcDbLine
 10
65.600169015479
 20
811.396429539163
 30
0.0
 11
66.922646620483
 21
810.408664109387
 31
0.0
  0
LINE
  5
1B3D
330
1D
100
AcDbEntity
  8
0
100
AcDbLine
 10
67.019644675086
 20
810.336019306384
 30
0.0
 11
67.25982876179
 21
810.143096615925
 31
0.0
  0
LINE
  5
1B3E
330
1D
100
AcDbEntity
  8
0
100
AcDbLine
 10
67.25982876179
 20
810.143096615925
 30
0.0
 11
67.620155823933
 21
810.076241785974
 31
0.0
  0
LINE
  5
1B3F
330
1D
100
AcDbEntity
  8
0
100
AcDbLine
 10
66.631431775953
 20
810.655894274062
 30
0.0
 11
67.620155823933
 21
810.076241785974
 31
0.0
  0
LINE
  5
1B40
330
1D
100
AcDbEntity
  8
0
100
AcDbLine
 10
66.631431775953
 20
810.655894274062
 30
0.0
 11
66.922646620483
 21
810.408664109387
 31
0.0
  0
LINE
  5
1B41
330
1D
100
AcDbEntity
  8
0
100
AcDbLine
 10
66.922646620483
 20
810.408664109387
 30
0.0
 11
67.019644675086
 21
810.336019306384
 31
0.0
  0
LINE
  5
1B42
330
1D
100
AcDbEntity
  8
0
100
AcDbLine
 10
65.517619057724
 20
811.595193581371
 30
0.0
 11
66.335598664906
 21
811.221211159011
 31
0.0
  0
LINE
  5
1B43
330
1D
100
AcDbEntity
  8
0
100
AcDbLine
 10
67.620155823933
 20
810.076241785974
 30
0.0
 11
68.285463633869
 21
810.743462529395
 31
0.0
  0
LINE
  5
1B44
330
1D
100
AcDbEntity
  8
0
100
AcDbLine
 10
67.620155823933
 20
810.076241785974
 30
0.0
 11
68.308239092351
 21
810.726378950249
 31
0.0
  0
LINE
  5
1B45
330
1D
100
AcDbEntity
  8
0
100
AcDbLine
 10
67.620155823933
 20
810.076241785974
 30
0.0
 11
68.285463633869
 21
810.743462529395
 31
0.0
  0
LINE
  5
1B46
330
1D
100
AcDbEntity
  8
0
100
AcDbLine
 10
61.136092381699
 20
815.457586256895
 30
0.0
 11
61.850425023009
 21
814.970750849697
 31
0.0
  0
LINE
  5
1B47
330
1D
100
AcDbEntity
  8
0
100
AcDbLine
 10
60.876239971779
 20
815.83787924216
 30
0.0
 11
62.227206170264
 21
814.809937395431
 31
0.0
  0
LINE
  5
1B48
330
1D
100
AcDbEntity
  8
0
100
AcDbLine
 10
62.227206170264
 20
814.809937395431
 30
0.0
 11
62.861683008345
 21
814.598417226325
 31
0.0
  0
LINE
  5
1B49
330
1D
100
AcDbEntity
  8
0
100
AcDbLine
 10
62.303845771202
 20
814.661691445847
 30
0.0
 11
62.391861498957
 21
814.7550450481
 31
0.0
  0
LINE
  5
1B4A
330
1D
100
AcDbEntity
  8
0
100
AcDbLine
 10
66.335598664906
 20
811.221211159011
 30
0.0
 11
66.777154286924
 21
811.664842073583
 31
0.0
  0
LINE
  5
1B4B
330
1D
100
AcDbEntity
  8
0
100
AcDbLine
 10
61.850425023009
 20
814.970750849697
 30
0.0
 11
62.303845771202
 21
814.661691445847
 31
0.0
  0
LINE
  5
1B4C
330
1D
100
AcDbEntity
  8
0
100
AcDbLine
 10
64.227289966977
 20
812.963531360419
 30
0.0
 11
65.199794083848
 21
811.924278868159
 31
0.0
  0
LINE
  5
1B4D
330
1D
100
AcDbEntity
  8
0
100
AcDbLine
 10
72.5005028653
 20
806.3978303903
 30
0.0
 11
73.424629377199
 21
805.817424024031
 31
0.0
  0
LINE
  5
1B4E
330
1D
100
AcDbEntity
  8
0
100
AcDbLine
 10
72.5005028653
 20
806.3978303903
 30
0.0
 11
73.408453002687
 21
805.785699980977
 31
0.0
  0
LINE
  5
1B4F
330
1D
100
AcDbEntity
  8
0
100
AcDbLine
 10
72.5005028653
 20
806.3978303903
 30
0.0
 11
74.255690781289
 21
805.280123640045
 31
0.0
  0
LINE
  5
1B50
330
1D
100
AcDbEntity
  8
0
100
AcDbLine
 10
65.559661311359
 20
811.70151957359
 30
0.0
 11
65.517619057724
 21
811.595193581371
 31
0.0
  0
LINE
  5
1B51
330
1D
100
AcDbEntity
  8
0
100
AcDbLine
 10
51.751555503487
 20
824.298252667089
 30
0.0
 11
51.902795378646
 21
824.164882005418
 31
0.0
  0
LINE
  5
1B52
330
1D
100
AcDbEntity
  8
0
100
AcDbLine
 10
51.965342636062
 20
824.127410808616
 30
0.0
 11
52.008045597928
 21
824.09749079071
 31
0.0
  0
LINE
  5
1B53
330
1D
100
AcDbEntity
  8
0
100
AcDbLine
 10
51.965342636062
 20
824.127410808616
 30
0.0
 11
52.439072726259
 21
823.75496788461
 31
0.0
  0
LINE
  5
1B54
330
1D
100
AcDbEntity
  8
0
100
AcDbLine
 10
51.064122641786
 20
824.847594932237
 30
0.0
 11
51.516368556001
 21
824.988450897946
 31
0.0
  0
LINE
  5
1B55
330
1D
100
AcDbEntity
  8
0
100
AcDbLine
 10
51.064122641786
 20
824.847594932237
 30
0.0
 11
51.352327752544
 21
824.668030057798
 31
0.0
  0
LINE
  5
1B56
330
1D
100
AcDbEntity
  8
0
100
AcDbLine
 10
51.064122641786
 20
824.847594932237
 30
0.0
 11
51.965342636062
 21
824.127410808616
 31
0.0
  0
LINE
  5
1B57
330
1D
100
AcDbEntity
  8
0
100
AcDbLine
 10
51.064122641786
 20
824.847594932237
 30
0.0
 11
52.439072726259
 21
823.75496788461
 31
0.0
  0
LINE
  5
1B58
330
1D
100
AcDbEntity
  8
0
100
AcDbLine
 10
52.439072726259
 20
823.75496788461
 30
0.0
 11
53.27032339025
 21
823.213070307927
 31
0.0
  0
LINE
  5
1B59
330
1D
100
AcDbEntity
  8
0
100
AcDbLine
 10
52.439072726259
 20
823.75496788461
 30
0.0
 11
52.540449086345
 21
823.850517082667
 31
0.0
  0
LINE
  5
1B5A
330
1D
100
AcDbEntity
  8
0
100
AcDbLine
 10
52.439072726259
 20
823.75496788461
 30
0.0
 11
52.597234063265
 21
823.800923063261
 31
0.0
  0
LINE
  5
1B5B
330
1D
100
AcDbEntity
  8
0
100
AcDbLine
 10
52.439072726259
 20
823.75496788461
 30
0.0
 11
52.610653180638
 21
823.789203273918
 31
0.0
  0
LINE
  5
1B5C
330
1D
100
AcDbEntity
  8
0
100
AcDbLine
 10
59.405271227596
 20
817.900495440404
 30
0.0
 11
59.852170283836
 21
817.541036953883
 31
0.0
  0
LINE
  5
1B5D
330
1D
100
AcDbEntity
  8
0
100
AcDbLine
 10
59.405271227596
 20
817.900495440404
 30
0.0
 11
59.45528990459
 21
817.935645813639
 31
0.0
  0
LINE
  5
1B5E
330
1D
100
AcDbEntity
  8
0
100
AcDbLine
 10
59.405271227596
 20
817.900495440404
 30
0.0
 11
59.569307838749
 21
817.859470365535
 31
0.0
  0
LINE
  5
1B5F
330
1D
100
AcDbEntity
  8
0
100
AcDbLine
 10
59.405271227596
 20
817.900495440404
 30
0.0
 11
59.470110589752
 21
817.925744105265
 31
0.0
  0
LINE
  5
1B60
330
1D
100
AcDbEntity
  8
0
100
AcDbLine
 10
59.405271227596
 20
817.900495440404
 30
0.0
 11
60.259238542113
 21
817.370735564859
 31
0.0
  0
LINE
  5
1B61
330
1D
100
AcDbEntity
  8
0
100
AcDbLine
 10
59.405271227596
 20
817.900495440404
 30
0.0
 11
59.455409945697
 21
817.935565614105
 31
0.0
  0
LINE
  5
1B62
330
1D
100
AcDbEntity
  8
0
100
AcDbLine
 10
39.669837636503
 20
834.099284290856
 30
0.0
 11
40.429052947735
 21
833.315499223896
 31
0.0
  0
LINE
  5
1B63
330
1D
100
AcDbEntity
  8
0
100
AcDbLine
 10
39.669837636503
 20
834.099284290856
 30
0.0
 11
40.367530338718
 21
834.822068505783
 31
0.0
  0
LINE
  5
1B64
330
1D
100
AcDbEntity
  8
0
100
AcDbLine
 10
59.864837592057
 20
817.61540277245
 30
0.0
 11
59.852170283836
 21
817.541036953883
 31
0.0
  0
LINE
  5
1B65
330
1D
100
AcDbEntity
  8
0
100
AcDbLine
 10
59.873148389081
 20
817.610247157331
 30
0.0
 11
59.852170283836
 21
817.541036953883
 31
0.0
  0
LINE
  5
1B66
330
1D
100
AcDbEntity
  8
0
100
AcDbLine
 10
59.864122873647
 20
817.615846149063
 30
0.0
 11
59.852170283836
 21
817.541036953883
 31
0.0
  0
LINE
  5
1B67
330
1D
100
AcDbEntity
  8
0
100
AcDbLine
 10
59.879523734904
 20
817.606292202204
 30
0.0
 11
59.852170283836
 21
817.541036953883
 31
0.0
  0
LINE
  5
1B68
330
1D
100
AcDbEntity
  8
0
100
AcDbLine
 10
59.84557921012
 20
817.627349737918
 30
0.0
 11
59.852170283836
 21
817.541036953883
 31
0.0
  0
LINE
  5
1B69
330
1D
100
AcDbEntity
  8
0
100
AcDbLine
 10
59.845517290582
 20
817.627388149795
 30
0.0
 11
59.852170283836
 21
817.541036953883
 31
0.0
  0
LINE
  5
1B6A
330
1D
100
AcDbEntity
  8
0
100
AcDbLine
 10
59.109706726192
 20
818.23557417072
 30
0.0
 11
59.127958094038
 21
818.154336386581
 31
0.0
  0
LINE
  5
1B6B
330
1D
100
AcDbEntity
  8
0
100
AcDbLine
 10
59.127958094038
 20
818.154336386581
 30
0.0
 11
59.955484038505
 21
817.601465821952
 31
0.0
  0
LINE
  5
1B6C
330
1D
100
AcDbEntity
  8
0
100
AcDbLine
 10
59.127958094038
 20
818.154336386581
 30
0.0
 11
60.076489077975
 21
817.887244880707
 31
0.0
  0
LINE
  5
1B6D
330
1D
100
AcDbEntity
  8
0
100
AcDbLine
 10
59.127958094038
 20
818.154336386581
 30
0.0
 11
59.405271227596
 21
817.900495440404
 31
0.0
  0
LINE
  5
1B6E
330
1D
100
AcDbEntity
  8
0
100
AcDbLine
 10
43.774255994399
 20
831.105242253181
 30
0.0
 11
44.824809376507
 21
830.461437965109
 31
0.0
  0
LINE
  5
1B6F
330
1D
100
AcDbEntity
  8
0
100
AcDbLine
 10
43.774255994399
 20
831.105242253181
 30
0.0
 11
44.400756646589
 21
831.010852355391
 31
0.0
  0
LINE
  5
1B70
330
1D
100
AcDbEntity
  8
0
100
AcDbLine
 10
43.774255994399
 20
831.105242253181
 30
0.0
 11
44.049830824461
 21
831.150362238066
 31
0.0
  0
LINE
  5
1B71
330
1D
100
AcDbEntity
  8
0
100
AcDbLine
 10
51.352327752544
 20
824.668030057798
 30
0.0
 11
52.062653910713
 21
824.267806733863
 31
0.0
  0
LINE
  5
1B72
330
1D
100
AcDbEntity
  8
0
100
AcDbLine
 10
60.57547369391
 20
816.920276011994
 30
0.0
 11
60.985182458187
 21
816.656511005835
 31
0.0
  0
LINE
  5
1B73
330
1D
100
AcDbEntity
  8
0
100
AcDbLine
 10
60.57547369391
 20
816.920276011994
 30
0.0
 11
60.659955630316
 21
816.976060961707
 31
0.0
  0
LINE
  5
1B74
330
1D
100
AcDbEntity
  8
0
100
AcDbLine
 10
60.985182458187
 20
816.656511005835
 30
0.0
 11
61.512447113747
 21
816.586516127468
 31
0.0
  0
LINE
  5
1B75
330
1D
100
AcDbEntity
  8
0
100
AcDbLine
 10
60.033324051989
 20
817.320235929692
 30
0.0
 11
60.57547369391
 21
816.920276011994
 31
0.0
  0
LINE
  5
1B76
330
1D
100
AcDbEntity
  8
0
100
AcDbLine
 10
60.033324051989
 20
817.320235929692
 30
0.0
 11
60.709377656535
 21
816.988846696643
 31
0.0
  0
LINE
  5
1B77
330
1D
100
AcDbEntity
  8
0
100
AcDbLine
 10
60.033324051989
 20
817.320235929692
 30
0.0
 11
60.235426501366
 21
817.385507399247
 31
0.0
  0
LINE
  5
1B78
330
1D
100
AcDbEntity
  8
0
100
AcDbLine
 10
60.015432938726
 20
817.334073489672
 30
0.0
 11
60.709377656535
 21
816.988846696643
 31
0.0
  0
LINE
  5
1B79
330
1D
100
AcDbEntity
  8
0
100
AcDbLine
 10
60.015432938726
 20
817.334073489672
 30
0.0
 11
60.221920566871
 21
817.393885825512
 31
0.0
  0
LINE
  5
1B7A
330
1D
100
AcDbEntity
  8
0
100
AcDbLine
 10
60.015432938726
 20
817.334073489672
 30
0.0
 11
60.826852695328
 21
816.883354776286
 31
0.0
  0
LINE
  5
1B7B
330
1D
100
AcDbEntity
  8
0
100
AcDbLine
 10
59.852170283836
 20
817.541036953883
 30
0.0
 11
60.015432938726
 21
817.334073489672
 31
0.0
  0
LINE
  5
1B7C
330
1D
100
AcDbEntity
  8
0
100
AcDbLine
 10
59.852170283836
 20
817.541036953883
 30
0.0
 11
59.907072191696
 21
817.589202476644
 31
0.0
  0
LINE
  5
1B7D
330
1D
100
AcDbEntity
  8
0
100
AcDbLine
 10
44.824809376507
 20
830.461437965109
 30
0.0
 11
45.775880642197
 21
831.329721294543
 31
0.0
  0
LINE
  5
1B7E
330
1D
100
AcDbEntity
  8
0
100
AcDbLine
 10
44.049830824461
 20
831.150362238066
 30
0.0
 11
44.530648567053
 21
831.044149487375
 31
0.0
  0
LINE
  5
1B7F
330
1D
100
AcDbEntity
  8
0
100
AcDbLine
 10
44.049830824461
 20
831.150362238066
 30
0.0
 11
44.400756646589
 21
831.010852355391
 31
0.0
  0
LINE
  5
1B80
330
1D
100
AcDbEntity
  8
0
100
AcDbLine
 10
43.633992094984
 20
831.658576100196
 30
0.0
 11
43.774255994399
 21
831.105242253181
 31
0.0
  0
LINE
  5
1B81
330
1D
100
AcDbEntity
  8
0
100
AcDbLine
 10
43.301774919659
 20
832.064592571893
 30
0.0
 11
44.049830824461
 21
831.150362238066
 31
0.0
  0
LINE
  5
1B82
330
1D
100
AcDbEntity
  8
0
100
AcDbLine
 10
40.29767253129
 20
834.888579891305
 30
0.0
 11
40.88916463126
 21
834.325422235161
 31
0.0
  0
LINE
  5
1B83
330
1D
100
AcDbEntity
  8
0
100
AcDbLine
 10
39.83994012543
 20
835.375920700826
 30
0.0
 11
40.29767253129
 21
834.888579891305
 31
0.0
  0
LINE
  5
1B84
330
1D
100
AcDbEntity
  8
0
100
AcDbLine
 10
42.988514408311
 20
832.380448887375
 30
0.0
 11
44.530648567053
 21
831.044149487375
 31
0.0
  0
LINE
  5
1B85
330
1D
100
AcDbEntity
  8
0
100
AcDbLine
 10
48.588470602198
 20
827.803844373486
 30
0.0
 11
49.101328894755
 21
827.325727262566
 31
0.0
  0
LINE
  5
1B86
330
1D
100
AcDbEntity
  8
0
100
AcDbLine
 10
48.028687185945
 20
828.316114709235
 30
0.0
 11
48.588470602198
 21
827.803844373486
 31
0.0
  0
LINE
  5
1B87
330
1D
100
AcDbEntity
  8
0
100
AcDbLine
 10
47.309959126966
 20
828.87403206623
 30
0.0
 11
48.028687185945
 21
828.316114709235
 31
0.0
  0
LINE
  5
1B88
330
1D
100
AcDbEntity
  8
0
100
AcDbLine
 10
46.785247981634
 20
829.270087301214
 30
0.0
 11
46.167478075525
 21
828.213329752705
 31
0.0
  0
LINE
  5
1B89
330
1D
100
AcDbEntity
  8
0
100
AcDbLine
 10
44.530648567053
 20
831.044149487375
 30
0.0
 11
44.824809376507
 21
830.461437965109
 31
0.0
  0
LINE
  5
1B8A
330
1D
100
AcDbEntity
  8
0
100
AcDbLine
 10
44.530648567053
 20
831.044149487375
 30
0.0
 11
45.414678817895
 21
831.742091921159
 31
0.0
  0
LINE
  5
1B8B
330
1D
100
AcDbEntity
  8
0
100
AcDbLine
 10
42.551370587126
 20
832.501839536108
 30
0.0
 11
42.988514408311
 21
832.380448887375
 31
0.0
  0
LINE
  5
1B8C
330
1D
100
AcDbEntity
  8
0
100
AcDbLine
 10
42.551370587126
 20
832.501839536108
 30
0.0
 11
42.96540317417
 21
831.810580665015
 31
0.0
  0
LINE
  5
1B8D
330
1D
100
AcDbEntity
  8
0
100
AcDbLine
 10
49.350960654631
 20
828.358617462181
 30
0.0
 11
49.803665713758
 21
827.75187302715
 31
0.0
  0
LINE
  5
1B8E
330
1D
100
AcDbEntity
  8
0
100
AcDbLine
 10
49.350960654631
 20
828.358617462181
 30
0.0
 11
49.56298678226
 21
828.481371429851
 31
0.0
  0
LINE
  5
1B8F
330
1D
100
AcDbEntity
  8
0
100
AcDbLine
 10
49.350960654631
 20
828.358617462181
 30
0.0
 11
49.6362379051
 21
828.323668208039
 31
0.0
  0
LINE
  5
1B90
330
1D
100
AcDbEntity
  8
0
100
AcDbLine
 10
43.241189952262
 20
833.541638973867
 30
0.0
 11
42.551370587126
 21
832.501839536108
 31
0.0
  0
LINE
  5
1B91
330
1D
100
AcDbEntity
  8
0
100
AcDbLine
 10
45.150969033885
 20
832.003490093139
 30
0.0
 11
44.530648567053
 21
831.044149487375
 31
0.0
  0
LINE
  5
1B92
330
1D
100
AcDbEntity
  8
0
100
AcDbLine
 10
43.667511422503
 20
833.252659497053
 30
0.0
 11
42.988514408311
 21
832.380448887375
 31
0.0
  0
LINE
  5
1B93
330
1D
100
AcDbEntity
  8
0
100
AcDbLine
 10
45.042733041014
 20
835.197744586988
 30
0.0
 11
45.538774023527
 21
834.695229359688
 31
0.0
  0
LINE
  5
1B94
330
1D
100
AcDbEntity
  8
0
100
AcDbLine
 10
45.042733041014
 20
835.197744586988
 30
0.0
 11
45.814282401583
 21
834.234037616894
 31
0.0
  0
LINE
  5
1B95
330
1D
100
AcDbEntity
  8
0
100
AcDbLine
 10
45.814282401583
 20
834.234037616894
 30
0.0
 11
46.587751089653
 21
833.64350257257
 31
0.0
  0
LINE
  5
1B96
330
1D
100
AcDbEntity
  8
0
100
AcDbLine
 10
45.746130738256
 20
834.560028427097
 30
0.0
 11
46.587751089653
 21
833.64350257257
 31
0.0
  0
LINE
  5
1B97
330
1D
100
AcDbEntity
  8
0
100
AcDbLine
 10
45.538774023527
 20
834.695229359688
 30
0.0
 11
46.587751089653
 21
833.64350257257
 31
0.0
  0
LINE
  5
1B98
330
1D
100
AcDbEntity
  8
0
100
AcDbLine
 10
45.78623033369
 20
836.147283688754
 30
0.0
 11
45.042733041014
 21
835.197744586988
 31
0.0
  0
LINE
  5
1B99
330
1D
100
AcDbEntity
  8
0
100
AcDbLine
 10
49.801859946279
 20
829.997413981074
 30
0.0
 11
48.904402853953
 21
828.762042908395
 31
0.0
  0
LINE
  5
1B9A
330
1D
100
AcDbEntity
  8
0
100
AcDbLine
 10
49.88005820821
 20
830.105055751972
 30
0.0
 11
49.808552231452
 21
830.006626071083
 31
0.0
  0
LINE
  5
1B9B
330
1D
100
AcDbEntity
  8
0
100
AcDbLine
 10
46.587751089653
 20
833.64350257257
 30
0.0
 11
47.997140130875
 21
834.202559153322
 31
0.0
  0
LINE
  5
1B9C
330
1D
100
AcDbEntity
  8
0
100
AcDbLine
 10
46.587751089653
 20
833.64350257257
 30
0.0
 11
46.857588346352
 21
833.835334725497
 31
0.0
  0
LINE
  5
1B9D
330
1D
100
AcDbEntity
  8
0
100
AcDbLine
 10
49.375715323769
 20
828.88455040121
 30
0.0
 11
49.6362379051
 21
828.323668208039
 31
0.0
  0
LINE
  5
1B9E
330
1D
100
AcDbEntity
  8
0
100
AcDbLine
 10
49.375715323769
 20
828.88455040121
 30
0.0
 11
50.850794921379
 21
827.827088401555
 31
0.0
  0
LINE
  5
1B9F
330
1D
100
AcDbEntity
  8
0
100
AcDbLine
 10
49.814523730482
 20
828.231610586181
 30
0.0
 11
50.712368580565
 21
827.286099863628
 31
0.0
  0
LINE
  5
1BA0
330
1D
100
AcDbEntity
  8
0
100
AcDbLine
 10
49.904341737734
 20
828.137024212011
 30
0.0
 11
49.803665713758
 21
827.75187302715
 31
0.0
  0
LINE
  5
1BA1
330
1D
100
AcDbEntity
  8
0
100
AcDbLine
 10
49.6362379051
 20
828.323668208039
 30
0.0
 11
50.090449317451
 21
828.08913681805
 31
0.0
  0
LINE
  5
1BA2
330
1D
100
AcDbEntity
  8
0
100
AcDbLine
 10
48.904402853953
 20
828.762042908395
 30
0.0
 11
49.803665713758
 21
827.75187302715
 31
0.0
  0
LINE
  5
1BA3
330
1D
100
AcDbEntity
  8
0
100
AcDbLine
 10
48.904402853953
 20
828.762042908395
 30
0.0
 11
49.350960654631
 21
828.358617462181
 31
0.0
  0
LINE
  5
1BA4
330
1D
100
AcDbEntity
  8
0
100
AcDbLine
 10
48.904402853953
 20
828.762042908395
 30
0.0
 11
49.557048365014
 21
828.477933342825
 31
0.0
  0
LINE
  5
1BA5
330
1D
100
AcDbEntity
  8
0
100
AcDbLine
 10
48.904402853953
 20
828.762042908395
 30
0.0
 11
49.375715323769
 21
828.88455040121
 31
0.0
  0
LINE
  5
1BA6
330
1D
100
AcDbEntity
  8
0
100
AcDbLine
 10
53.155459257059
 20
823.333341713118
 30
0.0
 11
53.27032339025
 21
823.213070307927
 31
0.0
  0
LINE
  5
1BA7
330
1D
100
AcDbEntity
  8
0
100
AcDbLine
 10
53.27032339025
 20
823.213070307927
 30
0.0
 11
54.236313280455
 21
824.059132321807
 31
0.0
  0
LINE
  5
1BA8
330
1D
100
AcDbEntity
  8
0
100
AcDbLine
 10
54.271180094217
 20
822.631853000784
 30
0.0
 11
54.314168072879
 21
822.594480443479
 31
0.0
  0
LINE
  5
1BA9
330
1D
100
AcDbEntity
  8
0
100
AcDbLine
 10
52.19751959548
 20
824.197197265148
 30
0.0
 11
53.155459257059
 21
823.333341713118
 31
0.0
  0
LINE
  5
1BAA
330
1D
100
AcDbEntity
  8
0
100
AcDbLine
 10
54.371261767199
 20
822.689358350729
 30
0.0
 11
53.855610080128
 21
821.832451935367
 31
0.0
  0
LINE
  5
1BAB
330
1D
100
AcDbEntity
  8
0
100
AcDbLine
 10
51.692235249503
 20
826.137542280786
 30
0.0
 11
52.167990296498
 21
825.822274085025
 31
0.0
  0
LINE
  5
1BAC
330
1D
100
AcDbEntity
  8
0
100
AcDbLine
 10
52.167990296498
 20
825.822274085025
 30
0.0
 11
52.961942195485
 21
825.204499949847
 31
0.0
  0
LINE
  5
1BAD
330
1D
100
AcDbEntity
  8
0
100
AcDbLine
 10
53.548476177678
 20
824.727221144814
 30
0.0
 11
53.980019379502
 21
824.325037399544
 31
0.0
  0
LINE
  5
1BAE
330
1D
100
AcDbEntity
  8
0
100
AcDbLine
 10
53.980019379502
 20
824.325037399544
 30
0.0
 11
54.241231146457
 21
824.054030032847
 31
0.0
  0
LINE
  5
1BAF
330
1D
100
AcDbEntity
  8
0
100
AcDbLine
 10
52.961942195485
 20
825.204499949847
 30
0.0
 11
53.548476177678
 21
824.727221144814
 31
0.0
  0
LINE
  5
1BB0
330
1D
100
AcDbEntity
  8
0
100
AcDbLine
 10
52.11621525343
 20
825.85658380915
 30
0.0
 11
51.516368556001
 21
824.988450897946
 31
0.0
  0
LINE
  5
1BB1
330
1D
100
AcDbEntity
  8
0
100
AcDbLine
 10
51.805428225789
 20
826.062532786652
 30
0.0
 11
51.064122641786
 21
824.847594932237
 31
0.0
  0
LINE
  5
1BB2
330
1D
100
AcDbEntity
  8
0
100
AcDbLine
 10
54.371261767199
 20
822.689358350729
 30
0.0
 11
53.855610080128
 21
821.832451935367
 31
0.0
  0
LINE
  5
1BB3
330
1D
100
AcDbEntity
  8
0
100
AcDbLine
 10
51.420714518945
 20
826.970170422802
 30
0.0
 11
52.330339931632
 21
827.829457045098
 31
0.0
  0
LINE
  5
1BB4
330
1D
100
AcDbEntity
  8
0
100
AcDbLine
 10
51.516368556001
 20
824.988450897946
 30
0.0
 11
52.19751959548
 21
824.197197265148
 31
0.0
  0
LINE
  5
1BB5
330
1D
100
AcDbEntity
  8
0
100
AcDbLine
 10
50.873835836449
 20
826.999054962476
 30
0.0
 11
51.420714518945
 21
826.970170422802
 31
0.0
  0
LINE
  5
1BB6
330
1D
100
AcDbEntity
  8
0
100
AcDbLine
 10
52.331526913457
 20
827.830578339191
 30
0.0
 11
52.404960562646
 21
827.899948160542
 31
0.0
  0
LINE
  5
1BB7
330
1D
100
AcDbEntity
  8
0
100
AcDbLine
 10
50.850794921379
 20
827.827088401555
 30
0.0
 11
51.420714518945
 21
826.970170422802
 31
0.0
  0
LINE
  5
1BB8
330
1D
100
AcDbEntity
  8
0
100
AcDbLine
 10
50.090449317451
 20
828.08913681805
 30
0.0
 11
50.712368580565
 21
827.286099863628
 31
0.0
  0
LINE
  5
1BB9
330
1D
100
AcDbEntity
  8
0
100
AcDbLine
 10
52.062653910713
 20
824.267806733863
 30
0.0
 11
52.19751959548
 21
824.197197265148
 31
0.0
  0
LINE
  5
1BBA
330
1D
100
AcDbEntity
  8
0
100
AcDbLine
 10
52.062653910713
 20
824.267806733863
 30
0.0
 11
53.27032339025
 21
823.213070307927
 31
0.0
  0
LINE
  5
1BBB
330
1D
100
AcDbEntity
  8
0
100
AcDbLine
 10
52.062653910713
 20
824.267806733863
 30
0.0
 11
53.155459257059
 21
823.333341713118
 31
0.0
  0
LINE
  5
1BBC
330
1D
100
AcDbEntity
  8
0
100
AcDbLine
 10
58.266090579015
 20
824.068220105132
 30
0.0
 11
58.244500929665
 21
823.893918937492
 31
0.0
  0
LINE
  5
1BBD
330
1D
100
AcDbEntity
  8
0
100
AcDbLine
 10
58.266090579015
 20
824.068220105132
 30
0.0
 11
59.056359684559
 21
823.331088996834
 31
0.0
  0
LINE
  5
1BBE
330
1D
100
AcDbEntity
  8
0
100
AcDbLine
 10
58.40123395706
 20
824.323796051102
 30
0.0
 11
58.30584843514
 21
824.062178869805
 31
0.0
  0
LINE
  5
1BBF
330
1D
100
AcDbEntity
  8
0
100
AcDbLine
 10
58.207730478717
 20
824.366131213843
 30
0.0
 11
58.471148768042
 21
824.481239401428
 31
0.0
  0
LINE
  5
1BC0
330
1D
100
AcDbEntity
  8
0
100
AcDbLine
 10
58.207730478717
 20
824.366131213843
 30
0.0
 11
58.244500929665
 21
823.893918937492
 31
0.0
  0
LINE
  5
1BC1
330
1D
100
AcDbEntity
  8
0
100
AcDbLine
 10
58.207730478717
 20
824.366131213843
 30
0.0
 11
58.266090579015
 21
824.068220105132
 31
0.0
  0
LINE
  5
1BC2
330
1D
100
AcDbEntity
  8
0
100
AcDbLine
 10
58.471148768042
 20
824.481239401428
 30
0.0
 11
58.612362786927
 21
824.470312330906
 31
0.0
  0
LINE
  5
1BC3
330
1D
100
AcDbEntity
  8
0
100
AcDbLine
 10
56.796002483555
 20
820.650212689753
 30
0.0
 11
56.847416741151
 21
820.693591085813
 31
0.0
  0
LINE
  5
1BC4
330
1D
100
AcDbEntity
  8
0
100
AcDbLine
 10
60.127771686464
 20
819.008898046381
 30
0.0
 11
60.314811514737
 21
818.875981099156
 31
0.0
  0
LINE
  5
1BC5
330
1D
100
AcDbEntity
  8
0
100
AcDbLine
 10
59.746503497149
 20
819.258370557539
 30
0.0
 11
59.109706726192
 21
818.23557417072
 31
0.0
  0
LINE
  5
1BC6
330
1D
100
AcDbEntity
  8
0
100
AcDbLine
 10
60.495688203665
 20
818.702883232789
 30
0.0
 11
60.076489077975
 21
817.887244880707
 31
0.0
  0
LINE
  5
1BC7
330
1D
100
AcDbEntity
  8
0
100
AcDbLine
 10
59.819934571904
 20
819.349575255627
 30
0.0
 11
60.001673938368
 21
819.290022819258
 31
0.0
  0
LINE
  5
1BC8
330
1D
100
AcDbEntity
  8
0
100
AcDbLine
 10
59.819934571904
 20
819.349575255627
 30
0.0
 11
60.755578252728
 21
818.454170072186
 31
0.0
  0
LINE
  5
1BC9
330
1D
100
AcDbEntity
  8
0
100
AcDbLine
 10
60.076489077975
 20
817.887244880707
 30
0.0
 11
61.512447113747
 21
816.586516127468
 31
0.0
  0
LINE
  5
1BCA
330
1D
100
AcDbEntity
  8
0
100
AcDbLine
 10
60.076489077975
 20
817.887244880707
 30
0.0
 11
60.701164529501
 21
818.506243666896
 31
0.0
  0
LINE
  5
1BCB
330
1D
100
AcDbEntity
  8
0
100
AcDbLine
 10
59.955484038505
 20
817.601465821952
 30
0.0
 11
60.259238542113
 21
817.370735564859
 31
0.0
  0
LINE
  5
1BCC
330
1D
100
AcDbEntity
  8
0
100
AcDbLine
 10
60.885420425813
 20
818.820750660374
 30
0.0
 11
60.755578252728
 21
818.454170072186
 31
0.0
  0
LINE
  5
1BCD
330
1D
100
AcDbEntity
  8
0
100
AcDbLine
 10
60.841601446737
 20
818.867799586184
 30
0.0
 11
60.755578252728
 21
818.454170072186
 31
0.0
  0
LINE
  5
1BCE
330
1D
100
AcDbEntity
  8
0
100
AcDbLine
 10
60.001673938368
 20
819.290022819258
 30
0.0
 11
60.313215810534
 21
819.366709386434
 31
0.0
  0
LINE
  5
1BCF
330
1D
100
AcDbEntity
  8
0
100
AcDbLine
 10
60.001673938368
 20
819.290022819258
 30
0.0
 11
60.558590030394
 21
819.167839279089
 31
0.0
  0
LINE
  5
1BD0
330
1D
100
AcDbEntity
  8
0
100
AcDbLine
 10
60.001673938368
 20
819.290022819258
 30
0.0
 11
60.361511319485
 21
819.327566997902
 31
0.0
  0
LINE
  5
1BD1
330
1D
100
AcDbEntity
  8
0
100
AcDbLine
 10
60.083530600197
 20
817.479736244228
 30
0.0
 11
60.015432938726
 21
817.334073489672
 31
0.0
  0
LINE
  5
1BD2
330
1D
100
AcDbEntity
  8
0
100
AcDbLine
 10
60.755578252728
 20
818.454170072186
 30
0.0
 11
61.849501469969
 21
817.954773081023
 31
0.0
  0
LINE
  5
1BD3
330
1D
100
AcDbEntity
  8
0
100
AcDbLine
 10
60.755578252728
 20
818.454170072186
 30
0.0
 11
61.381617585598
 21
818.287978244168
 31
0.0
  0
LINE
  5
1BD4
330
1D
100
AcDbEntity
  8
0
100
AcDbLine
 10
60.755578252728
 20
818.454170072186
 30
0.0
 11
61.095509105809
 21
818.595176105075
 31
0.0
  0
LINE
  5
1BD5
330
1D
100
AcDbEntity
  8
0
100
AcDbLine
 10
60.755578252728
 20
818.454170072186
 30
0.0
 11
61.033333745703
 21
818.661934481617
 31
0.0
  0
LINE
  5
1BD6
330
1D
100
AcDbEntity
  8
0
100
AcDbLine
 10
60.755578252728
 20
818.454170072186
 30
0.0
 11
61.400887834398
 21
818.295697538902
 31
0.0
  0
LINE
  5
1BD7
330
1D
100
AcDbEntity
  8
0
100
AcDbLine
 10
58.244500929665
 20
823.893918937492
 30
0.0
 11
59.056359684559
 21
823.331088996834
 31
0.0
  0
LINE
  5
1BD8
330
1D
100
AcDbEntity
  8
0
100
AcDbLine
 10
58.244500929665
 20
823.893918937492
 30
0.0
 11
58.359255217171
 21
823.981319892918
 31
0.0
  0
LINE
  5
1BD9
330
1D
100
AcDbEntity
  8
0
100
AcDbLine
 10
61.300739428463
 20
818.664561790844
 30
0.0
 11
61.396926852091
 21
818.494310128179
 31
0.0
  0
LINE
  5
1BDA
330
1D
100
AcDbEntity
  8
0
100
AcDbLine
 10
60.573150502402
 20
819.156038354637
 30
0.0
 11
61.540957864584
 21
818.502297458175
 31
0.0
  0
LINE
  5
1BDB
330
1D
100
AcDbEntity
  8
0
100
AcDbLine
 10
60.573150502402
 20
819.156038354637
 30
0.0
 11
61.381617585598
 21
818.287978244168
 31
0.0
  0
LINE
  5
1BDC
330
1D
100
AcDbEntity
  8
0
100
AcDbLine
 10
60.573150502402
 20
819.156038354637
 30
0.0
 11
61.396926852091
 21
818.494310128179
 31
0.0
  0
LINE
  5
1BDD
330
1D
100
AcDbEntity
  8
0
100
AcDbLine
 10
60.317780820808
 20
821.010052417013
 30
0.0
 11
59.565232044614
 21
819.972932859729
 31
0.0
  0
LINE
  5
1BDE
330
1D
100
AcDbEntity
  8
0
100
AcDbLine
 10
59.056359684559
 20
823.331088996834
 30
0.0
 11
60.161814729075
 21
822.958691796851
 31
0.0
  0
LINE
  5
1BDF
330
1D
100
AcDbEntity
  8
0
100
AcDbLine
 10
59.056359684559
 20
823.331088996834
 30
0.0
 11
59.492539005488
 21
823.336740544788
 31
0.0
  0
LINE
  5
1BE0
330
1D
100
AcDbEntity
  8
0
100
AcDbLine
 10
59.565232044614
 20
819.972932859729
 30
0.0
 11
60.573150502402
 21
819.156038354637
 31
0.0
  0
LINE
  5
1BE1
330
1D
100
AcDbEntity
  8
0
100
AcDbLine
 10
59.565232044614
 20
819.972932859729
 30
0.0
 11
59.819934571904
 21
819.349575255627
 31
0.0
  0
LINE
  5
1BE2
330
1D
100
AcDbEntity
  8
0
100
AcDbLine
 10
60.826852695328
 20
816.883354776286
 30
0.0
 11
60.985182458187
 21
816.656511005835
 31
0.0
  0
LINE
  5
1BE3
330
1D
100
AcDbEntity
  8
0
100
AcDbLine
 10
60.709377656535
 20
816.988846696643
 30
0.0
 11
60.826852695328
 21
816.883354776286
 31
0.0
  0
LINE
  5
1BE4
330
1D
100
AcDbEntity
  8
0
100
AcDbLine
 10
61.081925887504
 20
818.305186099352
 30
0.0
 11
61.520859110676
 21
817.952354470138
 31
0.0
  0
LINE
  5
1BE5
330
1D
100
AcDbEntity
  8
0
100
AcDbLine
 10
61.325178659095
 20
818.551944466092
 30
0.0
 11
61.381617585598
 21
818.287978244168
 31
0.0
  0
LINE
  5
1BE6
330
1D
100
AcDbEntity
  8
0
100
AcDbLine
 10
61.396305636078
 20
818.494809142469
 30
0.0
 11
61.400887834398
 21
818.295697538902
 31
0.0
  0
LINE
  5
1BE7
330
1D
100
AcDbEntity
  8
0
100
AcDbLine
 10
61.38208702589
 20
818.506230756729
 30
0.0
 11
61.381617585598
 21
818.287978244168
 31
0.0
  0
LINE
  5
1BE8
330
1D
100
AcDbEntity
  8
0
100
AcDbLine
 10
61.393846441305
 20
818.60166925208
 30
0.0
 11
61.396043864426
 21
818.506183982642
 31
0.0
  0
LINE
  5
1BE9
330
1D
100
AcDbEntity
  8
0
100
AcDbLine
 10
61.382309067703
 20
818.609462593251
 30
0.0
 11
61.382117765418
 21
818.520522199712
 31
0.0
  0
LINE
  5
1BEA
330
1D
100
AcDbEntity
  8
0
100
AcDbLine
 10
61.394348797751
 20
818.601329917037
 30
0.0
 11
61.396926852091
 21
818.494310128179
 31
0.0
  0
LINE
  5
1BEB
330
1D
100
AcDbEntity
  8
0
100
AcDbLine
 10
61.540957864584
 20
818.502297458175
 30
0.0
 11
61.849501469969
 21
817.954773081023
 31
0.0
  0
LINE
  5
1BEC
330
1D
100
AcDbEntity
  8
0
100
AcDbLine
 10
61.540957864584
 20
818.502297458175
 30
0.0
 11
62.407521336857
 21
819.450229356819
 31
0.0
  0
LINE
  5
1BED
330
1D
100
AcDbEntity
  8
0
100
AcDbLine
 10
61.396926852091
 20
818.494310128179
 30
0.0
 11
61.400887834398
 21
818.295697538902
 31
0.0
  0
LINE
  5
1BEE
330
1D
100
AcDbEntity
  8
0
100
AcDbLine
 10
61.396926852091
 20
818.494310128179
 30
0.0
 11
61.849501469969
 21
817.954773081023
 31
0.0
  0
LINE
  5
1BEF
330
1D
100
AcDbEntity
  8
0
100
AcDbLine
 10
61.396926852091
 20
818.494310128179
 30
0.0
 11
61.540957864584
 21
818.502297458175
 31
0.0
  0
LINE
  5
1BF0
330
1D
100
AcDbEntity
  8
0
100
AcDbLine
 10
61.520859110676
 20
817.952354470138
 30
0.0
 11
61.945544346833
 21
817.585557986798
 31
0.0
  0
LINE
  5
1BF1
330
1D
100
AcDbEntity
  8
0
100
AcDbLine
 10
61.945544346833
 20
817.585557986798
 30
0.0
 11
62.224424694252
 21
817.321916844668
 31
0.0
  0
LINE
  5
1BF2
330
1D
100
AcDbEntity
  8
0
100
AcDbLine
 10
61.849501469969
 20
817.954773081023
 30
0.0
 11
62.94906266011
 21
818.992497847039
 31
0.0
  0
LINE
  5
1BF3
330
1D
100
AcDbEntity
  8
0
100
AcDbLine
 10
60.54514235812
 20
817.146890287954
 30
0.0
 11
60.709377656535
 21
816.988846696643
 31
0.0
  0
LINE
  5
1BF4
330
1D
100
AcDbEntity
  8
0
100
AcDbLine
 10
60.259238542113
 20
817.370735564859
 30
0.0
 11
60.54514235812
 21
817.146890287954
 31
0.0
  0
LINE
  5
1BF5
330
1D
100
AcDbEntity
  8
0
100
AcDbLine
 10
58.731455559816
 20
824.424400383471
 30
0.0
 11
58.9526599396
 21
824.449011378805
 31
0.0
  0
LINE
  5
1BF6
330
1D
100
AcDbEntity
  8
0
100
AcDbLine
 10
59.492539005488
 20
823.336740544788
 30
0.0
 11
59.864331605812
 21
823.765979769865
 31
0.0
  0
LINE
  5
1BF7
330
1D
100
AcDbEntity
  8
0
100
AcDbLine
 10
58.297402418194
 20
824.039013686009
 30
0.0
 11
58.244500929665
 21
823.893918937492
 31
0.0
  0
LINE
  5
1BF8
330
1D
100
AcDbEntity
  8
0
100
AcDbLine
 10
58.612362786927
 20
824.470312330906
 30
0.0
 11
58.949549508463
 21
824.452841308392
 31
0.0
  0
LINE
  5
1BF9
330
1D
100
AcDbEntity
  8
0
100
AcDbLine
 10
58.612362786927
 20
824.470312330906
 30
0.0
 11
59.081534833559
 21
824.290325412882
 31
0.0
  0
LINE
  5
1BFA
330
1D
100
AcDbEntity
  8
0
100
AcDbLine
 10
59.309580960038
 20
824.1250656793
 30
0.0
 11
59.385699959675
 21
824.087232912459
 31
0.0
  0
LINE
  5
1BFB
330
1D
100
AcDbEntity
  8
0
100
AcDbLine
 10
59.828811545933
 20
823.789820506166
 30
0.0
 11
59.492539005488
 21
823.336740544788
 31
0.0
  0
LINE
  5
1BFC
330
1D
100
AcDbEntity
  8
0
100
AcDbLine
 10
60.600627726737
 20
823.985703283195
 30
0.0
 11
60.161814729075
 21
822.958691796851
 31
0.0
  0
LINE
  5
1BFD
330
1D
100
AcDbEntity
  8
0
100
AcDbLine
 10
59.302348792958
 20
825.229909962209
 30
0.0
 11
60.101753242521
 21
824.645547945974
 31
0.0
  0
LINE
  5
1BFE
330
1D
100
AcDbEntity
  8
0
100
AcDbLine
 10
60.101753242521
 20
824.645547945974
 30
0.0
 11
60.600627726737
 21
823.985703283195
 31
0.0
  0
LINE
  5
1BFF
330
1D
100
AcDbEntity
  8
0
100
AcDbLine
 10
58.603595650852
 20
824.878820491565
 30
0.0
 11
58.207730478717
 21
824.366131213843
 31
0.0
  0
LINE
  5
1C00
330
1D
100
AcDbEntity
  8
0
100
AcDbLine
 10
58.603595650852
 20
824.878820491565
 30
0.0
 11
59.081534833559
 21
824.290325412882
 31
0.0
  0
LINE
  5
1C01
330
1D
100
AcDbEntity
  8
0
100
AcDbLine
 10
58.603595650852
 20
824.878820491565
 30
0.0
 11
59.302348792958
 21
825.229909962209
 31
0.0
  0
LINE
  5
1C02
330
1D
100
AcDbEntity
  8
0
100
AcDbLine
 10
59.09387875047
 20
824.283100614249
 30
0.0
 11
59.864331605812
 21
823.765979769865
 31
0.0
  0
LINE
  5
1C03
330
1D
100
AcDbEntity
  8
0
100
AcDbLine
 10
49.803665713758
 20
827.75187302715
 30
0.0
 11
50.712368580565
 21
827.286099863628
 31
0.0
  0
LINE
  5
1C04
330
1D
100
AcDbEntity
  8
0
100
AcDbLine
 10
49.803665713758
 20
827.75187302715
 30
0.0
 11
50.873835836449
 21
826.999054962476
 31
0.0
  0
LINE
  5
1C05
330
1D
100
AcDbEntity
  8
0
100
AcDbLine
 10
49.803665713758
 20
827.75187302715
 30
0.0
 11
50.24727900739
 21
827.775880674136
 31
0.0
  0
LINE
  5
1C06
330
1D
100
AcDbEntity
  8
0
100
AcDbLine
 10
42.96540317417
 20
831.810580665015
 30
0.0
 11
43.774255994399
 21
831.105242253181
 31
0.0
  0
LINE
  5
1C07
330
1D
100
AcDbEntity
  8
0
100
AcDbLine
 10
42.96540317417
 20
831.810580665015
 30
0.0
 11
43.301774919659
 21
832.064592571893
 31
0.0
  0
LINE
  5
1C08
330
1D
100
AcDbEntity
  8
0
100
AcDbLine
 10
42.96540317417
 20
831.810580665015
 30
0.0
 11
43.525825408087
 21
831.790771121498
 31
0.0
  0
LINE
  5
1C09
330
1D
100
AcDbEntity
  8
0
100
AcDbLine
 10
42.96540317417
 20
831.810580665015
 30
0.0
 11
43.328421161881
 21
832.032027087462
 31
0.0
  0
LINE
  5
1C0A
330
1D
100
AcDbEntity
  8
0
100
AcDbLine
 10
63.001147387392
 20
814.739732819863
 30
0.0
 11
63.023375289116
 21
814.668212400506
 31
0.0
  0
LINE
  5
1C0B
330
1D
100
AcDbEntity
  8
0
100
AcDbLine
 10
63.001147387392
 20
814.739732819863
 30
0.0
 11
63.134626656089
 21
814.626555548169
 31
0.0
  0
LINE
  5
1C0C
330
1D
100
AcDbEntity
  8
0
100
AcDbLine
 10
62.794534727475
 20
814.921325492518
 30
0.0
 11
63.023375289116
 21
814.668212400506
 31
0.0
  0
LINE
  5
1C0D
330
1D
100
AcDbEntity
  8
0
100
AcDbLine
 10
62.794534727475
 20
814.921325492518
 30
0.0
 11
64.219067042507
 21
813.862256441941
 31
0.0
  0
LINE
  5
1C0E
330
1D
100
AcDbEntity
  8
0
100
AcDbLine
 10
62.794534727475
 20
814.921325492518
 30
0.0
 11
62.906758992349
 21
814.638135177759
 31
0.0
  0
LINE
  5
1C0F
330
1D
100
AcDbEntity
  8
0
100
AcDbLine
 10
62.728391275242
 20
814.71026227041
 30
0.0
 11
62.906758992349
 21
814.638135177759
 31
0.0
  0
LINE
  5
1C10
330
1D
100
AcDbEntity
  8
0
100
AcDbLine
 10
62.728391275242
 20
814.71026227041
 30
0.0
 11
62.861683008345
 21
814.598417226325
 31
0.0
  0
LINE
  5
1C11
330
1D
100
AcDbEntity
  8
0
100
AcDbLine
 10
63.728625788322
 20
814.315457041412
 30
0.0
 11
63.812608015482
 21
814.276724823752
 31
0.0
  0
LINE
  5
1C12
330
1D
100
AcDbEntity
  8
0
100
AcDbLine
 10
63.728625788322
 20
814.315457041412
 30
0.0
 11
63.827878229748
 21
814.265723321754
 31
0.0
  0
LINE
  5
1C13
330
1D
100
AcDbEntity
  8
0
100
AcDbLine
 10
63.827878229748
 20
814.265723321754
 30
0.0
 11
64.178135462974
 21
814.023516735194
 31
0.0
  0
LINE
  5
1C14
330
1D
100
AcDbEntity
  8
0
100
AcDbLine
 10
63.831467981772
 20
814.263240970207
 30
0.0
 11
63.849179054877
 21
814.203988122322
 31
0.0
  0
LINE
  5
1C15
330
1D
100
AcDbEntity
  8
0
100
AcDbLine
 10
63.134626656089
 20
814.626555548169
 30
0.0
 11
64.191574939337
 21
813.822293297187
 31
0.0
  0
LINE
  5
1C16
330
1D
100
AcDbEntity
  8
0
100
AcDbLine
 10
63.134626656089
 20
814.626555548169
 30
0.0
 11
64.193563277433
 21
813.825183590544
 31
0.0
  0
LINE
  5
1C17
330
1D
100
AcDbEntity
  8
0
100
AcDbLine
 10
63.134626656089
 20
814.626555548169
 30
0.0
 11
64.192155004314
 21
813.823136492797
 31
0.0
  0
LINE
  5
1C18
330
1D
100
AcDbEntity
  8
0
100
AcDbLine
 10
63.849179054877
 20
814.203988122322
 30
0.0
 11
64.139472123501
 21
813.968105218514
 31
0.0
  0
LINE
  5
1C19
330
1D
100
AcDbEntity
  8
0
100
AcDbLine
 10
64.178135462974
 20
814.023516735194
 30
0.0
 11
64.725747873539
 21
813.626022209704
 31
0.0
  0
LINE
  5
1C1A
330
1D
100
AcDbEntity
  8
0
100
AcDbLine
 10
64.139472123501
 20
813.968105218514
 30
0.0
 11
64.23689189312
 21
813.888167049102
 31
0.0
  0
LINE
  5
1C1B
330
1D
100
AcDbEntity
  8
0
100
AcDbLine
 10
64.725747873539
 20
813.626022209704
 30
0.0
 11
65.312985856798
 21
813.190186792353
 31
0.0
  0
LINE
  5
1C1C
330
1D
100
AcDbEntity
  8
0
100
AcDbLine
 10
64.675011030335
 20
813.662850479161
 30
0.0
 11
64.227289966977
 21
812.963531360419
 31
0.0
  0
LINE
  5
1C1D
330
1D
100
AcDbEntity
  8
0
100
AcDbLine
 10
64.279424874501
 20
813.949993955586
 30
0.0
 11
63.696341113675
 21
813.102410175135
 31
0.0
  0
LINE
  5
1C1E
330
1D
100
AcDbEntity
  8
0
100
AcDbLine
 10
70.250255201368
 20
808.439267190931
 30
0.0
 11
70.357367865819
 21
808.351429711185
 31
0.0
  0
LINE
  5
1C1F
330
1D
100
AcDbEntity
  8
0
100
AcDbLine
 10
69.800841546305
 20
808.891561483005
 30
0.0
 11
70.081907658788
 21
808.577786196512
 31
0.0
  0
LINE
  5
1C20
330
1D
100
AcDbEntity
  8
0
100
AcDbLine
 10
70.081907658788
 20
808.577786196512
 30
0.0
 11
70.24208464919
 21
808.490699259961
 31
0.0
  0
LINE
  5
1C21
330
1D
100
AcDbEntity
  8
0
100
AcDbLine
 10
70.081907658788
 20
808.577786196512
 30
0.0
 11
70.356880165672
 21
808.352018884365
 31
0.0
  0
LINE
  5
1C22
330
1D
100
AcDbEntity
  8
0
100
AcDbLine
 10
70.081907658788
 20
808.577786196512
 30
0.0
 11
70.250255201368
 21
808.439267190931
 31
0.0
  0
LINE
  5
1C23
330
1D
100
AcDbEntity
  8
0
100
AcDbLine
 10
70.517156772186
 20
808.158394423481
 30
0.0
 11
71.431654170151
 21
807.589153282204
 31
0.0
  0
LINE
  5
1C24
330
1D
100
AcDbEntity
  8
0
100
AcDbLine
 10
70.517156772186
 20
808.158394423481
 30
0.0
 11
70.783648755836
 21
808.285418100082
 31
0.0
  0
LINE
  5
1C25
330
1D
100
AcDbEntity
  8
0
100
AcDbLine
 10
70.517156772186
 20
808.158394423481
 30
0.0
 11
70.951842550709
 21
808.104698279895
 31
0.0
  0
LINE
  5
1C26
330
1D
100
AcDbEntity
  8
0
100
AcDbLine
 10
69.898709647624
 20
808.90551837178
 30
0.0
 11
70.247188214994
 21
808.818320160309
 31
0.0
  0
LINE
  5
1C27
330
1D
100
AcDbEntity
  8
0
100
AcDbLine
 10
69.898709647624
 20
808.90551837178
 30
0.0
 11
70.517156772186
 21
808.158394423481
 31
0.0
  0
LINE
  5
1C28
330
1D
100
AcDbEntity
  8
0
100
AcDbLine
 10
71.218339188693
 20
807.719893273218
 30
0.0
 11
71.703210164561
 21
807.396975904902
 31
0.0
  0
LINE
  5
1C29
330
1D
100
AcDbEntity
  8
0
100
AcDbLine
 10
67.044814332325
 20
811.433241881049
 30
0.0
 11
67.643783461407
 21
811.152957967122
 31
0.0
  0
LINE
  5
1C2A
330
1D
100
AcDbEntity
  8
0
100
AcDbLine
 10
67.044814332325
 20
811.433241881049
 30
0.0
 11
67.708408171429
 21
811.142854163157
 31
0.0
  0
LINE
  5
1C2B
330
1D
100
AcDbEntity
  8
0
100
AcDbLine
 10
72.403447717516
 20
806.71776724077
 30
0.0
 11
72.574448425616
 21
806.536381689015
 31
0.0
  0
LINE
  5
1C2C
330
1D
100
AcDbEntity
  8
0
100
AcDbLine
 10
72.403447717516
 20
806.71776724077
 30
0.0
 11
72.598283695854
 21
806.581041674452
 31
0.0
  0
LINE
  5
1C2D
330
1D
100
AcDbEntity
  8
0
100
AcDbLine
 10
72.144726058602
 20
807.145292144383
 30
0.0
 11
72.965141526709
 21
807.899676612647
 31
0.0
  0
LINE
  5
1C2E
330
1D
100
AcDbEntity
  8
0
100
AcDbLine
 10
71.703210164561
 20
807.396975904902
 30
0.0
 11
71.790710561593
 21
807.36494931136
 31
0.0
  0
LINE
  5
1C2F
330
1D
100
AcDbEntity
  8
0
100
AcDbLine
 10
71.434779857351
 20
807.585794813307
 30
0.0
 11
71.839160414509
 21
807.540326417769
 31
0.0
  0
LINE
  5
1C30
330
1D
100
AcDbEntity
  8
0
100
AcDbLine
 10
71.434779857351
 20
807.585794813307
 30
0.0
 11
72.144726058602
 21
807.145292144383
 31
0.0
  0
LINE
  5
1C31
330
1D
100
AcDbEntity
  8
0
100
AcDbLine
 10
67.184562626703
 20
811.367847527632
 30
0.0
 11
66.631431775953
 21
810.655894274062
 31
0.0
  0
LINE
  5
1C32
330
1D
100
AcDbEntity
  8
0
100
AcDbLine
 10
70.323074310758
 20
808.757400782721
 30
0.0
 11
70.517156772186
 21
808.158394423481
 31
0.0
  0
LINE
  5
1C33
330
1D
100
AcDbEntity
  8
0
100
AcDbLine
 10
70.247188214994
 20
808.818320160309
 30
0.0
 11
71.839160414509
 21
807.540326417769
 31
0.0
  0
LINE
  5
1C34
330
1D
100
AcDbEntity
  8
0
100
AcDbLine
 10
67.57702909417
 20
811.200345460056
 30
0.0
 11
67.643783461407
 21
811.152957967122
 31
0.0
  0
LINE
  5
1C35
330
1D
100
AcDbEntity
  8
0
100
AcDbLine
 10
67.643783461407
 20
811.152957967122
 30
0.0
 11
67.954509193335
 21
811.014544783075
 31
0.0
  0
LINE
  5
1C36
330
1D
100
AcDbEntity
  8
0
100
AcDbLine
 10
66.251378055707
 20
812.19225867228
 30
0.0
 11
66.790940691122
 21
812.006559571603
 31
0.0
  0
LINE
  5
1C37
330
1D
100
AcDbEntity
  8
0
100
AcDbLine
 10
72.214799503134
 20
807.209725739614
 30
0.0
 11
72.356351057574
 21
807.157915527853
 31
0.0
  0
LINE
  5
1C38
330
1D
100
AcDbEntity
  8
0
100
AcDbLine
 10
72.356351057574
 20
807.157915527853
 30
0.0
 11
72.733987912732
 21
807.537578130181
 31
0.0
  0
LINE
  5
1C39
330
1D
100
AcDbEntity
  8
0
100
AcDbLine
 10
72.356351057574
 20
807.157915527853
 30
0.0
 11
72.712778286933
 21
807.552393633732
 31
0.0
  0
LINE
  5
1C3A
330
1D
100
AcDbEntity
  8
0
100
AcDbLine
 10
72.241625984044
 20
807.234393095754
 30
0.0
 11
72.356351057574
 21
807.157915527853
 31
0.0
  0
LINE
  5
1C3B
330
1D
100
AcDbEntity
  8
0
100
AcDbLine
 10
71.839160414509
 20
807.540326417769
 30
0.0
 11
72.144726058602
 21
807.145292144383
 31
0.0
  0
LINE
  5
1C3C
330
1D
100
AcDbEntity
  8
0
100
AcDbLine
 10
72.712665789201
 20
806.795358632972
 30
0.0
 11
73.513184977558
 21
805.898068897674
 31
0.0
  0
LINE
  5
1C3D
330
1D
100
AcDbEntity
  8
0
100
AcDbLine
 10
72.712665789201
 20
806.795358632972
 30
0.0
 11
72.5005028653
 21
806.3978303903
 31
0.0
  0
LINE
  5
1C3E
330
1D
100
AcDbEntity
  8
0
100
AcDbLine
 10
70.407330798635
 20
808.689761872753
 30
0.0
 11
71.434779857351
 21
807.585794813307
 31
0.0
  0
LINE
  5
1C3F
330
1D
100
AcDbEntity
  8
0
100
AcDbLine
 10
66.183034195572
 20
812.199961879418
 30
0.0
 11
67.044814332325
 21
811.433241881049
 31
0.0
  0
LINE
  5
1C40
330
1D
100
AcDbEntity
  8
0
100
AcDbLine
 10
66.183034195572
 20
812.199961879418
 30
0.0
 11
66.790940691122
 21
812.006559571603
 31
0.0
  0
LINE
  5
1C41
330
1D
100
AcDbEntity
  8
0
100
AcDbLine
 10
66.183034195572
 20
812.199961879418
 30
0.0
 11
66.933219571688
 21
811.78874570578
 31
0.0
  0
LINE
  5
1C42
330
1D
100
AcDbEntity
  8
0
100
AcDbLine
 10
66.11230166226
 20
812.240124034879
 30
0.0
 11
66.183034195572
 21
812.199961879418
 31
0.0
  0
LINE
  5
1C43
330
1D
100
AcDbEntity
  8
0
100
AcDbLine
 10
66.11230166226
 20
812.240124034879
 30
0.0
 11
67.044814332325
 21
811.433241881049
 31
0.0
  0
LINE
  5
1C44
330
1D
100
AcDbEntity
  8
0
100
AcDbLine
 10
66.11230166226
 20
812.240124034879
 30
0.0
 11
66.201574932586
 21
812.209399212725
 31
0.0
  0
LINE
  5
1C45
330
1D
100
AcDbEntity
  8
0
100
AcDbLine
 10
65.312985856798
 20
813.190186792353
 30
0.0
 11
65.889197685723
 21
812.755339417938
 31
0.0
  0
LINE
  5
1C46
330
1D
100
AcDbEntity
  8
0
100
AcDbLine
 10
61.512447113747
 20
816.586516127468
 30
0.0
 11
62.252257131197
 21
817.292350540779
 31
0.0
  0
LINE
  5
1C47
330
1D
100
AcDbEntity
  8
0
100
AcDbLine
 10
62.169309239885
 20
817.37402055679
 30
0.0
 11
61.512447113747
 21
816.586516127468
 31
0.0
  0
LINE
  5
1C48
330
1D
100
AcDbEntity
  8
0
100
AcDbLine
 10
65.878920396236
 20
812.73985298608
 30
0.0
 11
66.11230166226
 21
812.240124034879
 31
0.0
  0
LINE
  5
1C49
330
1D
100
AcDbEntity
  8
0
100
AcDbLine
 10
65.878920396236
 20
812.73985298608
 30
0.0
 11
66.790940691122
 21
812.006559571603
 31
0.0
  0
LINE
  5
1C4A
330
1D
100
AcDbEntity
  8
0
100
AcDbLine
 10
67.711055887542
 20
811.199097499548
 30
0.0
 11
67.708408171429
 21
811.142854163157
 31
0.0
  0
LINE
  5
1C4B
330
1D
100
AcDbEntity
  8
0
100
AcDbLine
 10
67.702253126745
 20
811.205770538602
 30
0.0
 11
67.708408171429
 21
811.142854163157
 31
0.0
  0
LINE
  5
1C4C
330
1D
100
AcDbEntity
  8
0
100
AcDbLine
 10
68.707612402745
 20
810.350111516316
 30
0.0
 11
70.16999579709
 21
809.328596729698
 31
0.0
  0
LINE
  5
1C4D
330
1D
100
AcDbEntity
  8
0
100
AcDbLine
 10
67.880066466465
 20
811.04770539321
 30
0.0
 11
68.009413249383
 21
810.950851811489
 31
0.0
  0
LINE
  5
1C4E
330
1D
100
AcDbEntity
  8
0
100
AcDbLine
 10
68.009413249383
 20
810.950851811489
 30
0.0
 11
68.288847167094
 21
810.740920571239
 31
0.0
  0
LINE
  5
1C4F
330
1D
100
AcDbEntity
  8
0
100
AcDbLine
 10
68.009413249383
 20
810.950851811489
 30
0.0
 11
68.816627903653
 21
810.366463291811
 31
0.0
  0
LINE
  5
1C50
330
1D
100
AcDbEntity
  8
0
100
AcDbLine
 10
67.708408171429
 20
811.142854163157
 30
0.0
 11
67.954509193335
 21
811.014544783075
 31
0.0
  0
LINE
  5
1C51
330
1D
100
AcDbEntity
  8
0
100
AcDbLine
 10
68.606147346976
 20
811.898481837802
 30
0.0
 11
69.009371013042
 21
811.549824290738
 31
0.0
  0
LINE
  5
1C52
330
1D
100
AcDbEntity
  8
0
100
AcDbLine
 10
68.606147346976
 20
811.898481837802
 30
0.0
 11
68.640148863335
 21
811.844104113637
 31
0.0
  0
LINE
  5
1C53
330
1D
100
AcDbEntity
  8
0
100
AcDbLine
 10
68.558918532659
 20
811.936357699385
 30
0.0
 11
68.606147346976
 21
811.898481837802
 31
0.0
  0
LINE
  5
1C54
330
1D
100
AcDbEntity
  8
0
100
AcDbLine
 10
68.288847167094
 20
810.740920571239
 30
0.0
 11
68.490760835773
 21
810.589509506913
 31
0.0
  0
LINE
  5
1C55
330
1D
100
AcDbEntity
  8
0
100
AcDbLine
 10
68.570336737185
 20
810.544767450959
 30
0.0
 11
68.613738800609
 21
810.505334785681
 31
0.0
  0
LINE
  5
1C56
330
1D
100
AcDbEntity
  8
0
100
AcDbLine
 10
68.490760835773
 20
810.589509506913
 30
0.0
 11
68.707612402745
 21
810.350111516316
 31
0.0
  0
LINE
  5
1C57
330
1D
100
AcDbEntity
  8
0
100
AcDbLine
 10
68.490760835773
 20
810.589509506913
 30
0.0
 11
68.816627903653
 21
810.366463291811
 31
0.0
  0
LINE
  5
1C58
330
1D
100
AcDbEntity
  8
0
100
AcDbLine
 10
68.816627903653
 20
810.366463291811
 30
0.0
 11
70.197813444785
 21
809.371979131383
 31
0.0
  0
LINE
  5
1C59
330
1D
100
AcDbEntity
  8
0
100
AcDbLine
 10
68.613738800609
 20
810.505334785681
 30
0.0
 11
68.816627903653
 21
810.366463291811
 31
0.0
  0
LINE
  5
1C5A
330
1D
100
AcDbEntity
  8
0
100
AcDbLine
 10
68.544348641045
 20
810.93698783671
 30
0.0
 11
69.801013343911
 21
810.074116331833
 31
0.0
  0
LINE
  5
1C5B
330
1D
100
AcDbEntity
  8
0
100
AcDbLine
 10
68.556595323028
 20
810.94946094429
 30
0.0
 11
70.00401774003
 21
809.980011203619
 31
0.0
  0
LINE
  5
1C5C
330
1D
100
AcDbEntity
  8
0
100
AcDbLine
 10
68.640148863335
 20
811.844104113637
 30
0.0
 11
68.94221688759
 21
811.588028131315
 31
0.0
  0
LINE
  5
1C5D
330
1D
100
AcDbEntity
  8
0
100
AcDbLine
 10
68.94221688759
 20
811.588028131315
 30
0.0
 11
69.009371013042
 21
811.549824290738
 31
0.0
  0
LINE
  5
1C5E
330
1D
100
AcDbEntity
  8
0
100
AcDbLine
 10
68.94221688759
 20
811.588028131315
 30
0.0
 11
69.136159706149
 21
811.488481954689
 31
0.0
  0
LINE
  5
1C5F
330
1D
100
AcDbEntity
  8
0
100
AcDbLine
 10
69.009371013042
 20
811.549824290738
 30
0.0
 11
69.215647047587
 21
811.344494586184
 31
0.0
  0
LINE
  5
1C60
330
1D
100
AcDbEntity
  8
0
100
AcDbLine
 10
69.045641732936
 20
811.447549201248
 30
0.0
 11
69.198475394506
 21
811.361587461087
 31
0.0
  0
LINE
  5
1C61
330
1D
100
AcDbEntity
  8
0
100
AcDbLine
 10
69.01140350475
 20
811.337556631926
 30
0.0
 11
69.212502081792
 21
811.210065760443
 31
0.0
  0
LINE
  5
1C62
330
1D
100
AcDbEntity
  8
0
100
AcDbLine
 10
69.01140350475
 20
811.337556631926
 30
0.0
 11
69.260034612584
 21
811.162479328379
 31
0.0
  0
LINE
  5
1C63
330
1D
100
AcDbEntity
  8
0
100
AcDbLine
 10
68.704733557932
 20
810.826861743188
 30
0.0
 11
69.801013343911
 21
810.074116331833
 31
0.0
  0
LINE
  5
1C64
330
1D
100
AcDbEntity
  8
0
100
AcDbLine
 10
69.107558642152
 20
811.198018571172
 30
0.0
 11
69.151746152715
 21
811.238732262794
 31
0.0
  0
LINE
  5
1C65
330
1D
100
AcDbEntity
  8
0
100
AcDbLine
 10
69.339197594461
 20
811.154144323859
 30
0.0
 11
70.668496604207
 21
810.403199730238
 31
0.0
  0
LINE
  5
1C66
330
1D
100
AcDbEntity
  8
0
100
AcDbLine
 10
69.260034612584
 20
811.162479328379
 30
0.0
 11
69.339197594461
 21
811.154144323859
 31
0.0
  0
LINE
  5
1C67
330
1D
100
AcDbEntity
  8
0
100
AcDbLine
 10
69.158079784967
 20
811.244567973997
 30
0.0
 11
69.214526006321
 21
811.296576652924
 31
0.0
  0
LINE
  5
1C68
330
1D
100
AcDbEntity
  8
0
100
AcDbLine
 10
69.542184140321
 20
810.960451597615
 30
0.0
 11
70.334261548758
 21
810.538174776447
 31
0.0
  0
LINE
  5
1C69
330
1D
100
AcDbEntity
  8
0
100
AcDbLine
 10
69.365220810843
 20
811.139443347249
 30
0.0
 11
69.542184140321
 21
810.960451597615
 31
0.0
  0
LINE
  5
1C6A
330
1D
100
AcDbEntity
  8
0
100
AcDbLine
 10
69.215647047587
 20
811.344494586184
 30
0.0
 11
69.212502081792
 21
811.210065760443
 31
0.0
  0
LINE
  5
1C6B
330
1D
100
AcDbEntity
  8
0
100
AcDbLine
 10
69.305134484611
 20
811.345441061326
 30
0.0
 11
69.212502081792
 21
811.210065760443
 31
0.0
  0
LINE
  5
1C6C
330
1D
100
AcDbEntity
  8
0
100
AcDbLine
 10
69.214526006321
 20
811.296576652924
 30
0.0
 11
69.212502081792
 21
811.210065760443
 31
0.0
  0
LINE
  5
1C6D
330
1D
100
AcDbEntity
  8
0
100
AcDbLine
 10
69.580017545727
 20
811.018100861016
 30
0.0
 11
69.542184140321
 21
810.960451597615
 31
0.0
  0
LINE
  5
1C6E
330
1D
100
AcDbEntity
  8
0
100
AcDbLine
 10
68.47524832502
 20
810.866609943596
 30
0.0
 11
69.078498743746
 21
811.481013696461
 31
0.0
  0
LINE
  5
1C6F
330
1D
100
AcDbEntity
  8
0
100
AcDbLine
 10
68.627407714791
 20
811.919151786045
 30
0.0
 11
69.51095092436
 21
811.7928789195
 31
0.0
  0
LINE
  5
1C70
330
1D
100
AcDbEntity
  8
0
100
AcDbLine
 10
68.627407714791
 20
811.919151786045
 30
0.0
 11
69.678023619703
 21
811.354141635387
 31
0.0
  0
LINE
  5
1C71
330
1D
100
AcDbEntity
  8
0
100
AcDbLine
 10
68.627407714791
 20
811.919151786045
 30
0.0
 11
69.876092631705
 21
810.862112341051
 31
0.0
  0
LINE
  5
1C72
330
1D
100
AcDbEntity
  8
0
100
AcDbLine
 10
67.954509193335
 20
811.014544783075
 30
0.0
 11
68.47524832502
 21
810.866609943596
 31
0.0
  0
LINE
  5
1C73
330
1D
100
AcDbEntity
  8
0
100
AcDbLine
 10
69.801013343911
 20
810.074116331833
 30
0.0
 11
69.896861770313
 21
810.051781770271
 31
0.0
  0
LINE
  5
1C74
330
1D
100
AcDbEntity
  8
0
100
AcDbLine
 10
69.801013343911
 20
810.074116331833
 30
0.0
 11
70.00401774003
 21
809.980011203619
 31
0.0
  0
LINE
  5
1C75
330
1D
100
AcDbEntity
  8
0
100
AcDbLine
 10
72.641561893779
 20
807.602140231606
 30
0.0
 11
73.031015709209
 21
807.330096092768
 31
0.0
  0
LINE
  5
1C76
330
1D
100
AcDbEntity
  8
0
100
AcDbLine
 10
72.641561893779
 20
807.602140231606
 30
0.0
 11
73.031015709209
 21
807.330096092768
 31
0.0
  0
LINE
  5
1C77
330
1D
100
AcDbEntity
  8
0
100
AcDbLine
 10
72.658940033225
 20
807.618119694447
 30
0.0
 11
73.040153037922
 21
807.345444210165
 31
0.0
  0
LINE
  5
1C78
330
1D
100
AcDbEntity
  8
0
100
AcDbLine
 10
72.647909372285
 20
807.607976834381
 30
0.0
 11
73.031818164219
 21
807.331443989302
 31
0.0
  0
LINE
  5
1C79
330
1D
100
AcDbEntity
  8
0
100
AcDbLine
 10
72.647835570607
 20
807.60790897262
 30
0.0
 11
73.031813587447
 21
807.331436301622
 31
0.0
  0
LINE
  5
1C7A
330
1D
100
AcDbEntity
  8
0
100
AcDbLine
 10
70.167515923901
 20
809.733035184801
 30
0.0
 11
70.342275421629
 21
809.597271635496
 31
0.0
  0
LINE
  5
1C7B
330
1D
100
AcDbEntity
  8
0
100
AcDbLine
 10
72.666214954805
 20
807.624809095197
 30
0.0
 11
73.060055324114
 21
807.349376503652
 31
0.0
  0
LINE
  5
1C7C
330
1D
100
AcDbEntity
  8
0
100
AcDbLine
 10
69.886897144053
 20
809.971113114052
 30
0.0
 11
70.167515923901
 21
809.733035184801
 31
0.0
  0
LINE
  5
1C7D
330
1D
100
AcDbEntity
  8
0
100
AcDbLine
 10
70.127651290393
 20
809.358175525444
 30
0.0
 11
69.800841546305
 21
808.891561483005
 31
0.0
  0
LINE
  5
1C7E
330
1D
100
AcDbEntity
  8
0
100
AcDbLine
 10
72.894518333685
 20
807.425443241793
 30
0.0
 11
72.403447717516
 21
806.71776724077
 31
0.0
  0
LINE
  5
1C7F
330
1D
100
AcDbEntity
  8
0
100
AcDbLine
 10
70.190342803427
 20
809.838025391826
 30
0.0
 11
70.396949363424
 21
809.682537180977
 31
0.0
  0
LINE
  5
1C80
330
1D
100
AcDbEntity
  8
0
100
AcDbLine
 10
70.00401774003
 20
809.980011203619
 30
0.0
 11
70.482293836463
 21
809.675681669099
 31
0.0
  0
LINE
  5
1C81
330
1D
100
AcDbEntity
  8
0
100
AcDbLine
 10
69.914114211731
 20
810.021687064926
 30
0.0
 11
69.886897144053
 21
809.971113114052
 31
0.0
  0
LINE
  5
1C82
330
1D
100
AcDbEntity
  8
0
100
AcDbLine
 10
70.369367717735
 20
809.703294608721
 30
0.0
 11
70.311730358552
 21
809.621000853255
 31
0.0
  0
LINE
  5
1C83
330
1D
100
AcDbEntity
  8
0
100
AcDbLine
 10
70.482293836463
 20
809.675681669099
 30
0.0
 11
70.968772451855
 21
809.336011525038
 31
0.0
  0
LINE
  5
1C84
330
1D
100
AcDbEntity
  8
0
100
AcDbLine
 10
70.418558297478
 20
809.716236919625
 30
0.0
 11
69.898709647624
 21
808.90551837178
 31
0.0
  0
LINE
  5
1C85
330
1D
100
AcDbEntity
  8
0
100
AcDbLine
 10
71.859425631354
 20
808.720380366106
 30
0.0
 11
72.468530335718
 21
808.276378767998
 31
0.0
  0
LINE
  5
1C86
330
1D
100
AcDbEntity
  8
0
100
AcDbLine
 10
70.968772451855
 20
809.336011525038
 30
0.0
 11
71.859425631354
 21
808.720380366106
 31
0.0
  0
LINE
  5
1C87
330
1D
100
AcDbEntity
  8
0
100
AcDbLine
 10
70.709412801186
 20
809.517102177574
 30
0.0
 11
70.247188214994
 21
808.818320160309
 31
0.0
  0
LINE
  5
1C88
330
1D
100
AcDbEntity
  8
0
100
AcDbLine
 10
73.047656389057
 20
807.35804770925
 30
0.0
 11
72.712665789201
 21
806.795358632972
 31
0.0
  0
LINE
  5
1C89
330
1D
100
AcDbEntity
  8
0
100
AcDbLine
 10
69.876092631705
 20
810.862112341051
 30
0.0
 11
70.516697888634
 21
810.494544735303
 31
0.0
  0
LINE
  5
1C8A
330
1D
100
AcDbEntity
  8
0
100
AcDbLine
 10
69.876092631705
 20
810.862112341051
 30
0.0
 11
70.240426243084
 21
810.655350014649
 31
0.0
  0
LINE
  5
1C8B
330
1D
100
AcDbEntity
  8
0
100
AcDbLine
 10
69.876092631705
 20
810.862112341051
 30
0.0
 11
70.474151927256
 21
810.558963996169
 31
0.0
  0
LINE
  5
1C8C
330
1D
100
AcDbEntity
  8
0
100
AcDbLine
 10
69.876092631705
 20
810.862112341051
 30
0.0
 11
70.227302647864
 21
810.938408897655
 31
0.0
  0
LINE
  5
1C8D
330
1D
100
AcDbEntity
  8
0
100
AcDbLine
 10
69.876092631705
 20
810.862112341051
 30
0.0
 11
70.53445271723
 21
810.576377345316
 31
0.0
  0
LINE
  5
1C8E
330
1D
100
AcDbEntity
  8
0
100
AcDbLine
 10
69.866718893952
 20
811.21274142886
 30
0.0
 11
69.876092631705
 21
810.862112341051
 31
0.0
  0
LINE
  5
1C8F
330
1D
100
AcDbEntity
  8
0
100
AcDbLine
 10
69.678023619703
 20
811.354141635387
 30
0.0
 11
70.047496913267
 21
811.077274076177
 31
0.0
  0
LINE
  5
1C90
330
1D
100
AcDbEntity
  8
0
100
AcDbLine
 10
70.355696990647
 20
810.579905781298
 30
0.0
 11
70.283691514827
 21
810.439723886459
 31
0.0
  0
LINE
  5
1C91
330
1D
100
AcDbEntity
  8
0
100
AcDbLine
 10
70.367199443057
 20
810.808056809847
 30
0.0
 11
70.53445271723
 21
810.576377345316
 31
0.0
  0
LINE
  5
1C92
330
1D
100
AcDbEntity
  8
0
100
AcDbLine
 10
70.437358363419
 20
810.742684606467
 30
0.0
 11
70.53445271723
 21
810.576377345316
 31
0.0
  0
LINE
  5
1C93
330
1D
100
AcDbEntity
  8
0
100
AcDbLine
 10
70.35770562671
 20
810.816902893707
 30
0.0
 11
70.53445271723
 21
810.576377345316
 31
0.0
  0
LINE
  5
1C94
330
1D
100
AcDbEntity
  8
0
100
AcDbLine
 10
70.047496913267
 20
811.077274076177
 30
0.0
 11
70.227302647864
 21
810.938408897655
 31
0.0
  0
LINE
  5
1C95
330
1D
100
AcDbEntity
  8
0
100
AcDbLine
 10
69.328539219197
 20
813.033511995556
 30
0.0
 11
68.627407714791
 21
811.919151786045
 31
0.0
  0
LINE
  5
1C96
330
1D
100
AcDbEntity
  8
0
100
AcDbLine
 10
70.556276854557
 20
814.140102321662
 30
0.0
 11
70.642361726877
 21
813.360598867688
 31
0.0
  0
LINE
  5
1C97
330
1D
100
AcDbEntity
  8
0
100
AcDbLine
 10
70.915965215386
 20
813.809568990386
 30
0.0
 11
70.80867933314
 21
813.661486245035
 31
0.0
  0
LINE
  5
1C98
330
1D
100
AcDbEntity
  8
0
100
AcDbLine
 10
70.915965215386
 20
813.809568990386
 30
0.0
 11
71.714287400784
 21
813.528839052008
 31
0.0
  0
LINE
  5
1C99
330
1D
100
AcDbEntity
  8
0
100
AcDbLine
 10
70.915965215386
 20
813.809568990386
 30
0.0
 11
72.248443069858
 21
812.995516671833
 31
0.0
  0
LINE
  5
1C9A
330
1D
100
AcDbEntity
  8
0
100
AcDbLine
 10
70.999463097877
 20
813.680946021252
 30
0.0
 11
71.050929359474
 21
813.727115181457
 31
0.0
  0
LINE
  5
1C9B
330
1D
100
AcDbEntity
  8
0
100
AcDbLine
 10
72.192327097478
 20
813.029799671186
 30
0.0
 11
72.360457255385
 21
812.744746194621
 31
0.0
  0
LINE
  5
1C9C
330
1D
100
AcDbEntity
  8
0
100
AcDbLine
 10
72.166988269155
 20
813.045279952435
 30
0.0
 11
72.097189971216
 21
812.511894101897
 31
0.0
  0
LINE
  5
1C9D
330
1D
100
AcDbEntity
  8
0
100
AcDbLine
 10
70.642361726877
 20
813.360598867688
 30
0.0
 11
72.097189971216
 21
812.511894101897
 31
0.0
  0
LINE
  5
1C9E
330
1D
100
AcDbEntity
  8
0
100
AcDbLine
 10
70.642361726877
 20
813.360598867688
 30
0.0
 11
70.926029071144
 21
813.615070100997
 31
0.0
  0
LINE
  5
1C9F
330
1D
100
AcDbEntity
  8
0
100
AcDbLine
 10
69.51095092436
 20
811.7928789195
 30
0.0
 11
70.574526710344
 21
811.028623865564
 31
0.0
  0
LINE
  5
1CA0
330
1D
100
AcDbEntity
  8
0
100
AcDbLine
 10
70.80867933314
 20
813.661486245035
 30
0.0
 11
70.642361726877
 21
813.360598867688
 31
0.0
  0
LINE
  5
1CA1
330
1D
100
AcDbEntity
  8
0
100
AcDbLine
 10
70.80867933314
 20
813.661486245035
 30
0.0
 11
71.800474187739
 21
813.269194846599
 31
0.0
  0
LINE
  5
1CA2
330
1D
100
AcDbEntity
  8
0
100
AcDbLine
 10
70.80867933314
 20
813.661486245035
 30
0.0
 11
71.108325776171
 21
813.692049918696
 31
0.0
  0
LINE
  5
1CA3
330
1D
100
AcDbEntity
  8
0
100
AcDbLine
 10
72.640995955181
 20
813.841383873127
 30
0.0
 11
73.286070325547
 21
813.281565423362
 31
0.0
  0
LINE
  5
1CA4
330
1D
100
AcDbEntity
  8
0
100
AcDbLine
 10
71.780327875227
 20
814.369847699844
 30
0.0
 11
72.640995955181
 21
813.841383873127
 31
0.0
  0
LINE
  5
1CA5
330
1D
100
AcDbEntity
  8
0
100
AcDbLine
 10
70.563625582851
 20
814.758703935136
 30
0.0
 11
71.780327875227
 21
814.369847699844
 31
0.0
  0
LINE
  5
1CA6
330
1D
100
AcDbEntity
  8
0
100
AcDbLine
 10
70.563625582851
 20
814.758703935136
 30
0.0
 11
70.556276854557
 21
814.140102321662
 31
0.0
  0
LINE
  5
1CA7
330
1D
100
AcDbEntity
  8
0
100
AcDbLine
 10
71.714287400784
 20
813.528839052008
 30
0.0
 11
72.248443069858
 21
812.995516671833
 31
0.0
  0
LINE
  5
1CA8
330
1D
100
AcDbEntity
  8
0
100
AcDbLine
 10
72.289005678867
 20
812.865887580236
 30
0.0
 11
72.097189971216
 21
812.511894101897
 31
0.0
  0
LINE
  5
1CA9
330
1D
100
AcDbEntity
  8
0
100
AcDbLine
 10
72.233966053148
 20
812.959203597157
 30
0.0
 11
72.097189971216
 21
812.511894101897
 31
0.0
  0
LINE
  5
1CAA
330
1D
100
AcDbEntity
  8
0
100
AcDbLine
 10
72.097189971216
 20
812.511894101897
 30
0.0
 11
73.452681253794
 21
812.574693328433
 31
0.0
  0
LINE
  5
1CAB
330
1D
100
AcDbEntity
  8
0
100
AcDbLine
 10
72.097189971216
 20
812.511894101897
 30
0.0
 11
72.360457255385
 21
812.744746194621
 31
0.0
  0
LINE
  5
1CAC
330
1D
100
AcDbEntity
  8
0
100
AcDbLine
 10
72.248443069858
 20
812.995516671833
 30
0.0
 11
72.360457255385
 21
812.744746194621
 31
0.0
  0
LINE
  5
1CAD
330
1D
100
AcDbEntity
  8
0
100
AcDbLine
 10
70.574526710344
 20
811.028623865564
 30
0.0
 11
70.828778104731
 21
810.377970172381
 31
0.0
  0
LINE
  5
1CAE
330
1D
100
AcDbEntity
  8
0
100
AcDbLine
 10
70.574526710344
 20
811.028623865564
 30
0.0
 11
71.279513452311
 21
811.623162813482
 31
0.0
  0
LINE
  5
1CAF
330
1D
100
AcDbEntity
  8
0
100
AcDbLine
 10
70.227302647864
 20
810.938408897655
 30
0.0
 11
70.828778104731
 21
810.377970172381
 31
0.0
  0
LINE
  5
1CB0
330
1D
100
AcDbEntity
  8
0
100
AcDbLine
 10
70.227302647864
 20
810.938408897655
 30
0.0
 11
70.53445271723
 21
810.576377345316
 31
0.0
  0
LINE
  5
1CB1
330
1D
100
AcDbEntity
  8
0
100
AcDbLine
 10
70.516697888634
 20
810.494544735303
 30
0.0
 11
70.828778104731
 21
810.377970172381
 31
0.0
  0
LINE
  5
1CB2
330
1D
100
AcDbEntity
  8
0
100
AcDbLine
 10
70.561338305172
 20
810.627163416497
 30
0.0
 11
70.53445271723
 21
810.576377345316
 31
0.0
  0
LINE
  5
1CB3
330
1D
100
AcDbEntity
  8
0
100
AcDbLine
 10
72.301583450567
 20
812.485108698829
 30
0.0
 11
72.34707236753
 21
812.523471027116
 31
0.0
  0
LINE
  5
1CB4
330
1D
100
AcDbEntity
  8
0
100
AcDbLine
 10
70.828778104731
 20
810.377970172381
 30
0.0
 11
71.74954852491
 21
811.203540555414
 31
0.0
  0
LINE
  5
1CB5
330
1D
100
AcDbEntity
  8
0
100
AcDbLine
 10
73.286070325547
 20
813.281565423362
 30
0.0
 11
73.452681253794
 21
812.574693328433
 31
0.0
  0
LINE
  5
1CB6
330
1D
100
AcDbEntity
  8
0
100
AcDbLine
 10
70.53445271723
 20
810.576377345316
 30
0.0
 11
70.828778104731
 21
810.377970172381
 31
0.0
  0
LINE
  5
1CB7
330
1D
100
AcDbEntity
  8
0
100
AcDbLine
 10
70.474151927256
 20
810.558963996169
 30
0.0
 11
70.53445271723
 21
810.576377345316
 31
0.0
  0
LINE
  5
1CB8
330
1D
100
AcDbEntity
  8
0
100
AcDbLine
 10
70.240426243084
 20
810.655350014649
 30
0.0
 11
70.474151927256
 21
810.558963996169
 31
0.0
  0
LINE
  5
1CB9
330
1D
100
AcDbEntity
  8
0
100
AcDbLine
 10
66.790940691122
 20
812.006559571603
 30
0.0
 11
67.954509193335
 21
811.014544783075
 31
0.0
  0
LINE
  5
1CBA
330
1D
100
AcDbEntity
  8
0
100
AcDbLine
 10
66.790940691122
 20
812.006559571603
 30
0.0
 11
67.443086937739
 21
812.763483288896
 31
0.0
  0
LINE
  5
1CBB
330
1D
100
AcDbEntity
  8
0
100
AcDbLine
 10
66.933219571688
 20
811.78874570578
 30
0.0
 11
67.954509193335
 21
811.014544783075
 31
0.0
  0
LINE
  5
1CBC
330
1D
100
AcDbEntity
  8
0
100
AcDbLine
 10
73.883627961819
 20
806.838018106821
 30
0.0
 11
74.292408678947
 21
806.554459873538
 31
0.0
  0
LINE
  5
1CBD
330
1D
100
AcDbEntity
  8
0
100
AcDbLine
 10
73.408453002687
 20
805.785699980977
 30
0.0
 11
74.278694658334
 21
805.229752401815
 31
0.0
  0
LINE
  5
1CBE
330
1D
100
AcDbEntity
  8
0
100
AcDbLine
 10
73.408453002687
 20
805.785699980977
 30
0.0
 11
74.226229235512
 21
805.257458527637
 31
0.0
  0
LINE
  5
1CBF
330
1D
100
AcDbEntity
  8
0
100
AcDbLine
 10
73.408453002687
 20
805.785699980977
 30
0.0
 11
74.401549347411
 21
805.173920821396
 31
0.0
  0
LINE
  5
1CC0
330
1D
100
AcDbEntity
  8
0
100
AcDbLine
 10
74.331171580973
 20
805.204450677624
 30
0.0
 11
74.413607921529
 21
805.161844365367
 31
0.0
  0
LINE
  5
1CC1
330
1D
100
AcDbEntity
  8
0
100
AcDbLine
 10
74.278694658334
 20
805.229752401815
 30
0.0
 11
74.401549347411
 21
805.173920821396
 31
0.0
  0
LINE
  5
1CC2
330
1D
100
AcDbEntity
  8
0
100
AcDbLine
 10
74.278694658334
 20
805.229752401815
 30
0.0
 11
75.121659512276
 21
804.823317283968
 31
0.0
  0
LINE
  5
1CC3
330
1D
100
AcDbEntity
  8
0
100
AcDbLine
 10
74.226229235512
 20
805.257458527637
 30
0.0
 11
74.278694658334
 21
805.229752401815
 31
0.0
  0
LINE
  5
1CC4
330
1D
100
AcDbEntity
  8
0
100
AcDbLine
 10
74.226229235512
 20
805.257458527637
 30
0.0
 11
74.280263610482
 21
805.231260451295
 31
0.0
  0
LINE
  5
1CC5
330
1D
100
AcDbEntity
  8
0
100
AcDbLine
 10
74.077562265664
 20
805.403874688208
 30
0.0
 11
74.255690781289
 21
805.280123640045
 31
0.0
  0
LINE
  5
1CC6
330
1D
100
AcDbEntity
  8
0
100
AcDbLine
 10
74.923540466067
 20
806.11181754921
 30
0.0
 11
75.496951874032
 21
805.695285909096
 31
0.0
  0
LINE
  5
1CC7
330
1D
100
AcDbEntity
  8
0
100
AcDbLine
 10
74.292408678947
 20
806.554459873538
 30
0.0
 11
74.923540466067
 21
806.11181754921
 31
0.0
  0
LINE
  5
1CC8
330
1D
100
AcDbEntity
  8
0
100
AcDbLine
 10
75.496951874032
 20
805.695285909096
 30
0.0
 11
75.906130250617
 21
805.403508072146
 31
0.0
  0
LINE
  5
1CC9
330
1D
100
AcDbEntity
  8
0
100
AcDbLine
 10
75.744770050491
 20
805.463689250215
 30
0.0
 11
75.883704152835
 21
805.371359804602
 31
0.0
  0
LINE
  5
1CCA
330
1D
100
AcDbEntity
  8
0
100
AcDbLine
 10
75.906130250617
 20
805.403508072146
 30
0.0
 11
76.079673771459
 21
805.268069944672
 31
0.0
  0
LINE
  5
1CCB
330
1D
100
AcDbEntity
  8
0
100
AcDbLine
 10
75.906130250617
 20
805.403508072146
 30
0.0
 11
78.1774842008
 21
803.940629030028
 31
0.0
  0
LINE
  5
1CCC
330
1D
100
AcDbEntity
  8
0
100
AcDbLine
 10
75.853345445487
 20
805.374827515189
 30
0.0
 11
75.958231315734
 21
805.362846970742
 31
0.0
  0
LINE
  5
1CCD
330
1D
100
AcDbEntity
  8
0
100
AcDbLine
 10
75.853345445487
 20
805.374827515189
 30
0.0
 11
78.127993603976
 21
803.869197129744
 31
0.0
  0
LINE
  5
1CCE
330
1D
100
AcDbEntity
  8
0
100
AcDbLine
 10
75.997226879839
 20
805.34228689284
 30
0.0
 11
76.079673771459
 21
805.268069944672
 31
0.0
  0
LINE
  5
1CCF
330
1D
100
AcDbEntity
  8
0
100
AcDbLine
 10
75.736805973192
 20
805.455504551792
 30
0.0
 11
75.853345445487
 21
805.374827515189
 31
0.0
  0
LINE
  5
1CD0
330
1D
100
AcDbEntity
  8
0
100
AcDbLine
 10
75.121659512276
 20
804.823317283968
 30
0.0
 11
75.776297171293
 21
805.496089736324
 31
0.0
  0
LINE
  5
1CD1
330
1D
100
AcDbEntity
  8
0
100
AcDbLine
 10
74.413607921529
 20
805.161844365367
 30
0.0
 11
75.015421888659
 21
804.870949282962
 31
0.0
  0
LINE
  5
1CD2
330
1D
100
AcDbEntity
  8
0
100
AcDbLine
 10
74.353351942468
 20
805.195824236807
 30
0.0
 11
75.121659512276
 21
804.823317283968
 31
0.0
  0
LINE
  5
1CD3
330
1D
100
AcDbEntity
  8
0
100
AcDbLine
 10
74.255690781289
 20
805.280123640045
 30
0.0
 11
74.401549347411
 21
805.173920821396
 31
0.0
  0
LINE
  5
1CD4
330
1D
100
AcDbEntity
  8
0
100
AcDbLine
 10
75.709666246188
 20
807.147398794752
 30
0.0
 11
75.21379154647
 21
806.448390974074
 31
0.0
  0
LINE
  5
1CD5
330
1D
100
AcDbEntity
  8
0
100
AcDbLine
 10
75.982202298068
 20
805.993554556414
 30
0.0
 11
77.165771969713
 21
805.330298103478
 31
0.0
  0
LINE
  5
1CD6
330
1D
100
AcDbEntity
  8
0
100
AcDbLine
 10
76.937951404973
 20
805.223698852629
 30
0.0
 11
77.186164428914
 21
804.906552427857
 31
0.0
  0
LINE
  5
1CD7
330
1D
100
AcDbEntity
  8
0
100
AcDbLine
 10
77.186164428914
 20
804.906552427857
 30
0.0
 11
78.025212845323
 21
804.666579502465
 31
0.0
  0
LINE
  5
1CD8
330
1D
100
AcDbEntity
  8
0
100
AcDbLine
 10
76.476405636652
 20
805.6475331407
 30
0.0
 11
76.937951404973
 21
805.223698852629
 31
0.0
  0
LINE
  5
1CD9
330
1D
100
AcDbEntity
  8
0
100
AcDbLine
 10
78.025212845323
 20
804.666579502465
 30
0.0
 11
78.575041750378
 21
805.229583792547
 31
0.0
  0
LINE
  5
1CDA
330
1D
100
AcDbEntity
  8
0
100
AcDbLine
 10
78.393790854647
 20
804.252833697576
 30
0.0
 11
77.925679910526
 21
803.577189101879
 31
0.0
  0
LINE
  5
1CDB
330
1D
100
AcDbEntity
  8
0
100
AcDbLine
 10
77.165771969713
 20
805.330298103478
 30
0.0
 11
78.025212845323
 21
804.666579502465
 31
0.0
  0
LINE
  5
1CDC
330
1D
100
AcDbEntity
  8
0
100
AcDbLine
 10
75.21379154647
 20
806.448390974074
 30
0.0
 11
75.6315515995
 21
805.855695615485
 31
0.0
  0
LINE
  5
1CDD
330
1D
100
AcDbEntity
  8
0
100
AcDbLine
 10
75.21379154647
 20
806.448390974074
 30
0.0
 11
75.982202298068
 21
805.993554556414
 31
0.0
  0
LINE
  5
1CDE
330
1D
100
AcDbEntity
  8
0
100
AcDbLine
 10
75.6315515995
 20
805.855695615485
 30
0.0
 11
76.476405636652
 21
805.6475331407
 31
0.0
  0
LINE
  5
1CDF
330
1D
100
AcDbEntity
  8
0
100
AcDbLine
 10
75.6315515995
 20
805.855695615485
 30
0.0
 11
77.186164428914
 21
804.906552427857
 31
0.0
  0
LINE
  5
1CE0
330
1D
100
AcDbEntity
  8
0
100
AcDbLine
 10
75.6315515995
 20
805.855695615485
 30
0.0
 11
76.586372050376
 21
805.546551743249
 31
0.0
  0
LINE
  5
1CE1
330
1D
100
AcDbEntity
  8
0
100
AcDbLine
 10
78.420696392554
 20
803.112346018117
 30
0.0
 11
78.522692958945
 21
803.022322352093
 31
0.0
  0
LINE
  5
1CE2
330
1D
100
AcDbEntity
  8
0
100
AcDbLine
 10
78.522692958945
 20
803.022322352093
 30
0.0
 11
78.733197608889
 21
802.975322060783
 31
0.0
  0
LINE
  5
1CE3
330
1D
100
AcDbEntity
  8
0
100
AcDbLine
 10
78.522692958945
 20
803.022322352093
 30
0.0
 11
78.836099207576
 21
802.824874730383
 31
0.0
  0
LINE
  5
1CE4
330
1D
100
AcDbEntity
  8
0
100
AcDbLine
 10
78.559071669627
 20
803.077888684286
 30
0.0
 11
78.522692958945
 21
803.022322352093
 31
0.0
  0
LINE
  5
1CE5
330
1D
100
AcDbEntity
  8
0
100
AcDbLine
 10
78.836099207576
 20
802.824874730383
 30
0.0
 11
79.08024073302
 21
802.66622708447
 31
0.0
  0
LINE
  5
1CE6
330
1D
100
AcDbEntity
  8
0
100
AcDbLine
 10
79.08024073302
 20
802.66622708447
 30
0.0
 11
80.178438747272
 21
802.124021534607
 31
0.0
  0
LINE
  5
1CE7
330
1D
100
AcDbEntity
  8
0
100
AcDbLine
 10
79.08024073302
 20
802.66622708447
 30
0.0
 11
79.739155505947
 21
802.298699776615
 31
0.0
  0
LINE
  5
1CE8
330
1D
100
AcDbEntity
  8
0
100
AcDbLine
 10
78.737849557459
 20
804.03792922885
 30
0.0
 11
79.420609132012
 21
803.622588581482
 31
0.0
  0
LINE
  5
1CE9
330
1D
100
AcDbEntity
  8
0
100
AcDbLine
 10
79.485479748505
 20
803.4774298645
 30
0.0
 11
80.024552951437
 21
803.242444052416
 31
0.0
  0
LINE
  5
1CEA
330
1D
100
AcDbEntity
  8
0
100
AcDbLine
 10
78.929378054356
 20
803.921417395321
 30
0.0
 11
79.485479748505
 21
803.4774298645
 31
0.0
  0
LINE
  5
1CEB
330
1D
100
AcDbEntity
  8
0
100
AcDbLine
 10
80.024552951437
 20
803.242444052416
 30
0.0
 11
80.594716605725
 21
802.868713604996
 31
0.0
  0
LINE
  5
1CEC
330
1D
100
AcDbEntity
  8
0
100
AcDbLine
 10
78.855189818469
 20
803.96654805488
 30
0.0
 11
78.356261836819
 21
803.197351182826
 31
0.0
  0
LINE
  5
1CED
330
1D
100
AcDbEntity
  8
0
100
AcDbLine
 10
80.672849026795
 20
804.707350332242
 30
0.0
 11
81.913110554118
 21
804.167662659748
 31
0.0
  0
LINE
  5
1CEE
330
1D
100
AcDbEntity
  8
0
100
AcDbLine
 10
80.672849026795
 20
804.707350332242
 30
0.0
 11
81.021346042458
 21
804.863883138932
 31
0.0
  0
LINE
  5
1CEF
330
1D
100
AcDbEntity
  8
0
100
AcDbLine
 10
80.055798977762
 20
803.221962930355
 30
0.0
 11
79.732578350165
 21
802.718685479969
 31
0.0
  0
LINE
  5
1CF0
330
1D
100
AcDbEntity
  8
0
100
AcDbLine
 10
79.732578350165
 20
802.718685479969
 30
0.0
 11
80.362953479827
 21
802.015335527311
 31
0.0
  0
LINE
  5
1CF1
330
1D
100
AcDbEntity
  8
0
100
AcDbLine
 10
80.594716605725
 20
802.868713604996
 30
0.0
 11
81.275437173489
 21
802.399604077676
 31
0.0
  0
LINE
  5
1CF2
330
1D
100
AcDbEntity
  8
0
100
AcDbLine
 10
79.989134456264
 20
802.181234826957
 30
0.0
 11
80.35525842076
 21
802.019868201935
 31
0.0
  0
LINE
  5
1CF3
330
1D
100
AcDbEntity
  8
0
100
AcDbLine
 10
79.739155505947
 20
802.298699776615
 30
0.0
 11
80.337593404901
 21
802.030273550147
 31
0.0
  0
LINE
  5
1CF4
330
1D
100
AcDbEntity
  8
0
100
AcDbLine
 10
79.739155505947
 20
802.298699776615
 30
0.0
 11
79.989134456264
 21
802.181234826957
 31
0.0
  0
LINE
  5
1CF5
330
1D
100
AcDbEntity
  8
0
100
AcDbLine
 10
80.787858818614
 20
804.959802979768
 30
0.0
 11
80.672849026795
 21
804.707350332242
 31
0.0
  0
LINE
  5
1CF6
330
1D
100
AcDbEntity
  8
0
100
AcDbLine
 10
81.593622612469
 20
804.587059014032
 30
0.0
 11
81.913110554118
 21
804.167662659748
 31
0.0
  0
LINE
  5
1CF7
330
1D
100
AcDbEntity
  8
0
100
AcDbLine
 10
81.795576655481
 20
804.489368921239
 30
0.0
 11
81.913110554118
 21
804.167662659748
 31
0.0
  0
LINE
  5
1CF8
330
1D
100
AcDbEntity
  8
0
100
AcDbLine
 10
80.876174019615
 20
804.934106384631
 30
0.0
 11
81.996904162175
 21
804.391981899335
 31
0.0
  0
LINE
  5
1CF9
330
1D
100
AcDbEntity
  8
0
100
AcDbLine
 10
80.80001141734
 20
805.373841154708
 30
0.0
 11
82.651172824144
 21
804.372066880752
 31
0.0
  0
LINE
  5
1CFA
330
1D
100
AcDbEntity
  8
0
100
AcDbLine
 10
80.214105020514
 20
805.126745011156
 30
0.0
 11
80.876174019615
 21
804.934106384631
 31
0.0
  0
LINE
  5
1CFB
330
1D
100
AcDbEntity
  8
0
100
AcDbLine
 10
80.214105020514
 20
805.126745011156
 30
0.0
 11
80.80001141734
 21
805.373841154708
 31
0.0
  0
LINE
  5
1CFC
330
1D
100
AcDbEntity
  8
0
100
AcDbLine
 10
80.214105020514
 20
805.126745011156
 30
0.0
 11
80.672849026795
 21
804.707350332242
 31
0.0
  0
LINE
  5
1CFD
330
1D
100
AcDbEntity
  8
0
100
AcDbLine
 10
81.913110554118
 20
804.167662659748
 30
0.0
 11
82.875648464529
 21
803.945733704851
 31
0.0
  0
LINE
  5
1CFE
330
1D
100
AcDbEntity
  8
0
100
AcDbLine
 10
81.913110554118
 20
804.167662659748
 30
0.0
 11
82.093320912874
 21
804.270277455855
 31
0.0
  0
LINE
  5
1CFF
330
1D
100
AcDbEntity
  8
0
100
AcDbLine
 10
81.913110554118
 20
804.167662659748
 30
0.0
 11
82.049531895452
 21
804.325551233048
 31
0.0
  0
LINE
  5
1D00
330
1D
100
AcDbEntity
  8
0
100
AcDbLine
 10
81.913110554118
 20
804.167662659748
 30
0.0
 11
82.129377408579
 21
804.22476424667
 31
0.0
  0
LINE
  5
1D01
330
1D
100
AcDbEntity
  8
0
100
AcDbLine
 10
81.913110554118
 20
804.167662659748
 30
0.0
 11
82.215615853524
 21
804.115907622976
 31
0.0
  0
LINE
  5
1D02
330
1D
100
AcDbEntity
  8
0
100
AcDbLine
 10
81.996904162175
 20
804.391981899335
 30
0.0
 11
82.097866297203
 21
804.317838408113
 31
0.0
  0
LINE
  5
1D03
330
1D
100
AcDbEntity
  8
0
100
AcDbLine
 10
81.996904162175
 20
804.391981899335
 30
0.0
 11
82.215615853524
 21
804.115907622976
 31
0.0
  0
LINE
  5
1D04
330
1D
100
AcDbEntity
  8
0
100
AcDbLine
 10
81.374856190231
 20
806.1139053029
 30
0.0
 11
80.80001141734
 21
805.373841154708
 31
0.0
  0
LINE
  5
1D05
330
1D
100
AcDbEntity
  8
0
100
AcDbLine
 10
80.874500554146
 20
806.254394975014
 30
0.0
 11
80.214105020514
 21
805.126745011156
 31
0.0
  0
LINE
  5
1D06
330
1D
100
AcDbEntity
  8
0
100
AcDbLine
 10
82.097866297203
 20
804.317838408113
 30
0.0
 11
82.17806572194
 21
804.237619568232
 31
0.0
  0
LINE
  5
1D07
330
1D
100
AcDbEntity
  8
0
100
AcDbLine
 10
80.362953479827
 20
802.015335527311
 30
0.0
 11
81.003031554614
 21
802.587328787582
 31
0.0
  0
LINE
  5
1D08
330
1D
100
AcDbEntity
  8
0
100
AcDbLine
 10
82.212743537875
 20
804.223109512827
 30
0.0
 11
82.215615853524
 21
804.115907622976
 31
0.0
  0
LINE
  5
1D09
330
1D
100
AcDbEntity
  8
0
100
AcDbLine
 10
80.363808660227
 20
802.016099742561
 30
0.0
 11
80.673368419326
 21
801.879663402925
 31
0.0
  0
LINE
  5
1D0A
330
1D
100
AcDbEntity
  8
0
100
AcDbLine
 10
80.593908612029
 20
802.221724066847
 30
0.0
 11
82.289144773245
 21
801.088976875839
 31
0.0
  0
LINE
  5
1D0B
330
1D
100
AcDbEntity
  8
0
100
AcDbLine
 10
80.873642937367
 20
802.471703178869
 30
0.0
 11
81.180984499685
 21
802.297929831128
 31
0.0
  0
LINE
  5
1D0C
330
1D
100
AcDbEntity
  8
0
100
AcDbLine
 10
81.083494695444
 20
802.489779324401
 30
0.0
 11
81.266160222008
 21
802.405997165428
 31
0.0
  0
LINE
  5
1D0D
330
1D
100
AcDbEntity
  8
0
100
AcDbLine
 10
80.967713496805
 20
802.555767495564
 30
0.0
 11
81.083494695444
 21
802.489779324401
 31
0.0
  0
LINE
  5
1D0E
330
1D
100
AcDbEntity
  8
0
100
AcDbLine
 10
81.1238783932
 20
802.373000015636
 30
0.0
 11
81.36361514727
 21
802.25577468242
 31
0.0
  0
LINE
  5
1D0F
330
1D
100
AcDbEntity
  8
0
100
AcDbLine
 10
81.1238783932
 20
802.373000015636
 30
0.0
 11
81.433374238788
 21
802.174003604705
 31
0.0
  0
LINE
  5
1D10
330
1D
100
AcDbEntity
  8
0
100
AcDbLine
 10
81.180984499685
 20
802.297929831128
 30
0.0
 11
81.433374238788
 21
802.174003604705
 31
0.0
  0
LINE
  5
1D11
330
1D
100
AcDbEntity
  8
0
100
AcDbLine
 10
81.275437173489
 20
802.399604077676
 30
0.0
 11
81.534505995849
 21
802.14984542361
 31
0.0
  0
LINE
  5
1D12
330
1D
100
AcDbEntity
  8
0
100
AcDbLine
 10
81.36361514727
 20
802.25577468242
 30
0.0
 11
81.443581730677
 21
802.237502139245
 31
0.0
  0
LINE
  5
1D13
330
1D
100
AcDbEntity
  8
0
100
AcDbLine
 10
81.134370313081
 20
802.367869726753
 30
0.0
 11
81.199321446758
 21
802.436653726625
 31
0.0
  0
LINE
  5
1D14
330
1D
100
AcDbEntity
  8
0
100
AcDbLine
 10
80.673368419326
 20
801.879663402925
 30
0.0
 11
80.840671041915
 21
802.05683881033
 31
0.0
  0
LINE
  5
1D15
330
1D
100
AcDbEntity
  8
0
100
AcDbLine
 10
80.673368419326
 20
801.879663402925
 30
0.0
 11
80.840671041915
 21
802.05683881033
 31
0.0
  0
LINE
  5
1D16
330
1D
100
AcDbEntity
  8
0
100
AcDbLine
 10
82.875648464529
 20
803.945733704851
 30
0.0
 11
83.727485816292
 21
804.83949160392
 31
0.0
  0
LINE
  5
1D17
330
1D
100
AcDbEntity
  8
0
100
AcDbLine
 10
80.391935311137
 20
802.041234574369
 30
0.0
 11
80.673368419326
 21
801.879663402925
 31
0.0
  0
LINE
  5
1D18
330
1D
100
AcDbEntity
  8
0
100
AcDbLine
 10
80.375630027551
 20
802.026663676403
 30
0.0
 11
80.673368419326
 21
801.879663402925
 31
0.0
  0
LINE
  5
1D19
330
1D
100
AcDbEntity
  8
0
100
AcDbLine
 10
80.3656080454
 20
802.017707727949
 30
0.0
 11
80.673368419326
 21
801.879663402925
 31
0.0
  0
LINE
  5
1D1A
330
1D
100
AcDbEntity
  8
0
100
AcDbLine
 10
82.651172824144
 20
804.372066880752
 30
0.0
 11
82.875648464529
 21
803.945733704851
 31
0.0
  0
LINE
  5
1D1B
330
1D
100
AcDbEntity
  8
0
100
AcDbLine
 10
82.651172824144
 20
804.372066880752
 30
0.0
 11
83.389836646314
 21
805.118302180421
 31
0.0
  0
LINE
  5
1D1C
330
1D
100
AcDbEntity
  8
0
100
AcDbLine
 10
82.17806572194
 20
804.237619568232
 30
0.0
 11
82.875648464529
 21
803.945733704851
 31
0.0
  0
LINE
  5
1D1D
330
1D
100
AcDbEntity
  8
0
100
AcDbLine
 10
82.17806572194
 20
804.237619568232
 30
0.0
 11
82.215615853524
 21
804.115907622976
 31
0.0
  0
LINE
  5
1D1E
330
1D
100
AcDbEntity
  8
0
100
AcDbLine
 10
78.356261836819
 20
803.197351182826
 30
0.0
 11
78.522692958945
 21
803.022322352093
 31
0.0
  0
LINE
  5
1D1F
330
1D
100
AcDbEntity
  8
0
100
AcDbLine
 10
78.356261836819
 20
803.197351182826
 30
0.0
 11
80.362953479827
 21
802.015335527311
 31
0.0
  0
LINE
  5
1D20
330
1D
100
AcDbEntity
  8
0
100
AcDbLine
 10
78.356261836819
 20
803.197351182826
 30
0.0
 11
79.732578350165
 21
802.718685479969
 31
0.0
  0
LINE
  5
1D21
330
1D
100
AcDbEntity
  8
0
100
AcDbLine
 10
77.925679910526
 20
803.577189101879
 30
0.0
 11
78.522692958945
 21
803.022322352093
 31
0.0
  0
LINE
  5
1D22
330
1D
100
AcDbEntity
  8
0
100
AcDbLine
 10
77.925679910526
 20
803.577189101879
 30
0.0
 11
78.356261836819
 21
803.197351182826
 31
0.0
  0
LINE
  5
1D23
330
1D
100
AcDbEntity
  8
0
100
AcDbLine
 10
73.513184977558
 20
805.898068897674
 30
0.0
 11
74.077562265664
 21
805.403874688208
 31
0.0
  0
LINE
  5
1D24
330
1D
100
AcDbEntity
  8
0
100
AcDbLine
 10
73.513184977558
 20
805.898068897674
 30
0.0
 11
75.121659512276
 21
804.823317283968
 31
0.0
  0
LINE
  5
1D25
330
1D
100
AcDbEntity
  8
0
100
AcDbLine
 10
73.513184977558
 20
805.898068897674
 30
0.0
 11
74.393419865529
 21
806.483615990653
 31
0.0
  0
LINE
  5
1D26
330
1D
100
AcDbEntity
  8
0
100
AcDbLine
 10
73.424629377199
 20
805.817424024031
 30
0.0
 11
74.077562265664
 21
805.403874688208
 31
0.0
  0
LINE
  5
1D27
330
1D
100
AcDbEntity
  8
0
100
AcDbLine
 10
153.290954672291
 20
697.265478927596
 30
0.0
 11
154.085453874023
 21
697.740941886035
 31
0.0
  0
LINE
  5
1D28
330
1D
100
AcDbEntity
  8
0
100
AcDbLine
 10
154.085453874023
 20
697.740941886035
 30
0.0
 11
154.992314361425
 21
698.294305752572
 31
0.0
  0
LINE
  5
1D29
330
1D
100
AcDbEntity
  8
0
100
AcDbLine
 10
82.289144773245
 20
801.088976875839
 30
0.0
 11
83.224889168315
 21
800.536417678019
 31
0.0
  0
LINE
  5
1D2A
330
1D
100
AcDbEntity
  8
0
100
AcDbLine
 10
83.224889168315
 20
800.536417678019
 30
0.0
 11
83.828387666603
 21
800.175966845637
 31
0.0
  0
LINE
  5
1D2B
330
1D
100
AcDbEntity
  8
0
100
AcDbLine
 10
83.828387666603
 20
800.175966845637
 30
0.0
 11
84.542211796266
 21
799.746308607137
 31
0.0
  0
LINE
  5
1D2C
330
1D
100
AcDbEntity
  8
0
100
AcDbLine
 10
84.542211796266
 20
799.746308607137
 30
0.0
 11
85.048850814825
 21
799.470138894817
 31
0.0
  0
LINE
  5
1D2D
330
1D
100
AcDbEntity
  8
0
100
AcDbLine
 10
84.893250786092
 20
799.960860763085
 30
0.0
 11
85.735775746191
 21
799.273871111335
 31
0.0
  0
LINE
  5
1D2E
330
1D
100
AcDbEntity
  8
0
100
AcDbLine
 10
85.002997111515
 20
800.211442075349
 30
0.0
 11
84.893250786092
 21
799.960860763085
 31
0.0
  0
LINE
  5
1D2F
330
1D
100
AcDbEntity
  8
0
100
AcDbLine
 10
85.002997111515
 20
800.211442075349
 30
0.0
 11
85.39281624587
 21
800.063055241396
 31
0.0
  0
LINE
  5
1D30
330
1D
100
AcDbEntity
  8
0
100
AcDbLine
 10
86.092695553411
 20
798.768908725396
 30
0.0
 11
87.471525099531
 21
797.823409342663
 31
0.0
  0
LINE
  5
1D31
330
1D
100
AcDbEntity
  8
0
100
AcDbLine
 10
85.048850814825
 20
799.470138894817
 30
0.0
 11
86.092695553411
 21
798.768908725396
 31
0.0
  0
LINE
  5
1D32
330
1D
100
AcDbEntity
  8
0
100
AcDbLine
 10
86.192530798806
 20
799.154014880691
 30
0.0
 11
86.211670175973
 21
799.06004664664
 31
0.0
  0
LINE
  5
1D33
330
1D
100
AcDbEntity
  8
0
100
AcDbLine
 10
86.128919321295
 20
799.466326935312
 30
0.0
 11
86.190657291203
 21
799.163213205144
 31
0.0
  0
LINE
  5
1D34
330
1D
100
AcDbEntity
  8
0
100
AcDbLine
 10
85.931590782822
 20
799.626293016743
 30
0.0
 11
85.735775746191
 21
799.273871111335
 31
0.0
  0
LINE
  5
1D35
330
1D
100
AcDbEntity
  8
0
100
AcDbLine
 10
85.565418192352
 20
799.744475301552
 30
0.0
 11
85.735775746191
 21
799.273871111335
 31
0.0
  0
LINE
  5
1D36
330
1D
100
AcDbEntity
  8
0
100
AcDbLine
 10
85.565418192352
 20
799.744475301552
 30
0.0
 11
85.898572962034
 21
799.653059197904
 31
0.0
  0
LINE
  5
1D37
330
1D
100
AcDbEntity
  8
0
100
AcDbLine
 10
85.565418192352
 20
799.744475301552
 30
0.0
 11
85.711767962799
 21
799.804494281498
 31
0.0
  0
LINE
  5
1D38
330
1D
100
AcDbEntity
  8
0
100
AcDbLine
 10
86.333564013535
 20
799.128448640947
 30
0.0
 11
86.458931359487
 21
799.198799830601
 31
0.0
  0
LINE
  5
1D39
330
1D
100
AcDbEntity
  8
0
100
AcDbLine
 10
86.211670175973
 20
799.06004664664
 30
0.0
 11
86.593943924027
 21
799.048680820687
 31
0.0
  0
LINE
  5
1D3A
330
1D
100
AcDbEntity
  8
0
100
AcDbLine
 10
86.211670175973
 20
799.06004664664
 30
0.0
 11
86.319670791984
 21
799.120652315223
 31
0.0
  0
LINE
  5
1D3B
330
1D
100
AcDbEntity
  8
0
100
AcDbLine
 10
85.735775746191
 20
799.273871111335
 30
0.0
 11
86.211670175973
 21
799.06004664664
 31
0.0
  0
LINE
  5
1D3C
330
1D
100
AcDbEntity
  8
0
100
AcDbLine
 10
85.735775746191
 20
799.273871111335
 30
0.0
 11
86.69328468168
 21
799.022613000105
 31
0.0
  0
LINE
  5
1D3D
330
1D
100
AcDbEntity
  8
0
100
AcDbLine
 10
85.735775746191
 20
799.273871111335
 30
0.0
 11
86.636672943526
 21
799.054712082696
 31
0.0
  0
LINE
  5
1D3E
330
1D
100
AcDbEntity
  8
0
100
AcDbLine
 10
85.39281624587
 20
800.063055241396
 30
0.0
 11
86.636672943526
 21
799.054712082696
 31
0.0
  0
LINE
  5
1D3F
330
1D
100
AcDbEntity
  8
0
100
AcDbLine
 10
85.39281624587
 20
800.063055241396
 30
0.0
 11
85.565418192352
 21
799.744475301552
 31
0.0
  0
LINE
  5
1D40
330
1D
100
AcDbEntity
  8
0
100
AcDbLine
 10
86.636672943526
 20
799.054712082696
 30
0.0
 11
86.69328468168
 21
799.022613000105
 31
0.0
  0
LINE
  5
1D41
330
1D
100
AcDbEntity
  8
0
100
AcDbLine
 10
88.129549293486
 20
797.344364292412
 30
0.0
 11
90.117813086776
 21
795.882149192561
 31
0.0
  0
LINE
  5
1D42
330
1D
100
AcDbEntity
  8
0
100
AcDbLine
 10
87.471525099531
 20
797.823409342663
 30
0.0
 11
88.129549293486
 21
797.344364292412
 31
0.0
  0
LINE
  5
1D43
330
1D
100
AcDbEntity
  8
0
100
AcDbLine
 10
93.506779582944
 20
793.12865979445
 30
0.0
 11
94.886873628134
 21
791.87663406531
 31
0.0
  0
LINE
  5
1D44
330
1D
100
AcDbEntity
  8
0
100
AcDbLine
 10
90.151076606819
 20
795.856653802427
 30
0.0
 11
91.878491641902
 21
794.494955605229
 31
0.0
  0
LINE
  5
1D45
330
1D
100
AcDbEntity
  8
0
100
AcDbLine
 10
94.886873628134
 20
791.87663406531
 30
0.0
 11
96.505223460502
 21
790.278482376616
 31
0.0
  0
LINE
  5
1D46
330
1D
100
AcDbEntity
  8
0
100
AcDbLine
 10
96.505223460502
 20
790.278482376616
 30
0.0
 11
98.036533208833
 21
788.612382003089
 31
0.0
  0
LINE
  5
1D47
330
1D
100
AcDbEntity
  8
0
100
AcDbLine
 10
98.036533208833
 20
788.612382003089
 30
0.0
 11
99.481815431236
 21
786.874872493012
 31
0.0
  0
LINE
  5
1D48
330
1D
100
AcDbEntity
  8
0
100
AcDbLine
 10
103.342884292347
 20
781.809047319385
 30
0.0
 11
109.541012442122
 21
769.646463200911
 31
0.0
  0
LINE
  5
1D49
330
1D
100
AcDbEntity
  8
0
100
AcDbLine
 10
100.874898841634
 20
785.026168255562
 30
0.0
 11
101.114253230147
 21
784.542095580685
 31
0.0
  0
LINE
  5
1D4A
330
1D
100
AcDbEntity
  8
0
100
AcDbLine
 10
100.862052579127
 20
785.052148663496
 30
0.0
 11
101.114253230147
 21
784.542095580685
 31
0.0
  0
LINE
  5
1D4B
330
1D
100
AcDbEntity
  8
0
100
AcDbLine
 10
101.114253230147
 20
784.542095580685
 30
0.0
 11
101.288298494808
 21
784.158339595913
 31
0.0
  0
LINE
  5
1D4C
330
1D
100
AcDbEntity
  8
0
100
AcDbLine
 10
99.481815431236
 20
786.874872493012
 30
0.0
 11
100.846185925145
 21
785.064271997224
 31
0.0
  0
LINE
  5
1D4D
330
1D
100
AcDbEntity
  8
0
100
AcDbLine
 10
109.541012442122
 20
769.646463200911
 30
0.0
 11
117.162556055724
 21
754.264152282328
 31
0.0
  0
LINE
  5
1D4E
330
1D
100
AcDbEntity
  8
0
100
AcDbLine
 10
117.162556055724
 20
754.264152282328
 30
0.0
 11
130.052620571004
 21
730.004758554703
 31
0.0
  0
LINE
  5
1D4F
330
1D
100
AcDbEntity
  8
0
100
AcDbLine
 10
130.052620571004
 20
730.004758554703
 30
0.0
 11
145.556500108509
 21
703.205332159553
 31
0.0
  0
LINE
  5
1D50
330
1D
100
AcDbEntity
  8
0
100
AcDbLine
 10
130.052620571004
 20
730.004758554703
 30
0.0
 11
145.556500108509
 21
703.205332159553
 31
0.0
  0
LINE
  5
1D51
330
1D
100
AcDbEntity
  8
0
100
AcDbLine
 10
139.619615330303
 20
768.818112758708
 30
0.0
 11
150.962921016493
 21
750.105051817225
 31
0.0
  0
LINE
  5
1D52
330
1D
100
AcDbEntity
  8
0
100
AcDbLine
 10
131.393912442299
 20
781.630659061387
 30
0.0
 11
139.619615330303
 21
768.818112758708
 31
0.0
  0
LINE
  5
1D53
330
1D
100
AcDbEntity
  8
0
100
AcDbLine
 10
149.12881327252
 20
707.265072280624
 30
0.0
 11
150.317465351663
 21
708.633425227655
 31
0.0
  0
LINE
  5
1D54
330
1D
100
AcDbEntity
  8
0
100
AcDbLine
 10
154.992314361425
 20
698.294305752572
 30
0.0
 11
156.001466698967
 21
698.91823741272
 31
0.0
  0
LINE
  5
1D55
330
1D
100
AcDbEntity
  8
0
100
AcDbLine
 10
154.967820085996
 20
714.754231452726
 30
0.0
 11
154.57015817153
 21
713.572462096302
 31
0.0
  0
LINE
  5
1D56
330
1D
100
AcDbEntity
  8
0
100
AcDbLine
 10
153.474578581799
 20
712.26565573048
 30
0.0
 11
154.201096066941
 21
713.123343455723
 31
0.0
  0
LINE
  5
1D57
330
1D
100
AcDbEntity
  8
0
100
AcDbLine
 10
150.317465351663
 20
708.633425227655
 30
0.0
 11
151.624388431863
 21
710.136505169787
 31
0.0
  0
LINE
  5
1D58
330
1D
100
AcDbEntity
  8
0
100
AcDbLine
 10
158.417865491786
 20
737.338500179829
 30
0.0
 11
172.945338030206
 21
711.814812196204
 31
0.0
  0
LINE
  5
1D59
330
1D
100
AcDbEntity
  8
0
100
AcDbLine
 10
150.962921016493
 20
750.105051817225
 30
0.0
 11
158.417865491786
 21
737.338500179829
 31
0.0
  0
LINE
  5
1D5A
330
1D
100
AcDbEntity
  8
0
100
AcDbLine
 10
115.694184459445
 20
803.473504829839
 30
0.0
 11
120.339668395849
 21
797.405632975834
 31
0.0
  0
LINE
  5
1D5B
330
1D
100
AcDbEntity
  8
0
100
AcDbLine
 10
120.339668395849
 20
797.405632975834
 30
0.0
 11
124.879201742919
 21
791.14926517328
 31
0.0
  0
LINE
  5
1D5C
330
1D
100
AcDbEntity
  8
0
100
AcDbLine
 10
124.879201742919
 20
791.14926517328
 30
0.0
 11
131.393912442299
 21
781.630659061387
 31
0.0
  0
LINE
  5
1D5D
330
1D
100
AcDbEntity
  8
0
100
AcDbLine
 10
124.879201742919
 20
791.14926517328
 30
0.0
 11
126.324273405385
 21
789.010127980312
 31
0.0
  0
LINE
  5
1D5E
330
1D
100
AcDbEntity
  8
0
100
AcDbLine
 10
110.918124526571
 20
809.359314965886
 30
0.0
 11
115.694184459445
 21
803.473504829839
 31
0.0
  0
LINE
  5
1D5F
330
1D
100
AcDbEntity
  8
0
100
AcDbLine
 10
172.945338030206
 20
711.814812196204
 30
0.0
 11
173.286320791003
 21
711.027939451194
 31
0.0
  0
LINE
  5
1D60
330
1D
100
AcDbEntity
  8
0
100
AcDbLine
 10
76.122495065193
 20
843.921277691207
 30
0.0
 11
87.920066128084
 21
833.44886636353
 31
0.0
  0
LINE
  5
1D61
330
1D
100
AcDbEntity
  8
0
100
AcDbLine
 10
63.429611871592
 20
854.372143982266
 30
0.0
 11
76.122495065193
 21
843.921277691207
 31
0.0
  0
LINE
  5
1D62
330
1D
100
AcDbEntity
  8
0
100
AcDbLine
 10
87.920066128084
 20
833.44886636353
 30
0.0
 11
94.328702803029
 21
827.327560619774
 31
0.0
  0
LINE
  5
1D63
330
1D
100
AcDbEntity
  8
0
100
AcDbLine
 10
94.328702803029
 20
827.327560619774
 30
0.0
 11
100.446276531822
 21
821.102072481259
 31
0.0
  0
LINE
  5
1D64
330
1D
100
AcDbEntity
  8
0
100
AcDbLine
 10
100.446276531822
 20
821.102072481259
 30
0.0
 11
105.774387879551
 21
815.315666748319
 31
0.0
  0
LINE
  5
1D65
330
1D
100
AcDbEntity
  8
0
100
AcDbLine
 10
105.774387879551
 20
815.315666748319
 30
0.0
 11
110.918124526571
 21
809.359314965886
 31
0.0
  0
LINE
  5
1D73
330
1D
100
AcDbEntity
  8
0
100
AcDbLine
 10
172.043248458778
 20
708.962568542206
 30
0.0
 11
172.245447818966
 21
709.087399625248
 31
0.0
  0
LINE
  5
1D74
330
1D
100
AcDbEntity
  8
0
100
AcDbLine
 10
173.326855046139
 20
710.597083356702
 30
0.0
 11
172.983067259942
 21
709.689541402817
 31
0.0
  0
LINE
  5
1D75
330
1D
100
AcDbEntity
  8
0
100
AcDbLine
 10
172.597491384218
 20
709.37160083595
 30
0.0
 11
172.983067259942
 21
709.689541402817
 31
0.0
  0
LINE
  5
1D76
330
1D
100
AcDbEntity
  8
0
100
AcDbLine
 10
172.245447818966
 20
709.087399625248
 30
0.0
 11
172.556856033858
 21
709.341611872984
 31
0.0
  0
LINE
  5
1D77
330
1D
100
AcDbEntity
  8
0
100
AcDbLine
 10
173.286320791003
 20
711.027939451194
 30
0.0
 11
173.326855046139
 21
710.597083356702
 31
0.0
  0
LINE
  5
1D7B
330
1D
100
AcDbEntity
  8
0
100
AcDbLine
 10
-4.008242661341
 20
889.029946876202
 30
0.0
 11
-3.680542366029
 21
888.563078807737
 31
0.0
  0
LINE
  5
1D7C
330
1D
100
AcDbEntity
  8
0
100
AcDbLine
 10
-3.680542366029
 20
888.563078807737
 30
0.0
 11
76.028134891999
 21
822.234209583511
 31
0.0
  0
LINE
  5
1D7D
330
1D
100
AcDbEntity
  8
0
100
AcDbLine
 10
76.028134891999
 20
822.234209583511
 30
0.0
 11
83.904441651343
 21
815.625203486707
 31
0.0
  0
LINE
  5
1D7E
330
1D
100
AcDbEntity
  8
0
100
AcDbLine
 10
83.904441651343
 20
815.625203486707
 30
0.0
 11
89.993099012235
 21
809.898619073302
 31
0.0
  0
LINE
  5
1D7F
330
1D
100
AcDbEntity
  8
0
100
AcDbLine
 10
89.993099012235
 20
809.898619073302
 30
0.0
 11
91.942277552374
 21
807.98502948707
 31
0.0
  0
LINE
  5
1D80
330
1D
100
AcDbEntity
  8
0
100
AcDbLine
 10
91.942277552374
 20
807.98502948707
 30
0.0
 11
97.704001861421
 21
802.321765571641
 31
0.0
  0
LINE
  5
1D81
330
1D
100
AcDbEntity
  8
0
100
AcDbLine
 10
97.704001861421
 20
802.321765571641
 30
0.0
 11
101.46400335037
 21
798.405860272638
 31
0.0
  0
LINE
  5
1D82
330
1D
100
AcDbEntity
  8
0
100
AcDbLine
 10
101.46400335037
 20
798.405860272638
 30
0.0
 11
104.237685052256
 21
795.454535641733
 31
0.0
  0
LINE
  5
1D83
330
1D
100
AcDbEntity
  8
0
100
AcDbLine
 10
104.237685052256
 20
795.454535641733
 30
0.0
 11
108.835661046568
 21
790.162326406247
 31
0.0
  0
LINE
  5
1D84
330
1D
100
AcDbEntity
  8
0
100
AcDbLine
 10
108.835661046568
 20
790.162326406247
 30
0.0
 11
111.445762970902
 21
787.229376045643
 31
0.0
  0
LINE
  5
1D85
330
1D
100
AcDbEntity
  8
0
100
AcDbLine
 10
111.445762970902
 20
787.229376045643
 30
0.0
 11
114.793814663619
 21
783.000199348847
 31
0.0
  0
LINE
  5
1D86
330
1D
100
AcDbEntity
  8
0
100
AcDbLine
 10
114.793814663619
 20
783.000199348847
 30
0.0
 11
116.997692550341
 21
779.810442584354
 31
0.0
  0
LINE
  5
1D87
330
1D
100
AcDbEntity
  8
0
100
AcDbLine
 10
116.997692550341
 20
779.810442584354
 30
0.0
 11
120.806139184232
 21
774.141280419479
 31
0.0
  0
LINE
  5
1D88
330
1D
100
AcDbEntity
  8
0
100
AcDbLine
 10
120.806139184232
 20
774.141280419479
 30
0.0
 11
126.997485357904
 21
764.412178777264
 31
0.0
  0
LINE
  5
1D89
330
1D
100
AcDbEntity
  8
0
100
AcDbLine
 10
126.997485357904
 20
764.412178777264
 30
0.0
 11
130.348176181618
 21
759.044596551151
 31
0.0
  0
LINE
  5
1D8A
330
1D
100
AcDbEntity
  8
0
100
AcDbLine
 10
130.348176181618
 20
759.044596551151
 30
0.0
 11
147.977339463335
 21
730.081328209966
 31
0.0
  0
LINE
  5
1D8B
330
1D
100
AcDbEntity
  8
0
100
AcDbLine
 10
147.977339463335
 20
730.081328209966
 30
0.0
 11
154.125002689782
 21
717.660929660487
 31
0.0
  0
LINE
  5
1D8C
330
1D
100
AcDbEntity
  8
0
100
AcDbLine
 10
154.125002689782
 20
717.660929660487
 30
0.0
 11
154.979682170884
 21
715.598365397852
 31
0.0
  0
LINE
  5
1D8D
330
1D
100
AcDbEntity
  8
0
100
AcDbLine
 10
154.979682170884
 20
715.598365397852
 30
0.0
 11
154.967820085996
 21
714.754231452726
 31
0.0
  0
LINE
  5
1D8E
330
1D
100
AcDbEntity
  8
0
100
AcDbLine
 10
154.57015817153
 20
713.572462096302
 30
0.0
 11
154.201096066941
 21
713.123343455723
 31
0.0
  0
LINE
  5
1D8F
330
1D
100
AcDbEntity
  8
0
100
AcDbLine
 10
149.12881327252
 20
707.265072280624
 30
0.0
 11
145.457531776493
 21
703.040714579514
 31
0.0
  0
LINE
  5
1D90
330
1D
100
AcDbEntity
  8
0
100
AcDbLine
 10
172.245447818966
 20
709.087399625248
 30
0.0
 11
156.001466698967
 21
698.91823741272
 31
0.0
  0
LINE
  5
1D91
330
1D
100
AcDbEntity
  8
0
100
AcDbLine
 10
151.624388431863
 20
710.136505169787
 30
0.0
 11
153.474578581799
 21
712.26565573048
 31
0.0
  0
LINE
  5
1D92
330
1D
100
AcDbEntity
  8
0
100
AcDbLine
 10
-1.567787607634
 20
882.818434850678
 30
0.0
 11
48.138464594895
 21
841.387624121714
 31
0.0
  0
LINE
  5
1D93
330
1D
100
AcDbEntity
  8
0
100
AcDbLine
 10
48.138464594895
 20
841.387624121714
 30
0.0
 11
57.123192610818
 21
833.687350310854
 31
0.0
  0
LINE
  5
1D94
330
1D
100
AcDbEntity
  8
0
100
AcDbLine
 10
57.123192610818
 20
833.687350310854
 30
0.0
 11
78.702921864489
 21
814.351815381176
 31
0.0
  0
LINE
  5
1D95
330
1D
100
AcDbEntity
  8
0
100
AcDbLine
 10
78.702921864489
 20
814.351815381176
 30
0.0
 11
86.50896538268
 21
807.057001409826
 31
0.0
  0
LINE
  5
1D96
330
1D
100
AcDbEntity
  8
0
100
AcDbLine
 10
86.50896538268
 20
807.057001409826
 30
0.0
 11
92.068655611361
 21
801.522974032819
 31
0.0
  0
LINE
  5
1D97
330
1D
100
AcDbEntity
  8
0
100
AcDbLine
 10
92.068655611361
 20
801.522974032819
 30
0.0
 11
93.679527416325
 21
799.774083703783
 31
0.0
  0
LINE
  5
1D98
330
1D
100
AcDbEntity
  8
0
100
AcDbLine
 10
93.679527416325
 20
799.774083703783
 30
0.0
 11
95.595083274954
 21
797.323670006167
 31
0.0
  0
LINE
  5
1D99
330
1D
100
AcDbEntity
  8
0
100
AcDbLine
 10
95.595083274954
 20
797.323670006167
 30
0.0
 11
96.783524065016
 21
795.648102852958
 31
0.0
  0
LINE
  5
1D9A
330
1D
100
AcDbEntity
  8
0
100
AcDbLine
 10
96.783524065016
 20
795.648102852958
 30
0.0
 11
97.773468043262
 21
794.11772262082
 31
0.0
  0
LINE
  5
1D9B
330
1D
100
AcDbEntity
  8
0
100
AcDbLine
 10
97.773468043262
 20
794.11772262082
 30
0.0
 11
99.477922729142
 21
791.202174397327
 31
0.0
  0
LINE
  5
1D9C
330
1D
100
AcDbEntity
  8
0
100
AcDbLine
 10
99.477922729142
 20
791.202174397327
 30
0.0
 11
100.808981398811
 21
788.290028201587
 31
0.0
  0
LINE
  5
1D9D
330
1D
100
AcDbEntity
  8
0
100
AcDbLine
 10
100.808981398811
 20
788.290028201587
 30
0.0
 11
101.977495994045
 21
785.376176112837
 31
0.0
  0
LINE
  5
1D9E
330
1D
100
AcDbEntity
  8
0
100
AcDbLine
 10
101.977495994045
 20
785.376176112837
 30
0.0
 11
103.342884292347
 21
781.809047319385
 31
0.0
  0
LINE
  5
1D9F
330
1D
100
AcDbEntity
  8
0
100
AcDbLine
 10
101.288298494808
 20
784.158339595913
 30
0.0
 11
103.342884292347
 21
781.809047319385
 31
0.0
  0
LINE
  5
1DA0
330
1D
100
AcDbEntity
  8
0
100
AcDbLine
 10
91.878491641902
 20
794.494955605229
 30
0.0
 11
93.506779582944
 21
793.12865979445
 31
0.0
  0
ENDSEC
  0
SECTION
  2
OBJECTS
  0
DICTIONARY
  5
C
330
0
100
AcDbDictionary
281
     1
  3
ACAD_GROUP
350
D
  3
ACAD_LAYOUT
350
1A
  3
ACAD_MLEADERSTYLE
350
1DA3
  3
ACAD_MLINESTYLE
350
17
  3
ACAD_PLOTSETTINGS
350
19
  3
ACAD_PLOTSTYLENAME
350
E
  3
ACAD_SCALELIST
350
130C
  3
AcDbVariableDictionary
350
1DA1
  3
DWGPROPS
350
1DA6
  0
DICTIONARY
  5
D
102
{ACAD_REACTORS
330
C
102
}
330
C
100
AcDbDictionary
281
     1
  0
DICTIONARY
  5
1A
102
{ACAD_REACTORS
330
C
102
}
330
C
100
AcDbDictionary
281
     1
  3
Layout1
350
1C
  3
Model
350
1E
  0
DICTIONARY
  5
1DA3
102
{ACAD_REACTORS
330
C
102
}
330
C
100
AcDbDictionary
281
     1
  0
DICTIONARY
  5
17
102
{ACAD_REACTORS
330
C
102
}
330
C
100
AcDbDictionary
281
     1
  3
Standard
350
18
  0
DICTIONARY
  5
19
102
{ACAD_REACTORS
330
C
102
}
330
C
100
AcDbDictionary
281
     1
  0
ACDBDICTIONARYWDFLT
  5
E
102
{ACAD_REACTORS
330
C
102
}
330
C
100
AcDbDictionary
281
     1
  3
Normal
350
F
100
AcDbDictionaryWithDefault
340
F
  0
DICTIONARY
  5
130C
102
{ACAD_REACTORS
330
C
102
}
330
C
100
AcDbDictionary
281
     1
  3
A0
350
130D
  3
A1
350
130E
  3
A2
350
130F
  3
A3
350
1310
  3
A4
350
1311
  3
A5
350
1312
  3
A6
350
1313
  3
A7
350
1314
  3
A8
350
1315
  3
A9
350
1316
  3
B0
350
1317
  3
B1
350
1318
  3
B2
350
1319
  3
B3
350
131A
  3
B4
350
131B
  3
B5
350
131C
  3
B6
350
131D
  3
B7
350
131E
  3
B8
350
131F
  3
B9
350
1320
  3
C0
350
1321
  3
C1
350
1322
  3
C2
350
1323
  3
C3
350
1324
  3
C4
350
1325
  3
C5
350
1326
  3
C6
350
1327
  3
C7
350
1328
  3
C8
350
1329
  3
C9
350
132A
  3
D0
350
132B
  3
D1
350
132C
  3
D2
350
132D
  0
DICTIONARY
  5
1DA1
102
{ACAD_REACTORS
330
C
102
}
330
C
100
AcDbDictionary
281
     1
  3
CANNOSCALE
350
1DA4
  0
XRECORD
  5
1DA6
102
{ACAD_REACTORS
330
C
102
}
330
C
100
AcDbXrecord
280
     1
  1
DWGPROPS COOKIE
  2

  3

  4

  6

  7

  8
MARTIN
  9

300
=
301
=
302
=
303
=
304
=
305
=
306
=
307
=
308
=
309
=
 40
0.0
 41
2455824.92438566
 42
2455824.925307072
  1

 90
        0
  0
LAYOUT
  5
1C
102
{ACAD_REACTORS
330
1A
102
}
330
1A
100
AcDbPlotSettings
  1

  2
none_device
  4

  6

 40
0.0
 41
0.0
 42
0.0
 43
0.0
 44
0.0
 45
0.0
 46
0.0
 47
0.0
 48
0.0
 49
0.0
140
0.0
141
0.0
142
1.0
143
1.0
 70
   688
 72
     0
 73
     0
 74
     5
  7

 75
    16
147
1.0
148
0.0
149
0.0
100
AcDbLayout
  1
Layout1
 70
     1
 71
     1
 10
0.0
 20
0.0
 11
12.0
 21
9.0
 12
0.0
 22
0.0
 32
0.0
 14
1.000000000000E+20
 24
1.000000000000E+20
 34
1.000000000000E+20
 15
-1.000000000000E+20
 25
-1.000000000000E+20
 35
-1.000000000000E+20
146
0.0
 13
0.0
 23
0.0
 33
0.0
 16
1.0
 26
0.0
 36
0.0
 17
0.0
 27
1.0
 37
0.0
 76
     0
330
1B
  0
LAYOUT
  5
1E
102
{ACAD_REACTORS
330
1A
102
}
330
1A
100
AcDbPlotSettings
  1

  2
none_device
  4

  6

 40
0.0
 41
0.0
 42
0.0
 43
0.0
 44
0.0
 45
0.0
 46
0.0
 47
0.0
 48
0.0
 49
0.0
140
0.0
141
0.0
142
1.0
143
1.0
 70
  1712
 72
     0
 73
     0
 74
     0
  7

 75
     0
147
1.0
148
0.0
149
0.0
100
AcDbLayout
  1
Model
 70
     1
 71
     0
 10
0.0
 20
0.0
 11
12.0
 21
9.0
 12
0.0
 22
0.0
 32
0.0
 14
-4.113528779721
 24
0.0
 34
0.0
 15
217.94954
 25
1008.0
 35
0.0
146
0.0
 13
0.0
 23
0.0
 33
0.0
 16
1.0
 26
0.0
 36
0.0
 17
0.0
 27
1.0
 37
0.0
 76
     0
330
1D
331
1307
  0
MLINESTYLE
  5
18
102
{ACAD_REACTORS
330
17
102
}
330
17
100
AcDbMlineStyle
  2
Standard
 70
     0
  3

 62
   256
 51
90.0
 52
90.0
 71
     2
 49
0.5
 62
   256
  6
BYLAYER
 49
-0.5
 62
   256
  6
BYLAYER
  0
ACDBPLACEHOLDER
  5
F
102
{ACAD_REACTORS
330
E
102
}
330
E
  0
SCALE
  5
130D
102
{ACAD_REACTORS
330
130C
102
}
330
130C
100
AcDbScale
 70
     0
300
1:1
140
1.0
141
1.0
290
     1
  0
SCALE
  5
130E
102
{ACAD_REACTORS
330
130C
102
}
330
130C
100
AcDbScale
 70
     0
300
1:2
140
1.0
141
2.0
290
     0
  0
SCALE
  5
130F
102
{ACAD_REACTORS
330
130C
102
}
330
130C
100
AcDbScale
 70
     0
300
1:4
140
1.0
141
4.0
290
     0
  0
SCALE
  5
1310
102
{ACAD_REACTORS
330
130C
102
}
330
130C
100
AcDbScale
 70
     0
300
1:5
140
1.0
141
5.0
290
     0
  0
SCALE
  5
1311
102
{ACAD_REACTORS
330
130C
102
}
330
130C
100
AcDbScale
 70
     0
300
1:8
140
1.0
141
8.0
290
     0
  0
SCALE
  5
1312
102
{ACAD_REACTORS
330
130C
102
}
330
130C
100
AcDbScale
 70
     0
300
1:10
140
1.0
141
10.0
290
     0
  0
SCALE
  5
1313
102
{ACAD_REACTORS
330
130C
102
}
330
130C
100
AcDbScale
 70
     0
300
1:16
140
1.0
141
16.0
290
     0
  0
SCALE
  5
1314
102
{ACAD_REACTORS
330
130C
102
}
330
130C
100
AcDbScale
 70
     0
300
1:20
140
1.0
141
20.0
290
     0
  0
SCALE
  5
1315
102
{ACAD_REACTORS
330
130C
102
}
330
130C
100
AcDbScale
 70
     0
300
1:30
140
1.0
141
30.0
290
     0
  0
SCALE
  5
1316
102
{ACAD_REACTORS
330
130C
102
}
330
130C
100
AcDbScale
 70
     0
300
1:40
140
1.0
141
40.0
290
     0
  0
SCALE
  5
1317
102
{ACAD_REACTORS
330
130C
102
}
330
130C
100
AcDbScale
 70
     0
300
1:50
140
1.0
141
50.0
290
     0
  0
SCALE
  5
1318
102
{ACAD_REACTORS
330
130C
102
}
330
130C
100
AcDbScale
 70
     0
300
1:100
140
1.0
141
100.0
290
     0
  0
SCALE
  5
1319
102
{ACAD_REACTORS
330
130C
102
}
330
130C
100
AcDbScale
 70
     0
300
2:1
140
2.0
141
1.0
290
     0
  0
SCALE
  5
131A
102
{ACAD_REACTORS
330
130C
102
}
330
130C
100
AcDbScale
 70
     0
300
4:1
140
4.0
141
1.0
290
     0
  0
SCALE
  5
131B
102
{ACAD_REACTORS
330
130C
102
}
330
130C
100
AcDbScale
 70
     0
300
8:1
140
8.0
141
1.0
290
     0
  0
SCALE
  5
131C
102
{ACAD_REACTORS
330
130C
102
}
330
130C
100
AcDbScale
 70
     0
300
10:1
140
10.0
141
1.0
290
     0
  0
SCALE
  5
131D
102
{ACAD_REACTORS
330
130C
102
}
330
130C
100
AcDbScale
 70
     0
300
100:1
140
100.0
141
1.0
290
     0
  0
SCALE
  5
131E
102
{ACAD_REACTORS
330
130C
102
}
330
130C
100
AcDbScale
 70
     0
300
1/128" = 1'-0"
140
0.0078125
141
12.0
290
     0
  0
SCALE
  5
131F
102
{ACAD_REACTORS
330
130C
102
}
330
130C
100
AcDbScale
 70
     0
300
1/64" = 1'-0"
140
0.015625
141
12.0
290
     0
  0
SCALE
  5
1320
102
{ACAD_REACTORS
330
130C
102
}
330
130C
100
AcDbScale
 70
     0
300
1/32" = 1'-0"
140
0.03125
141
12.0
290
     0
  0
SCALE
  5
1321
102
{ACAD_REACTORS
330
130C
102
}
330
130C
100
AcDbScale
 70
     0
300
1/16" = 1'-0"
140
0.0625
141
12.0
290
     0
  0
SCALE
  5
1322
102
{ACAD_REACTORS
330
130C
102
}
330
130C
100
AcDbScale
 70
     0
300
3/32" = 1'-0"
140
0.09375
141
12.0
290
     0
  0
SCALE
  5
1323
102
{ACAD_REACTORS
330
130C
102
}
330
130C
100
AcDbScale
 70
     0
300
1/8" = 1'-0"
140
0.125
141
12.0
290
     0
  0
SCALE
  5
1324
102
{ACAD_REACTORS
330
130C
102
}
330
130C
100
AcDbScale
 70
     0
300
3/16" = 1'-0"
140
0.1875
141
12.0
290
     0
  0
SCALE
  5
1325
102
{ACAD_REACTORS
330
130C
102
}
330
130C
100
AcDbScale
 70
     0
300
1/4" = 1'-0"
140
0.25
141
12.0
290
     0
  0
SCALE
  5
1326
102
{ACAD_REACTORS
330
130C
102
}
330
130C
100
AcDbScale
 70
     0
300
3/8" = 1'-0"
140
0.375
141
12.0
290
     0
  0
SCALE
  5
1327
102
{ACAD_REACTORS
330
130C
102
}
330
130C
100
AcDbScale
 70
     0
300
1/2" = 1'-0"
140
0.5
141
12.0
290
     0
  0
SCALE
  5
1328
102
{ACAD_REACTORS
330
130C
102
}
330
130C
100
AcDbScale
 70
     0
300
3/4" = 1'-0"
140
0.75
141
12.0
290
     0
  0
SCALE
  5
1329
102
{ACAD_REACTORS
330
130C
102
}
330
130C
100
AcDbScale
 70
     0
300
1" = 1'-0"
140
1.0
141
12.0
290
     0
  0
SCALE
  5
132A
102
{ACAD_REACTORS
330
130C
102
}
330
130C
100
AcDbScale
 70
     0
300
1-1/2" = 1'-0"
140
1.5
141
12.0
290
     0
  0
SCALE
  5
132B
102
{ACAD_REACTORS
330
130C
102
}
330
130C
100
AcDbScale
 70
     0
300
3" = 1'-0"
140
3.0
141
12.0
290
     0
  0
SCALE
  5
132C
102
{ACAD_REACTORS
330
130C
102
}
330
130C
100
AcDbScale
 70
     0
300
6" = 1'-0"
140
6.0
141
12.0
290
     0
  0
SCALE
  5
132D
102
{ACAD_REACTORS
330
130C
102
}
330
130C
100
AcDbScale
 70
     0
300
1'-0" = 1'-0"
140
12.0
141
12.0
290
     0
  0
DICTIONARYVAR
  5
1DA4
102
{ACAD_REACTORS
330
1DA1
102
}
330
1DA1
100
DictionaryVariables
280
     0
  1
1:1
  0
ENDSEC
  0
SECTION
  2
THUMBNAILIMAGE
 90
    16364
310
28000000B40000005500000001000800000000000000000000000000000000000000000000000000FFFFFF000000FF0000FFFF0000FF0000FFFF0000FF000000FF00FF000000000080808000C0C0C0000000FF007F7FFF000000A5005252A50000007F003F3F7F0000004C0026264C000000260013132600003FFF007F9FFF
310
000029A5005267A500001F7F003F4F7F0000134C00262F4C000009260013172600007FFF007FBFFF000052A500527CA500003F7F003F5F7F0000264C0026394C0000132600131C260000BFFF007FDFFF00007CA5005291A500005F7F003F6F7F0000394C0026424C00001C26001321260000FFFF007FFFFF0000A5A50052A5
310
A500007F7F003F7F7F00004C4C00264C4C00002626001326260000FFBF007FFFDF0000A57C0052A59100007F5F003F7F6F00004C3900264C420000261C001326210000FF7F007FFFBF0000A5520052A57C00007F3F003F7F5F00004C2600264C39000026130013261C0000FF3F007FFF9F0000A5290052A56700007F1F003F
310
7F4F00004C1300264C2F00002609001326170000FF00007FFF7F0000A5000052A55200007F00003F7F3F00004C0000264C260000260000132613003FFF00009FFF7F0029A5000067A552001F7F00004F7F3F00134C00002F4C260009260000172613007FFF0000BFFF7F0052A500007CA552003F7F00005F7F3F00264C0000
310
394C2600132600001C261300BFFF0000DFFF7F007CA5000091A552005F7F00006F7F3F00394C0000424C26001C26000021261300FFFF0000FFFF7F00A5A50000A5A552007F7F00007F7F3F004C4C00004C4C26002626000026261300FFBF0000FFDF7F00A57C0000A59152007F5F00007F6F3F004C3900004C422600261C00
310
0026211300FF7F0000FFBF7F00A5520000A57C52007F3F00007F5F3F004C2600004C39260026130000261C1300FF3F0000FF9F7F00A5290000A56752007F1F00007F4F3F004C1300004C2F26002609000026171300FF000000FF7F7F00A5000000A55252007F0000007F3F3F004C0000004C2626002600000026131300FF00
310
3F00FF7F9F00A5002900A55267007F001F007F3F4F004C0013004C262F002600090026131700FF007F00FF7FBF00A5005200A5527C007F003F007F3F5F004C0026004C2639002600130026131C00FF00BF00FF7FDF00A5007C00A55291007F005F007F3F6F004C0039004C26420026001C0026132100FF00FF00FF7FFF00A5
310
00A500A552A5007F007F007F3F7F004C004C004C264C002600260026132600BF00FF00DF7FFF007C00A5009152A5005F007F006F3F7F0039004C0042264C001C002600211326007F00FF00BF7FFF005200A5007C52A5003F007F005F3F7F0026004C0039264C00130026001C1326003F00FF009F7FFF002900A5006752A500
310
1F007F004F3F7F0013004C002F264C000900260017132600000000002D2D2D005B5B5B0089898900B7B7B700B3B3B30000000000000000000000000000000000000000000000000000000000000000000000000000000000000000000000000000000000000000000000000000000000000000000000000000000000000000
310
00000000000000000000000000000000070707070700000000000000000000000000000000000000000000000000000000000000000000000000000000000000000000000000000000000000000000000000000000000000000000000000000000000000000000000000000000000000000000000000000000000000000000
310
00000000000000000000000000000000000000000000000000000000000000000000000000000000000000000000000000000000000000000000000000000000000000000007000707070000000000000000000000000000000000000000000000000000000000000000000000000000000000000000000000000000000000
310
00000000000000000000000000000000000000000000000000000000000000000000000000000000000000000000000000000000000000000000000000000000000000000000000000000000000000000000000000000000000000000000000000000000000000000000000000000000000000000000000000000707070707
310
00000000000000000000000000000000000000000000000000000000000000000000000000000000000000000000000000000000000000000000000000000000000000000000000000000000000000000000000000000000000000000000000000000000000000000000000000000000000000000000000000000000000000
310
00000000000000000000000000000000000000000000000000000000000000000000000000000000000000000000000007000007070000000000000000000000000000000000000000000000000000000000000000000000000000000000000000000000000000000000000000000000000000000000000000000000000000
310
00000000000000000000000000000000000000000000000000000000000000000000000000000000000000000000000000000000000000000000000000000000000000000000000000000000000000000000000000000000000000000000000000000000000700000707000000000000000000000000000000000000000000
310
00000000000000000000000000000000000000000000000000000000000000000000000000000000000000000000000000000000000000000000000000000000000000000000000000000000000000000000000000000000000000000000000000000000000000000000000000000000000000000000000000000000000000
310
00000000000000000000000000000000000000000000000000000007000007070000000000000000000000000000000000000000000000000000000000000000000000000000000000000000000000000000000000000000000000000000000000000000000000000000000000000000000000000000000000000000000000
310
00000000000000000000000000000000000000000000000000000000000000000000000000000000000000000000000000000000000000000000000000000000000000000000000000000000000000000707070707000000000000000000000000000000000000000000000000000000000000000000000000000000000000
310
00000000000000000000000000000000000000000000000000000000000000000000000000000000000000000000000000000000000000000000000000000000000000000000000000000000000000000000000000000000000000000000000000000000000000000000000000000000000000000000000000000000000000
310
00000000000007000707070000000000000000000000000000000000000000000000000000000000000000000000000000000000000000000000000000000000000000000000000000000000000000000000000000000000000000000000000000000000000000000000000000000000000000000000000000000000000000
310
00000000000000000000000000000000000000000000000000000000000000000000000000000000000000000000000000000000000000000000070707070707000000000000000000000000000000000000000000000000000000000000000000000000000000000000000000000000000000000000000000000000000000
310
00000000000000000000000000000000000000000000000000000000000000000000000000000000000000000000000000000000000000000000000000000000000000000000000000000000000000000000000000000000000000000000000000000000000000000707070707070707070707070700000000000000000000
310
00000000000000000000000000000000000000000000000000000000000000000000000000000000000000000000000000000000000000000000000000000000000000000000000000000000000000000000000000000000000000000000000000000000000000000000000000000000000000000000000000000000000000
310
00000000000000000000000000000000000000000000000000000000000007000000000000000000070707000000000000000000000000000000000000000000000000000000000000000000000000000000000000000000000000000000000000000000000000000000000000000000000000000000000000000000000000
310
00000000000000000000000000000000000000000000000000000000000000000000000000000000000000000000000000000000000000000000000000000000000000000000000000000000000000000000000707070707070707070707070700000000000000000000000000000000000000000000000000000000000000
310
00000000000000000000000000000000000000000000000000000000000000000000000000000000000000000000000000000000000000000000000000000000000000000000000000000000000000000000000000000000000000000000000000000000000000000000000000000000000000000000000000000000000000
310
00000000000000000000000000000000000700070707000000000000000000000000000000000000000000000000000000000000000000000000000000000000000000000000000000000000000000000000000000000000000000000000000000000000000000000000000000000000000000000000000000000000000000
310
00000000000000000000000000000000000000000000000000000000000000000000000000000000000000000000000000000000000000000000000000000000000000000000070007070700000000000000000000000000000000000000000000000000000000000000000000000000000000000000000000000000000000
310
00000000000000000000000000000000000000000000000000000000000000000000000000000000000000000000000000000000000000000000000000000000000000000000000000000000000000000000000000000000000000000000000000000000000000000000000000000000000000000000000000000007000707
310
07000000000000000000000000000000000000000000000000000000000000000000000000000000000000000000000000000000000000000000000000000000000000000000000000000000000000000000000000000000000000000000000000000000000000000000000000000000000000000000000000000000000000
310
00000000000000000000000000000000000000000000000000000000000000000000000000000000000000000000000000070007070700000000000000000000000000000000000000000000000000000000000000000000000000000000000000000000000000000000000000000000000000000000000000000000000000
310
00000000000000000000000000000000000000000000000000000000000000000000000000000000000000000000000000000000000000000000000000000000000000000000000000000000000000000000000000000000000000000000000000000000000007000707070000000000000000000000000000000000000000
310
00000000000000000000000000000000000000000000000000000000000000000000000000000000000000000000000000000000000000000000000000000000000000000000000000000000000000000000000000000000000000000000000000000000000000000000000000000000000000000000000000000000000000
310
00000000000000000000000000000000000000000000000000000000070007070700000000000000000000000000000000000000000000000000000000000000000000000000000000000000000000000000000000000000000000000000000000000000000000000000000000000000000000000000000000000000000000
310
00000000000000000000000000000000000000000000000000000000000000000000000000000000000000000000000000000000000000000000000000000000000000000000000000000000000000000007000707070000000000000000000000000000000000000000000000000000000000000000000000000000000000
310
00000000000000000000000000000000000000000000000000000000000000000000000000000000000000000000000000000000000000000000000000000000000000000000000000000000000000000000000000000000000000000000000000000000000000000000000000000000000000000000000000000000000000
310
00000000000000070007070700000000000000000000000000000000000000000000000000000000000000000000000000000000000000000000000000000000000000000000000000000000000000000000000000000000000000000000000000000000000000000000000000000000000000000000000000000000000000
310
00000000000000000000000000000000000000000000000000000000000000000000000000000000000000000000000000000000000000000000000007000707070000000000000000000000000000000000000000000000000000000000000000000000000000000000000000000000000000000000000000000000000000
310
00000000000000000000000000000000000000000000000000000000000000000000000000000000000000000000000000000000000000000000000000000000000000000000000000000000000000000000000000000000000000000000000000000000000000000000000000000000000700070707000000000000000000
310
00000000000000000000000000000000000000000000000000000000000000000000000000000000000000000000000000000000000000000000000000000000000000000000000000000000000000000000000000000000000000000000000000000000000000000000000000000000000000000000000000000000000000
310
00000000000000000000000000000000000000000000000000000000000000000000000000000007000707070000000000000000000000000000000000000000000000000000000000000000000000000000000000000000000000000000000000000000000000000000000000000000000000000000000000000000000000
310
00000000000000000000000000000000000000000000000000000000000000000000000000000000000000000000000000000000000000000000000000000000000000000000000000000000000000000000000000000000000000000700070707000000000000000000000000000000000000000000000000000000000000
310
00000000000000000000000000000000000000000000000000000000000000000000000000000000000000000000000000000000000000000000000000000000000000000000000000000000000000000000000000000000000000000000000000000000000000000000000000000000000000000000000000000000000000
310
00000000000000000000000000000000000007000707070000000000000000000000000000000000000000000000000000000000000000000000000000000000000000000000000000000000000000000000000000000000000000000000000000000000000000000000000000000000000000000000000000000000000000
310
00000000000000000000000000000000000000000000000000000000000000000000000000000000000000000000000000000000000000000000000000000000000000000000000700070707000000000000000000000000000000000000000000000000000000000000000000000000000000000000000000000000000000
310
00000000000000000000000000000000000000000000000000000000000000000000000000000000000000000000000000000000000000000000000000000000000000000000000000000000000000000000000000000000000000000000000000000000000000000000000000000000000000000000000000000000070007
310
07070000000000000000000000000000000000000000000000000000000000000000000000000000000000000000000000000000000000000000000000000000000000000000000000000000000000000000000000000000000000000000000000000000000000000000000000000000000000000000000000000000000000
310
00000000000000000000000000000000000000000000000000000000000000000000000000000000000000000000000000000700070707000000000000000000000000000000000000000000000000000000000000000000000000000000000000000000000000000000000000000000000000000000000000000000000000
310
00000000000000000000000000000000000000000000000000000000000000000000000000000000000000000000000000000000000000000000000000000000000000000000000000000000000000000000000000000000000000000000000000000000000000070007070700000000000000000000000000000000000000
310
00000000000000000000000000000000000000000000000000000000000000000000000000000000000000000000000000000000000000000000000000000000000000000000000000000000000000000000000000000000000000000000000000000000000000000000000000000000000000000000000000000000000000
310
00000000000000000000000000000000000000000000000000000000000700070707000000000000000000000000000000000000000000000000000000000000000000000000000000000000000000000000000000000000000000000000000000000000000000000000000000000000000000000000000000000000000000
310
00000000000000000000000000000000000000000000000000000000000000000000000000000000000000000000000000000000000000000000000000000000000000000000000000000000000000000000070007070700000000000000000000000000000000000000000000000000000000000000000000000000000000
310
00000000000000000000000000000000000000000000000000000000000000000000000000000000000000000000000000000000000000000000000000000000000000000000000000000000000000000000000000000000000000000000000000000000000000000000000000000000000000000000000000000000000000
310
00000000000000000700070707000000000000000000000000000000000000000000000000000000000000000000000000000000000000000000000000000000000000000000000000000000000000000000000000000000000000000000000000000000000000000000000000000000000000000000000000000000000000
310
00000000000000000000000000000000000000000000000000000000000000000000000000000000000000000000000000000000000000000000000000070007070700000000000000000000000000000000000000000000000000000000000000000000000000000000000000000000000000000000000000000000000000
310
00000000000000000000000000000000000000000000000000000000000000000000000000000000000000000000000000000000000000000000000000000000000000000000000000000000000000000000000000000000000000000000000000000000000000000000000000000000000007000707070000000000000000
310
00000000000000000000000000000000000000000000000000000000000000000000000000000000000000000000000000000000000000000000000000000000000000000000000000000000000000000000000000000000000000000000000000000000000000000000000000000000000000000000000000000000000000
310
00000000000000000000000000000000000000000000000000000000000000000000000000000000070007070700000000000000000000000000000000000000000000000000000000000000000000000000000000000000000000000000000000000000000000000000000000000000000000000000000000000000000000
310
00000000000000000000000000000000000000000000000000000000000000000000000000000000000000000000000000000000000000000000000000000000000000000000000000000000000000000000000000000000000000000007000707070000000000000000000000000000000000000000000000000000000000
310
00000000000000000000000000000000000000000000000000000000000000000000000000000000000000000000000000000000000000000000000000000000000000000000000000000000000000000000000000000000000000000000000000000000000000000000000000000000000000000000000000000000000000
310
00000000000000000000000000000000000000070007070700000000000000000000000000000000000000000000000000000000000000000000000000000000000000000000000000000000000000000000000000000000000000000000000000000000000000000000000000000000000000000000000000000000000000
310
00000000000000000000000000000000000000000000000000000000000000000000000000000000000000000000000000000000000000000000000000000000000000000000000007000707070000000000000000000000000000000000000000000000000000000000000000000000000000000000000000000000000000
310
00000000000000000000000000000000000000000000000000000000000000000000000000000000000000000000000000000000000000000000000000000000000000000000000000000000000000000000000000000000000000000000000000000000000000000000000000000000000000000000000000000000000700
310
07070700000000000000000000000000000000000000000000000000000000000000000000000000000000000000000000000000000000000000000000000000000000000000000000000000000000000000000000000000000000000000000000000000000000000000000000000000000000000000000000000000000000
310
00000000000000000000000000000000000000000000000000000000000000000000000000000000000000000000000000000007000707070000000000000000000000000000000000000000000000000000000000000000000000000000000000000000000000000000000000000000000000000000000000000000000000
310
00000000000000000000000000000000000000000000000000000000000000000000000000000000000000000000000000000000000000000000000000000000000000000000000000000000000000000000000000000000000000000000000000000000000000000700070707000000000000000000000000000000000000
310
00000000000000000000000000000000000000000000000000000000000000000000000000000000000000000000000000000000000000000000000000000000000000000000000000000000000000000000000000000000000000000000000000000000000000000000000000000000000000000000000000000000000000
310
00000000000000000000000000000000000000000000000000000000000007000707070000000000000000000000000000000000000000000000000000000000000000000000000000000000000000000000000000000000000000000000000000000000000000000000000000000000000000000000000000000000000000
310
00000000000000000000000000000000000000000000000000000000000000000000000000000000000000000000000000000000000000000000000000000000000000000000000000000000000000000000000700070707000000000000000000000000000000000000000000000000000000000000000000000000000000
310
00000000000000000000000000000000000000000000000000000000000000000000000000000000000000000000000000000000000000000000000000000000000000000000000000000000000000000000000000000000000000000000000000000000000000000000000000000000000000000000000000000000000000
310
00000000000000000007000707070000000000000000000000000000000000000000000000000000000000000000000000000000000000000000000000000000000000000000000000000000000000000000000000000000000000000000000000000000000000000000000000000000000000000000000000000000000000
310
00000000000000000000000000000000000000000000000000000000000000000000000000000000000000000000000000000000000000000000000000000700070707000000000000000000000000000000000000000000000000000000000000000000000000000000000000000000000000000000000000000000000000
310
00000000000000000000000000000000000000000000000000000000000000000000000000000000000000000000000000000000000000000000000000000000000000000000000000000000000000000000000000000000000000000000000000000000000000000000000000000000000000070007070700000000000000
310
00000000000000000000000000000000000000000000000000000000000000000000000000000000000000000000000000000000000000000000000000000000000000000000000000000000000000000000000000000000000000000000000000000000000000000000000000000000000000000000000000000000000000
310
00000000000000000000000000000000000000000000000000000000000000000000000000000000000700070707000000000000000000000000000000000000000000000000000000000000000000000000000000000000000000000000000000000000000000000000000000000000000000000000000000000000000000
310
00000000000000000000000000000000000000000000000000000000000000000000000000000000000000000000000000000000000000000000000000000000000000000000000000000000000000000000000000000000000000000000070007000700000000000000000000000000000000000000000000000000000000
310
00000000000000000000000000000000000000000000000000000000000000000000000000000000000000000000000000000000000000000000000000000000000000000000000000000000000000000000000000000000000000000000000000000000000000000000000000000000000000000000000000000000000000
310
00000000000000000000000000000000000000000700070007000000000000000000000000000000000000000000000000000000000000000000000000000000000000000000000000000000000000000000000000000000000000000000000000000000000000000000000000000000000000000000000000000000000000
310
00000000000000000000000000000000000000000000000000000000000000000000000000000000000000000000000000000000000000000000000000000000000000000000000000070007070000000000000000000000000000000000000000000000000000000000000000000000000000000000000000000000000000
310
00000000000000000000000000000000000000000000000000000000000000000000000000000000000000000000000000000000000000000000000000000000000000000000000000000000000000000000000000000000000000000000000000000000000000000000000000000000000000000000000000000000000007
310
00070700000000000000000000000000000000000000000000000000000000000000000000000000000000000000000000000000000000000000000000000000000000000000000000000000000000000000000000000000000000000000000000000000000000000000000000000000000000000000000000000000000000
310
00000000000000000000000000000000000000000000000000000000000000000000000000000000000000000000000000000000070007070000000000000000000000000000000000000000000000000000000000000000000000000000000000000000000000000000000000000000000000000000000000000000000000
310
00000000000000000000000000000000000000000000000000000000000000000000000000000000000000000000000000000000000000000000000000000000000000000000000000000000000000000000000000000000000000000000000000000000000000000007000707000000000000000000000000000000000000
310
00000000000000000000000000000000000000000000000000000000000000000000000000000000000000000000000000000000000000000000000000000000000000000000000000000000000000000000000000000000000000000000000000000000000000000000000000000000000000000000000000000000000000
310
00000000000000000000000000000000000000000000000000000000000000070707000000000000000000000000000000000000000000000000000000000000000000000000000000000000000000000000000000000000000000000000000000000000000000000000000000000000000000000000000000000000000000
310
00000000000000000000000000000000000000000000000000000000000000000000000000000000000000000000000000000000000000000000000000000000000000000000000000000000000000000000000007070700000000000000000000000000000000000000000000000000000000000000000000000000000000
310
00000000000000000000000000000000000000000000000000000000000000000000000000000000000000000000000000000000000000000000000000000000000000000000000000000000000000000000000000000000000000000000000000000000000000000000000000000000000000000000000000000000000000
310
00000000000000000000070707000000000000000000000000000000000000000000000000000000000000000000000000000000000000000000000000000000000000000000000000000000000000000000000000000000000000000000000000000000000000000000000000000000000000000000000000000000000000
310
00000000000000000000000000000000000000000000000000000000000000000000000000000000000000000000000000000000000000000000000000000707070700000000000000000000000000000000000000000000000000000000000000000000000000000000000000000000000000000000000000000000000000
310
00000000000000000000000000000000000000000000000000000000000000000000000000000000000000000000000000000000000000000000000000000000000000000000000000000000000000000000000000000000000000000000000000000000000000000000000000000000000007070007070000000000000000
310
00000000000000000000000000000000000000000000000000000000000000000000000000000000000000000000000000000000000000000000000000000000000000000000000000000000000000000000000000000000000000000000000000000000000000000000000000000000000000000000000000000000000000
310
00000000000000000000000000000000000000000000000000000000000000000000000000000000070707000700000000000000000000000000000000000000000000000000000000000000000000000000000000000000000000000000000000000000000000000000000000000000000000000000000000000000000000
310
00000000000000000000000000000000000000000000000000000000000000000000000000000000000000000000000000000000000000000000000000000000000000000000000000000000000000000000000000000000000000000700070700070000000000000000000000000000000000000000000000000000000000
310
00000000000000000000000000000000000000000000000000000000000000000000000000000000000000000000000000000000000000000000000000000000000000000000000000000000000000000000000000000000000000000000000000000000000000000000000000000000000000000000000000000000000000
310
00000000000000000000000000000000000007070707000700000000000000000000000000000000000000000000000000000000000000000000000000000000000000000000000000000000000000000000000000000000000000000000000000000000000000000000000000000000000000000000000000000000000000
310
00000000000000000000000000000000000000000000000000000000000000000000000000000000000000000000000000000000000000000000000000000000000000000000070007070700070000000000000000000000000000000000000000000000000000000000000000000000000000000000000000000000000000
310
00000000000000000000000000000000000000000000000000000000000000000000000000000000000000000000000000000000000000000000000000000000000000000000000000000000000000000000000000000000000000000000000000000000000000000000000000000000000000000000000000000007070007
310
07000700000000000000000000000000000000000000000000000000000000000000000000000000000000000000000000000000000000000000000000000000000000000000000000000000000000000000000000000000000000000000000000000000000000000000000000000000000000000000000000000000000000
310
00000000000000000000000000000000000000000000000000000000000000000000000000000000000000000000000007000707000700070000000000000000000000000000000000000000000000000000000000000000000000000000000000000000000000000000000000000000000000000000000000000000000000
310
00000000000000000000000000000000000000000000000000000000000000000000000000000000000000000000000000000000000000000000000000000000000000000000000000000000000000000000000000000000000000000000000000000000000707070000070007000000000000000000000000000000000000
310
00000000000000000000000000000000000000000000000000000000000000000000000000000000000000000000000000000000000000000000000000000000000000000000000000000000000000000000000000000000000000000000000000000000000000000000000000000000000000000000000000000000000000
310
00000000000000000000000000000000000000000000000000000707070000000700070000000000000000000000000000000000000000000000000000000000000000000000000000000000000000000000000000000000000000000000000000000000000000000000000000000000000000000000000000000000000000
310
00000000000000000000000000000000000000000000000000000000000000000000000000000000000000000000000000000000000000000000000000000000000000000000000000000000000707070707000000070007000000000000000000000000000000000000000000000000000000000000000000000000000000
310
00000000000000000000000000000000000000000000000000000000000000000000000000000000000000000000000000000000000000000000000000000000000000000000000000000000000000000000000000000000000000000000000000000000000000000000000000000000000000000000000000000000000000
310
00000707070707000000000700070000000000000000000000000000000000000000000000000000000000000000000000000000000000000000000000000000000000000000000000000000000000000000000000000000000000000000000000000000000000000000000000000000000000000000000000000000000000
310
00000000000000000000000000000000000000000000000000000000000000000000000000000000000000000000000000000000000007070700070000000000070007000000000000000000000000000000000000000000000000000000000000000000000000000000000000000000000000000000000000000000000000
310
00000000000000000000000000000000000000000000000000000000000000000000000000000000000000000000000000000000000000000000000000000000000000000000000000000000000000000000000000000000000000000000000000000000000000000000070707000700000000000007000700000000000000
310
00000000000000000000000000000000000000000000000000000000000000000000000000000000000000000000000000000000000000000000000000000000000000000000000000000000000000000000000000000000000000000000000000000000000000000000000000000000000000000000000000000000000000
310
00000000000000000000000000000000000000000000000000000000000000070707070700000000000000070007000000000000000000000000000000000000000000000000000000000000000000000000000000000000000000000000000000000000000000000000000000000000000000000000000000000000000000
310
00000000000000000000000000000000000000000000000000000000000000000000000000000000000000000000000000000000000000000000000000000000000000000000000000000000000000000000000707070007000000000000000007000700000000000000000000000000000000000000000000000000000000
310
00000000000000000000000000000000000000000000000000000000000000000000000000000000000000000000000000000000000000000000000000000000000000000000000000000000000000000000000000000000000000000000000000000000000000000000000000000000000000000000000000000000000000
310
00000000000000000007000707000000000000000000070007000000000000000000000000000000000000000000000000000000000000000000000000000000000000000000000000000000000000000000000000000000000000000000000000000000000000000000000000000000000000000000000000000000000000
310
00000000000000000000000000000000000000000000000000000000000000000000000000000000000000000000000000000000000000000000000000070007000000000000000000000007000700000000000000000000000000000000000000000000000000000000000000000000000000000000000000000000000000
310
00000000000000000000000000000000000000000000000000000000000000000000000000000000000000000000000000000000000000000000000000000000000000000000000000000000000000000000000000000000000000000000000000000000000000000000000000000000000007070000000000000000000000
310
00070007000000000000000000000000000000000000000000000000000000000000000000000000000000000000000000000000000000000000000000000000000000000000000000000000000000000000000000000000000000000000000000000000000000000000000000000000000000000000000000000000000000
310
00000000000000000000000000000000000000000000000000000000000000000000000000000000000000000000000000000000000007000700000000000000000000000000000000000000000000000000000000000000000000000000000000000000000000000000000000000000000000000000000000000000000000
310
00000000000000000000000000000000000000000000000000000000000000000000000000000000000000000000000000000000000000000000000000000000000000000000000000000000000000000000000000000000000000000000000000000000000000000000000700070000000000000000000000000000000000
310
00000000000000000000000000000000000000000000000000000000000000000000000000000000000000000000000000000000000000000000000000000000000000000000000000000000000000000000000000000000000000000000000000000000000000000000000000000000000000000000000000000000000000
310
00000000000000000000000000000000000000000000000000000000000000000007070707070000000000000000000000000000000000000000000000000000000000000000000000000000000000000000000000000000000000000000000000000000000000000000000000000000000000000000000000000000000000
310
00000000000000000000000000000000000000000000000000000000000000000000000000000000000000000000000000000000000000000000000000000000000000000000000000000000000000000000000000000700000007000000000000000000000000000000000000000000000000000000000000000000000000
310
00000000000000000000000000000000000000000000000000000000000000000000000000000000000000000000000000000000000000000000000000000000000000000000000000000000000000000000000000000000000000000000000000000000000000000000000000000000000000000000000000000000000000
310
00000000000000000000000007000000070000000000000000000000000000000000000000000000000000000000000000000000000000000000000000000000000000000000000000000000000000000000000000000000000000000000000000000000000000000000000000000000000000000000000000000000000000
310
00000000000000000000000000000000000000000000000000000000000000000000000000000000000000000000000000000000000000000000000000000000000700000007000000000000000000000000000000000000000000000000000000000000000000000000000000000000000000000000000000000000000000
310
00000000000000000000000000000000000000000000000000000000000000000000000000000000000000000000000000000000000000000000000000000000000000000000000000000000000000000000000000000000000000000000000000000000000000000000000000000000000000000000070707070700000000
310
00000000000000000000000000000000000000000000000000000000000000000000000000000000000000000000000000000000000000000000000000000000000000000000000000000000000000000000000000000000000000000000000000000000000000000000000000000000000000000000000000000000000000
310
00000000000000000000000000000000000000000000000000000000000000000000000000000000000000000700070000000000000000000000000000000000000000000000000000000000000000000000000000000000000000000000000000000000000000000000000000000000000000000000000000000000000000
310
00000000000000000000000000000000000000000000000000000000000000000000000000000000000000000000000000000000000000000000000000000000000000000000000000000000000000000000000000000000000000000000000000070707000000000000000000000000000000000000000000000000000000
310
00000000000000000000000000000000000000000000000000000000000000000000000000000000000000000000000000000000000000000000000000000000000000000000000000000000000000000000000000000000000000000000000000000000000000000000000000000000000000000000000000000000000000
310
000000000000000000000000000000000000000000000000000000000000000000000000000000000000000000000000000000000000000000000000000000000000000000000000000000000000000000000000000000000000000000000000000000000000000000000000
  0
ENDSEC
  0
EOF
