  0
SECTION
  2
HEADER
  9
$ACADVER
  1
AC1015
  9
$ACADMAINTVER
 70
    13
  9
$DWGCODEPAGE
  3
ANSI_1252
  9
$INSBASE
 10
0.0
 20
0.0
 30
0.0
  9
$EXTMIN
 10
0.0000000000000057
 20
0.171900000000009
 30
0.0
  9
$EXTMAX
 10
410.0
 20
231.8281
 30
0.0
  9
$LIMMIN
 10
0.0
 20
0.0
  9
$LIMMAX
 10
12.0
 20
9.0
  9
$ORTHOMODE
 70
     0
  9
$REGENMODE
 70
     1
  9
$FILLMODE
 70
     1
  9
$QTEXTMODE
 70
     0
  9
$MIRRTEXT
 70
     1
  9
$LTSCALE
 40
1.0
  9
$ATTMODE
 70
     1
  9
$TEXTSIZE
 40
0.2
  9
$TRACEWID
 40
0.05
  9
$TEXTSTYLE
  7
Standard
  9
$CLAYER
  8
0
  9
$CELTYPE
  6
Continuous
  9
$CECOLOR
 62
   256
  9
$CELTSCALE
 40
1.0
  9
$DISPSILH
 70
     0
  9
$DIMSCALE
 40
1.0
  9
$DIMASZ
 40
0.18
  9
$DIMEXO
 40
0.0625
  9
$DIMDLI
 40
0.38
  9
$DIMRND
 40
0.0
  9
$DIMDLE
 40
0.0
  9
$DIMEXE
 40
0.18
  9
$DIMTP
 40
0.0
  9
$DIMTM
 40
0.0
  9
$DIMTXT
 40
0.18
  9
$DIMCEN
 40
0.09
  9
$DIMTSZ
 40
0.0
  9
$DIMTOL
 70
     0
  9
$DIMLIM
 70
     0
  9
$DIMTIH
 70
     1
  9
$DIMTOH
 70
     1
  9
$DIMSE1
 70
     0
  9
$DIMSE2
 70
     0
  9
$DIMTAD
 70
     0
  9
$DIMZIN
 70
     0
  9
$DIMBLK
  1

  9
$DIMASO
 70
     1
  9
$DIMSHO
 70
     1
  9
$DIMPOST
  1

  9
$DIMAPOST
  1

  9
$DIMALT
 70
     0
  9
$DIMALTD
 70
     2
  9
$DIMALTF
 40
25.4
  9
$DIMLFAC
 40
1.0
  9
$DIMTOFL
 70
     0
  9
$DIMTVP
 40
0.0
  9
$DIMTIX
 70
     0
  9
$DIMSOXD
 70
     0
  9
$DIMSAH
 70
     0
  9
$DIMBLK1
  1

  9
$DIMBLK2
  1

  9
$DIMSTYLE
  2
Standard
  9
$DIMCLRD
 70
     0
  9
$DIMCLRE
 70
     0
  9
$DIMCLRT
 70
     0
  9
$DIMTFAC
 40
1.0
  9
$DIMGAP
 40
0.09
  9
$DIMJUST
 70
     0
  9
$DIMSD1
 70
     0
  9
$DIMSD2
 70
     0
  9
$DIMTOLJ
 70
     1
  9
$DIMTZIN
 70
     0
  9
$DIMALTZ
 70
     0
  9
$DIMALTTZ
 70
     0
  9
$DIMUPT
 70
     0
  9
$DIMDEC
 70
     4
  9
$DIMTDEC
 70
     4
  9
$DIMALTU
 70
     2
  9
$DIMALTTD
 70
     2
  9
$DIMTXSTY
  7
Standard
  9
$DIMAUNIT
 70
     0
  9
$DIMADEC
 70
     0
  9
$DIMALTRND
 40
0.0
  9
$DIMAZIN
 70
     0
  9
$DIMDSEP
 70
    46
  9
$DIMATFIT
 70
     3
  9
$DIMFRAC
 70
     0
  9
$DIMLDRBLK
  1

  9
$DIMLUNIT
 70
     2
  9
$DIMLWD
 70
    -2
  9
$DIMLWE
 70
    -2
  9
$DIMTMOVE
 70
     0
  9
$LUNITS
 70
     2
  9
$LUPREC
 70
     4
  9
$SKETCHINC
 40
0.1
  9
$FILLETRAD
 40
0.0
  9
$AUNITS
 70
     0
  9
$AUPREC
 70
     0
  9
$MENU
  1
.
  9
$ELEVATION
 40
0.0
  9
$PELEVATION
 40
0.0
  9
$THICKNESS
 40
0.0
  9
$LIMCHECK
 70
     0
  9
$CHAMFERA
 40
0.0
  9
$CHAMFERB
 40
0.0
  9
$CHAMFERC
 40
0.0
  9
$CHAMFERD
 40
0.0
  9
$SKPOLY
 70
     0
  9
$TDCREATE
 40
2455655.880054063
  9
$TDUCREATE
 40
2455655.796720729
  9
$TDUPDATE
 40
2455655.888957604
  9
$TDUUPDATE
 40
2455655.805624270
  9
$TDINDWG
 40
0.0089037269
  9
$TDUSRTIMER
 40
0.0089037269
  9
$USRTIMER
 70
     1
  9
$ANGBASE
 50
0.0
  9
$ANGDIR
 70
     0
  9
$PDMODE
 70
     0
  9
$PDSIZE
 40
0.0
  9
$PLINEWID
 40
0.0
  9
$SPLFRAME
 70
     0
  9
$SPLINETYPE
 70
     6
  9
$SPLINESEGS
 70
     8
  9
$HANDSEED
  5
8A6
  9
$SURFTAB1
 70
     6
  9
$SURFTAB2
 70
     6
  9
$SURFTYPE
 70
     6
  9
$SURFU
 70
     6
  9
$SURFV
 70
     6
  9
$UCSBASE
  2

  9
$UCSNAME
  2

  9
$UCSORG
 10
0.0
 20
0.0
 30
0.0
  9
$UCSXDIR
 10
1.0
 20
0.0
 30
0.0
  9
$UCSYDIR
 10
0.0
 20
1.0
 30
0.0
  9
$UCSORTHOREF
  2

  9
$UCSORTHOVIEW
 70
     1
  9
$UCSORGTOP
 10
0.0
 20
0.0
 30
0.0
  9
$UCSORGBOTTOM
 10
0.0
 20
0.0
 30
0.0
  9
$UCSORGLEFT
 10
0.0
 20
0.0
 30
0.0
  9
$UCSORGRIGHT
 10
0.0
 20
0.0
 30
0.0
  9
$UCSORGFRONT
 10
0.0
 20
0.0
 30
0.0
  9
$UCSORGBACK
 10
0.0
 20
0.0
 30
0.0
  9
$PUCSBASE
  2

  9
$PUCSNAME
  2

  9
$PUCSORG
 10
0.0
 20
0.0
 30
0.0
  9
$PUCSXDIR
 10
1.0
 20
0.0
 30
0.0
  9
$PUCSYDIR
 10
0.0
 20
1.0
 30
0.0
  9
$PUCSORTHOREF
  2

  9
$PUCSORTHOVIEW
 70
     0
  9
$PUCSORGTOP
 10
0.0
 20
0.0
 30
0.0
  9
$PUCSORGBOTTOM
 10
0.0
 20
0.0
 30
0.0
  9
$PUCSORGLEFT
 10
0.0
 20
0.0
 30
0.0
  9
$PUCSORGRIGHT
 10
0.0
 20
0.0
 30
0.0
  9
$PUCSORGFRONT
 10
0.0
 20
0.0
 30
0.0
  9
$PUCSORGBACK
 10
0.0
 20
0.0
 30
0.0
  9
$USERI1
 70
     0
  9
$USERI2
 70
     0
  9
$USERI3
 70
     0
  9
$USERI4
 70
     0
  9
$USERI5
 70
     0
  9
$USERR1
 40
0.0
  9
$USERR2
 40
0.0
  9
$USERR3
 40
0.0
  9
$USERR4
 40
0.0
  9
$USERR5
 40
0.0
  9
$WORLDVIEW
 70
     1
  9
$SHADEDGE
 70
     3
  9
$SHADEDIF
 70
    70
  9
$TILEMODE
 70
     1
  9
$MAXACTVP
 70
    64
  9
$PINSBASE
 10
0.0
 20
0.0
 30
0.0
  9
$PLIMCHECK
 70
     0
  9
$PEXTMIN
 10
1.000000000000000E+20
 20
1.000000000000000E+20
 30
1.000000000000000E+20
  9
$PEXTMAX
 10
-1.000000000000000E+20
 20
-1.000000000000000E+20
 30
-1.000000000000000E+20
  9
$PLIMMIN
 10
0.0
 20
0.0
  9
$PLIMMAX
 10
12.0
 20
9.0
  9
$UNITMODE
 70
     0
  9
$VISRETAIN
 70
     1
  9
$PLINEGEN
 70
     0
  9
$PSLTSCALE
 70
     1
  9
$TREEDEPTH
 70
  3020
  9
$CMLSTYLE
  2
Standard
  9
$CMLJUST
 70
     0
  9
$CMLSCALE
 40
1.0
  9
$PROXYGRAPHICS
 70
     1
  9
$MEASUREMENT
 70
     0
  9
$CELWEIGHT
370
    -1
  9
$ENDCAPS
280
     0
  9
$JOINSTYLE
280
     0
  9
$LWDISPLAY
290
     0
  9
$INSUNITS
 70
     0
  9
$HYPERLINKBASE
  1

  9
$STYLESHEET
  1

  9
$XEDIT
290
     1
  9
$CEPSNTYPE
380
     0
  9
$PSTYLEMODE
290
     1
  9
$FINGERPRINTGUID
  2
{A97D7C94-84DF-4993-BB4C-ABFAD0C0D1F3}
  9
$VERSIONGUID
  2
{3BC84745-E8D6-4FA4-B7BC-AAD164CE848E}
  9
$EXTNAMES
290
     1
  9
$PSVPSCALE
 40
0.0
  9
$OLESTARTUP
290
     0
  0
ENDSEC
  0
SECTION
  2
CLASSES
  0
CLASS
  1
ACDBDICTIONARYWDFLT
  2
AcDbDictionaryWithDefault
  3
AutoCAD 2000
 90
        0
280
     0
281
     0
  0
CLASS
  1
ACDBPLACEHOLDER
  2
AcDbPlaceHolder
  3
AutoCAD 2000
 90
        0
280
     0
281
     0
  0
CLASS
  1
LAYOUT
  2
AcDbLayout
  3
AutoCAD 2000
 90
        0
280
     0
281
     0
  0
CLASS
  1
DICTIONARYVAR
  2
AcDbDictionaryVar
  3
AutoCAD 2000
 90
        0
280
     0
281
     0
  0
ENDSEC
  0
SECTION
  2
TABLES
  0
TABLE
  2
VPORT
  5
8
330
0
100
AcDbSymbolTable
 70
     4
  0
VPORT
  5
8A5
330
8
100
AcDbSymbolTableRecord
100
AcDbViewportTableRecord
  2
*Active
 70
     0
 10
0.0
 20
0.0
 11
1.0
 21
1.0
 12
205.0
 22
116.0
 13
0.0
 23
0.0
 14
1.0
 24
1.0
 15
0.0
 25
0.0
 16
0.0
 26
0.0
 36
1.0
 17
0.0
 27
0.0
 37
0.0
 40
233.2232092446448
 41
2.073363431151241
 42
50.0
 43
0.0
 44
0.0
 50
0.0
 51
0.0
 71
     0
 72
   100
 73
     1
 74
     3
 75
     0
 76
     0
 77
     0
 78
     0
281
     0
 65
     1
110
0.0
120
0.0
130
0.0
111
1.0
121
0.0
131
0.0
112
0.0
122
1.0
132
0.0
 79
     1
146
0.0
  0
ENDTAB
  0
TABLE
  2
LTYPE
  5
5
330
0
100
AcDbSymbolTable
 70
     1
  0
LTYPE
  5
13
330
5
100
AcDbSymbolTableRecord
100
AcDbLinetypeTableRecord
  2
ByBlock
 70
     0
  3

 72
    65
 73
     0
 40
0.0
  0
LTYPE
  5
14
330
5
100
AcDbSymbolTableRecord
100
AcDbLinetypeTableRecord
  2
ByLayer
 70
     0
  3

 72
    65
 73
     0
 40
0.0
  0
LTYPE
  5
15
330
5
100
AcDbSymbolTableRecord
100
AcDbLinetypeTableRecord
  2
Continuous
 70
     0
  3
Solid line
 72
    65
 73
     0
 40
0.0
  0
ENDTAB
  0
TABLE
  2
LAYER
  5
2
330
0
100
AcDbSymbolTable
 70
     1
  0
LAYER
  5
10
330
2
100
AcDbSymbolTableRecord
100
AcDbLayerTableRecord
  2
0
 70
     0
 62
     7
  6
Continuous
370
    -3
390
F
  0
ENDTAB
  0
TABLE
  2
STYLE
  5
3
330
0
100
AcDbSymbolTable
 70
     1
  0
STYLE
  5
11
330
3
100
AcDbSymbolTableRecord
100
AcDbTextStyleTableRecord
  2
Standard
 70
     0
 40
0.0
 41
1.0
 50
0.0
 71
     0
 42
0.2
  3
txt
  4

  0
ENDTAB
  0
TABLE
  2
VIEW
  5
6
330
0
100
AcDbSymbolTable
 70
     0
  0
ENDTAB
  0
TABLE
  2
UCS
  5
7
330
0
100
AcDbSymbolTable
 70
     0
  0
ENDTAB
  0
TABLE
  2
APPID
  5
9
330
0
100
AcDbSymbolTable
 70
     1
  0
APPID
  5
12
330
9
100
AcDbSymbolTableRecord
100
AcDbRegAppTableRecord
  2
ACAD
 70
     0
  0
ENDTAB
  0
TABLE
  2
DIMSTYLE
  5
A
330
0
100
AcDbSymbolTable
 70
     1
100
AcDbDimStyleTable
 71
     0
  0
DIMSTYLE
105
5A3
330
A
100
AcDbSymbolTableRecord
100
AcDbDimStyleTableRecord
  2
Standard
 70
     0
340
11
  0
ENDTAB
  0
TABLE
  2
BLOCK_RECORD
  5
1
330
0
100
AcDbSymbolTable
 70
     1
  0
BLOCK_RECORD
  5
1E
330
1
100
AcDbSymbolTableRecord
100
AcDbBlockTableRecord
  2
*Model_Space
340
21
  0
BLOCK_RECORD
  5
1A
330
1
100
AcDbSymbolTableRecord
100
AcDbBlockTableRecord
  2
*Paper_Space
340
1D
  0
ENDTAB
  0
ENDSEC
  0
SECTION
  2
BLOCKS
  0
BLOCK
  5
1F
330
1E
100
AcDbEntity
  8
0
100
AcDbBlockBegin
  2
*Model_Space
 70
     0
 10
0.0
 20
0.0
 30
0.0
  3
*Model_Space
  1

  0
ENDBLK
  5
20
330
1E
100
AcDbEntity
  8
0
100
AcDbBlockEnd
  0
BLOCK
  5
1B
330
1A
100
AcDbEntity
 67
     1
  8
0
100
AcDbBlockBegin
  2
*Paper_Space
 70
     0
 10
0.0
 20
0.0
 30
0.0
  3
*Paper_Space
  1

  0
ENDBLK
  5
1C
330
1A
100
AcDbEntity
 67
     1
  8
0
100
AcDbBlockEnd
  0
ENDSEC
  0
SECTION
  2
ENTITIES
  0
LINE
  5
22
330
1E
100
AcDbEntity
  8
0
100
AcDbLine
 10
22.32
 20
167.9081
 30
0.0
 11
30.0
 21
166.8281
 31
0.0
  0
LINE
  5
23
330
1E
100
AcDbEntity
  8
0
100
AcDbLine
 10
15.12
 20
170.7880999999999
 30
0.0
 11
22.32
 21
167.9081
 31
0.0
  0
LINE
  5
24
330
1E
100
AcDbEntity
  8
0
100
AcDbLine
 10
37.68
 20
167.9081
 30
0.0
 11
44.88
 21
170.7880999999999
 31
0.0
  0
LINE
  5
25
330
1E
100
AcDbEntity
  8
0
100
AcDbLine
 10
30.0
 20
166.8281
 30
0.0
 11
37.68
 21
167.9081
 31
0.0
  0
LINE
  5
26
330
1E
100
AcDbEntity
  8
0
100
AcDbLine
 10
8.760000000000008
 20
175.5881
 30
0.0
 11
15.12
 21
170.7880999999999
 31
0.0
  0
LINE
  5
27
330
1E
100
AcDbEntity
  8
0
100
AcDbLine
 10
51.24
 20
175.5881
 30
0.0
 11
56.04
 21
181.9481
 31
0.0
  0
LINE
  5
28
330
1E
100
AcDbEntity
  8
0
100
AcDbLine
 10
44.88
 20
170.7880999999999
 30
0.0
 11
51.24
 21
175.5881
 31
0.0
  0
LINE
  5
99
330
1E
100
AcDbEntity
  8
0
100
AcDbLine
 10
3.959999999999999
 20
181.9481
 30
0.0
 11
8.760000000000008
 21
175.5881
 31
0.0
  0
LINE
  5
9A
330
1E
100
AcDbEntity
  8
0
100
AcDbLine
 10
20.32
 20
179.9481
 30
0.0
 11
24.96
 21
178.0281
 31
0.0
  0
LINE
  5
9B
330
1E
100
AcDbEntity
  8
0
100
AcDbLine
 10
20.08
 20
179.4680999999999
 30
0.0
 11
24.87999999999999
 21
177.5481
 31
0.0
  0
LINE
  5
9C
330
1E
100
AcDbEntity
  8
0
100
AcDbLine
 10
13.12
 20
187.1480999999999
 30
0.0
 11
16.23999999999999
 21
183.0681
 31
0.0
  0
LINE
  5
9D
330
1E
100
AcDbEntity
  8
0
100
AcDbLine
 10
16.23999999999999
 20
183.0681
 30
0.0
 11
20.32
 21
179.9481
 31
0.0
  0
LINE
  5
9E
330
1E
100
AcDbEntity
  8
0
100
AcDbLine
 10
12.64
 20
186.9080999999999
 30
0.0
 11
15.84
 21
182.6681
 31
0.0
  0
LINE
  5
9F
330
1E
100
AcDbEntity
  8
0
100
AcDbLine
 10
15.84
 20
182.6681
 30
0.0
 11
20.08
 21
179.4680999999999
 31
0.0
  0
LINE
  5
A0
330
1E
100
AcDbEntity
  8
0
100
AcDbLine
 10
24.96
 20
178.0281
 30
0.0
 11
30.0
 21
177.3080999999999
 31
0.0
  0
LINE
  5
A1
330
1E
100
AcDbEntity
  8
0
100
AcDbLine
 10
24.87999999999999
 20
177.5481
 30
0.0
 11
30.0
 21
176.8280999999999
 31
0.0
  0
LINE
  5
A2
330
1E
100
AcDbEntity
  8
0
100
AcDbLine
 10
30.0
 20
177.3080999999999
 30
0.0
 11
35.04
 21
178.0281
 31
0.0
  0
LINE
  5
A3
330
1E
100
AcDbEntity
  8
0
100
AcDbLine
 10
39.67999999999999
 20
179.9481
 30
0.0
 11
43.76
 21
183.0681
 31
0.0
  0
LINE
  5
A4
330
1E
100
AcDbEntity
  8
0
100
AcDbLine
 10
35.04
 20
178.0281
 30
0.0
 11
39.67999999999999
 21
179.9481
 31
0.0
  0
LINE
  5
A5
330
1E
100
AcDbEntity
  8
0
100
AcDbLine
 10
56.04
 20
181.9481
 30
0.0
 11
58.92
 21
189.1480999999999
 31
0.0
  0
LINE
  5
A6
330
1E
100
AcDbEntity
  8
0
100
AcDbLine
 10
46.88
 20
187.1480999999999
 30
0.0
 11
48.79999999999999
 21
191.7880999999999
 31
0.0
  0
LINE
  5
A7
330
1E
100
AcDbEntity
  8
0
100
AcDbLine
 10
43.76
 20
183.0681
 30
0.0
 11
46.88
 21
187.1480999999999
 31
0.0
  0
LINE
  5
A8
330
1E
100
AcDbEntity
  8
0
100
AcDbLine
 10
47.35999999999999
 20
186.9080999999999
 30
0.0
 11
49.28
 21
191.7080999999999
 31
0.0
  0
LINE
  5
A9
330
1E
100
AcDbEntity
  8
0
100
AcDbLine
 10
44.15999999999999
 20
182.6681
 30
0.0
 11
47.35999999999999
 21
186.9080999999999
 31
0.0
  0
LINE
  5
AA
330
1E
100
AcDbEntity
  8
0
100
AcDbLine
 10
39.92
 20
179.4680999999999
 30
0.0
 11
44.15999999999999
 21
182.6681
 31
0.0
  0
LINE
  5
AB
330
1E
100
AcDbEntity
  8
0
100
AcDbLine
 10
35.12
 20
177.5481
 30
0.0
 11
39.92
 21
179.4680999999999
 31
0.0
  0
LINE
  5
AC
330
1E
100
AcDbEntity
  8
0
100
AcDbLine
 10
30.0
 20
176.8280999999999
 30
0.0
 11
35.12
 21
177.5481
 31
0.0
  0
LINE
  5
AD
330
1E
100
AcDbEntity
  8
0
100
AcDbLine
 10
1.08000000000001
 20
189.1480999999999
 30
0.0
 11
3.959999999999999
 21
181.9481
 31
0.0
  0
LINE
  5
AE
330
1E
100
AcDbEntity
  8
0
100
AcDbLine
 10
58.92
 20
189.1480999999999
 30
0.0
 11
60.0
 21
196.8281
 31
0.0
  0
LINE
  5
E0
330
1E
100
AcDbEntity
  8
0
100
AcDbLine
 10
13.612
 20
190.9200999999999
 30
0.0
 11
15.236
 21
190.2480999999999
 31
0.0
  0
LINE
  5
E1
330
1E
100
AcDbEntity
  8
0
100
AcDbLine
 10
15.236
 20
190.2480999999999
 30
0.0
 11
17.0
 21
189.9961
 31
0.0
  0
LINE
  5
E2
330
1E
100
AcDbEntity
  8
0
100
AcDbLine
 10
46.388
 20
190.9200999999999
 30
0.0
 11
47.816
 21
192.0121
 31
0.0
  0
LINE
  5
E3
330
1E
100
AcDbEntity
  8
0
100
AcDbLine
 10
44.76399999999999
 20
190.2480999999999
 30
0.0
 11
46.388
 21
190.9200999999999
 31
0.0
  0
LINE
  5
E4
330
1E
100
AcDbEntity
  8
0
100
AcDbLine
 10
43.0
 20
189.9961
 30
0.0
 11
44.76399999999999
 21
190.2480999999999
 31
0.0
  0
LINE
  5
E5
330
1E
100
AcDbEntity
  8
0
100
AcDbLine
 10
17.0
 20
189.9961
 30
0.0
 11
43.0
 21
189.9961
 31
0.0
  0
LINE
  5
E6
330
1E
100
AcDbEntity
  8
0
100
AcDbLine
 10
11.19999999999999
 20
191.7880999999999
 30
0.0
 11
13.12
 21
187.1480999999999
 31
0.0
  0
LINE
  5
E7
330
1E
100
AcDbEntity
  8
0
100
AcDbLine
 10
10.72
 20
191.7080999999999
 30
0.0
 11
12.64
 21
186.9080999999999
 31
0.0
  0
LINE
  5
E8
330
1E
100
AcDbEntity
  8
0
100
AcDbLine
 10
10.16799999999999
 20
196.8281
 30
0.0
 11
10.42
 21
195.0641
 31
0.0
  0
LINE
  5
E9
330
1E
100
AcDbEntity
  8
0
100
AcDbLine
 10
10.16799999999999
 20
196.8281
 30
0.0
 11
10.42
 21
198.5920999999999
 31
0.0
  0
LINE
  5
EA
330
1E
100
AcDbEntity
  8
0
100
AcDbLine
 10
10.42
 20
195.0641
 30
0.0
 11
11.092
 21
193.4401
 31
0.0
  0
LINE
  5
EB
330
1E
100
AcDbEntity
  8
0
100
AcDbLine
 10
10.252
 20
195.0361
 30
0.0
 11
10.924
 21
193.3561
 31
0.0
  0
LINE
  5
EC
330
1E
100
AcDbEntity
  8
0
100
AcDbLine
 10
10.252
 20
195.0361
 30
0.0
 11
10.42
 21
195.0641
 31
0.0
  0
LINE
  5
ED
330
1E
100
AcDbEntity
  8
0
100
AcDbLine
 10
0.0000000000000057
 20
196.8281
 30
0.0
 11
1.08000000000001
 21
204.5081
 31
0.0
  0
LINE
  5
EE
330
1E
100
AcDbEntity
  8
0
100
AcDbLine
 10
0.0000000000000057
 20
196.8281
 30
0.0
 11
1.08000000000001
 21
189.1480999999999
 31
0.0
  0
LINE
  5
EF
330
1E
100
AcDbEntity
  8
0
100
AcDbLine
 10
47.816
 20
192.0121
 30
0.0
 11
48.908
 21
193.4401
 31
0.0
  0
LINE
  5
F0
330
1E
100
AcDbEntity
  8
0
100
AcDbLine
 10
48.908
 20
193.4401
 30
0.0
 11
49.58
 21
195.0641
 31
0.0
  0
LINE
  5
F1
330
1E
100
AcDbEntity
  8
0
100
AcDbLine
 10
49.076
 20
193.3561
 30
0.0
 11
49.748
 21
195.0361
 31
0.0
  0
LINE
  5
F2
330
1E
100
AcDbEntity
  8
0
100
AcDbLine
 10
11.092
 20
193.4401
 30
0.0
 11
12.184
 21
192.0121
 31
0.0
  0
LINE
  5
F3
330
1E
100
AcDbEntity
  8
0
100
AcDbLine
 10
12.184
 20
192.0121
 30
0.0
 11
13.612
 21
190.9200999999999
 31
0.0
  0
LINE
  5
F4
330
1E
100
AcDbEntity
  8
0
100
AcDbLine
 10
10.988140969163
 20
193.271113215859
 30
0.0
 11
11.19999999999999
 21
191.7880999999999
 31
0.0
  0
LINE
  5
F5
330
1E
100
AcDbEntity
  8
0
100
AcDbLine
 10
48.79999999999999
 20
191.7880999999999
 30
0.0
 11
49.011859030837
 21
193.271113215859
 31
0.0
  0
LINE
  5
180
330
1E
100
AcDbEntity
  8
0
100
AcDbLine
 10
49.832
 20
196.8281
 30
0.0
 11
50.0
 21
196.8281
 31
0.0
  0
LINE
  5
181
330
1E
100
AcDbEntity
  8
0
100
AcDbLine
 10
49.58
 20
195.0641
 30
0.0
 11
49.748
 21
195.0361
 31
0.0
  0
LINE
  5
182
330
1E
100
AcDbEntity
  8
0
100
AcDbLine
 10
49.58
 20
195.0641
 30
0.0
 11
49.832
 21
196.8281
 31
0.0
  0
LINE
  5
183
330
1E
100
AcDbEntity
  8
0
100
AcDbLine
 10
49.748
 20
195.0361
 30
0.0
 11
50.0
 21
196.8281
 31
0.0
  0
LINE
  5
184
330
1E
100
AcDbEntity
  8
0
100
AcDbLine
 10
49.28
 20
191.7080999999999
 30
0.0
 11
50.0
 21
196.8281
 31
0.0
  0
LINE
  5
185
330
1E
100
AcDbEntity
  8
0
100
AcDbLine
 10
10.0
 20
196.8281
 30
0.0
 11
10.72
 21
201.9481
 31
0.0
  0
LINE
  5
186
330
1E
100
AcDbEntity
  8
0
100
AcDbLine
 10
10.0
 20
196.8281
 30
0.0
 11
10.72
 21
191.7080999999999
 31
0.0
  0
LINE
  5
187
330
1E
100
AcDbEntity
  8
0
100
AcDbLine
 10
10.0
 20
196.8281
 30
0.0
 11
10.252
 21
195.0361
 31
0.0
  0
LINE
  5
188
330
1E
100
AcDbEntity
  8
0
100
AcDbLine
 10
10.0
 20
196.8281
 30
0.0
 11
10.16799999999999
 21
196.8281
 31
0.0
  0
LINE
  5
189
330
1E
100
AcDbEntity
  8
0
100
AcDbLine
 10
10.0
 20
196.8281
 30
0.0
 11
10.252
 21
198.6201
 31
0.0
  0
LINE
  5
255
330
1E
100
AcDbEntity
  8
0
100
AcDbLine
 10
49.58
 20
198.5920999999999
 30
0.0
 11
49.748
 21
198.6201
 31
0.0
  0
LINE
  5
256
330
1E
100
AcDbEntity
  8
0
100
AcDbLine
 10
49.58
 20
198.5920999999999
 30
0.0
 11
49.832
 21
196.8281
 31
0.0
  0
LINE
  5
259
330
1E
100
AcDbEntity
  8
0
100
AcDbLine
 10
10.42
 20
198.5920999999999
 30
0.0
 11
11.092
 21
200.2161
 31
0.0
  0
LINE
  5
25A
330
1E
100
AcDbEntity
  8
0
100
AcDbLine
 10
10.252
 20
198.6201
 30
0.0
 11
10.924
 21
200.3000999999999
 31
0.0
  0
LINE
  5
25B
330
1E
100
AcDbEntity
  8
0
100
AcDbLine
 10
10.252
 20
198.6201
 30
0.0
 11
10.42
 21
198.5920999999999
 31
0.0
  0
LINE
  5
25C
330
1E
100
AcDbEntity
  8
0
100
AcDbLine
 10
49.748
 20
198.6201
 30
0.0
 11
50.0
 21
196.8281
 31
0.0
  0
LINE
  5
25E
330
1E
100
AcDbEntity
  8
0
100
AcDbLine
 10
10.924
 20
200.3000999999999
 30
0.0
 11
12.044
 21
201.7840999999999
 31
0.0
  0
LINE
  5
26F
330
1E
100
AcDbEntity
  8
0
100
AcDbLine
 10
48.908
 20
200.2161
 30
0.0
 11
49.58
 21
198.5920999999999
 31
0.0
  0
LINE
  5
286
330
1E
100
AcDbEntity
  8
0
100
AcDbLine
 10
49.076
 20
200.3000999999999
 30
0.0
 11
49.748
 21
198.6201
 31
0.0
  0
LINE
  5
287
330
1E
100
AcDbEntity
  8
0
100
AcDbLine
 10
11.092
 20
200.2161
 30
0.0
 11
12.184
 21
201.6440999999999
 31
0.0
  0
LINE
  5
288
330
1E
100
AcDbEntity
  8
0
100
AcDbLine
 10
10.988140969163
 20
200.385086784141
 30
0.0
 11
11.19999999999999
 21
201.8680999999999
 31
0.0
  0
LINE
  5
297
330
1E
100
AcDbEntity
  8
0
100
AcDbLine
 10
47.816
 20
201.6440999999999
 30
0.0
 11
48.908
 21
200.2161
 31
0.0
  0
LINE
  5
298
330
1E
100
AcDbEntity
  8
0
100
AcDbLine
 10
12.184
 20
201.6440999999999
 30
0.0
 11
13.612
 21
202.7360999999999
 31
0.0
  0
LINE
  5
299
330
1E
100
AcDbEntity
  8
0
100
AcDbLine
 10
47.956
 20
201.7840999999999
 30
0.0
 11
49.076
 21
200.3000999999999
 31
0.0
  0
LINE
  5
29A
330
1E
100
AcDbEntity
  8
0
100
AcDbLine
 10
12.044
 20
201.7840999999999
 30
0.0
 11
13.528
 21
202.9040999999999
 31
0.0
  0
LINE
  5
29B
330
1E
100
AcDbEntity
  8
0
100
AcDbLine
 10
11.19999999999999
 20
201.8680999999999
 30
0.0
 11
13.12
 21
206.5081
 31
0.0
  0
LINE
  5
29C
330
1E
100
AcDbEntity
  8
0
100
AcDbLine
 10
10.72
 20
201.9481
 30
0.0
 11
12.64
 21
206.7480999999999
 31
0.0
  0
LINE
  5
29D
330
1E
100
AcDbEntity
  8
0
100
AcDbLine
 10
48.79999999999999
 20
201.8680999999999
 30
0.0
 11
49.011859030837
 21
200.385086784141
 31
0.0
  0
LINE
  5
2B8
330
1E
100
AcDbEntity
  8
0
100
AcDbLine
 10
49.28
 20
201.9481
 30
0.0
 11
49.748
 21
198.6201
 31
0.0
  0
LINE
  5
2C1
330
1E
100
AcDbEntity
  8
0
100
AcDbLine
 10
46.388
 20
202.7360999999999
 30
0.0
 11
47.816
 21
201.6440999999999
 31
0.0
  0
LINE
  5
2C2
330
1E
100
AcDbEntity
  8
0
100
AcDbLine
 10
46.472
 20
202.9040999999999
 30
0.0
 11
47.956
 21
201.7840999999999
 31
0.0
  0
LINE
  5
2C3
330
1E
100
AcDbEntity
  8
0
100
AcDbLine
 10
13.612
 20
202.7360999999999
 30
0.0
 11
15.236
 21
203.4081
 31
0.0
  0
LINE
  5
2C4
330
1E
100
AcDbEntity
  8
0
100
AcDbLine
 10
13.528
 20
202.9040999999999
 30
0.0
 11
15.208
 21
203.5760999999999
 31
0.0
  0
LINE
  5
2DA
330
1E
100
AcDbEntity
  8
0
100
AcDbLine
 10
1.08000000000001
 20
204.5081
 30
0.0
 11
3.959999999999999
 21
211.7081
 31
0.0
  0
LINE
  5
2DB
330
1E
100
AcDbEntity
  8
0
100
AcDbLine
 10
44.76399999999999
 20
203.4081
 30
0.0
 11
46.388
 21
202.7360999999999
 31
0.0
  0
LINE
  5
2DC
330
1E
100
AcDbEntity
  8
0
100
AcDbLine
 10
43.0
 20
203.6601
 30
0.0
 11
44.76399999999999
 21
203.4081
 31
0.0
  0
LINE
  5
2DD
330
1E
100
AcDbEntity
  8
0
100
AcDbLine
 10
44.792
 20
203.5760999999999
 30
0.0
 11
46.472
 21
202.9040999999999
 31
0.0
  0
LINE
  5
2DE
330
1E
100
AcDbEntity
  8
0
100
AcDbLine
 10
15.236
 20
203.4081
 30
0.0
 11
17.0
 21
203.6601
 31
0.0
  0
LINE
  5
2DF
330
1E
100
AcDbEntity
  8
0
100
AcDbLine
 10
15.208
 20
203.5760999999999
 30
0.0
 11
17.0
 21
203.8281
 31
0.0
  0
LINE
  5
2E0
330
1E
100
AcDbEntity
  8
0
100
AcDbLine
 10
43.0
 20
203.8281
 30
0.0
 11
44.792
 21
203.5760999999999
 31
0.0
  0
LINE
  5
2E1
330
1E
100
AcDbEntity
  8
0
100
AcDbLine
 10
17.0
 20
203.8281
 30
0.0
 11
43.0
 21
203.8281
 31
0.0
  0
LINE
  5
2E2
330
1E
100
AcDbEntity
  8
0
100
AcDbLine
 10
17.0
 20
203.6601
 30
0.0
 11
43.0
 21
203.6601
 31
0.0
  0
LINE
  5
2E3
330
1E
100
AcDbEntity
  8
0
100
AcDbLine
 10
13.12
 20
206.5081
 30
0.0
 11
16.23999999999999
 21
210.5881
 31
0.0
  0
LINE
  5
2E4
330
1E
100
AcDbEntity
  8
0
100
AcDbLine
 10
12.64
 20
206.7480999999999
 30
0.0
 11
15.84
 21
210.9881
 31
0.0
  0
LINE
  5
2F7
330
1E
100
AcDbEntity
  8
0
100
AcDbLine
 10
58.92
 20
204.5081
 30
0.0
 11
60.0
 21
196.8281
 31
0.0
  0
LINE
  5
2F8
330
1E
100
AcDbEntity
  8
0
100
AcDbLine
 10
46.88
 20
206.5081
 30
0.0
 11
48.79999999999999
 21
201.8680999999999
 31
0.0
  0
LINE
  5
2F9
330
1E
100
AcDbEntity
  8
0
100
AcDbLine
 10
47.35999999999999
 20
206.7480999999999
 30
0.0
 11
49.28
 21
201.9481
 31
0.0
  0
LINE
  5
2FB
330
1E
100
AcDbEntity
  8
0
100
AcDbLine
 10
3.959999999999999
 20
211.7081
 30
0.0
 11
8.760000000000008
 21
218.0680999999999
 31
0.0
  0
LINE
  5
2FC
330
1E
100
AcDbEntity
  8
0
100
AcDbLine
 10
16.23999999999999
 20
210.5881
 30
0.0
 11
20.32
 21
213.7081
 31
0.0
  0
LINE
  5
2FD
330
1E
100
AcDbEntity
  8
0
100
AcDbLine
 10
20.32
 20
213.7081
 30
0.0
 11
24.96
 21
215.6280999999999
 31
0.0
  0
LINE
  5
2FE
330
1E
100
AcDbEntity
  8
0
100
AcDbLine
 10
15.84
 20
210.9881
 30
0.0
 11
20.08
 21
214.1881
 31
0.0
  0
LINE
  5
2FF
330
1E
100
AcDbEntity
  8
0
100
AcDbLine
 10
20.08
 20
214.1881
 30
0.0
 11
24.87999999999999
 21
216.1081
 31
0.0
  0
LINE
  5
300
330
1E
100
AcDbEntity
  8
0
100
AcDbLine
 10
39.67999999999999
 20
213.7081
 30
0.0
 11
43.76
 21
210.5881
 31
0.0
  0
LINE
  5
301
330
1E
100
AcDbEntity
  8
0
100
AcDbLine
 10
43.76
 20
210.5881
 30
0.0
 11
46.88
 21
206.5081
 31
0.0
  0
LINE
  5
302
330
1E
100
AcDbEntity
  8
0
100
AcDbLine
 10
56.04
 20
211.7081
 30
0.0
 11
58.92
 21
204.5081
 31
0.0
  0
LINE
  5
303
330
1E
100
AcDbEntity
  8
0
100
AcDbLine
 10
44.15999999999999
 20
210.9881
 30
0.0
 11
47.35999999999999
 21
206.7480999999999
 31
0.0
  0
LINE
  5
304
330
1E
100
AcDbEntity
  8
0
100
AcDbLine
 10
39.92
 20
214.1881
 30
0.0
 11
44.15999999999999
 21
210.9881
 31
0.0
  0
LINE
  5
305
330
1E
100
AcDbEntity
  8
0
100
AcDbLine
 10
24.96
 20
215.6280999999999
 30
0.0
 11
30.0
 21
216.3480999999999
 31
0.0
  0
LINE
  5
306
330
1E
100
AcDbEntity
  8
0
100
AcDbLine
 10
24.87999999999999
 20
216.1081
 30
0.0
 11
30.0
 21
216.8280999999999
 31
0.0
  0
LINE
  5
307
330
1E
100
AcDbEntity
  8
0
100
AcDbLine
 10
35.04
 20
215.6280999999999
 30
0.0
 11
39.67999999999999
 21
213.7081
 31
0.0
  0
LINE
  5
308
330
1E
100
AcDbEntity
  8
0
100
AcDbLine
 10
30.0
 20
216.3480999999999
 30
0.0
 11
35.04
 21
215.6280999999999
 31
0.0
  0
LINE
  5
309
330
1E
100
AcDbEntity
  8
0
100
AcDbLine
 10
8.760000000000008
 20
218.0680999999999
 30
0.0
 11
15.12
 21
222.8680999999999
 31
0.0
  0
LINE
  5
30A
330
1E
100
AcDbEntity
  8
0
100
AcDbLine
 10
15.12
 20
222.8680999999999
 30
0.0
 11
22.32
 21
225.7480999999999
 31
0.0
  0
LINE
  5
30B
330
1E
100
AcDbEntity
  8
0
100
AcDbLine
 10
22.32
 20
225.7480999999999
 30
0.0
 11
30.0
 21
226.8280999999999
 31
0.0
  0
LINE
  5
30C
330
1E
100
AcDbEntity
  8
0
100
AcDbLine
 10
30.0
 20
226.8280999999999
 30
0.0
 11
37.68
 21
225.7480999999999
 31
0.0
  0
LINE
  5
30D
330
1E
100
AcDbEntity
  8
0
100
AcDbLine
 10
30.0
 20
216.8280999999999
 30
0.0
 11
35.12
 21
216.1081
 31
0.0
  0
LINE
  5
30E
330
1E
100
AcDbEntity
  8
0
100
AcDbLine
 10
51.24
 20
218.0680999999999
 30
0.0
 11
56.04
 21
211.7081
 31
0.0
  0
LINE
  5
30F
330
1E
100
AcDbEntity
  8
0
100
AcDbLine
 10
44.88
 20
222.8680999999999
 30
0.0
 11
51.24
 21
218.0680999999999
 31
0.0
  0
LINE
  5
310
330
1E
100
AcDbEntity
  8
0
100
AcDbLine
 10
37.68
 20
225.7480999999999
 30
0.0
 11
44.88
 21
222.8680999999999
 31
0.0
  0
LINE
  5
311
330
1E
100
AcDbEntity
  8
0
100
AcDbLine
 10
35.12
 20
216.1081
 30
0.0
 11
39.92
 21
214.1881
 31
0.0
  0
LINE
  5
3F8
330
1E
100
AcDbEntity
  8
0
100
AcDbLine
 10
140.0
 20
231.8281
 30
0.0
 11
148.96
 21
230.5680999999999
 31
0.0
  0
LINE
  5
43F
330
1E
100
AcDbEntity
  8
0
100
AcDbLine
 10
310.5109999999999
 20
39.6658
 30
0.0
 11
311.8249999999999
 21
33.77819999999999
 31
0.0
  0
LINE
  5
440
330
1E
100
AcDbEntity
  8
0
100
AcDbLine
 10
310.5109999999999
 20
48.54079999999999
 30
0.0
 11
311.8249999999999
 21
42.6531
 31
0.0
  0
LINE
  5
441
330
1E
100
AcDbEntity
  8
0
100
AcDbLine
 10
310.0
 20
45.48729999999999
 30
0.0
 11
310.0
 21
54.3624
 31
0.0
  0
LINE
  5
442
330
1E
100
AcDbEntity
  8
0
100
AcDbLine
 10
310.0
 20
45.48729999999999
 30
0.0
 11
310.5109999999999
 21
39.6658
 31
0.0
  0
LINE
  5
443
330
1E
100
AcDbEntity
  8
0
100
AcDbLine
 10
310.5109999999999
 20
60.1839
 30
0.0
 11
311.8249999999999
 21
66.0716
 31
0.0
  0
LINE
  5
444
330
1E
100
AcDbEntity
  8
0
100
AcDbLine
 10
310.0
 20
54.3624
 30
0.0
 11
310.5109999999999
 21
60.1839
 31
0.0
  0
LINE
  5
445
330
1E
100
AcDbEntity
  8
0
100
AcDbLine
 10
310.0
 20
54.3624
 30
0.0
 11
310.5109999999999
 21
48.54079999999999
 31
0.0
  0
LINE
  5
446
330
1E
100
AcDbEntity
  8
0
100
AcDbLine
 10
310.0
 20
54.3624
 30
0.0
 11
310.0
 21
45.48729999999999
 31
0.0
  0
LINE
  5
447
330
1E
100
AcDbEntity
  8
0
100
AcDbLine
 10
313.869
 20
28.155
 30
0.0
 11
316.7149999999999
 21
22.92889999999999
 31
0.0
  0
LINE
  5
448
330
1E
100
AcDbEntity
  8
0
100
AcDbLine
 10
311.8249999999999
 20
33.77819999999999
 30
0.0
 11
313.869
 21
28.155
 31
0.0
  0
LINE
  5
449
330
1E
100
AcDbEntity
  8
0
100
AcDbLine
 10
313.869
 20
37.03
 30
0.0
 11
316.7149999999999
 21
31.804
 31
0.0
  0
LINE
  5
44A
330
1E
100
AcDbEntity
  8
0
100
AcDbLine
 10
311.8249999999999
 20
42.6531
 30
0.0
 11
313.869
 21
37.03
 31
0.0
  0
LINE
  5
44B
330
1E
100
AcDbEntity
  8
0
100
AcDbLine
 10
320.365
 20
17.9673
 30
0.0
 11
324.672
 21
13.4688
 31
0.0
  0
LINE
  5
44C
330
1E
100
AcDbEntity
  8
0
100
AcDbLine
 10
316.7149999999999
 20
22.92889999999999
 30
0.0
 11
320.365
 21
17.9673
 31
0.0
  0
LINE
  5
44D
330
1E
100
AcDbEntity
  8
0
100
AcDbLine
 10
320.365
 20
26.8423
 30
0.0
 11
324.672
 21
22.3439
 31
0.0
  0
LINE
  5
44E
330
1E
100
AcDbEntity
  8
0
100
AcDbLine
 10
316.7149999999999
 20
31.804
 30
0.0
 11
320.365
 21
26.8423
 31
0.0
  0
LINE
  5
44F
330
1E
100
AcDbEntity
  8
0
100
AcDbLine
 10
324.672
 20
13.4688
 30
0.0
 11
329.6349999999999
 21
9.565900000000009
 31
0.0
  0
LINE
  5
450
330
1E
100
AcDbEntity
  8
0
100
AcDbLine
 10
329.6349999999999
 20
9.565900000000009
 30
0.0
 11
335.109
 21
6.258100000000009
 31
0.0
  0
LINE
  5
451
330
1E
100
AcDbEntity
  8
0
100
AcDbLine
 10
329.6349999999999
 20
18.44089999999999
 30
0.0
 11
335.109
 21
15.133
 31
0.0
  0
LINE
  5
452
330
1E
100
AcDbEntity
  8
0
100
AcDbLine
 10
324.672
 20
22.3439
 30
0.0
 11
329.6349999999999
 21
18.44089999999999
 31
0.0
  0
LINE
  5
453
330
1E
100
AcDbEntity
  8
0
100
AcDbLine
 10
325.1829999999999
 20
23.2297
 30
0.0
 11
330.073
 21
19.3926
 31
0.0
  0
LINE
  5
454
330
1E
100
AcDbEntity
  8
0
100
AcDbLine
 10
330.073
 20
19.3926
 30
0.0
 11
335.475
 21
16.085
 31
0.0
  0
LINE
  5
455
330
1E
100
AcDbEntity
  8
0
100
AcDbLine
 10
320.949
 20
27.66189999999999
 30
0.0
 11
325.1829999999999
 21
23.2297
 31
0.0
  0
LINE
  5
456
330
1E
100
AcDbEntity
  8
0
100
AcDbLine
 10
317.299
 20
32.55729999999999
 30
0.0
 11
320.949
 21
27.66189999999999
 31
0.0
  0
LINE
  5
457
330
1E
100
AcDbEntity
  8
0
100
AcDbLine
 10
314.5989999999999
 20
37.7173
 30
0.0
 11
317.299
 21
32.55729999999999
 31
0.0
  0
LINE
  5
458
330
1E
100
AcDbEntity
  8
0
100
AcDbLine
 10
312.482
 20
43.5388
 30
0.0
 11
314.5989999999999
 21
37.7173
 31
0.0
  0
LINE
  5
459
330
1E
100
AcDbEntity
  8
0
100
AcDbLine
 10
311.241
 20
49.0296
 30
0.0
 11
312.482
 21
43.5388
 31
0.0
  0
LINE
  5
45A
330
1E
100
AcDbEntity
  8
0
100
AcDbLine
 10
311.8249999999999
 20
66.0716
 30
0.0
 11
313.869
 21
71.6947
 31
0.0
  0
LINE
  5
45B
330
1E
100
AcDbEntity
  8
0
100
AcDbLine
 10
313.869
 20
71.6947
 30
0.0
 11
316.7149999999999
 21
76.9208
 31
0.0
  0
LINE
  5
45C
330
1E
100
AcDbEntity
  8
0
100
AcDbLine
 10
316.7149999999999
 20
76.9208
 30
0.0
 11
320.365
 21
81.8824
 31
0.0
  0
LINE
  5
45D
330
1E
100
AcDbEntity
  8
0
100
AcDbLine
 10
320.365
 20
81.8824
 30
0.0
 11
324.672
 21
86.3809
 31
0.0
  0
LINE
  5
45E
330
1E
100
AcDbEntity
  8
0
100
AcDbLine
 10
320.949
 20
81.90800000000001
 30
0.0
 11
325.1829999999999
 21
86.3403
 31
0.0
  0
LINE
  5
45F
330
1E
100
AcDbEntity
  8
0
100
AcDbLine
 10
317.299
 20
77.01260000000001
 30
0.0
 11
320.949
 21
81.90800000000001
 31
0.0
  0
LINE
  5
460
330
1E
100
AcDbEntity
  8
0
100
AcDbLine
 10
314.5989999999999
 20
71.8527
 30
0.0
 11
317.299
 21
77.01260000000001
 31
0.0
  0
LINE
  5
461
330
1E
100
AcDbEntity
  8
0
100
AcDbLine
 10
312.482
 20
66.0311
 30
0.0
 11
314.5989999999999
 21
71.8527
 31
0.0
  0
LINE
  5
462
330
1E
100
AcDbEntity
  8
0
100
AcDbLine
 10
311.241
 20
60.5404
 30
0.0
 11
312.482
 21
66.0311
 31
0.0
  0
LINE
  5
463
330
1E
100
AcDbEntity
  8
0
100
AcDbLine
 10
310.73
 20
54.785
 30
0.0
 11
311.241
 21
60.5404
 31
0.0
  0
LINE
  5
464
330
1E
100
AcDbEntity
  8
0
100
AcDbLine
 10
310.73
 20
54.785
 30
0.0
 11
311.241
 21
49.0296
 31
0.0
  0
LINE
  5
465
330
1E
100
AcDbEntity
  8
0
100
AcDbLine
 10
324.672
 20
86.3809
 30
0.0
 11
329.6349999999999
 21
90.28409999999999
 31
0.0
  0
LINE
  5
466
330
1E
100
AcDbEntity
  8
0
100
AcDbLine
 10
329.6349999999999
 20
90.28409999999999
 30
0.0
 11
335.109
 21
93.59109999999999
 31
0.0
  0
LINE
  5
467
330
1E
100
AcDbEntity
  8
0
100
AcDbLine
 10
325.1829999999999
 20
86.3403
 30
0.0
 11
330.073
 21
90.17709999999999
 31
0.0
  0
LINE
  5
468
330
1E
100
AcDbEntity
  8
0
100
AcDbLine
 10
335.109
 20
6.258100000000009
 30
0.0
 11
340.876
 21
3.678100000000009
 31
0.0
  0
LINE
  5
469
330
1E
100
AcDbEntity
  8
0
100
AcDbLine
 10
340.876
 20
3.678100000000009
 30
0.0
 11
347.08
 21
1.82580000000001
 31
0.0
  0
LINE
  5
46A
330
1E
100
AcDbEntity
  8
0
100
AcDbLine
 10
335.109
 20
15.133
 30
0.0
 11
340.876
 21
12.5531
 31
0.0
  0
LINE
  5
46B
330
1E
100
AcDbEntity
  8
0
100
AcDbLine
 10
340.876
 20
12.5531
 30
0.0
 11
347.08
 21
10.7007
 31
0.0
  0
LINE
  5
46C
330
1E
100
AcDbEntity
  8
0
100
AcDbLine
 10
335.475
 20
16.085
 30
0.0
 11
341.168
 21
13.6372
 31
0.0
  0
LINE
  5
46D
330
1E
100
AcDbEntity
  8
0
100
AcDbLine
 10
341.168
 20
13.6372
 30
0.0
 11
347.591
 21
11.7188
 31
0.0
  0
LINE
  5
46E
330
1E
100
AcDbEntity
  8
0
100
AcDbLine
 10
330.073
 20
90.17709999999999
 30
0.0
 11
335.475
 21
93.4851
 31
0.0
  0
LINE
  5
46F
330
1E
100
AcDbEntity
  8
0
100
AcDbLine
 10
335.109
 20
93.59109999999999
 30
0.0
 11
340.876
 21
96.1721
 31
0.0
  0
LINE
  5
470
330
1E
100
AcDbEntity
  8
0
100
AcDbLine
 10
340.876
 20
96.1721
 30
0.0
 11
347.08
 21
98.02410000000001
 31
0.0
  0
LINE
  5
471
330
1E
100
AcDbEntity
  8
0
100
AcDbLine
 10
335.475
 20
93.4851
 30
0.0
 11
341.168
 21
95.9331
 31
0.0
  0
LINE
  5
472
330
1E
100
AcDbEntity
  8
0
100
AcDbLine
 10
341.168
 20
95.9331
 30
0.0
 11
347.591
 21
97.85110000000001
 31
0.0
  0
LINE
  5
473
330
1E
100
AcDbEntity
  8
0
100
AcDbLine
 10
342.6
 20
166.5281
 30
0.0
 11
348.0
 21
164.342385714286
 31
0.0
  0
LINE
  5
474
330
1E
100
AcDbEntity
  8
0
100
AcDbLine
 10
347.08
 20
1.82580000000001
 30
0.0
 11
353.5769999999999
 21
0.6350000000000091
 31
0.0
  0
LINE
  5
475
330
1E
100
AcDbEntity
  8
0
100
AcDbLine
 10
353.5769999999999
 20
0.6350000000000091
 30
0.0
 11
360.0
 21
0.171900000000009
 31
0.0
  0
LINE
  5
476
330
1E
100
AcDbEntity
  8
0
100
AcDbLine
 10
360.0
 20
0.171900000000009
 30
0.0
 11
366.4229999999999
 21
0.6350000000000091
 31
0.0
  0
LINE
  5
477
330
1E
100
AcDbEntity
  8
0
100
AcDbLine
 10
347.08
 20
10.7007
 30
0.0
 11
353.5769999999999
 21
9.510000000000008
 31
0.0
  0
LINE
  5
478
330
1E
100
AcDbEntity
  8
0
100
AcDbLine
 10
353.5769999999999
 20
9.510000000000008
 30
0.0
 11
360.0
 21
9.046900000000009
 31
0.0
  0
LINE
  5
479
330
1E
100
AcDbEntity
  8
0
100
AcDbLine
 10
347.591
 20
11.7188
 30
0.0
 11
353.6499999999999
 21
10.5942
 31
0.0
  0
LINE
  5
47A
330
1E
100
AcDbEntity
  8
0
100
AcDbLine
 10
353.6499999999999
 20
10.5942
 30
0.0
 11
360.0
 21
10.13109999999999
 31
0.0
  0
LINE
  5
47B
330
1E
100
AcDbEntity
  8
0
100
AcDbLine
 10
351.36
 20
98.80868981068191
 30
0.0
 11
351.36
 21
108.3180999999999
 31
0.0
  0
LINE
  5
47C
330
1E
100
AcDbEntity
  8
0
100
AcDbLine
 10
347.08
 20
98.02410000000001
 30
0.0
 11
353.5769999999999
 21
99.21510000000001
 31
0.0
  0
LINE
  5
47D
330
1E
100
AcDbEntity
  8
0
100
AcDbLine
 10
353.5769999999999
 20
99.21510000000001
 30
0.0
 11
360.0
 21
99.6781
 31
0.0
  0
LINE
  5
47E
330
1E
100
AcDbEntity
  8
0
100
AcDbLine
 10
347.591
 20
97.85110000000001
 30
0.0
 11
353.6499999999999
 21
98.9761
 31
0.0
  0
LINE
  5
47F
330
1E
100
AcDbEntity
  8
0
100
AcDbLine
 10
353.6499999999999
 20
98.9761
 30
0.0
 11
360.0
 21
99.4391
 31
0.0
  0
LINE
  5
480
330
1E
100
AcDbEntity
  8
0
100
AcDbLine
 10
348.384
 20
106.9381
 30
0.0
 11
349.6319999999999
 21
105.6351
 31
0.0
  0
LINE
  5
481
330
1E
100
AcDbEntity
  8
0
100
AcDbLine
 10
348.0
 20
108.3180999999999
 30
0.0
 11
348.384
 21
109.7371
 31
0.0
  0
LINE
  5
482
330
1E
100
AcDbEntity
  8
0
100
AcDbLine
 10
348.0
 20
108.3180999999999
 30
0.0
 11
348.384
 21
106.9381
 31
0.0
  0
LINE
  5
483
330
1E
100
AcDbEntity
  8
0
100
AcDbLine
 10
348.0
 20
108.3180999999999
 30
0.0
 11
348.0
 21
168.7991
 31
0.0
  0
LINE
  5
484
330
1E
100
AcDbEntity
  8
0
100
AcDbLine
 10
349.6319999999999
 20
105.6351
 30
0.0
 11
351.36
 21
104.6063999999999
 31
0.0
  0
LINE
  5
485
330
1E
100
AcDbEntity
  8
0
100
AcDbLine
 10
348.384
 20
109.7371
 30
0.0
 11
349.6319999999999
 21
111.0391
 31
0.0
  0
LINE
  5
486
330
1E
100
AcDbEntity
  8
0
100
AcDbLine
 10
349.6319999999999
 20
111.0391
 30
0.0
 11
351.5519999999999
 21
112.1821
 31
0.0
  0
LINE
  5
487
330
1E
100
AcDbEntity
  8
0
100
AcDbLine
 10
351.5519999999999
 20
112.1821
 30
0.0
 11
354.048
 21
113.0511
 31
0.0
  0
LINE
  5
488
330
1E
100
AcDbEntity
  8
0
100
AcDbLine
 10
354.048
 20
113.0511
 30
0.0
 11
356.928
 21
113.5620999999999
 31
0.0
  0
LINE
  5
489
330
1E
100
AcDbEntity
  8
0
100
AcDbLine
 10
356.928
 20
113.5620999999999
 30
0.0
 11
360.0
 21
113.7600999999999
 31
0.0
  0
LINE
  5
48A
330
1E
100
AcDbEntity
  8
0
100
AcDbLine
 10
357.7919999999999
 20
112.1040999999999
 30
0.0
 11
360.0
 21
112.2611
 31
0.0
  0
LINE
  5
48B
330
1E
100
AcDbEntity
  8
0
100
AcDbLine
 10
355.6799999999999
 20
111.7091
 30
0.0
 11
357.7919999999999
 21
112.1040999999999
 31
0.0
  0
LINE
  5
48C
330
1E
100
AcDbEntity
  8
0
100
AcDbLine
 10
353.8559999999999
 20
111.0791
 30
0.0
 11
355.6799999999999
 21
111.7091
 31
0.0
  0
LINE
  5
48D
330
1E
100
AcDbEntity
  8
0
100
AcDbLine
 10
352.5119999999999
 20
110.2891
 30
0.0
 11
353.8559999999999
 21
111.0791
 31
0.0
  0
LINE
  5
48E
330
1E
100
AcDbEntity
  8
0
100
AcDbLine
 10
351.648
 20
109.3420999999999
 30
0.0
 11
352.5119999999999
 21
110.2891
 31
0.0
  0
LINE
  5
48F
330
1E
100
AcDbEntity
  8
0
100
AcDbLine
 10
351.36
 20
108.3180999999999
 30
0.0
 11
351.36
 21
98.80868981068191
 31
0.0
  0
LINE
  5
490
330
1E
100
AcDbEntity
  8
0
100
AcDbLine
 10
351.36
 20
108.3180999999999
 30
0.0
 11
351.648
 21
109.3420999999999
 31
0.0
  0
LINE
  5
491
330
1E
100
AcDbEntity
  8
0
100
AcDbLine
 10
360.0
 20
113.7600999999999
 30
0.0
 11
363.0719999999999
 21
113.5620999999999
 31
0.0
  0
LINE
  5
492
330
1E
100
AcDbEntity
  8
0
100
AcDbLine
 10
360.0
 20
112.2611
 30
0.0
 11
362.208
 21
112.1040999999999
 31
0.0
  0
LINE
  5
493
330
1E
100
AcDbEntity
  8
0
100
AcDbLine
 10
360.0
 20
99.6781
 30
0.0
 11
366.4229999999999
 21
99.21510000000001
 31
0.0
  0
LINE
  5
494
330
1E
100
AcDbEntity
  8
0
100
AcDbLine
 10
360.0
 20
99.4391
 30
0.0
 11
366.35
 21
98.9761
 31
0.0
  0
LINE
  5
495
330
1E
100
AcDbEntity
  8
0
100
AcDbLine
 10
360.0
 20
9.046900000000009
 30
0.0
 11
366.4229999999999
 21
9.510000000000008
 31
0.0
  0
LINE
  5
496
330
1E
100
AcDbEntity
  8
0
100
AcDbLine
 10
366.4229999999999
 20
0.6350000000000091
 30
0.0
 11
372.92
 21
1.82580000000001
 31
0.0
  0
LINE
  5
497
330
1E
100
AcDbEntity
  8
0
100
AcDbLine
 10
366.4229999999999
 20
9.510000000000008
 30
0.0
 11
372.92
 21
10.7007
 31
0.0
  0
LINE
  5
498
330
1E
100
AcDbEntity
  8
0
100
AcDbLine
 10
366.144
 20
111.0791
 30
0.0
 11
367.488
 21
110.2891
 31
0.0
  0
LINE
  5
499
330
1E
100
AcDbEntity
  8
0
100
AcDbLine
 10
364.32
 20
111.7091
 30
0.0
 11
366.144
 21
111.0791
 31
0.0
  0
LINE
  5
49A
330
1E
100
AcDbEntity
  8
0
100
AcDbLine
 10
365.952
 20
113.0511
 30
0.0
 11
368.448
 21
112.1821
 31
0.0
  0
LINE
  5
49B
330
1E
100
AcDbEntity
  8
0
100
AcDbLine
 10
363.0719999999999
 20
113.5620999999999
 30
0.0
 11
365.952
 21
113.0511
 31
0.0
  0
LINE
  5
49C
330
1E
100
AcDbEntity
  8
0
100
AcDbLine
 10
362.208
 20
112.1040999999999
 30
0.0
 11
364.32
 21
111.7091
 31
0.0
  0
LINE
  5
49D
330
1E
100
AcDbEntity
  8
0
100
AcDbLine
 10
368.6399999999999
 20
98.8086898106818
 30
0.0
 11
368.6399999999999
 21
108.3180999999999
 31
0.0
  0
LINE
  5
49E
330
1E
100
AcDbEntity
  8
0
100
AcDbLine
 10
368.6399999999999
 20
104.6063999999999
 30
0.0
 11
370.368
 21
105.6351
 31
0.0
  0
LINE
  5
49F
330
1E
100
AcDbEntity
  8
0
100
AcDbLine
 10
370.368
 20
105.6351
 30
0.0
 11
371.6159999999999
 21
106.9381
 31
0.0
  0
LINE
  5
4A0
330
1E
100
AcDbEntity
  8
0
100
AcDbLine
 10
372.0
 20
108.3180999999999
 30
0.0
 11
372.0
 21
168.7991
 31
0.0
  0
LINE
  5
4A1
330
1E
100
AcDbEntity
  8
0
100
AcDbLine
 10
371.6159999999999
 20
106.9381
 30
0.0
 11
372.0
 21
108.3180999999999
 31
0.0
  0
LINE
  5
4A2
330
1E
100
AcDbEntity
  8
0
100
AcDbLine
 10
368.6399999999999
 20
108.3180999999999
 30
0.0
 11
368.6399999999999
 21
98.8086898106818
 31
0.0
  0
LINE
  5
4A3
330
1E
100
AcDbEntity
  8
0
100
AcDbLine
 10
371.6159999999999
 20
109.7371
 30
0.0
 11
372.0
 21
108.3180999999999
 31
0.0
  0
LINE
  5
4A4
330
1E
100
AcDbEntity
  8
0
100
AcDbLine
 10
370.368
 20
111.0391
 30
0.0
 11
371.6159999999999
 21
109.7371
 31
0.0
  0
LINE
  5
4A5
330
1E
100
AcDbEntity
  8
0
100
AcDbLine
 10
368.448
 20
112.1821
 30
0.0
 11
370.368
 21
111.0391
 31
0.0
  0
LINE
  5
4A6
330
1E
100
AcDbEntity
  8
0
100
AcDbLine
 10
368.3519999999999
 20
109.3420999999999
 30
0.0
 11
368.6399999999999
 21
108.3180999999999
 31
0.0
  0
LINE
  5
4A7
330
1E
100
AcDbEntity
  8
0
100
AcDbLine
 10
367.488
 20
110.2891
 30
0.0
 11
368.3519999999999
 21
109.3420999999999
 31
0.0
  0
LINE
  5
4A8
330
1E
100
AcDbEntity
  8
0
100
AcDbLine
 10
366.4229999999999
 20
99.21510000000001
 30
0.0
 11
372.92
 21
98.02410000000001
 31
0.0
  0
LINE
  5
4A9
330
1E
100
AcDbEntity
  8
0
100
AcDbLine
 10
366.35
 20
98.9761
 30
0.0
 11
372.4089999999999
 21
97.85110000000001
 31
0.0
  0
LINE
  5
4AA
330
1E
100
AcDbEntity
  8
0
100
AcDbLine
 10
366.35
 20
10.5942
 30
0.0
 11
372.4089999999999
 21
11.7188
 31
0.0
  0
LINE
  5
4AB
330
1E
100
AcDbEntity
  8
0
100
AcDbLine
 10
360.0
 20
10.13109999999999
 30
0.0
 11
366.35
 21
10.5942
 31
0.0
  0
LINE
  5
4AC
330
1E
100
AcDbEntity
  8
0
100
AcDbLine
 10
372.0
 20
164.342385714286
 30
0.0
 11
377.4
 21
166.5281
 31
0.0
  0
LINE
  5
4AD
330
1E
100
AcDbEntity
  8
0
100
AcDbLine
 10
372.4089999999999
 20
97.85110000000001
 30
0.0
 11
378.832
 21
95.9331
 31
0.0
  0
LINE
  5
4AE
330
1E
100
AcDbEntity
  8
0
100
AcDbLine
 10
372.92
 20
1.82580000000001
 30
0.0
 11
379.124
 21
3.678100000000009
 31
0.0
  0
LINE
  5
4AF
330
1E
100
AcDbEntity
  8
0
100
AcDbLine
 10
390.365
 20
9.565900000000009
 30
0.0
 11
395.3289999999999
 21
13.4688
 31
0.0
  0
LINE
  5
4B0
330
1E
100
AcDbEntity
  8
0
100
AcDbLine
 10
384.8909999999999
 20
6.258100000000009
 30
0.0
 11
390.365
 21
9.565900000000009
 31
0.0
  0
LINE
  5
4B1
330
1E
100
AcDbEntity
  8
0
100
AcDbLine
 10
379.124
 20
3.678100000000009
 30
0.0
 11
384.8909999999999
 21
6.258100000000009
 31
0.0
  0
LINE
  5
4B2
330
1E
100
AcDbEntity
  8
0
100
AcDbLine
 10
395.3289999999999
 20
13.4688
 30
0.0
 11
399.6349999999999
 21
17.9673
 31
0.0
  0
LINE
  5
4B3
330
1E
100
AcDbEntity
  8
0
100
AcDbLine
 10
379.124
 20
12.5531
 30
0.0
 11
384.8909999999999
 21
15.133
 31
0.0
  0
LINE
  5
4B4
330
1E
100
AcDbEntity
  8
0
100
AcDbLine
 10
372.92
 20
10.7007
 30
0.0
 11
379.124
 21
12.5531
 31
0.0
  0
LINE
  5
4B5
330
1E
100
AcDbEntity
  8
0
100
AcDbLine
 10
384.525
 20
93.4851
 30
0.0
 11
389.9269999999999
 21
90.17709999999999
 31
0.0
  0
LINE
  5
4B6
330
1E
100
AcDbEntity
  8
0
100
AcDbLine
 10
379.124
 20
96.1721
 30
0.0
 11
384.8909999999999
 21
93.59109999999999
 31
0.0
  0
LINE
  5
4B7
330
1E
100
AcDbEntity
  8
0
100
AcDbLine
 10
372.92
 20
98.02410000000001
 30
0.0
 11
379.124
 21
96.1721
 31
0.0
  0
LINE
  5
4B8
330
1E
100
AcDbEntity
  8
0
100
AcDbLine
 10
378.832
 20
95.9331
 30
0.0
 11
384.525
 21
93.4851
 31
0.0
  0
LINE
  5
4B9
330
1E
100
AcDbEntity
  8
0
100
AcDbLine
 10
399.6349999999999
 20
17.9673
 30
0.0
 11
403.285
 21
22.92889999999999
 31
0.0
  0
LINE
  5
4BA
330
1E
100
AcDbEntity
  8
0
100
AcDbLine
 10
390.365
 20
18.44089999999999
 30
0.0
 11
395.3289999999999
 21
22.3439
 31
0.0
  0
LINE
  5
4BB
330
1E
100
AcDbEntity
  8
0
100
AcDbLine
 10
384.8909999999999
 20
15.133
 30
0.0
 11
390.365
 21
18.44089999999999
 31
0.0
  0
LINE
  5
4BC
330
1E
100
AcDbEntity
  8
0
100
AcDbLine
 10
395.3289999999999
 20
22.3439
 30
0.0
 11
399.6349999999999
 21
26.8423
 31
0.0
  0
LINE
  5
4BD
330
1E
100
AcDbEntity
  8
0
100
AcDbLine
 10
394.818
 20
23.2297
 30
0.0
 11
399.051
 21
27.66189999999999
 31
0.0
  0
LINE
  5
4BE
330
1E
100
AcDbEntity
  8
0
100
AcDbLine
 10
403.285
 20
22.92889999999999
 30
0.0
 11
406.1309999999999
 21
28.155
 31
0.0
  0
LINE
  5
4BF
330
1E
100
AcDbEntity
  8
0
100
AcDbLine
 10
399.6349999999999
 20
26.8423
 30
0.0
 11
403.285
 21
31.804
 31
0.0
  0
LINE
  5
4C0
330
1E
100
AcDbEntity
  8
0
100
AcDbLine
 10
403.285
 20
31.804
 30
0.0
 11
406.1309999999999
 21
37.03
 31
0.0
  0
LINE
  5
4C1
330
1E
100
AcDbEntity
  8
0
100
AcDbLine
 10
399.051
 20
27.66189999999999
 30
0.0
 11
402.7009999999999
 21
32.55729999999999
 31
0.0
  0
LINE
  5
4C2
330
1E
100
AcDbEntity
  8
0
100
AcDbLine
 10
402.7009999999999
 20
32.55729999999999
 30
0.0
 11
405.4009999999999
 21
37.7173
 31
0.0
  0
LINE
  5
4C3
330
1E
100
AcDbEntity
  8
0
100
AcDbLine
 10
406.1309999999999
 20
28.155
 30
0.0
 11
408.175
 21
33.77819999999999
 31
0.0
  0
LINE
  5
4C4
330
1E
100
AcDbEntity
  8
0
100
AcDbLine
 10
408.175
 20
33.77819999999999
 30
0.0
 11
409.489
 21
39.6658
 31
0.0
  0
LINE
  5
4C5
330
1E
100
AcDbEntity
  8
0
100
AcDbLine
 10
406.1309999999999
 20
37.03
 30
0.0
 11
408.175
 21
42.6531
 31
0.0
  0
LINE
  5
4C6
330
1E
100
AcDbEntity
  8
0
100
AcDbLine
 10
408.175
 20
42.6531
 30
0.0
 11
409.489
 21
48.54079999999999
 31
0.0
  0
LINE
  5
4C7
330
1E
100
AcDbEntity
  8
0
100
AcDbLine
 10
405.4009999999999
 20
37.7173
 30
0.0
 11
407.518
 21
43.5388
 31
0.0
  0
LINE
  5
4C8
330
1E
100
AcDbEntity
  8
0
100
AcDbLine
 10
403.285
 20
76.9208
 30
0.0
 11
406.1309999999999
 21
71.6947
 31
0.0
  0
LINE
  5
4C9
330
1E
100
AcDbEntity
  8
0
100
AcDbLine
 10
390.365
 20
90.28409999999999
 30
0.0
 11
395.3289999999999
 21
86.3809
 31
0.0
  0
LINE
  5
4CA
330
1E
100
AcDbEntity
  8
0
100
AcDbLine
 10
384.8909999999999
 20
93.59109999999999
 30
0.0
 11
390.365
 21
90.28409999999999
 31
0.0
  0
LINE
  5
4CB
330
1E
100
AcDbEntity
  8
0
100
AcDbLine
 10
389.9269999999999
 20
90.17709999999999
 30
0.0
 11
394.818
 21
86.3403
 31
0.0
  0
LINE
  5
4CC
330
1E
100
AcDbEntity
  8
0
100
AcDbLine
 10
395.3289999999999
 20
86.3809
 30
0.0
 11
399.6349999999999
 21
81.8824
 31
0.0
  0
LINE
  5
4CD
330
1E
100
AcDbEntity
  8
0
100
AcDbLine
 10
394.818
 20
86.3403
 30
0.0
 11
399.051
 21
81.90800000000001
 31
0.0
  0
LINE
  5
4CE
330
1E
100
AcDbEntity
  8
0
100
AcDbLine
 10
399.6349999999999
 20
81.8824
 30
0.0
 11
403.285
 21
76.9208
 31
0.0
  0
LINE
  5
4CF
330
1E
100
AcDbEntity
  8
0
100
AcDbLine
 10
399.051
 20
81.90800000000001
 30
0.0
 11
402.7009999999999
 21
77.01260000000001
 31
0.0
  0
LINE
  5
4D0
330
1E
100
AcDbEntity
  8
0
100
AcDbLine
 10
402.7009999999999
 20
77.01260000000001
 30
0.0
 11
405.4009999999999
 21
71.8527
 31
0.0
  0
LINE
  5
4D1
330
1E
100
AcDbEntity
  8
0
100
AcDbLine
 10
406.1309999999999
 20
71.6947
 30
0.0
 11
408.175
 21
66.0716
 31
0.0
  0
LINE
  5
4D2
330
1E
100
AcDbEntity
  8
0
100
AcDbLine
 10
408.175
 20
66.0716
 30
0.0
 11
409.489
 21
60.1839
 31
0.0
  0
LINE
  5
4D3
330
1E
100
AcDbEntity
  8
0
100
AcDbLine
 10
405.4009999999999
 20
71.8527
 30
0.0
 11
407.518
 21
66.0311
 31
0.0
  0
LINE
  5
4D4
330
1E
100
AcDbEntity
  8
0
100
AcDbLine
 10
407.518
 20
66.0311
 30
0.0
 11
408.759
 21
60.5404
 31
0.0
  0
LINE
  5
4D5
330
1E
100
AcDbEntity
  8
0
100
AcDbLine
 10
408.759
 20
60.5404
 30
0.0
 11
409.2699999999999
 21
54.785
 31
0.0
  0
LINE
  5
4D6
330
1E
100
AcDbEntity
  8
0
100
AcDbLine
 10
407.518
 20
43.5388
 30
0.0
 11
408.759
 21
49.0296
 31
0.0
  0
LINE
  5
4D7
330
1E
100
AcDbEntity
  8
0
100
AcDbLine
 10
410.0
 20
45.48729999999999
 30
0.0
 11
410.0
 21
54.3624
 31
0.0
  0
LINE
  5
4D8
330
1E
100
AcDbEntity
  8
0
100
AcDbLine
 10
409.489
 20
39.6658
 30
0.0
 11
410.0
 21
45.48729999999999
 31
0.0
  0
LINE
  5
4D9
330
1E
100
AcDbEntity
  8
0
100
AcDbLine
 10
410.0
 20
54.3624
 30
0.0
 11
410.0
 21
45.48729999999999
 31
0.0
  0
LINE
  5
4DA
330
1E
100
AcDbEntity
  8
0
100
AcDbLine
 10
409.489
 20
60.1839
 30
0.0
 11
410.0
 21
54.3624
 31
0.0
  0
LINE
  5
4DB
330
1E
100
AcDbEntity
  8
0
100
AcDbLine
 10
409.489
 20
48.54079999999999
 30
0.0
 11
410.0
 21
54.3624
 31
0.0
  0
LINE
  5
4DC
330
1E
100
AcDbEntity
  8
0
100
AcDbLine
 10
408.759
 20
49.0296
 30
0.0
 11
409.2699999999999
 21
54.785
 31
0.0
  0
LINE
  5
4DD
330
1E
100
AcDbEntity
  8
0
100
AcDbLine
 10
389.9269999999999
 20
19.3926
 30
0.0
 11
394.818
 21
23.2297
 31
0.0
  0
LINE
  5
4DE
330
1E
100
AcDbEntity
  8
0
100
AcDbLine
 10
384.525
 20
16.085
 30
0.0
 11
389.9269999999999
 21
19.3926
 31
0.0
  0
LINE
  5
4DF
330
1E
100
AcDbEntity
  8
0
100
AcDbLine
 10
378.832
 20
13.6372
 30
0.0
 11
384.525
 21
16.085
 31
0.0
  0
LINE
  5
4E0
330
1E
100
AcDbEntity
  8
0
100
AcDbLine
 10
372.4089999999999
 20
11.7188
 30
0.0
 11
378.832
 21
13.6372
 31
0.0
  0
LINE
  5
4E1
330
1E
100
AcDbEntity
  8
0
100
AcDbLine
 10
377.4
 20
166.5281
 30
0.0
 11
384.6999999999999
 21
172.1280999999999
 31
0.0
  0
LINE
  5
4E2
330
1E
100
AcDbEntity
  8
0
100
AcDbLine
 10
372.0
 20
165.396392682927
 30
0.0
 11
376.8999999999999
 21
167.4281
 31
0.0
  0
LINE
  5
4E3
330
1E
100
AcDbEntity
  8
0
100
AcDbLine
 10
376.8999999999999
 20
167.4281
 30
0.0
 11
384.0
 21
172.8281
 31
0.0
  0
LINE
  5
4E4
330
1E
100
AcDbEntity
  8
0
100
AcDbLine
 10
343.1
 20
167.4281
 30
0.0
 11
348.0
 21
165.396392682927
 31
0.0
  0
LINE
  5
513
330
1E
100
AcDbEntity
  8
0
100
AcDbLine
 10
335.3
 20
172.1280999999999
 30
0.0
 11
342.6
 21
166.5281
 31
0.0
  0
LINE
  5
514
330
1E
100
AcDbEntity
  8
0
100
AcDbLine
 10
336.0
 20
172.8281
 30
0.0
 11
343.1
 21
167.4281
 31
0.0
  0
LINE
  5
515
330
1E
100
AcDbEntity
  8
0
100
AcDbLine
 10
348.0
 20
168.7991
 30
0.0
 11
348.0
 21
108.3180999999999
 31
0.0
  0
LINE
  5
516
330
1E
100
AcDbEntity
  8
0
100
AcDbLine
 10
348.0
 20
168.7991
 30
0.0
 11
348.384
 21
171.1930999999999
 31
0.0
  0
LINE
  5
517
330
1E
100
AcDbEntity
  8
0
100
AcDbLine
 10
372.0
 20
168.7991
 30
0.0
 11
372.0
 21
108.3180999999999
 31
0.0
  0
LINE
  5
518
330
1E
100
AcDbEntity
  8
0
100
AcDbLine
 10
372.0
 20
169.9610999999999
 30
0.0
 11
372.0
 21
175.6750999999999
 31
0.0
  0
LINE
  5
519
330
1E
100
AcDbEntity
  8
0
100
AcDbLine
 10
371.9010631413449
 20
169.415909478179
 30
0.0
 11
372.0
 21
169.9610999999999
 31
0.0
  0
LINE
  5
51A
330
1E
100
AcDbEntity
  8
0
100
AcDbLine
 10
348.384
 20
171.1930999999999
 30
0.0
 11
349.6319999999999
 21
173.4190999999999
 31
0.0
  0
LINE
  5
51B
330
1E
100
AcDbEntity
  8
0
100
AcDbLine
 10
371.6159999999999
 20
171.1930999999999
 30
0.0
 11
372.0
 21
168.7991
 31
0.0
  0
LINE
  5
51C
330
1E
100
AcDbEntity
  8
0
100
AcDbLine
 10
371.3569999999999
 20
171.7571
 30
0.0
 11
371.384955095198
 21
171.6052041330839
 31
0.0
  0
LINE
  5
51D
330
1E
100
AcDbEntity
  8
0
100
AcDbLine
 10
349.6319999999999
 20
173.4190999999999
 30
0.0
 11
351.5519999999999
 21
175.3480999999999
 31
0.0
  0
LINE
  5
51E
330
1E
100
AcDbEntity
  8
0
100
AcDbLine
 10
370.368
 20
173.4190999999999
 30
0.0
 11
371.6159999999999
 21
171.1930999999999
 31
0.0
  0
LINE
  5
51F
330
1E
100
AcDbEntity
  8
0
100
AcDbLine
 10
348.643
 20
171.7571
 30
0.0
 11
349.8
 21
173.9231
 31
0.0
  0
LINE
  5
520
330
1E
100
AcDbEntity
  8
0
100
AcDbLine
 10
348.6150449048019
 20
171.6052041330839
 30
0.0
 11
348.643
 21
171.7571
 31
0.0
  0
LINE
  5
521
330
1E
100
AcDbEntity
  8
0
100
AcDbLine
 10
348.0
 20
169.9610999999999
 30
0.0
 11
348.098936858655
 21
169.415909478179
 31
0.0
  0
LINE
  5
522
330
1E
100
AcDbEntity
  8
0
100
AcDbLine
 10
348.0
 20
169.9610999999999
 30
0.0
 11
348.0
 21
175.6750999999999
 31
0.0
  0
LINE
  5
523
330
1E
100
AcDbEntity
  8
0
100
AcDbLine
 10
384.6999999999999
 20
172.1280999999999
 30
0.0
 11
390.3
 21
179.4280999999999
 31
0.0
  0
LINE
  5
524
330
1E
100
AcDbEntity
  8
0
100
AcDbLine
 10
384.0
 20
172.8281
 30
0.0
 11
389.3999999999999
 21
179.9281
 31
0.0
  0
LINE
  5
525
330
1E
100
AcDbEntity
  8
0
100
AcDbLine
 10
372.0
 20
172.8281
 30
0.0
 11
373.4999999999999
 21
173.4281
 31
0.0
  0
LINE
  5
526
330
1E
100
AcDbEntity
  8
0
100
AcDbLine
 10
351.5519999999999
 20
175.3480999999999
 30
0.0
 11
354.048
 21
176.7720999999999
 31
0.0
  0
LINE
  5
527
330
1E
100
AcDbEntity
  8
0
100
AcDbLine
 10
368.448
 20
175.3480999999999
 30
0.0
 11
370.368
 21
173.4190999999999
 31
0.0
  0
LINE
  5
528
330
1E
100
AcDbEntity
  8
0
100
AcDbLine
 10
370.1999999999999
 20
173.9231
 30
0.0
 11
371.3569999999999
 21
171.7571
 31
0.0
  0
LINE
  5
529
330
1E
100
AcDbEntity
  8
0
100
AcDbLine
 10
349.8
 20
173.9231
 30
0.0
 11
351.6859999999999
 21
175.7951
 31
0.0
  0
LINE
  5
52A
330
1E
100
AcDbEntity
  8
0
100
AcDbLine
 10
373.4999999999999
 20
173.4281
 30
0.0
 11
379.1
 21
177.7281
 31
0.0
  0
LINE
  5
52B
330
1E
100
AcDbEntity
  8
0
100
AcDbLine
 10
346.4999999999999
 20
173.4281
 30
0.0
 11
348.0
 21
172.8281
 31
0.0
  0
LINE
  5
549
330
1E
100
AcDbEntity
  8
0
100
AcDbLine
 10
329.7
 20
179.4280999999999
 30
0.0
 11
335.3
 21
172.1280999999999
 31
0.0
  0
LINE
  5
54A
330
1E
100
AcDbEntity
  8
0
100
AcDbLine
 10
330.6
 20
179.9281
 30
0.0
 11
336.0
 21
172.8281
 31
0.0
  0
LINE
  5
54B
330
1E
100
AcDbEntity
  8
0
100
AcDbLine
 10
340.8999999999999
 20
177.7281
 30
0.0
 11
346.4999999999999
 21
173.4281
 31
0.0
  0
LINE
  5
54C
330
1E
100
AcDbEntity
  8
0
100
AcDbLine
 10
326.3
 20
187.8281
 30
0.0
 11
329.7
 21
179.4280999999999
 31
0.0
  0
LINE
  5
54D
330
1E
100
AcDbEntity
  8
0
100
AcDbLine
 10
327.1999999999999
 20
188.1280999999999
 30
0.0
 11
330.6
 21
179.9281
 31
0.0
  0
LINE
  5
54E
330
1E
100
AcDbEntity
  8
0
100
AcDbLine
 10
336.6
 20
183.3281
 30
0.0
 11
340.8999999999999
 21
177.7281
 31
0.0
  0
LINE
  5
54F
330
1E
100
AcDbEntity
  8
0
100
AcDbLine
 10
348.0
 20
182.9280999999999
 30
0.0
 11
348.0
 21
175.6750999999999
 31
0.0
  0
LINE
  5
550
330
1E
100
AcDbEntity
  8
0
100
AcDbLine
 10
348.0
 20
182.9280999999999
 30
0.0
 11
348.3999999999999
 21
185.7281
 31
0.0
  0
LINE
  5
551
330
1E
100
AcDbEntity
  8
0
100
AcDbLine
 10
354.048
 20
176.7720999999999
 30
0.0
 11
356.928
 21
177.6531
 31
0.0
  0
LINE
  5
552
330
1E
100
AcDbEntity
  8
0
100
AcDbLine
 10
351.6859999999999
 20
175.7951
 30
0.0
 11
354.129
 21
177.2391
 31
0.0
  0
LINE
  5
553
330
1E
100
AcDbEntity
  8
0
100
AcDbLine
 10
356.928
 20
177.6531
 30
0.0
 11
360.0
 21
177.9891
 31
0.0
  0
LINE
  5
554
330
1E
100
AcDbEntity
  8
0
100
AcDbLine
 10
363.0719999999999
 20
177.6531
 30
0.0
 11
365.952
 21
176.7720999999999
 31
0.0
  0
LINE
  5
555
330
1E
100
AcDbEntity
  8
0
100
AcDbLine
 10
360.0
 20
177.9891
 30
0.0
 11
363.0719999999999
 21
177.6531
 31
0.0
  0
LINE
  5
556
330
1E
100
AcDbEntity
  8
0
100
AcDbLine
 10
365.952
 20
176.7720999999999
 30
0.0
 11
368.448
 21
175.3480999999999
 31
0.0
  0
LINE
  5
557
330
1E
100
AcDbEntity
  8
0
100
AcDbLine
 10
368.314
 20
175.7951
 30
0.0
 11
370.1999999999999
 21
173.9231
 31
0.0
  0
LINE
  5
558
330
1E
100
AcDbEntity
  8
0
100
AcDbLine
 10
365.8709999999999
 20
177.2391
 30
0.0
 11
368.314
 21
175.7951
 31
0.0
  0
LINE
  5
559
330
1E
100
AcDbEntity
  8
0
100
AcDbLine
 10
363.043
 20
178.1261
 30
0.0
 11
365.8709999999999
 21
177.2391
 31
0.0
  0
LINE
  5
55A
330
1E
100
AcDbEntity
  8
0
100
AcDbLine
 10
354.129
 20
177.2391
 30
0.0
 11
356.957
 21
178.1261
 31
0.0
  0
LINE
  5
55B
330
1E
100
AcDbEntity
  8
0
100
AcDbLine
 10
360.0
 20
178.4541
 30
0.0
 11
363.043
 21
178.1261
 31
0.0
  0
LINE
  5
55C
330
1E
100
AcDbEntity
  8
0
100
AcDbLine
 10
356.957
 20
178.1261
 30
0.0
 11
360.0
 21
178.4541
 31
0.0
  0
LINE
  5
55D
330
1E
100
AcDbEntity
  8
0
100
AcDbLine
 10
372.0
 20
175.6750999999999
 30
0.0
 11
372.0
 21
182.9280999999999
 31
0.0
  0
LINE
  5
55E
330
1E
100
AcDbEntity
  8
0
100
AcDbLine
 10
372.0
 20
175.6750999999999
 30
0.0
 11
372.0
 21
169.9610999999999
 31
0.0
  0
LINE
  5
55F
330
1E
100
AcDbEntity
  8
0
100
AcDbLine
 10
372.0
 20
182.9280999999999
 30
0.0
 11
372.0
 21
175.6750999999999
 31
0.0
  0
LINE
  5
560
330
1E
100
AcDbEntity
  8
0
100
AcDbLine
 10
390.3
 20
179.4280999999999
 30
0.0
 11
393.6999999999999
 21
187.8281
 31
0.0
  0
LINE
  5
561
330
1E
100
AcDbEntity
  8
0
100
AcDbLine
 10
389.3999999999999
 20
179.9281
 30
0.0
 11
392.8
 21
188.1280999999999
 31
0.0
  0
LINE
  5
562
330
1E
100
AcDbEntity
  8
0
100
AcDbLine
 10
383.3999999999999
 20
183.3281
 30
0.0
 11
386.0
 21
189.8281
 31
0.0
  0
LINE
  5
563
330
1E
100
AcDbEntity
  8
0
100
AcDbLine
 10
379.1
 20
177.7281
 30
0.0
 11
383.3999999999999
 21
183.3281
 31
0.0
  0
LINE
  5
564
330
1E
100
AcDbEntity
  8
0
100
AcDbLine
 10
371.6
 20
185.7281
 30
0.0
 11
372.0
 21
182.9280999999999
 31
0.0
  0
LINE
  5
565
330
1E
100
AcDbEntity
  8
0
100
AcDbLine
 10
393.6999999999999
 20
187.8281
 30
0.0
 11
395.0
 21
196.8281
 31
0.0
  0
LINE
  5
566
330
1E
100
AcDbEntity
  8
0
100
AcDbLine
 10
392.8
 20
188.1280999999999
 30
0.0
 11
394.0
 21
196.8281
 31
0.0
  0
LINE
  5
567
330
1E
100
AcDbEntity
  8
0
100
AcDbLine
 10
370.3999999999999
 20
188.2281
 30
0.0
 11
371.6
 21
185.7281
 31
0.0
  0
LINE
  5
568
330
1E
100
AcDbEntity
  8
0
100
AcDbLine
 10
349.6
 20
188.2281
 30
0.0
 11
351.5
 21
190.5281
 31
0.0
  0
LINE
  5
569
330
1E
100
AcDbEntity
  8
0
100
AcDbLine
 10
348.3999999999999
 20
185.7281
 30
0.0
 11
349.6
 21
188.2281
 31
0.0
  0
LINE
  5
56A
330
1E
100
AcDbEntity
  8
0
100
AcDbLine
 10
348.0
 20
175.6750999999999
 30
0.0
 11
348.0
 21
182.9280999999999
 31
0.0
  0
LINE
  5
56B
330
1E
100
AcDbEntity
  8
0
100
AcDbLine
 10
348.0
 20
175.6750999999999
 30
0.0
 11
348.0
 21
169.9610999999999
 31
0.0
  0
LINE
  5
56C
330
1E
100
AcDbEntity
  8
0
100
AcDbLine
 10
325.0
 20
196.8281
 30
0.0
 11
326.3
 21
187.8281
 31
0.0
  0
LINE
  5
56D
330
1E
100
AcDbEntity
  8
0
100
AcDbLine
 10
325.0
 20
196.8281
 30
0.0
 11
326.3
 21
205.8281
 31
0.0
  0
LINE
  5
56E
330
1E
100
AcDbEntity
  8
0
100
AcDbLine
 10
326.0
 20
196.8281
 30
0.0
 11
327.1999999999999
 21
188.1280999999999
 31
0.0
  0
LINE
  5
56F
330
1E
100
AcDbEntity
  8
0
100
AcDbLine
 10
326.0
 20
196.8281
 30
0.0
 11
327.1999999999999
 21
205.5280999999999
 31
0.0
  0
LINE
  5
570
330
1E
100
AcDbEntity
  8
0
100
AcDbLine
 10
334.0
 20
189.8281
 30
0.0
 11
336.6
 21
183.3281
 31
0.0
  0
LINE
  5
571
330
1E
100
AcDbEntity
  8
0
100
AcDbLine
 10
366.0
 20
192.2281
 30
0.0
 11
368.5
 21
190.5281
 31
0.0
  0
LINE
  5
572
330
1E
100
AcDbEntity
  8
0
100
AcDbLine
 10
386.0
 20
189.8281
 30
0.0
 11
387.0
 21
196.8281
 31
0.0
  0
LINE
  5
573
330
1E
100
AcDbEntity
  8
0
100
AcDbLine
 10
368.5
 20
190.5281
 30
0.0
 11
370.3999999999999
 21
188.2281
 31
0.0
  0
LINE
  5
574
330
1E
100
AcDbEntity
  8
0
100
AcDbLine
 10
360.0
 20
193.7281
 30
0.0
 11
363.1
 21
193.3281
 31
0.0
  0
LINE
  5
575
330
1E
100
AcDbEntity
  8
0
100
AcDbLine
 10
363.1
 20
193.3281
 30
0.0
 11
366.0
 21
192.2281
 31
0.0
  0
LINE
  5
576
330
1E
100
AcDbEntity
  8
0
100
AcDbLine
 10
356.8999999999999
 20
193.3281
 30
0.0
 11
360.0
 21
193.7281
 31
0.0
  0
LINE
  5
577
330
1E
100
AcDbEntity
  8
0
100
AcDbLine
 10
354.0
 20
192.2281
 30
0.0
 11
356.8999999999999
 21
193.3281
 31
0.0
  0
LINE
  5
578
330
1E
100
AcDbEntity
  8
0
100
AcDbLine
 10
351.5
 20
190.5281
 30
0.0
 11
354.0
 21
192.2281
 31
0.0
  0
LINE
  5
579
330
1E
100
AcDbEntity
  8
0
100
AcDbLine
 10
329.7
 20
214.2281
 30
0.0
 11
335.3
 21
221.5281
 31
0.0
  0
LINE
  5
57A
330
1E
100
AcDbEntity
  8
0
100
AcDbLine
 10
326.3
 20
205.8281
 30
0.0
 11
329.7
 21
214.2281
 31
0.0
  0
LINE
  5
57B
330
1E
100
AcDbEntity
  8
0
100
AcDbLine
 10
330.6
 20
213.7281
 30
0.0
 11
336.0
 21
220.8280999999999
 31
0.0
  0
LINE
  5
57C
330
1E
100
AcDbEntity
  8
0
100
AcDbLine
 10
327.1999999999999
 20
205.5280999999999
 30
0.0
 11
330.6
 21
213.7281
 31
0.0
  0
LINE
  5
57D
330
1E
100
AcDbEntity
  8
0
100
AcDbLine
 10
383.3999999999999
 20
210.3280999999999
 30
0.0
 11
386.0
 21
203.8281
 31
0.0
  0
LINE
  5
57E
330
1E
100
AcDbEntity
  8
0
100
AcDbLine
 10
393.6999999999999
 20
205.8281
 30
0.0
 11
395.0
 21
196.8281
 31
0.0
  0
LINE
  5
57F
330
1E
100
AcDbEntity
  8
0
100
AcDbLine
 10
392.8
 20
205.5280999999999
 30
0.0
 11
394.0
 21
196.8281
 31
0.0
  0
LINE
  5
580
330
1E
100
AcDbEntity
  8
0
100
AcDbLine
 10
386.0
 20
203.8281
 30
0.0
 11
387.0
 21
196.8281
 31
0.0
  0
LINE
  5
581
330
1E
100
AcDbEntity
  8
0
100
AcDbLine
 10
335.3
 20
221.5281
 30
0.0
 11
342.6
 21
227.1281
 31
0.0
  0
LINE
  5
582
330
1E
100
AcDbEntity
  8
0
100
AcDbLine
 10
336.0
 20
220.8280999999999
 30
0.0
 11
343.1
 21
226.2281
 31
0.0
  0
LINE
  5
583
330
1E
100
AcDbEntity
  8
0
100
AcDbLine
 10
373.4999999999999
 20
220.2281
 30
0.0
 11
379.1
 21
215.9281
 31
0.0
  0
LINE
  5
584
330
1E
100
AcDbEntity
  8
0
100
AcDbLine
 10
390.3
 20
214.2281
 30
0.0
 11
393.6999999999999
 21
205.8281
 31
0.0
  0
LINE
  5
585
330
1E
100
AcDbEntity
  8
0
100
AcDbLine
 10
389.3999999999999
 20
213.7281
 30
0.0
 11
392.8
 21
205.5280999999999
 31
0.0
  0
LINE
  5
586
330
1E
100
AcDbEntity
  8
0
100
AcDbLine
 10
379.1
 20
215.9281
 30
0.0
 11
383.3999999999999
 21
210.3280999999999
 31
0.0
  0
LINE
  5
587
330
1E
100
AcDbEntity
  8
0
100
AcDbLine
 10
351.0
 20
230.5280999999999
 30
0.0
 11
360.0
 21
231.8281
 31
0.0
  0
LINE
  5
588
330
1E
100
AcDbEntity
  8
0
100
AcDbLine
 10
342.6
 20
227.1281
 30
0.0
 11
351.0
 21
230.5280999999999
 31
0.0
  0
LINE
  5
589
330
1E
100
AcDbEntity
  8
0
100
AcDbLine
 10
351.3
 20
229.6281
 30
0.0
 11
360.0
 21
230.8281
 31
0.0
  0
LINE
  5
58A
330
1E
100
AcDbEntity
  8
0
100
AcDbLine
 10
343.1
 20
226.2281
 30
0.0
 11
351.3
 21
229.6281
 31
0.0
  0
LINE
  5
58B
330
1E
100
AcDbEntity
  8
0
100
AcDbLine
 10
384.6999999999999
 20
221.5281
 30
0.0
 11
390.3
 21
214.2281
 31
0.0
  0
LINE
  5
58C
330
1E
100
AcDbEntity
  8
0
100
AcDbLine
 10
384.0
 20
220.8280999999999
 30
0.0
 11
389.3999999999999
 21
213.7281
 31
0.0
  0
LINE
  5
58D
330
1E
100
AcDbEntity
  8
0
100
AcDbLine
 10
360.0
 20
231.8281
 30
0.0
 11
369.0
 21
230.5280999999999
 31
0.0
  0
LINE
  5
58E
330
1E
100
AcDbEntity
  8
0
100
AcDbLine
 10
360.0
 20
230.8281
 30
0.0
 11
368.6999999999999
 21
229.6281
 31
0.0
  0
LINE
  5
58F
330
1E
100
AcDbEntity
  8
0
100
AcDbLine
 10
369.0
 20
230.5280999999999
 30
0.0
 11
377.4
 21
227.1281
 31
0.0
  0
LINE
  5
590
330
1E
100
AcDbEntity
  8
0
100
AcDbLine
 10
377.4
 20
227.1281
 30
0.0
 11
384.6999999999999
 21
221.5281
 31
0.0
  0
LINE
  5
591
330
1E
100
AcDbEntity
  8
0
100
AcDbLine
 10
368.6999999999999
 20
229.6281
 30
0.0
 11
376.8999999999999
 21
226.2281
 31
0.0
  0
LINE
  5
592
330
1E
100
AcDbEntity
  8
0
100
AcDbLine
 10
376.8999999999999
 20
226.2281
 30
0.0
 11
384.0
 21
220.8280999999999
 31
0.0
  0
LINE
  5
593
330
1E
100
AcDbEntity
  8
0
100
AcDbLine
 10
360.0
 20
223.8281
 30
0.0
 11
367.0
 21
222.8280999999999
 31
0.0
  0
LINE
  5
594
330
1E
100
AcDbEntity
  8
0
100
AcDbLine
 10
367.0
 20
222.8280999999999
 30
0.0
 11
373.4999999999999
 21
220.2281
 31
0.0
  0
LINE
  5
595
330
1E
100
AcDbEntity
  8
0
100
AcDbLine
 10
353.0
 20
222.8280999999999
 30
0.0
 11
360.0
 21
223.8281
 31
0.0
  0
LINE
  5
596
330
1E
100
AcDbEntity
  8
0
100
AcDbLine
 10
346.4999999999999
 20
220.2281
 30
0.0
 11
353.0
 21
222.8280999999999
 31
0.0
  0
LINE
  5
597
330
1E
100
AcDbEntity
  8
0
100
AcDbLine
 10
340.8999999999999
 20
215.9281
 30
0.0
 11
346.4999999999999
 21
220.2281
 31
0.0
  0
LINE
  5
598
330
1E
100
AcDbEntity
  8
0
100
AcDbLine
 10
336.6
 20
210.3280999999999
 30
0.0
 11
340.8999999999999
 21
215.9281
 31
0.0
  0
LINE
  5
599
330
1E
100
AcDbEntity
  8
0
100
AcDbLine
 10
334.0
 20
203.8281
 30
0.0
 11
336.6
 21
210.3280999999999
 31
0.0
  0
LINE
  5
59A
330
1E
100
AcDbEntity
  8
0
100
AcDbLine
 10
333.0
 20
196.8281
 30
0.0
 11
334.0
 21
203.8281
 31
0.0
  0
LINE
  5
59B
330
1E
100
AcDbEntity
  8
0
100
AcDbLine
 10
333.0
 20
196.8281
 30
0.0
 11
334.0
 21
189.8281
 31
0.0
  0
LINE
  5
684
330
1E
100
AcDbEntity
  8
0
100
AcDbLine
 10
157.36
 20
227.2081
 30
0.0
 11
164.7799999999999
 21
221.6080999999999
 31
0.0
  0
LINE
  5
685
330
1E
100
AcDbEntity
  8
0
100
AcDbLine
 10
115.22
 20
221.6080999999999
 30
0.0
 11
122.6399999999999
 21
227.2081
 31
0.0
  0
LINE
  5
687
330
1E
100
AcDbEntity
  8
0
100
AcDbLine
 10
122.508
 20
203.2920999999999
 30
0.0
 11
122.5
 21
159.5901
 31
0.0
  0
LINE
  5
688
330
1E
100
AcDbEntity
  8
0
100
AcDbLine
 10
122.5
 20
159.5901
 30
0.0
 11
122.508
 21
203.2920999999999
 31
0.0
  0
LINE
  5
689
330
1E
100
AcDbEntity
  8
0
100
AcDbLine
 10
106.2599999999999
 20
187.8681
 30
0.0
 11
109.62
 21
179.4680999999999
 31
0.0
  0
LINE
  5
68A
330
1E
100
AcDbEntity
  8
0
100
AcDbLine
 10
119.168
 20
184.9241
 30
0.0
 11
122.5
 21
180.5091999999999
 31
0.0
  0
LINE
  5
68B
330
1E
100
AcDbEntity
  8
0
100
AcDbLine
 10
170.38
 20
179.4680999999999
 30
0.0
 11
173.74
 21
187.8681
 31
0.0
  0
LINE
  5
68C
330
1E
100
AcDbEntity
  8
0
100
AcDbLine
 10
157.5
 20
180.5091999999999
 30
0.0
 11
160.8319999999999
 21
184.9241
 31
0.0
  0
LINE
  5
68E
330
1E
100
AcDbEntity
  8
0
100
AcDbLine
 10
157.5
 20
159.5901
 30
0.0
 11
157.4919999999999
 21
203.2920999999999
 31
0.0
  0
LINE
  5
68F
330
1E
100
AcDbEntity
  8
0
100
AcDbLine
 10
157.4919999999999
 20
203.2920999999999
 30
0.0
 11
157.5
 21
159.5901
 31
0.0
  0
LINE
  5
690
330
1E
100
AcDbEntity
  8
0
100
AcDbLine
 10
122.5
 20
159.5901
 30
0.0
 11
122.5
 21
155.6121
 31
0.0
  0
LINE
  5
691
330
1E
100
AcDbEntity
  8
0
100
AcDbLine
 10
122.5
 20
155.6121
 30
0.0
 11
122.5
 21
159.5901
 31
0.0
  0
LINE
  5
692
330
1E
100
AcDbEntity
  8
0
100
AcDbLine
 10
109.62
 20
179.4680999999999
 30
0.0
 11
115.22
 21
172.0481
 31
0.0
  0
LINE
  5
69E
330
1E
100
AcDbEntity
  8
0
100
AcDbLine
 10
115.22
 20
172.0481
 30
0.0
 11
122.5
 21
166.553760377359
 31
0.0
  0
LINE
  5
69F
330
1E
100
AcDbEntity
  8
0
100
AcDbLine
 10
157.5
 20
155.6121
 30
0.0
 11
157.5
 21
159.5901
 31
0.0
  0
LINE
  5
6A0
330
1E
100
AcDbEntity
  8
0
100
AcDbLine
 10
157.5
 20
159.5901
 30
0.0
 11
157.5
 21
155.6121
 31
0.0
  0
LINE
  5
6A1
330
1E
100
AcDbEntity
  8
0
100
AcDbLine
 10
164.7799999999999
 20
172.0481
 30
0.0
 11
170.38
 21
179.4680999999999
 31
0.0
  0
LINE
  5
6A2
330
1E
100
AcDbEntity
  8
0
100
AcDbLine
 10
157.5
 20
166.553760377359
 30
0.0
 11
164.7799999999999
 21
172.0481
 31
0.0
  0
LINE
  5
6A3
330
1E
100
AcDbEntity
  8
0
100
AcDbLine
 10
140.0
 20
207.8281
 30
0.0
 11
141.431
 21
207.7830999999999
 31
0.0
  0
LINE
  5
6A5
330
1E
100
AcDbEntity
  8
0
100
AcDbLine
 10
124.288
 20
204.5201
 30
0.0
 11
122.971
 21
203.9200999999999
 31
0.0
  0
LINE
  5
6A6
330
1E
100
AcDbEntity
  8
0
100
AcDbLine
 10
116.864
 20
202.9721
 30
0.0
 11
119.168
 21
208.7321
 31
0.0
  0
LINE
  5
6A7
330
1E
100
AcDbEntity
  8
0
100
AcDbLine
 10
105.0
 20
196.8281
 30
0.0
 11
106.2599999999999
 21
205.7881
 31
0.0
  0
LINE
  5
6A8
330
1E
100
AcDbEntity
  8
0
100
AcDbLine
 10
105.0
 20
196.8281
 30
0.0
 11
106.2599999999999
 21
187.8681
 31
0.0
  0
LINE
  5
6B0
330
1E
100
AcDbEntity
  8
0
100
AcDbLine
 10
116.0
 20
196.8281
 30
0.0
 11
116.864
 21
190.6841
 31
0.0
  0
LINE
  5
6B1
330
1E
100
AcDbEntity
  8
0
100
AcDbLine
 10
116.864
 20
190.6841
 30
0.0
 11
119.168
 21
184.9241
 31
0.0
  0
LINE
  5
6B2
330
1E
100
AcDbEntity
  8
0
100
AcDbLine
 10
116.0
 20
196.8281
 30
0.0
 11
116.864
 21
202.9721
 31
0.0
  0
LINE
  5
6B3
330
1E
100
AcDbEntity
  8
0
100
AcDbLine
 10
122.625
 20
203.6340999999999
 30
0.0
 11
122.508
 21
203.2920999999999
 31
0.0
  0
LINE
  5
6B4
330
1E
100
AcDbEntity
  8
0
100
AcDbLine
 10
122.971
 20
203.9200999999999
 30
0.0
 11
122.721
 21
203.7281
 31
0.0
  0
LINE
  5
6B5
330
1E
100
AcDbEntity
  8
0
100
AcDbLine
 10
122.721
 20
203.7281
 30
0.0
 11
122.6739999999999
 21
203.6881
 31
0.0
  0
LINE
  5
6B6
330
1E
100
AcDbEntity
  8
0
100
AcDbLine
 10
122.6739999999999
 20
203.6881
 30
0.0
 11
122.625
 21
203.6340999999999
 31
0.0
  0
LINE
  5
6B7
330
1E
100
AcDbEntity
  8
0
100
AcDbLine
 10
109.62
 20
214.1881
 30
0.0
 11
115.22
 21
221.6080999999999
 31
0.0
  0
LINE
  5
6B8
330
1E
100
AcDbEntity
  8
0
100
AcDbLine
 10
106.2599999999999
 20
205.7881
 30
0.0
 11
109.62
 21
214.1881
 31
0.0
  0
LINE
  5
6B9
330
1E
100
AcDbEntity
  8
0
100
AcDbLine
 10
123.008
 20
213.8201
 30
0.0
 11
128.096
 21
217.6601
 31
0.0
  0
LINE
  5
6BA
330
1E
100
AcDbEntity
  8
0
100
AcDbLine
 10
127.885
 20
205.8911
 30
0.0
 11
126.2899999999999
 21
205.3190999999999
 31
0.0
  0
LINE
  5
6BB
330
1E
100
AcDbEntity
  8
0
100
AcDbLine
 10
119.168
 20
208.7321
 30
0.0
 11
123.008
 21
213.8201
 31
0.0
  0
LINE
  5
6BC
330
1E
100
AcDbEntity
  8
0
100
AcDbLine
 10
124.577
 20
204.6361
 30
0.0
 11
124.288
 21
204.5201
 31
0.0
  0
LINE
  5
6BD
330
1E
100
AcDbEntity
  8
0
100
AcDbLine
 10
126.1649999999999
 20
205.2821
 30
0.0
 11
126.0969999999999
 21
205.2541
 31
0.0
  0
LINE
  5
6BE
330
1E
100
AcDbEntity
  8
0
100
AcDbLine
 10
126.2899999999999
 20
205.3190999999999
 30
0.0
 11
126.1649999999999
 21
205.2821
 31
0.0
  0
LINE
  5
6BF
330
1E
100
AcDbEntity
  8
0
100
AcDbLine
 10
126.0969999999999
 20
205.2541
 30
0.0
 11
124.577
 21
204.6361
 31
0.0
  0
LINE
  5
6C5
330
1E
100
AcDbEntity
  8
0
100
AcDbLine
 10
140.0
 20
207.8281
 30
0.0
 11
138.5689999999999
 21
207.7830999999999
 31
0.0
  0
LINE
  5
6C7
330
1E
100
AcDbEntity
  8
0
100
AcDbLine
 10
128.096
 20
217.6601
 30
0.0
 11
133.8559999999999
 21
219.9641
 31
0.0
  0
LINE
  5
6C8
330
1E
100
AcDbEntity
  8
0
100
AcDbLine
 10
173.74
 20
205.7881
 30
0.0
 11
174.531467133125
 21
202.3986188516138
 31
0.0
  0
LINE
  5
6C9
330
1E
100
AcDbEntity
  8
0
100
AcDbLine
 10
160.8319999999999
 20
208.7321
 30
0.0
 11
163.1359999999999
 21
202.9721
 31
0.0
  0
LINE
  5
6CB
330
1E
100
AcDbEntity
  8
0
100
AcDbLine
 10
155.7119999999999
 20
204.5201
 30
0.0
 11
157.0289999999999
 21
203.9200999999999
 31
0.0
  0
LINE
  5
6CC
330
1E
100
AcDbEntity
  8
0
100
AcDbLine
 10
163.1359999999999
 20
190.6841
 30
0.0
 11
164.0
 21
196.8281
 31
0.0
  0
LINE
  5
6CD
330
1E
100
AcDbEntity
  8
0
100
AcDbLine
 10
160.8319999999999
 20
184.9241
 30
0.0
 11
163.1359999999999
 21
190.6841
 31
0.0
  0
LINE
  5
6CE
330
1E
100
AcDbEntity
  8
0
100
AcDbLine
 10
163.1359999999999
 20
202.9721
 30
0.0
 11
164.0
 21
196.8281
 31
0.0
  0
LINE
  5
6CF
330
1E
100
AcDbEntity
  8
0
100
AcDbLine
 10
157.326
 20
203.6881
 30
0.0
 11
157.3749999999999
 21
203.6340999999999
 31
0.0
  0
LINE
  5
6D0
330
1E
100
AcDbEntity
  8
0
100
AcDbLine
 10
157.2789999999999
 20
203.7281
 30
0.0
 11
157.326
 21
203.6881
 31
0.0
  0
LINE
  5
6D1
330
1E
100
AcDbEntity
  8
0
100
AcDbLine
 10
157.0289999999999
 20
203.9200999999999
 30
0.0
 11
157.2789999999999
 21
203.7281
 31
0.0
  0
LINE
  5
6D2
330
1E
100
AcDbEntity
  8
0
100
AcDbLine
 10
157.3749999999999
 20
203.6340999999999
 30
0.0
 11
157.4919999999999
 21
203.2920999999999
 31
0.0
  0
LINE
  5
6D3
330
1E
100
AcDbEntity
  8
0
100
AcDbLine
 10
173.74
 20
187.8681
 30
0.0
 11
175.0
 21
196.8281
 31
0.0
  0
LINE
  5
6E0
330
1E
100
AcDbEntity
  8
0
100
AcDbLine
 10
174.531467133125
 20
202.3986188516138
 30
0.0
 11
175.0
 21
196.8281
 31
0.0
  0
LINE
  5
6E3
330
1E
100
AcDbEntity
  8
0
100
AcDbLine
 10
164.7799999999999
 20
221.6080999999999
 30
0.0
 11
170.38
 21
214.1881
 31
0.0
  0
LINE
  5
6E4
330
1E
100
AcDbEntity
  8
0
100
AcDbLine
 10
151.9039999999999
 20
217.6601
 30
0.0
 11
156.9919999999999
 21
213.8201
 31
0.0
  0
LINE
  5
6E5
330
1E
100
AcDbEntity
  8
0
100
AcDbLine
 10
153.903
 20
205.2541
 30
0.0
 11
155.423
 21
204.6361
 31
0.0
  0
LINE
  5
6E6
330
1E
100
AcDbEntity
  8
0
100
AcDbLine
 10
146.854
 20
207.2470999999999
 30
0.0
 11
147.179
 21
207.1861
 31
0.0
  0
LINE
  5
6E7
330
1E
100
AcDbEntity
  8
0
100
AcDbLine
 10
141.431
 20
207.7830999999999
 30
0.0
 11
143.428
 21
207.7290999999999
 31
0.0
  0
LINE
  5
6E8
330
1E
100
AcDbEntity
  8
0
100
AcDbLine
 10
143.428
 20
207.7290999999999
 30
0.0
 11
146.854
 21
207.2470999999999
 31
0.0
  0
LINE
  5
6E9
330
1E
100
AcDbEntity
  8
0
100
AcDbLine
 10
152.115
 20
205.8911
 30
0.0
 11
153.71
 21
205.3190999999999
 31
0.0
  0
LINE
  5
6EA
330
1E
100
AcDbEntity
  8
0
100
AcDbLine
 10
153.71
 20
205.3190999999999
 30
0.0
 11
153.835
 21
205.2821
 31
0.0
  0
LINE
  5
6EB
330
1E
100
AcDbEntity
  8
0
100
AcDbLine
 10
153.835
 20
205.2821
 30
0.0
 11
153.903
 21
205.2541
 31
0.0
  0
LINE
  5
6EC
330
1E
100
AcDbEntity
  8
0
100
AcDbLine
 10
147.179
 20
207.1861
 30
0.0
 11
150.4459999999999
 21
206.4030999999999
 31
0.0
  0
LINE
  5
6ED
330
1E
100
AcDbEntity
  8
0
100
AcDbLine
 10
150.4459999999999
 20
206.4030999999999
 30
0.0
 11
152.115
 21
205.8911
 31
0.0
  0
LINE
  5
6EE
330
1E
100
AcDbEntity
  8
0
100
AcDbLine
 10
156.9919999999999
 20
213.8201
 30
0.0
 11
160.8319999999999
 21
208.7321
 31
0.0
  0
LINE
  5
6EF
330
1E
100
AcDbEntity
  8
0
100
AcDbLine
 10
155.423
 20
204.6361
 30
0.0
 11
155.7119999999999
 21
204.5201
 31
0.0
  0
LINE
  5
6F0
330
1E
100
AcDbEntity
  8
0
100
AcDbLine
 10
146.144
 20
219.9641
 30
0.0
 11
151.9039999999999
 21
217.6601
 31
0.0
  0
LINE
  5
6F4
330
1E
100
AcDbEntity
  8
0
100
AcDbLine
 10
170.38
 20
214.1881
 30
0.0
 11
173.74
 21
205.7881
 31
0.0
  0
LINE
  5
705
330
1E
100
AcDbEntity
  8
0
100
AcDbLine
 10
140.0
 20
231.8281
 30
0.0
 11
148.96
 21
230.5680999999999
 31
0.0
  0
LINE
  5
706
330
1E
100
AcDbEntity
  8
0
100
AcDbLine
 10
122.6399999999999
 20
227.2081
 30
0.0
 11
131.0399999999999
 21
230.5680999999999
 31
0.0
  0
LINE
  5
707
330
1E
100
AcDbEntity
  8
0
100
AcDbLine
 10
131.0399999999999
 20
230.5680999999999
 30
0.0
 11
140.0
 21
231.8281
 31
0.0
  0
LINE
  5
708
330
1E
100
AcDbEntity
  8
0
100
AcDbLine
 10
148.96
 20
230.5680999999999
 30
0.0
 11
157.36
 21
227.2081
 31
0.0
  0
LINE
  5
70B
330
1E
100
AcDbEntity
  8
0
100
AcDbLine
 10
122.5
 20
34.257
 30
0.0
 11
122.5
 21
147.5400999999999
 31
0.0
  0
LINE
  5
70C
330
1E
100
AcDbEntity
  8
0
100
AcDbLine
 10
122.5
 20
147.5400999999999
 30
0.0
 11
122.5
 21
34.257
 31
0.0
  0
LINE
  5
70D
330
1E
100
AcDbEntity
  8
0
100
AcDbLine
 10
157.5
 20
147.5400999999999
 30
0.0
 11
157.5
 21
34.257
 31
0.0
  0
LINE
  5
70E
330
1E
100
AcDbEntity
  8
0
100
AcDbLine
 10
157.5
 20
34.257
 30
0.0
 11
157.5
 21
147.5400999999999
 31
0.0
  0
LINE
  5
710
330
1E
100
AcDbEntity
  8
0
100
AcDbLine
 10
140.0
 20
17.8281
 30
0.0
 11
142.0629999999999
 21
17.8735
 31
0.0
  0
LINE
  5
711
330
1E
100
AcDbEntity
  8
0
100
AcDbLine
 10
122.7309999999999
 20
29.9017
 30
0.0
 11
122.6449999999999
 21
30.54500000000001
 31
0.0
  0
LINE
  5
712
330
1E
100
AcDbEntity
  8
0
100
AcDbLine
 10
132.0889999999999
 20
19.1723
 30
0.0
 11
130.9600036537079
 21
19.7109630164802
 31
0.0
  0
LINE
  5
713
330
1E
100
AcDbEntity
  8
0
100
AcDbLine
 10
132.0889999999999
 20
19.1723
 30
0.0
 11
130.9600036537079
 21
19.7109630164802
 31
0.0
  0
LINE
  5
714
330
1E
100
AcDbEntity
  8
0
100
AcDbLine
 10
135.596
 20
18.15539999999998
 30
0.0
 11
132.942
 21
18.8554
 31
0.0
  0
LINE
  5
715
330
1E
100
AcDbEntity
  8
0
100
AcDbLine
 10
132.942
 20
18.8554
 30
0.0
 11
132.0889999999999
 21
19.1723
 31
0.0
  0
LINE
  5
716
330
1E
100
AcDbEntity
  8
0
100
AcDbLine
 10
137.937
 20
17.8735
 30
0.0
 11
137.3799999999999
 21
17.91419999999999
 31
0.0
  0
LINE
  5
717
330
1E
100
AcDbEntity
  8
0
100
AcDbLine
 10
137.3799999999999
 20
17.91419999999999
 30
0.0
 11
135.596
 21
18.15539999999998
 31
0.0
  0
LINE
  5
718
330
1E
100
AcDbEntity
  8
0
100
AcDbLine
 10
140.0
 20
17.8281
 30
0.0
 11
137.937
 21
17.8735
 31
0.0
  0
LINE
  5
719
330
1E
100
AcDbEntity
  8
0
100
AcDbLine
 10
127.8399999999999
 20
21.56659999999999
 30
0.0
 11
126.019
 21
23.2013
 31
0.0
  0
LINE
  5
71A
330
1E
100
AcDbEntity
  8
0
100
AcDbLine
 10
125.420224423725
 20
23.95973558645181
 30
0.0
 11
124.538
 21
25.0772
 31
0.0
  0
LINE
  5
71B
330
1E
100
AcDbEntity
  8
0
100
AcDbLine
 10
125.420224423725
 20
23.95973558645181
 30
0.0
 11
124.538
 21
25.0772
 31
0.0
  0
LINE
  5
71C
330
1E
100
AcDbEntity
  8
0
100
AcDbLine
 10
125.912545231813
 20
23.33614031035858
 30
0.0
 11
125.420224423725
 21
23.95973558645181
 31
0.0
  0
LINE
  5
71D
330
1E
100
AcDbEntity
  8
0
100
AcDbLine
 10
126.019
 20
23.2013
 30
0.0
 11
125.912545231813
 21
23.33614031035858
 31
0.0
  0
LINE
  5
71E
330
1E
100
AcDbEntity
  8
0
100
AcDbLine
 10
124.538
 20
25.0772
 30
0.0
 11
124.172
 21
25.6807
 31
0.0
  0
LINE
  5
71F
330
1E
100
AcDbEntity
  8
0
100
AcDbLine
 10
124.172
 20
25.6807
 30
0.0
 11
123.777
 21
26.44130000000001
 31
0.0
  0
LINE
  5
720
330
1E
100
AcDbEntity
  8
0
100
AcDbLine
 10
123.777
 20
26.44130000000001
 30
0.0
 11
123.2059999999999
 21
27.8811
 31
0.0
  0
LINE
  5
721
330
1E
100
AcDbEntity
  8
0
100
AcDbLine
 10
123.062733480913
 20
28.49054069151049
 30
0.0
 11
122.7309999999999
 21
29.9017
 31
0.0
  0
LINE
  5
722
330
1E
100
AcDbEntity
  8
0
100
AcDbLine
 10
123.2059999999999
 20
27.8811
 30
0.0
 11
123.1840315987499
 21
27.97455126645539
 31
0.0
  0
LINE
  5
723
330
1E
100
AcDbEntity
  8
0
100
AcDbLine
 10
123.062733480913
 20
28.49054069151049
 30
0.0
 11
122.7309999999999
 21
29.9017
 31
0.0
  0
LINE
  5
724
330
1E
100
AcDbEntity
  8
0
100
AcDbLine
 10
123.1840315987499
 20
27.97455126645539
 30
0.0
 11
123.062733480913
 21
28.49054069151049
 31
0.0
  0
LINE
  5
725
330
1E
100
AcDbEntity
  8
0
100
AcDbLine
 10
130.1353186596189
 20
20.10443400336279
 30
0.0
 11
129.9039999999999
 21
20.21479999999999
 31
0.0
  0
LINE
  5
726
330
1E
100
AcDbEntity
  8
0
100
AcDbLine
 10
129.9039999999999
 20
20.21479999999999
 30
0.0
 11
128.214557273284
 21
21.32128676258469
 31
0.0
  0
LINE
  5
727
330
1E
100
AcDbEntity
  8
0
100
AcDbLine
 10
130.9600036537079
 20
19.7109630164802
 30
0.0
 11
130.1353186596189
 21
20.10443400336279
 31
0.0
  0
LINE
  5
728
330
1E
100
AcDbEntity
  8
0
100
AcDbLine
 10
128.214557273284
 20
21.32128676258469
 30
0.0
 11
127.8399999999999
 21
21.56659999999999
 31
0.0
  0
LINE
  5
729
330
1E
100
AcDbEntity
  8
0
100
AcDbLine
 10
122.546
 20
31.73019999999999
 30
0.0
 11
122.5
 21
34.257
 31
0.0
  0
LINE
  5
72A
330
1E
100
AcDbEntity
  8
0
100
AcDbLine
 10
122.6449999999999
 20
30.54500000000001
 30
0.0
 11
122.546
 21
31.73019999999999
 31
0.0
  0
LINE
  5
72B
330
1E
100
AcDbEntity
  8
0
100
AcDbLine
 10
157.269
 20
29.9017
 30
0.0
 11
157.355
 21
30.54500000000001
 31
0.0
  0
LINE
  5
72C
330
1E
100
AcDbEntity
  8
0
100
AcDbLine
 10
147.911
 20
19.1723
 30
0.0
 11
149.039996346292
 21
19.7109630164802
 31
0.0
  0
LINE
  5
72D
330
1E
100
AcDbEntity
  8
0
100
AcDbLine
 10
147.911
 20
19.1723
 30
0.0
 11
149.039996346292
 21
19.7109630164802
 31
0.0
  0
LINE
  5
72E
330
1E
100
AcDbEntity
  8
0
100
AcDbLine
 10
147.0579999999999
 20
18.8554
 30
0.0
 11
147.911
 21
19.1723
 31
0.0
  0
LINE
  5
72F
330
1E
100
AcDbEntity
  8
0
100
AcDbLine
 10
144.404
 20
18.15539999999998
 30
0.0
 11
147.0579999999999
 21
18.8554
 31
0.0
  0
LINE
  5
730
330
1E
100
AcDbEntity
  8
0
100
AcDbLine
 10
142.62
 20
17.91419999999999
 30
0.0
 11
144.404
 21
18.15539999999998
 31
0.0
  0
LINE
  5
731
330
1E
100
AcDbEntity
  8
0
100
AcDbLine
 10
142.0629999999999
 20
17.8735
 30
0.0
 11
142.62
 21
17.91419999999999
 31
0.0
  0
LINE
  5
732
330
1E
100
AcDbEntity
  8
0
100
AcDbLine
 10
153.9809999999999
 20
23.2013
 30
0.0
 11
154.0874547681869
 21
23.33614031035858
 31
0.0
  0
LINE
  5
733
330
1E
100
AcDbEntity
  8
0
100
AcDbLine
 10
151.7854427267159
 20
21.32128676258469
 30
0.0
 11
152.16
 21
21.56659999999999
 31
0.0
  0
LINE
  5
734
330
1E
100
AcDbEntity
  8
0
100
AcDbLine
 10
149.039996346292
 20
19.7109630164802
 30
0.0
 11
149.864681340381
 21
20.10443400336279
 31
0.0
  0
LINE
  5
735
330
1E
100
AcDbEntity
  8
0
100
AcDbLine
 10
152.16
 20
21.56659999999999
 30
0.0
 11
153.9809999999999
 21
23.2013
 31
0.0
  0
LINE
  5
736
330
1E
100
AcDbEntity
  8
0
100
AcDbLine
 10
150.096
 20
20.21479999999999
 30
0.0
 11
151.7854427267159
 21
21.32128676258469
 31
0.0
  0
LINE
  5
737
330
1E
100
AcDbEntity
  8
0
100
AcDbLine
 10
149.864681340381
 20
20.10443400336279
 30
0.0
 11
150.096
 21
20.21479999999999
 31
0.0
  0
LINE
  5
738
330
1E
100
AcDbEntity
  8
0
100
AcDbLine
 10
154.5797755762749
 20
23.95973558645181
 30
0.0
 11
155.4619999999999
 21
25.0772
 31
0.0
  0
LINE
  5
739
330
1E
100
AcDbEntity
  8
0
100
AcDbLine
 10
154.5797755762749
 20
23.95973558645181
 30
0.0
 11
155.4619999999999
 21
25.0772
 31
0.0
  0
LINE
  5
73A
330
1E
100
AcDbEntity
  8
0
100
AcDbLine
 10
154.0874547681869
 20
23.33614031035858
 30
0.0
 11
154.5797755762749
 21
23.95973558645181
 31
0.0
  0
LINE
  5
73B
330
1E
100
AcDbEntity
  8
0
100
AcDbLine
 10
156.81596840125
 20
27.97455126645539
 30
0.0
 11
156.9372665190869
 21
28.49054069151049
 31
0.0
  0
LINE
  5
73C
330
1E
100
AcDbEntity
  8
0
100
AcDbLine
 10
156.9372665190869
 20
28.49054069151049
 30
0.0
 11
157.269
 21
29.9017
 31
0.0
  0
LINE
  5
73D
330
1E
100
AcDbEntity
  8
0
100
AcDbLine
 10
156.794
 20
27.8811
 30
0.0
 11
156.81596840125
 21
27.97455126645539
 31
0.0
  0
LINE
  5
73E
330
1E
100
AcDbEntity
  8
0
100
AcDbLine
 10
156.9372665190869
 20
28.49054069151049
 30
0.0
 11
157.269
 21
29.9017
 31
0.0
  0
LINE
  5
73F
330
1E
100
AcDbEntity
  8
0
100
AcDbLine
 10
156.2229999999999
 20
26.44130000000001
 30
0.0
 11
156.794
 21
27.8811
 31
0.0
  0
LINE
  5
740
330
1E
100
AcDbEntity
  8
0
100
AcDbLine
 10
155.8279999999999
 20
25.6807
 30
0.0
 11
156.2229999999999
 21
26.44130000000001
 31
0.0
  0
LINE
  5
741
330
1E
100
AcDbEntity
  8
0
100
AcDbLine
 10
155.4619999999999
 20
25.0772
 30
0.0
 11
155.8279999999999
 21
25.6807
 31
0.0
  0
LINE
  5
742
330
1E
100
AcDbEntity
  8
0
100
AcDbLine
 10
157.355
 20
30.54500000000001
 30
0.0
 11
157.4539999999999
 21
31.73019999999999
 31
0.0
  0
LINE
  5
743
330
1E
100
AcDbEntity
  8
0
100
AcDbLine
 10
157.4539999999999
 20
31.73019999999999
 30
0.0
 11
157.5
 21
34.257
 31
0.0
  0
LINE
  5
745
330
1E
100
AcDbEntity
  8
0
100
AcDbLine
 10
122.5
 20
147.6010999999999
 30
0.0
 11
122.5
 21
152.9531
 31
0.0
  0
LINE
  5
746
330
1E
100
AcDbEntity
  8
0
100
AcDbLine
 10
122.5
 20
152.9531
 30
0.0
 11
122.5
 21
147.6010999999999
 31
0.0
  0
LINE
  5
747
330
1E
100
AcDbEntity
  8
0
100
AcDbLine
 10
122.5
 20
147.6010999999999
 30
0.0
 11
122.5
 21
147.5400999999999
 31
0.0
  0
LINE
  5
748
330
1E
100
AcDbEntity
  8
0
100
AcDbLine
 10
122.5
 20
147.5400999999999
 30
0.0
 11
122.5
 21
147.6010999999999
 31
0.0
  0
LINE
  5
749
330
1E
100
AcDbEntity
  8
0
100
AcDbLine
 10
122.5
 20
152.9531
 30
0.0
 11
122.5
 21
155.6121
 31
0.0
  0
LINE
  5
74A
330
1E
100
AcDbEntity
  8
0
100
AcDbLine
 10
122.5
 20
155.6121
 30
0.0
 11
122.5
 21
152.9531
 31
0.0
  0
LINE
  5
74B
330
1E
100
AcDbEntity
  8
0
100
AcDbLine
 10
157.5
 20
152.9531
 30
0.0
 11
157.5
 21
147.6010999999999
 31
0.0
  0
LINE
  5
74C
330
1E
100
AcDbEntity
  8
0
100
AcDbLine
 10
157.5
 20
147.6010999999999
 30
0.0
 11
157.5
 21
152.9531
 31
0.0
  0
LINE
  5
74D
330
1E
100
AcDbEntity
  8
0
100
AcDbLine
 10
157.5
 20
147.5400999999999
 30
0.0
 11
157.5
 21
147.6010999999999
 31
0.0
  0
LINE
  5
74E
330
1E
100
AcDbEntity
  8
0
100
AcDbLine
 10
157.5
 20
147.6010999999999
 30
0.0
 11
157.5
 21
147.5400999999999
 31
0.0
  0
LINE
  5
74F
330
1E
100
AcDbEntity
  8
0
100
AcDbLine
 10
157.5
 20
155.6121
 30
0.0
 11
157.5
 21
152.9531
 31
0.0
  0
LINE
  5
750
330
1E
100
AcDbEntity
  8
0
100
AcDbLine
 10
157.5
 20
152.9531
 30
0.0
 11
157.5
 21
155.6121
 31
0.0
  0
LINE
  5
751
330
1E
100
AcDbEntity
  8
0
100
AcDbLine
 10
259.92
 20
214.1881
 30
0.0
 11
255.12
 21
216.1081
 31
0.0
  0
LINE
  5
752
330
1E
100
AcDbEntity
  8
0
100
AcDbLine
 10
259.6799999999999
 20
213.7081
 30
0.0
 11
255.0399999999999
 21
215.6280999999999
 31
0.0
  0
LINE
  5
753
330
1E
100
AcDbEntity
  8
0
100
AcDbLine
 10
259.92
 20
179.4680999999999
 30
0.0
 11
255.12
 21
177.5481
 31
0.0
  0
LINE
  5
754
330
1E
100
AcDbEntity
  8
0
100
AcDbLine
 10
259.6799999999999
 20
179.9481
 30
0.0
 11
255.0399999999999
 21
178.0281
 31
0.0
  0
LINE
  5
755
330
1E
100
AcDbEntity
  8
0
100
AcDbLine
 10
257.6799999999999
 20
225.7480999999999
 30
0.0
 11
250.0
 21
226.8280999999999
 31
0.0
  0
LINE
  5
756
330
1E
100
AcDbEntity
  8
0
100
AcDbLine
 10
263.0
 20
203.6601
 30
0.0
 11
237.0
 21
203.6601
 31
0.0
  0
LINE
  5
757
330
1E
100
AcDbEntity
  8
0
100
AcDbLine
 10
263.0
 20
203.8281
 30
0.0
 11
237.0
 21
203.8281
 31
0.0
  0
LINE
  5
758
330
1E
100
AcDbEntity
  8
0
100
AcDbLine
 10
263.0
 20
189.9961
 30
0.0
 11
237.0
 21
189.9961
 31
0.0
  0
LINE
  5
759
330
1E
100
AcDbEntity
  8
0
100
AcDbLine
 10
257.6799999999999
 20
167.9081
 30
0.0
 11
250.0
 21
166.8281
 31
0.0
  0
LINE
  5
75A
330
1E
100
AcDbEntity
  8
0
100
AcDbLine
 10
271.24
 20
218.0680999999999
 30
0.0
 11
264.88
 21
222.8680999999999
 31
0.0
  0
LINE
  5
75B
330
1E
100
AcDbEntity
  8
0
100
AcDbLine
 10
269.2799999999999
 20
191.7080999999999
 30
0.0
 11
267.3599999999999
 21
186.9080999999999
 31
0.0
  0
LINE
  5
75C
330
1E
100
AcDbEntity
  8
0
100
AcDbLine
 10
268.8
 20
191.7880999999999
 30
0.0
 11
266.88
 21
187.1480999999999
 31
0.0
  0
LINE
  5
75D
330
1E
100
AcDbEntity
  8
0
100
AcDbLine
 10
278.92
 20
189.1480999999999
 30
0.0
 11
276.04
 21
181.9481
 31
0.0
  0
LINE
  5
75E
330
1E
100
AcDbEntity
  8
0
100
AcDbLine
 10
271.24
 20
175.5881
 30
0.0
 11
264.88
 21
170.7880999999999
 31
0.0
  0
LINE
  5
75F
330
1E
100
AcDbEntity
  8
0
100
AcDbLine
 10
264.88
 20
170.7880999999999
 30
0.0
 11
257.6799999999999
 21
167.9081
 31
0.0
  0
LINE
  5
760
330
1E
100
AcDbEntity
  8
0
100
AcDbLine
 10
276.04
 20
181.9481
 30
0.0
 11
271.24
 21
175.5881
 31
0.0
  0
LINE
  5
761
330
1E
100
AcDbEntity
  8
0
100
AcDbLine
 10
266.88
 20
187.1480999999999
 30
0.0
 11
263.7599999999999
 21
183.0681
 31
0.0
  0
LINE
  5
762
330
1E
100
AcDbEntity
  8
0
100
AcDbLine
 10
267.3599999999999
 20
186.9080999999999
 30
0.0
 11
264.16
 21
182.6681
 31
0.0
  0
LINE
  5
763
330
1E
100
AcDbEntity
  8
0
100
AcDbLine
 10
264.16
 20
182.6681
 30
0.0
 11
259.92
 21
179.4680999999999
 31
0.0
  0
LINE
  5
764
330
1E
100
AcDbEntity
  8
0
100
AcDbLine
 10
263.7599999999999
 20
183.0681
 30
0.0
 11
259.6799999999999
 21
179.9481
 31
0.0
  0
LINE
  5
765
330
1E
100
AcDbEntity
  8
0
100
AcDbLine
 10
266.4719999999999
 20
202.9040999999999
 30
0.0
 11
264.7919999999999
 21
203.5760999999999
 31
0.0
  0
LINE
  5
766
330
1E
100
AcDbEntity
  8
0
100
AcDbLine
 10
266.3879999999999
 20
202.7360999999999
 30
0.0
 11
264.7639999999999
 21
203.4081
 31
0.0
  0
LINE
  5
767
330
1E
100
AcDbEntity
  8
0
100
AcDbLine
 10
280.0
 20
196.8281
 30
0.0
 11
278.92
 21
204.5081
 31
0.0
  0
LINE
  5
768
330
1E
100
AcDbEntity
  8
0
100
AcDbLine
 10
269.2799999999999
 20
201.9481
 30
0.0
 11
267.3599999999999
 21
206.7480999999999
 31
0.0
  0
LINE
  5
769
330
1E
100
AcDbEntity
  8
0
100
AcDbLine
 10
268.8
 20
201.8680999999999
 30
0.0
 11
266.88
 21
206.5081
 31
0.0
  0
LINE
  5
76A
330
1E
100
AcDbEntity
  8
0
100
AcDbLine
 10
280.0
 20
196.8281
 30
0.0
 11
278.92
 21
189.1480999999999
 31
0.0
  0
LINE
  5
76B
330
1E
100
AcDbEntity
  8
0
100
AcDbLine
 10
270.0
 20
196.8281
 30
0.0
 11
269.748
 21
195.0361
 31
0.0
  0
LINE
  5
76C
330
1E
100
AcDbEntity
  8
0
100
AcDbLine
 10
269.8319999999999
 20
196.8281
 30
0.0
 11
269.5799999999999
 21
195.0641
 31
0.0
  0
LINE
  5
76D
330
1E
100
AcDbEntity
  8
0
100
AcDbLine
 10
270.0
 20
196.8281
 30
0.0
 11
269.2799999999999
 21
191.7080999999999
 31
0.0
  0
LINE
  5
76E
330
1E
100
AcDbEntity
  8
0
100
AcDbLine
 10
264.7639999999999
 20
190.2480999999999
 30
0.0
 11
263.0
 21
189.9961
 31
0.0
  0
LINE
  5
76F
330
1E
100
AcDbEntity
  8
0
100
AcDbLine
 10
266.3879999999999
 20
190.9200999999999
 30
0.0
 11
264.7639999999999
 21
190.2480999999999
 31
0.0
  0
LINE
  5
770
330
1E
100
AcDbEntity
  8
0
100
AcDbLine
 10
269.5799999999999
 20
195.0641
 30
0.0
 11
268.908
 21
193.4401
 31
0.0
  0
LINE
  5
771
330
1E
100
AcDbEntity
  8
0
100
AcDbLine
 10
269.011859030837
 20
193.271113215859
 30
0.0
 11
268.8
 21
191.7880999999999
 31
0.0
  0
LINE
  5
772
330
1E
100
AcDbEntity
  8
0
100
AcDbLine
 10
268.908
 20
193.4401
 30
0.0
 11
267.8159999999999
 21
192.0121
 31
0.0
  0
LINE
  5
773
330
1E
100
AcDbEntity
  8
0
100
AcDbLine
 10
267.8159999999999
 20
192.0121
 30
0.0
 11
266.3879999999999
 21
190.9200999999999
 31
0.0
  0
LINE
  5
774
330
1E
100
AcDbEntity
  8
0
100
AcDbLine
 10
269.748
 20
195.0361
 30
0.0
 11
269.5799999999999
 21
195.0641
 31
0.0
  0
LINE
  5
775
330
1E
100
AcDbEntity
  8
0
100
AcDbLine
 10
269.748
 20
195.0361
 30
0.0
 11
269.076
 21
193.3561
 31
0.0
  0
LINE
  5
776
330
1E
100
AcDbEntity
  8
0
100
AcDbLine
 10
269.011859030837
 20
200.385086784141
 30
0.0
 11
268.8
 21
201.8680999999999
 31
0.0
  0
LINE
  5
777
330
1E
100
AcDbEntity
  8
0
100
AcDbLine
 10
268.908
 20
200.2161
 30
0.0
 11
267.8159999999999
 21
201.6440999999999
 31
0.0
  0
LINE
  5
778
330
1E
100
AcDbEntity
  8
0
100
AcDbLine
 10
269.076
 20
200.3000999999999
 30
0.0
 11
267.956
 21
201.7840999999999
 31
0.0
  0
LINE
  5
779
330
1E
100
AcDbEntity
  8
0
100
AcDbLine
 10
269.5799999999999
 20
198.5920999999999
 30
0.0
 11
268.908
 21
200.2161
 31
0.0
  0
LINE
  5
77A
330
1E
100
AcDbEntity
  8
0
100
AcDbLine
 10
267.956
 20
201.7840999999999
 30
0.0
 11
266.4719999999999
 21
202.9040999999999
 31
0.0
  0
LINE
  5
77B
330
1E
100
AcDbEntity
  8
0
100
AcDbLine
 10
267.8159999999999
 20
201.6440999999999
 30
0.0
 11
266.3879999999999
 21
202.7360999999999
 31
0.0
  0
LINE
  5
77C
330
1E
100
AcDbEntity
  8
0
100
AcDbLine
 10
270.0
 20
196.8281
 30
0.0
 11
269.8319999999999
 21
196.8281
 31
0.0
  0
LINE
  5
77D
330
1E
100
AcDbEntity
  8
0
100
AcDbLine
 10
270.0
 20
196.8281
 30
0.0
 11
269.748
 21
198.6201
 31
0.0
  0
LINE
  5
77E
330
1E
100
AcDbEntity
  8
0
100
AcDbLine
 10
269.748
 20
198.6201
 30
0.0
 11
269.5799999999999
 21
198.5920999999999
 31
0.0
  0
LINE
  5
77F
330
1E
100
AcDbEntity
  8
0
100
AcDbLine
 10
269.748
 20
198.6201
 30
0.0
 11
269.076
 21
200.3000999999999
 31
0.0
  0
LINE
  5
780
330
1E
100
AcDbEntity
  8
0
100
AcDbLine
 10
270.0
 20
196.8281
 30
0.0
 11
269.2799999999999
 21
201.9481
 31
0.0
  0
LINE
  5
781
330
1E
100
AcDbEntity
  8
0
100
AcDbLine
 10
269.8319999999999
 20
196.8281
 30
0.0
 11
269.5799999999999
 21
198.5920999999999
 31
0.0
  0
LINE
  5
782
330
1E
100
AcDbEntity
  8
0
100
AcDbLine
 10
276.04
 20
211.7081
 30
0.0
 11
271.24
 21
218.0680999999999
 31
0.0
  0
LINE
  5
783
330
1E
100
AcDbEntity
  8
0
100
AcDbLine
 10
278.92
 20
204.5081
 30
0.0
 11
276.04
 21
211.7081
 31
0.0
  0
LINE
  5
784
330
1E
100
AcDbEntity
  8
0
100
AcDbLine
 10
264.16
 20
210.9881
 30
0.0
 11
259.92
 21
214.1881
 31
0.0
  0
LINE
  5
785
330
1E
100
AcDbEntity
  8
0
100
AcDbLine
 10
263.7599999999999
 20
210.5881
 30
0.0
 11
259.6799999999999
 21
213.7081
 31
0.0
  0
LINE
  5
786
330
1E
100
AcDbEntity
  8
0
100
AcDbLine
 10
266.88
 20
206.5081
 30
0.0
 11
263.7599999999999
 21
210.5881
 31
0.0
  0
LINE
  5
787
330
1E
100
AcDbEntity
  8
0
100
AcDbLine
 10
264.7919999999999
 20
203.5760999999999
 30
0.0
 11
263.0
 21
203.8281
 31
0.0
  0
LINE
  5
788
330
1E
100
AcDbEntity
  8
0
100
AcDbLine
 10
264.7639999999999
 20
203.4081
 30
0.0
 11
263.0
 21
203.6601
 31
0.0
  0
LINE
  5
789
330
1E
100
AcDbEntity
  8
0
100
AcDbLine
 10
267.3599999999999
 20
206.7480999999999
 30
0.0
 11
264.16
 21
210.9881
 31
0.0
  0
LINE
  5
78A
330
1E
100
AcDbEntity
  8
0
100
AcDbLine
 10
264.88
 20
222.8680999999999
 30
0.0
 11
257.6799999999999
 21
225.7480999999999
 31
0.0
  0
LINE
  5
78B
330
1E
100
AcDbEntity
  8
0
100
AcDbLine
 10
235.1199999999999
 20
222.8680999999999
 30
0.0
 11
228.7599999999999
 21
218.0680999999999
 31
0.0
  0
LINE
  5
78E
330
1E
100
AcDbEntity
  8
0
100
AcDbLine
 10
232.64
 20
186.9080999999999
 30
0.0
 11
230.7199999999999
 21
191.7080999999999
 31
0.0
  0
LINE
  5
78F
330
1E
100
AcDbEntity
  8
0
100
AcDbLine
 10
233.1199999999999
 20
187.1480999999999
 30
0.0
 11
231.1999999999999
 21
191.7880999999999
 31
0.0
  0
LINE
  5
790
330
1E
100
AcDbEntity
  8
0
100
AcDbLine
 10
223.96
 20
181.9481
 30
0.0
 11
221.0799999999999
 21
189.1480999999999
 31
0.0
  0
LINE
  5
791
330
1E
100
AcDbEntity
  8
0
100
AcDbLine
 10
235.1199999999999
 20
170.7880999999999
 30
0.0
 11
228.7599999999999
 21
175.5881
 31
0.0
  0
LINE
  5
792
330
1E
100
AcDbEntity
  8
0
100
AcDbLine
 10
250.0
 20
166.8281
 30
0.0
 11
242.32
 21
167.9081
 31
0.0
  0
LINE
  5
793
330
1E
100
AcDbEntity
  8
0
100
AcDbLine
 10
242.32
 20
167.9081
 30
0.0
 11
235.1199999999999
 21
170.7880999999999
 31
0.0
  0
LINE
  5
794
330
1E
100
AcDbEntity
  8
0
100
AcDbLine
 10
244.8799999999999
 20
177.5481
 30
0.0
 11
240.0799999999999
 21
179.4680999999999
 31
0.0
  0
LINE
  5
795
330
1E
100
AcDbEntity
  8
0
100
AcDbLine
 10
244.96
 20
178.0281
 30
0.0
 11
240.32
 21
179.9481
 31
0.0
  0
LINE
  5
796
330
1E
100
AcDbEntity
  8
0
100
AcDbLine
 10
255.12
 20
177.5481
 30
0.0
 11
250.0
 21
176.8280999999999
 31
0.0
  0
LINE
  5
797
330
1E
100
AcDbEntity
  8
0
100
AcDbLine
 10
255.0399999999999
 20
178.0281
 30
0.0
 11
250.0
 21
177.3080999999999
 31
0.0
  0
LINE
  5
798
330
1E
100
AcDbEntity
  8
0
100
AcDbLine
 10
250.0
 20
176.8280999999999
 30
0.0
 11
244.8799999999999
 21
177.5481
 31
0.0
  0
LINE
  5
799
330
1E
100
AcDbEntity
  8
0
100
AcDbLine
 10
250.0
 20
177.3080999999999
 30
0.0
 11
244.96
 21
178.0281
 31
0.0
  0
LINE
  5
79A
330
1E
100
AcDbEntity
  8
0
100
AcDbLine
 10
240.0799999999999
 20
179.4680999999999
 30
0.0
 11
235.84
 21
182.6681
 31
0.0
  0
LINE
  5
79B
330
1E
100
AcDbEntity
  8
0
100
AcDbLine
 10
240.32
 20
179.9481
 30
0.0
 11
236.24
 21
183.0681
 31
0.0
  0
LINE
  5
79C
330
1E
100
AcDbEntity
  8
0
100
AcDbLine
 10
235.84
 20
182.6681
 30
0.0
 11
232.64
 21
186.9080999999999
 31
0.0
  0
LINE
  5
79D
330
1E
100
AcDbEntity
  8
0
100
AcDbLine
 10
236.24
 20
183.0681
 30
0.0
 11
233.1199999999999
 21
187.1480999999999
 31
0.0
  0
LINE
  5
79E
330
1E
100
AcDbEntity
  8
0
100
AcDbLine
 10
228.7599999999999
 20
175.5881
 30
0.0
 11
223.96
 21
181.9481
 31
0.0
  0
LINE
  5
79F
330
1E
100
AcDbEntity
  8
0
100
AcDbLine
 10
232.64
 20
206.7480999999999
 30
0.0
 11
230.7199999999999
 21
201.9481
 31
0.0
  0
LINE
  5
7A0
330
1E
100
AcDbEntity
  8
0
100
AcDbLine
 10
233.1199999999999
 20
206.5081
 30
0.0
 11
231.1999999999999
 21
201.8680999999999
 31
0.0
  0
LINE
  5
7A1
330
1E
100
AcDbEntity
  8
0
100
AcDbLine
 10
235.2079999999999
 20
203.5760999999999
 30
0.0
 11
233.528
 21
202.9040999999999
 31
0.0
  0
LINE
  5
7A2
330
1E
100
AcDbEntity
  8
0
100
AcDbLine
 10
235.236
 20
203.4081
 30
0.0
 11
233.612
 21
202.7360999999999
 31
0.0
  0
LINE
  5
7A3
330
1E
100
AcDbEntity
  8
0
100
AcDbLine
 10
230.252
 20
195.0361
 30
0.0
 11
230.0
 21
196.8281
 31
0.0
  0
LINE
  5
7A4
330
1E
100
AcDbEntity
  8
0
100
AcDbLine
 10
230.42
 20
195.0641
 30
0.0
 11
230.168
 21
196.8281
 31
0.0
  0
LINE
  5
7A5
330
1E
100
AcDbEntity
  8
0
100
AcDbLine
 10
230.7199999999999
 20
191.7080999999999
 30
0.0
 11
230.0
 21
196.8281
 31
0.0
  0
LINE
  5
7A6
330
1E
100
AcDbEntity
  8
0
100
AcDbLine
 10
237.0
 20
189.9961
 30
0.0
 11
235.236
 21
190.2480999999999
 31
0.0
  0
LINE
  5
7A7
330
1E
100
AcDbEntity
  8
0
100
AcDbLine
 10
230.42
 20
195.0641
 30
0.0
 11
230.252
 21
195.0361
 31
0.0
  0
LINE
  5
7A8
330
1E
100
AcDbEntity
  8
0
100
AcDbLine
 10
230.9239999999999
 20
193.3561
 30
0.0
 11
230.252
 21
195.0361
 31
0.0
  0
LINE
  5
7A9
330
1E
100
AcDbEntity
  8
0
100
AcDbLine
 10
231.0919999999999
 20
193.4401
 30
0.0
 11
230.42
 21
195.0641
 31
0.0
  0
LINE
  5
7AA
330
1E
100
AcDbEntity
  8
0
100
AcDbLine
 10
233.612
 20
190.9200999999999
 30
0.0
 11
232.1839999999999
 21
192.0121
 31
0.0
  0
LINE
  5
7AB
330
1E
100
AcDbEntity
  8
0
100
AcDbLine
 10
231.1999999999999
 20
191.7880999999999
 30
0.0
 11
230.988140969163
 21
193.271113215859
 31
0.0
  0
LINE
  5
7AC
330
1E
100
AcDbEntity
  8
0
100
AcDbLine
 10
232.1839999999999
 20
192.0121
 30
0.0
 11
231.0919999999999
 21
193.4401
 31
0.0
  0
LINE
  5
7AD
330
1E
100
AcDbEntity
  8
0
100
AcDbLine
 10
235.236
 20
190.2480999999999
 30
0.0
 11
233.612
 21
190.9200999999999
 31
0.0
  0
LINE
  5
7AE
330
1E
100
AcDbEntity
  8
0
100
AcDbLine
 10
230.9239999999999
 20
200.3000999999999
 30
0.0
 11
230.252
 21
198.6201
 31
0.0
  0
LINE
  5
7AF
330
1E
100
AcDbEntity
  8
0
100
AcDbLine
 10
231.0919999999999
 20
200.2161
 30
0.0
 11
230.42
 21
198.5920999999999
 31
0.0
  0
LINE
  5
7B0
330
1E
100
AcDbEntity
  8
0
100
AcDbLine
 10
230.42
 20
198.5920999999999
 30
0.0
 11
230.252
 21
198.6201
 31
0.0
  0
LINE
  5
7B1
330
1E
100
AcDbEntity
  8
0
100
AcDbLine
 10
231.1999999999999
 20
201.8680999999999
 30
0.0
 11
230.988140969163
 21
200.385086784141
 31
0.0
  0
LINE
  5
7B2
330
1E
100
AcDbEntity
  8
0
100
AcDbLine
 10
232.044
 20
201.7840999999999
 30
0.0
 11
230.9239999999999
 21
200.3000999999999
 31
0.0
  0
LINE
  5
7B3
330
1E
100
AcDbEntity
  8
0
100
AcDbLine
 10
232.1839999999999
 20
201.6440999999999
 30
0.0
 11
231.0919999999999
 21
200.2161
 31
0.0
  0
LINE
  5
7B4
330
1E
100
AcDbEntity
  8
0
100
AcDbLine
 10
233.528
 20
202.9040999999999
 30
0.0
 11
232.044
 21
201.7840999999999
 31
0.0
  0
LINE
  5
7B5
330
1E
100
AcDbEntity
  8
0
100
AcDbLine
 10
233.612
 20
202.7360999999999
 30
0.0
 11
232.1839999999999
 21
201.6440999999999
 31
0.0
  0
LINE
  5
7B6
330
1E
100
AcDbEntity
  8
0
100
AcDbLine
 10
230.7199999999999
 20
201.9481
 30
0.0
 11
230.252
 21
198.6201
 31
0.0
  0
LINE
  5
7B7
330
1E
100
AcDbEntity
  8
0
100
AcDbLine
 10
230.168
 20
196.8281
 30
0.0
 11
230.0
 21
196.8281
 31
0.0
  0
LINE
  5
7B8
330
1E
100
AcDbEntity
  8
0
100
AcDbLine
 10
230.252
 20
198.6201
 30
0.0
 11
230.0
 21
196.8281
 31
0.0
  0
LINE
  5
7B9
330
1E
100
AcDbEntity
  8
0
100
AcDbLine
 10
230.42
 20
198.5920999999999
 30
0.0
 11
230.168
 21
196.8281
 31
0.0
  0
LINE
  5
7BA
330
1E
100
AcDbEntity
  8
0
100
AcDbLine
 10
244.8799999999999
 20
216.1081
 30
0.0
 11
240.0799999999999
 21
214.1881
 31
0.0
  0
LINE
  5
7BB
330
1E
100
AcDbEntity
  8
0
100
AcDbLine
 10
244.96
 20
215.6280999999999
 30
0.0
 11
240.32
 21
213.7081
 31
0.0
  0
LINE
  5
7BC
330
1E
100
AcDbEntity
  8
0
100
AcDbLine
 10
255.12
 20
216.1081
 30
0.0
 11
250.0
 21
216.8280999999999
 31
0.0
  0
LINE
  5
7BD
330
1E
100
AcDbEntity
  8
0
100
AcDbLine
 10
255.0399999999999
 20
215.6280999999999
 30
0.0
 11
250.0
 21
216.3480999999999
 31
0.0
  0
LINE
  5
7BE
330
1E
100
AcDbEntity
  8
0
100
AcDbLine
 10
250.0
 20
216.8280999999999
 30
0.0
 11
244.8799999999999
 21
216.1081
 31
0.0
  0
LINE
  5
7BF
330
1E
100
AcDbEntity
  8
0
100
AcDbLine
 10
250.0
 20
216.3480999999999
 30
0.0
 11
244.96
 21
215.6280999999999
 31
0.0
  0
LINE
  5
7C0
330
1E
100
AcDbEntity
  8
0
100
AcDbLine
 10
240.0799999999999
 20
214.1881
 30
0.0
 11
235.84
 21
210.9881
 31
0.0
  0
LINE
  5
7C1
330
1E
100
AcDbEntity
  8
0
100
AcDbLine
 10
240.32
 20
213.7081
 30
0.0
 11
236.24
 21
210.5881
 31
0.0
  0
LINE
  5
7C2
330
1E
100
AcDbEntity
  8
0
100
AcDbLine
 10
237.0
 20
203.8281
 30
0.0
 11
235.2079999999999
 21
203.5760999999999
 31
0.0
  0
LINE
  5
7C3
330
1E
100
AcDbEntity
  8
0
100
AcDbLine
 10
237.0
 20
203.6601
 30
0.0
 11
235.236
 21
203.4081
 31
0.0
  0
LINE
  5
7C4
330
1E
100
AcDbEntity
  8
0
100
AcDbLine
 10
235.84
 20
210.9881
 30
0.0
 11
232.64
 21
206.7480999999999
 31
0.0
  0
LINE
  5
7C5
330
1E
100
AcDbEntity
  8
0
100
AcDbLine
 10
236.24
 20
210.5881
 30
0.0
 11
233.1199999999999
 21
206.5081
 31
0.0
  0
LINE
  5
7CC
330
1E
100
AcDbEntity
  8
0
100
AcDbLine
 10
221.0799999999999
 20
204.5081
 30
0.0
 11
220.0
 21
196.8281
 31
0.0
  0
LINE
  5
7D1
330
1E
100
AcDbEntity
  8
0
100
AcDbLine
 10
221.0799999999999
 20
189.1480999999999
 30
0.0
 11
220.0
 21
196.8281
 31
0.0
  0
LINE
  5
829
330
1E
100
AcDbEntity
  8
0
100
AcDbLine
 10
223.96
 20
211.7081
 30
0.0
 11
221.0799999999999
 21
204.5081
 31
0.0
  0
LINE
  5
831
330
1E
100
AcDbEntity
  8
0
100
AcDbLine
 10
228.7599999999999
 20
218.0680999999999
 30
0.0
 11
223.96
 21
211.7081
 31
0.0
  0
LINE
  5
899
330
1E
100
AcDbEntity
  8
0
100
AcDbLine
 10
250.0
 20
226.8280999999999
 30
0.0
 11
242.32
 21
225.7480999999999
 31
0.0
  0
LINE
  5
89A
330
1E
100
AcDbEntity
  8
0
100
AcDbLine
 10
242.32
 20
225.7480999999999
 30
0.0
 11
235.1199999999999
 21
222.8680999999999
 31
0.0
  0
LINE
  5
89B
330
1E
100
AcDbEntity
  8
0
100
AcDbLine
 10
133.8559999999999
 20
219.9641
 30
0.0
 11
138.4280615528195
 21
220.6698434385756
 31
0.0
  0
LINE
  5
89C
330
1E
100
AcDbEntity
  8
0
100
AcDbLine
 10
138.4280615528195
 20
220.6698434385756
 30
0.0
 11
141.0352443893232
 21
220.6698434385756
 31
0.0
  0
LINE
  5
89D
330
1E
100
AcDbEntity
  8
0
100
AcDbLine
 10
141.0352443893232
 20
220.6698434385756
 30
0.0
 11
146.144
 21
219.9641
 31
0.0
  0
LINE
  5
89E
330
1E
100
AcDbEntity
  8
0
100
AcDbLine
 10
127.885
 20
205.8911
 30
0.0
 11
131.2995568239248
 21
206.8499347038804
 31
0.0
  0
LINE
  5
89F
330
1E
100
AcDbEntity
  8
0
100
AcDbLine
 10
131.2995568239248
 20
206.8499347038804
 30
0.0
 11
134.8308059699561
 21
207.5755630460834
 31
0.0
  0
LINE
  5
8A0
330
1E
100
AcDbEntity
  8
0
100
AcDbLine
 10
134.8308059699561
 20
207.5755630460834
 30
0.0
 11
138.5689999999999
 21
207.7830999999999
 31
0.0
  0
ENDSEC
  0
SECTION
  2
OBJECTS
  0
DICTIONARY
  5
C
330
0
100
AcDbDictionary
281
     1
  3
ACAD_GROUP
350
D
  3
ACAD_LAYOUT
350
19
  3
ACAD_MLINESTYLE
350
16
  3
ACAD_PLOTSETTINGS
350
18
  3
ACAD_PLOTSTYLENAME
350
E
  3
AcDbVariableDictionary
350
8A2
  0
DICTIONARY
  5
D
102
{ACAD_REACTORS
330
C
102
}
330
C
100
AcDbDictionary
281
     1
  0
DICTIONARY
  5
19
102
{ACAD_REACTORS
330
C
102
}
330
C
100
AcDbDictionary
281
     1
  3
Layout1
350
1D
  3
Model
350
21
  0
DICTIONARY
  5
16
102
{ACAD_REACTORS
330
C
102
}
330
C
100
AcDbDictionary
281
     1
  3
Standard
350
17
  0
DICTIONARY
  5
18
102
{ACAD_REACTORS
330
C
102
}
330
C
100
AcDbDictionary
281
     1
  0
ACDBDICTIONARYWDFLT
  5
E
102
{ACAD_REACTORS
330
C
102
}
330
C
100
AcDbDictionary
281
     1
  3
Normal
350
F
100
AcDbDictionaryWithDefault
340
F
  0
DICTIONARY
  5
8A2
102
{ACAD_REACTORS
330
C
102
}
330
C
100
AcDbDictionary
281
     1
  3
DIMASSOC
350
8A3
  0
LAYOUT
  5
1D
102
{ACAD_REACTORS
330
19
102
}
330
19
100
AcDbPlotSettings
  1

  2
C:\Programme\AutoCAD LT 2002 Deu\plotters\DWF ePlot (optimized for plotting).pc3
  4

  6

 40
0.0
 41
0.0
 42
0.0
 43
0.0
 44
0.0
 45
0.0
 46
0.0
 47
0.0
 48
0.0
 49
0.0
140
0.0
141
0.0
142
1.0
143
1.0
 70
   688
 72
     0
 73
     0
 74
     5
  7

 75
    16
147
1.0
148
0.0
149
0.0
100
AcDbLayout
  1
Layout1
 70
     1
 71
     1
 10
0.0
 20
0.0
 11
12.0
 21
9.0
 12
0.0
 22
0.0
 32
0.0
 14
1.000000000000000E+20
 24
1.000000000000000E+20
 34
1.000000000000000E+20
 15
-1.000000000000000E+20
 25
-1.000000000000000E+20
 35
-1.000000000000000E+20
146
0.0
 13
0.0
 23
0.0
 33
0.0
 16
1.0
 26
0.0
 36
0.0
 17
0.0
 27
1.0
 37
0.0
 76
     0
330
1A
  0
LAYOUT
  5
21
102
{ACAD_REACTORS
330
19
102
}
330
19
100
AcDbPlotSettings
  1

  2
C:\Programme\AutoCAD LT 2002 Deu\plotters\DWF ePlot (optimized for plotting).pc3
  4

  6

 40
0.0
 41
0.0
 42
0.0
 43
0.0
 44
0.0
 45
0.0
 46
0.0
 47
0.0
 48
0.0
 49
0.0
140
0.0
141
0.0
142
1.0
143
1.0
 70
  1712
 72
     0
 73
     0
 74
     0
  7

 75
     0
147
1.0
148
0.0
149
0.0
100
AcDbLayout
  1
Model
 70
     1
 71
     0
 10
0.0
 20
0.0
 11
12.0
 21
9.0
 12
0.0
 22
0.0
 32
0.0
 14
0.0
 24
0.0
 34
0.0
 15
0.0
 25
0.0
 35
0.0
146
0.0
 13
0.0
 23
0.0
 33
0.0
 16
1.0
 26
0.0
 36
0.0
 17
0.0
 27
1.0
 37
0.0
 76
     0
330
1E
  0
MLINESTYLE
  5
17
102
{ACAD_REACTORS
330
16
102
}
330
16
100
AcDbMlineStyle
  2
STANDARD
 70
     0
  3

 62
   256
 51
90.0
 52
90.0
 71
     2
 49
0.5
 62
   256
  6
BYLAYER
 49
-0.5
 62
   256
  6
BYLAYER
  0
ACDBPLACEHOLDER
  5
F
102
{ACAD_REACTORS
330
E
102
}
330
E
  0
DICTIONARYVAR
  5
8A3
102
{ACAD_REACTORS
330
8A2
102
}
330
8A2
100
DictionaryVariables
280
     0
  1
1
  0
ENDSEC
  0
EOF
