  0
SECTION
  2
HEADER
  9
$ACADVER
  1
AC1015
  9
$ACADMAINTVER
 70
    13
  9
$DWGCODEPAGE
  3
ANSI_1252
  9
$INSBASE
 10
0.0
 20
0.0
 30
0.0
  9
$EXTMIN
 10
0.1718999999999937
 20
213.6559999999999
 30
0.0
  9
$EXTMAX
 10
231.8281
 20
392.9959999999998
 30
0.0
  9
$LIMMIN
 10
0.0
 20
0.0
  9
$LIMMAX
 10
12.0
 20
9.0
  9
$ORTHOMODE
 70
     0
  9
$REGENMODE
 70
     1
  9
$FILLMODE
 70
     1
  9
$QTEXTMODE
 70
     0
  9
$MIRRTEXT
 70
     1
  9
$LTSCALE
 40
1.0
  9
$ATTMODE
 70
     1
  9
$TEXTSIZE
 40
0.2
  9
$TRACEWID
 40
0.05
  9
$TEXTSTYLE
  7
Standard
  9
$CLAYER
  8
0
  9
$CELTYPE
  6
Continuous
  9
$CECOLOR
 62
   256
  9
$CELTSCALE
 40
1.0
  9
$DISPSILH
 70
     0
  9
$DIMSCALE
 40
1.0
  9
$DIMASZ
 40
0.18
  9
$DIMEXO
 40
0.0625
  9
$DIMDLI
 40
0.38
  9
$DIMRND
 40
0.0
  9
$DIMDLE
 40
0.0
  9
$DIMEXE
 40
0.18
  9
$DIMTP
 40
0.0
  9
$DIMTM
 40
0.0
  9
$DIMTXT
 40
0.18
  9
$DIMCEN
 40
0.09
  9
$DIMTSZ
 40
0.0
  9
$DIMTOL
 70
     0
  9
$DIMLIM
 70
     0
  9
$DIMTIH
 70
     1
  9
$DIMTOH
 70
     1
  9
$DIMSE1
 70
     0
  9
$DIMSE2
 70
     0
  9
$DIMTAD
 70
     0
  9
$DIMZIN
 70
     0
  9
$DIMBLK
  1

  9
$DIMASO
 70
     1
  9
$DIMSHO
 70
     1
  9
$DIMPOST
  1

  9
$DIMAPOST
  1

  9
$DIMALT
 70
     0
  9
$DIMALTD
 70
     2
  9
$DIMALTF
 40
25.4
  9
$DIMLFAC
 40
1.0
  9
$DIMTOFL
 70
     0
  9
$DIMTVP
 40
0.0
  9
$DIMTIX
 70
     0
  9
$DIMSOXD
 70
     0
  9
$DIMSAH
 70
     0
  9
$DIMBLK1
  1

  9
$DIMBLK2
  1

  9
$DIMSTYLE
  2
Standard
  9
$DIMCLRD
 70
     0
  9
$DIMCLRE
 70
     0
  9
$DIMCLRT
 70
     0
  9
$DIMTFAC
 40
1.0
  9
$DIMGAP
 40
0.09
  9
$DIMJUST
 70
     0
  9
$DIMSD1
 70
     0
  9
$DIMSD2
 70
     0
  9
$DIMTOLJ
 70
     1
  9
$DIMTZIN
 70
     0
  9
$DIMALTZ
 70
     0
  9
$DIMALTTZ
 70
     0
  9
$DIMUPT
 70
     0
  9
$DIMDEC
 70
     4
  9
$DIMTDEC
 70
     4
  9
$DIMALTU
 70
     2
  9
$DIMALTTD
 70
     2
  9
$DIMTXSTY
  7
Standard
  9
$DIMAUNIT
 70
     0
  9
$DIMADEC
 70
     0
  9
$DIMALTRND
 40
0.0
  9
$DIMAZIN
 70
     0
  9
$DIMDSEP
 70
    46
  9
$DIMATFIT
 70
     3
  9
$DIMFRAC
 70
     0
  9
$DIMLDRBLK
  1

  9
$DIMLUNIT
 70
     2
  9
$DIMLWD
 70
    -2
  9
$DIMLWE
 70
    -2
  9
$DIMTMOVE
 70
     0
  9
$LUNITS
 70
     2
  9
$LUPREC
 70
     4
  9
$SKETCHINC
 40
0.1
  9
$FILLETRAD
 40
0.0
  9
$AUNITS
 70
     0
  9
$AUPREC
 70
     0
  9
$MENU
  1
.
  9
$ELEVATION
 40
0.0
  9
$PELEVATION
 40
0.0
  9
$THICKNESS
 40
0.0
  9
$LIMCHECK
 70
     0
  9
$CHAMFERA
 40
0.0
  9
$CHAMFERB
 40
0.0
  9
$CHAMFERC
 40
0.0
  9
$CHAMFERD
 40
0.0
  9
$SKPOLY
 70
     0
  9
$TDCREATE
 40
2455655.880061481
  9
$TDUCREATE
 40
2455655.796728148
  9
$TDUPDATE
 40
2455655.886048530
  9
$TDUUPDATE
 40
2455655.802715196
  9
$TDINDWG
 40
0.0015898032
  9
$TDUSRTIMER
 40
0.0015898032
  9
$USRTIMER
 70
     1
  9
$ANGBASE
 50
0.0
  9
$ANGDIR
 70
     0
  9
$PDMODE
 70
     0
  9
$PDSIZE
 40
0.0
  9
$PLINEWID
 40
0.0
  9
$SPLFRAME
 70
     0
  9
$SPLINETYPE
 70
     6
  9
$SPLINESEGS
 70
     8
  9
$HANDSEED
  5
BE9
  9
$SURFTAB1
 70
     6
  9
$SURFTAB2
 70
     6
  9
$SURFTYPE
 70
     6
  9
$SURFU
 70
     6
  9
$SURFV
 70
     6
  9
$UCSBASE
  2

  9
$UCSNAME
  2

  9
$UCSORG
 10
0.0
 20
0.0
 30
0.0
  9
$UCSXDIR
 10
1.0
 20
0.0
 30
0.0
  9
$UCSYDIR
 10
0.0
 20
1.0
 30
0.0
  9
$UCSORTHOREF
  2

  9
$UCSORTHOVIEW
 70
     1
  9
$UCSORGTOP
 10
0.0
 20
0.0
 30
0.0
  9
$UCSORGBOTTOM
 10
0.0
 20
0.0
 30
0.0
  9
$UCSORGLEFT
 10
0.0
 20
0.0
 30
0.0
  9
$UCSORGRIGHT
 10
0.0
 20
0.0
 30
0.0
  9
$UCSORGFRONT
 10
0.0
 20
0.0
 30
0.0
  9
$UCSORGBACK
 10
0.0
 20
0.0
 30
0.0
  9
$PUCSBASE
  2

  9
$PUCSNAME
  2

  9
$PUCSORG
 10
0.0
 20
0.0
 30
0.0
  9
$PUCSXDIR
 10
1.0
 20
0.0
 30
0.0
  9
$PUCSYDIR
 10
0.0
 20
1.0
 30
0.0
  9
$PUCSORTHOREF
  2

  9
$PUCSORTHOVIEW
 70
     0
  9
$PUCSORGTOP
 10
0.0
 20
0.0
 30
0.0
  9
$PUCSORGBOTTOM
 10
0.0
 20
0.0
 30
0.0
  9
$PUCSORGLEFT
 10
0.0
 20
0.0
 30
0.0
  9
$PUCSORGRIGHT
 10
0.0
 20
0.0
 30
0.0
  9
$PUCSORGFRONT
 10
0.0
 20
0.0
 30
0.0
  9
$PUCSORGBACK
 10
0.0
 20
0.0
 30
0.0
  9
$USERI1
 70
     0
  9
$USERI2
 70
     0
  9
$USERI3
 70
     0
  9
$USERI4
 70
     0
  9
$USERI5
 70
     0
  9
$USERR1
 40
0.0
  9
$USERR2
 40
0.0
  9
$USERR3
 40
0.0
  9
$USERR4
 40
0.0
  9
$USERR5
 40
0.0
  9
$WORLDVIEW
 70
     1
  9
$SHADEDGE
 70
     3
  9
$SHADEDIF
 70
    70
  9
$TILEMODE
 70
     1
  9
$MAXACTVP
 70
    64
  9
$PINSBASE
 10
0.0
 20
0.0
 30
0.0
  9
$PLIMCHECK
 70
     0
  9
$PEXTMIN
 10
1.000000000000000E+20
 20
1.000000000000000E+20
 30
1.000000000000000E+20
  9
$PEXTMAX
 10
-1.000000000000000E+20
 20
-1.000000000000000E+20
 30
-1.000000000000000E+20
  9
$PLIMMIN
 10
0.0
 20
0.0
  9
$PLIMMAX
 10
12.0
 20
9.0
  9
$UNITMODE
 70
     0
  9
$VISRETAIN
 70
     1
  9
$PLINEGEN
 70
     0
  9
$PSLTSCALE
 70
     1
  9
$TREEDEPTH
 70
  3020
  9
$CMLSTYLE
  2
Standard
  9
$CMLJUST
 70
     0
  9
$CMLSCALE
 40
1.0
  9
$PROXYGRAPHICS
 70
     1
  9
$MEASUREMENT
 70
     0
  9
$CELWEIGHT
370
    -1
  9
$ENDCAPS
280
     0
  9
$JOINSTYLE
280
     0
  9
$LWDISPLAY
290
     0
  9
$INSUNITS
 70
     0
  9
$HYPERLINKBASE
  1

  9
$STYLESHEET
  1

  9
$XEDIT
290
     1
  9
$CEPSNTYPE
380
     0
  9
$PSTYLEMODE
290
     1
  9
$FINGERPRINTGUID
  2
{BBA60FD3-9141-403B-89BD-FF5EEF349FBA}
  9
$VERSIONGUID
  2
{D52E6E89-620F-4E83-9700-4E63AD9C4735}
  9
$EXTNAMES
290
     1
  9
$PSVPSCALE
 40
0.0
  9
$OLESTARTUP
290
     0
  0
ENDSEC
  0
SECTION
  2
CLASSES
  0
CLASS
  1
ACDBDICTIONARYWDFLT
  2
AcDbDictionaryWithDefault
  3
AutoCAD 2000
 90
        0
280
     0
281
     0
  0
CLASS
  1
ACDBPLACEHOLDER
  2
AcDbPlaceHolder
  3
AutoCAD 2000
 90
        0
280
     0
281
     0
  0
CLASS
  1
LAYOUT
  2
AcDbLayout
  3
AutoCAD 2000
 90
        0
280
     0
281
     0
  0
CLASS
  1
DICTIONARYVAR
  2
AcDbDictionaryVar
  3
AutoCAD 2000
 90
        0
280
     0
281
     0
  0
ENDSEC
  0
SECTION
  2
TABLES
  0
TABLE
  2
VPORT
  5
8
330
0
100
AcDbSymbolTable
 70
     4
  0
VPORT
  5
BE8
330
8
100
AcDbSymbolTableRecord
100
AcDbViewportTableRecord
  2
*Active
 70
     0
 10
0.0
 20
0.0
 11
1.0
 21
1.0
 12
116.0
 22
303.3259999999998
 13
0.0
 23
0.0
 14
1.0
 24
1.0
 15
0.0
 25
0.0
 16
0.0
 26
0.0
 36
1.0
 17
0.0
 27
0.0
 37
0.0
 40
180.5531228861329
 41
2.073363431151241
 42
50.0
 43
0.0
 44
0.0
 50
0.0
 51
0.0
 71
     0
 72
   100
 73
     1
 74
     3
 75
     0
 76
     0
 77
     0
 78
     0
281
     0
 65
     1
110
0.0
120
0.0
130
0.0
111
1.0
121
0.0
131
0.0
112
0.0
122
1.0
132
0.0
 79
     1
146
0.0
  0
ENDTAB
  0
TABLE
  2
LTYPE
  5
5
330
0
100
AcDbSymbolTable
 70
     1
  0
LTYPE
  5
13
330
5
100
AcDbSymbolTableRecord
100
AcDbLinetypeTableRecord
  2
ByBlock
 70
     0
  3

 72
    65
 73
     0
 40
0.0
  0
LTYPE
  5
14
330
5
100
AcDbSymbolTableRecord
100
AcDbLinetypeTableRecord
  2
ByLayer
 70
     0
  3

 72
    65
 73
     0
 40
0.0
  0
LTYPE
  5
15
330
5
100
AcDbSymbolTableRecord
100
AcDbLinetypeTableRecord
  2
Continuous
 70
     0
  3
Solid line
 72
    65
 73
     0
 40
0.0
  0
ENDTAB
  0
TABLE
  2
LAYER
  5
2
330
0
100
AcDbSymbolTable
 70
     1
  0
LAYER
  5
10
330
2
100
AcDbSymbolTableRecord
100
AcDbLayerTableRecord
  2
0
 70
     0
 62
     7
  6
Continuous
370
    -3
390
F
  0
ENDTAB
  0
TABLE
  2
STYLE
  5
3
330
0
100
AcDbSymbolTable
 70
     1
  0
STYLE
  5
11
330
3
100
AcDbSymbolTableRecord
100
AcDbTextStyleTableRecord
  2
Standard
 70
     0
 40
0.0
 41
1.0
 50
0.0
 71
     0
 42
0.2
  3
txt
  4

  0
ENDTAB
  0
TABLE
  2
VIEW
  5
6
330
0
100
AcDbSymbolTable
 70
     0
  0
ENDTAB
  0
TABLE
  2
UCS
  5
7
330
0
100
AcDbSymbolTable
 70
     0
  0
ENDTAB
  0
TABLE
  2
APPID
  5
9
330
0
100
AcDbSymbolTable
 70
     1
  0
APPID
  5
12
330
9
100
AcDbSymbolTableRecord
100
AcDbRegAppTableRecord
  2
ACAD
 70
     0
  0
ENDTAB
  0
TABLE
  2
DIMSTYLE
  5
A
330
0
100
AcDbSymbolTable
 70
     1
100
AcDbDimStyleTable
 71
     0
  0
DIMSTYLE
105
5C6
330
A
100
AcDbSymbolTableRecord
100
AcDbDimStyleTableRecord
  2
Standard
 70
     0
340
11
  0
ENDTAB
  0
TABLE
  2
BLOCK_RECORD
  5
1
330
0
100
AcDbSymbolTable
 70
     0
  0
BLOCK_RECORD
  5
1E
330
1
100
AcDbSymbolTableRecord
100
AcDbBlockTableRecord
  2
*Model_Space
340
21
  0
BLOCK_RECORD
  5
1A
330
1
100
AcDbSymbolTableRecord
100
AcDbBlockTableRecord
  2
*Paper_Space
340
1D
  0
ENDTAB
  0
ENDSEC
  0
SECTION
  2
BLOCKS
  0
BLOCK
  5
1F
330
1E
100
AcDbEntity
  8
0
100
AcDbBlockBegin
  2
*Model_Space
 70
     0
 10
0.0
 20
0.0
 30
0.0
  3
*Model_Space
  1

  0
ENDBLK
  5
20
330
1E
100
AcDbEntity
  8
0
100
AcDbBlockEnd
  0
BLOCK
  5
1B
330
1A
100
AcDbEntity
 67
     1
  8
0
100
AcDbBlockBegin
  2
*Paper_Space
 70
     0
 10
0.0
 20
0.0
 30
0.0
  3
*Paper_Space
  1

  0
ENDBLK
  5
1C
330
1A
100
AcDbEntity
 67
     1
  8
0
100
AcDbBlockEnd
  0
ENDSEC
  0
SECTION
  2
ENTITIES
  0
LINE
  5
22
330
1E
100
AcDbEntity
  8
0
100
AcDbLine
 10
163.1280999999999
 20
213.6559999999999
 30
0.0
 11
166.5281
 21
213.6559999999999
 31
0.0
  0
LINE
  5
23
330
1E
100
AcDbEntity
  8
0
100
AcDbLine
 10
166.5281
 20
213.6559999999999
 30
0.0
 11
171.8281
 21
213.6559999999999
 31
0.0
  0
LINE
  5
24
330
1E
100
AcDbEntity
  8
0
100
AcDbLine
 10
166.5281
 20
213.6559999999999
 30
0.0
 11
172.1280999999999
 21
213.6559999999999
 31
0.0
  0
LINE
  5
25
330
1E
100
AcDbEntity
  8
0
100
AcDbLine
 10
166.4481
 20
213.6559999999999
 30
0.0
 11
171.8281
 21
213.6559999999999
 31
0.0
  0
LINE
  5
26
330
1E
100
AcDbEntity
  8
0
100
AcDbLine
 10
163.0881
 20
213.6559999999999
 30
0.0
 11
166.4481
 21
213.6559999999999
 31
0.0
  0
LINE
  5
2C7
330
1E
100
AcDbEntity
  8
0
100
AcDbLine
 10
161.8281
 20
213.6559999999999
 30
0.0
 11
163.0881
 21
213.6559999999999
 31
0.0
  0
LINE
  5
2CA
330
1E
100
AcDbEntity
  8
0
100
AcDbLine
 10
161.8281
 20
213.6559999999999
 30
0.0
 11
163.1280999999999
 21
213.6559999999999
 31
0.0
  0
LINE
  5
2D9
330
1E
100
AcDbEntity
  8
0
100
AcDbLine
 10
171.8281
 20
213.6559999999999
 30
0.0
 11
172.7281
 21
213.6559999999999
 31
0.0
  0
LINE
  5
330
330
1E
100
AcDbEntity
  8
0
100
AcDbLine
 10
172.7281
 20
213.6559999999999
 30
0.0
 11
175.1280999999999
 21
213.6559999999999
 31
0.0
  0
LINE
  5
331
330
1E
100
AcDbEntity
  8
0
100
AcDbLine
 10
175.1280999999999
 20
213.6559999999999
 30
0.0
 11
179.1280999999999
 21
213.6559999999999
 31
0.0
  0
LINE
  5
332
330
1E
100
AcDbEntity
  8
0
100
AcDbLine
 10
179.1280999999999
 20
213.6559999999999
 30
0.0
 11
184.4281
 21
213.6559999999999
 31
0.0
  0
LINE
  5
344
330
1E
100
AcDbEntity
  8
0
100
AcDbLine
 10
184.4281
 20
213.6559999999999
 30
0.0
 11
190.4281
 21
213.6559999999999
 31
0.0
  0
LINE
  5
362
330
1E
100
AcDbEntity
  8
0
100
AcDbLine
 10
172.1280999999999
 20
213.6559999999999
 30
0.0
 11
179.4280999999999
 21
213.6559999999999
 31
0.0
  0
LINE
  5
363
330
1E
100
AcDbEntity
  8
0
100
AcDbLine
 10
179.4280999999999
 20
213.6559999999999
 30
0.0
 11
187.8281
 21
213.6559999999999
 31
0.0
  0
LINE
  5
3FC
330
1E
100
AcDbEntity
  8
0
100
AcDbLine
 10
190.4281
 20
213.6559999999999
 30
0.0
 11
196.8281
 21
213.6559999999999
 31
0.0
  0
LINE
  5
438
330
1E
100
AcDbEntity
  8
0
100
AcDbLine
 10
203.2281
 20
213.6559999999999
 30
0.0
 11
209.2281
 21
213.6559999999999
 31
0.0
  0
LINE
  5
47B
330
1E
100
AcDbEntity
  8
0
100
AcDbLine
 10
209.2281
 20
213.6559999999999
 30
0.0
 11
214.5281
 21
213.6559999999999
 31
0.0
  0
LINE
  5
4A5
330
1E
100
AcDbEntity
  8
0
100
AcDbLine
 10
220.9281
 20
213.6559999999999
 30
0.0
 11
221.8281
 21
213.6559999999999
 31
0.0
  0
LINE
  5
4A6
330
1E
100
AcDbEntity
  8
0
100
AcDbLine
 10
218.5280999999999
 20
213.6559999999999
 30
0.0
 11
220.9281
 21
213.6559999999999
 31
0.0
  0
LINE
  5
4A7
330
1E
100
AcDbEntity
  8
0
100
AcDbLine
 10
214.5281
 20
213.6559999999999
 30
0.0
 11
218.5280999999999
 21
213.6559999999999
 31
0.0
  0
LINE
  5
4BA
330
1E
100
AcDbEntity
  8
0
100
AcDbLine
 10
221.5281
 20
213.6559999999999
 30
0.0
 11
227.1281
 21
213.6559999999999
 31
0.0
  0
LINE
  5
4BB
330
1E
100
AcDbEntity
  8
0
100
AcDbLine
 10
214.2281
 20
213.6559999999999
 30
0.0
 11
221.5281
 21
213.6559999999999
 31
0.0
  0
LINE
  5
4BC
330
1E
100
AcDbEntity
  8
0
100
AcDbLine
 10
205.8281
 20
213.6559999999999
 30
0.0
 11
214.2281
 21
213.6559999999999
 31
0.0
  0
LINE
  5
4BD
330
1E
100
AcDbEntity
  8
0
100
AcDbLine
 10
196.8281
 20
213.6559999999999
 30
0.0
 11
205.8281
 21
213.6559999999999
 31
0.0
  0
LINE
  5
4BE
330
1E
100
AcDbEntity
  8
0
100
AcDbLine
 10
196.8281
 20
213.6559999999999
 30
0.0
 11
203.2281
 21
213.6559999999999
 31
0.0
  0
LINE
  5
4BF
330
1E
100
AcDbEntity
  8
0
100
AcDbLine
 10
187.8281
 20
213.6559999999999
 30
0.0
 11
196.8281
 21
213.6559999999999
 31
0.0
  0
LINE
  5
4C0
330
1E
100
AcDbEntity
  8
0
100
AcDbLine
 10
221.8281
 20
213.6559999999999
 30
0.0
 11
222.8680999999999
 21
213.6559999999999
 31
0.0
  0
LINE
  5
4C1
330
1E
100
AcDbEntity
  8
0
100
AcDbLine
 10
221.8281
 20
213.6559999999999
 30
0.0
 11
227.2081
 21
213.6559999999999
 31
0.0
  0
LINE
  5
4C2
330
1E
100
AcDbEntity
  8
0
100
AcDbLine
 10
221.8281
 20
213.6559999999999
 30
0.0
 11
227.1281
 21
213.6559999999999
 31
0.0
  0
LINE
  5
4C4
330
1E
100
AcDbEntity
  8
0
100
AcDbLine
 10
227.1281
 20
213.6559999999999
 30
0.0
 11
230.5280999999999
 21
213.6559999999999
 31
0.0
  0
LINE
  5
4C6
330
1E
100
AcDbEntity
  8
0
100
AcDbLine
 10
230.5280999999999
 20
213.6559999999999
 30
0.0
 11
231.8281
 21
213.6559999999999
 31
0.0
  0
LINE
  5
4C7
330
1E
100
AcDbEntity
  8
0
100
AcDbLine
 10
227.2081
 20
213.6559999999999
 30
0.0
 11
230.5680999999999
 21
213.6559999999999
 31
0.0
  0
LINE
  5
4C8
330
1E
100
AcDbEntity
  8
0
100
AcDbLine
 10
230.5680999999999
 20
213.6559999999999
 30
0.0
 11
231.8281
 21
213.6559999999999
 31
0.0
  0
LINE
  5
4C9
330
1E
100
AcDbEntity
  8
0
100
AcDbLine
 10
222.8680999999999
 20
213.6559999999999
 30
0.0
 11
225.7480999999999
 21
213.6559999999999
 31
0.0
  0
LINE
  5
4CA
330
1E
100
AcDbEntity
  8
0
100
AcDbLine
 10
225.7480999999999
 20
213.6559999999999
 30
0.0
 11
226.8280999999999
 21
213.6559999999999
 31
0.0
  0
LINE
  5
4CB
330
1E
100
AcDbEntity
  8
0
100
AcDbLine
 10
170.7880999999999
 20
213.6559999999999
 30
0.0
 11
171.8281
 21
213.6559999999999
 31
0.0
  0
LINE
  5
5C4
330
1E
100
AcDbEntity
  8
0
100
AcDbLine
 10
167.9081
 20
213.6559999999999
 30
0.0
 11
170.7880999999999
 21
213.6559999999999
 31
0.0
  0
LINE
  5
5C5
330
1E
100
AcDbEntity
  8
0
100
AcDbLine
 10
166.8281
 20
213.6559999999999
 30
0.0
 11
167.9081
 21
213.6559999999999
 31
0.0
  0
LINE
  5
8D6
330
1E
100
AcDbEntity
  8
0
100
AcDbLine
 10
94.21725718135645
 20
354.0499999999998
 30
0.0
 11
146.0960999999999
 21
354.0499999999998
 31
0.0
  0
LINE
  5
8D7
330
1E
100
AcDbEntity
  8
0
100
AcDbLine
 10
56.27083379279878
 20
373.6559999999999
 30
0.0
 11
147.6010999999999
 21
373.6559999999999
 31
0.0
  0
LINE
  5
8D8
330
1E
100
AcDbEntity
  8
0
100
AcDbLine
 10
94.21725718135633
 20
354.0499999999998
 30
0.0
 11
146.0960999999999
 21
354.0499999999998
 31
0.0
  0
LINE
  5
8D9
330
1E
100
AcDbEntity
  8
0
100
AcDbLine
 10
113.7600999999999
 20
336.3259999999999
 30
0.0
 11
177.9891
 21
259.7864999999999
 31
0.0
  0
LINE
  5
8DA
330
1E
100
AcDbEntity
  8
0
100
AcDbLine
 10
102.8750999999999
 20
311.9667999999999
 30
0.0
 11
159.6581
 21
244.3047999999999
 31
0.0
  0
LINE
  5
8DB
330
1E
100
AcDbEntity
  8
0
100
AcDbLine
 10
49.02960000000001
 20
374.8579999999998
 30
0.0
 11
54.78499999999996
 21
372.174
 31
0.0
  0
LINE
  5
8DC
330
1E
100
AcDbEntity
  8
0
100
AcDbLine
 10
48.54079999999999
 20
373.9829999999998
 30
0.0
 11
54.36239999999997
 21
371.2679999999999
 31
0.0
  0
LINE
  5
8DD
330
1E
100
AcDbEntity
  8
0
100
AcDbLine
 10
10.1311
 20
392.9959999999998
 30
0.0
 11
55.6302
 21
373.9869999999999
 31
0.0
  0
LINE
  5
8DE
330
1E
100
AcDbEntity
  8
0
100
AcDbLine
 10
51.30889999999999
 20
349.5209999999999
 30
0.0
 11
57.19659999999999
 21
346.7759999999999
 31
0.0
  0
LINE
  5
8DF
330
1E
100
AcDbEntity
  8
0
100
AcDbLine
 10
50.82019999999999
 20
348.6449999999998
 30
0.0
 11
56.3109
 21
346.0849999999997
 31
0.0
  0
LINE
  5
8E0
330
1E
100
AcDbEntity
  8
0
100
AcDbLine
 10
51.77330000000001
 20
344.8909999999999
 30
0.0
 11
52.43479999999999
 21
344.5819999999999
 31
0.0
  0
LINE
  5
8E1
330
1E
100
AcDbEntity
  8
0
100
AcDbLine
 10
51.28910000000002
 20
345.1159999999998
 30
0.0
 11
52.43479999999999
 21
344.5819999999999
 31
0.0
  0
LINE
  5
8E2
330
1E
100
AcDbEntity
  8
0
100
AcDbLine
 10
51.6515
 20
346.0499999999998
 30
0.0
 11
52.97449999999997
 21
345.4339999999999
 31
0.0
  0
LINE
  5
8E3
330
1E
100
AcDbEntity
  8
0
100
AcDbLine
 10
51.95510000000002
 20
345.3569999999999
 30
0.0
 11
52.1664236825232
 21
345.8102471742749
 31
0.0
  0
LINE
  5
8E4
330
1E
100
AcDbEntity
  8
0
100
AcDbLine
 10
51.95510000000002
 20
345.3569999999999
 30
0.0
 11
53.2783
 21
344.7399999999999
 31
0.0
  0
LINE
  5
8E5
330
1E
100
AcDbEntity
  8
0
100
AcDbLine
 10
0.1718999999999937
 20
373.3669999999999
 30
0.0
 11
9.046899999999993
 21
392.3989999999998
 31
0.0
  0
LINE
  5
8E6
330
1E
100
AcDbEntity
  8
0
100
AcDbLine
 10
0.1719000000000506
 20
373.3669999999999
 30
0.0
 11
9.046899999999993
 21
392.3989999999998
 31
0.0
  0
LINE
  5
8E7
330
1E
100
AcDbEntity
  8
0
100
AcDbLine
 10
6.258100000000013
 20
370.5279999999999
 30
0.0
 11
9.565899999999999
 21
368.9859999999999
 31
0.0
  0
LINE
  5
8E8
330
1E
100
AcDbEntity
  8
0
100
AcDbLine
 10
6.364800000000002
 20
369.3749999999998
 30
0.0
 11
9.672400000000038
 21
367.8329999999998
 31
0.0
  0
LINE
  5
8E9
330
1E
100
AcDbEntity
  8
0
100
AcDbLine
 10
8.084800000000029
 20
368.5729999999998
 30
0.0
 11
11.26019999999999
 21
367.0919999999999
 31
0.0
  0
LINE
  5
8EA
330
1E
100
AcDbEntity
  8
0
100
AcDbLine
 10
8.504600000000039
 20
367.2739999999998
 30
0.0
 11
8.707502428412396
 21
367.7089966875098
 31
0.0
  0
LINE
  5
8EB
330
1E
100
AcDbEntity
  8
0
100
AcDbLine
 10
8.504600000000039
 20
367.2739999999998
 30
0.0
 11
9.166100000000028
 21
366.9649999999998
 31
0.0
  0
LINE
  5
8EC
330
1E
100
AcDbEntity
  8
0
100
AcDbLine
 10
8.504600000000039
 20
367.2739999999998
 30
0.0
 11
8.900219719616529
 21
368.1221577519459
 31
0.0
  0
LINE
  5
8ED
330
1E
100
AcDbEntity
  8
0
100
AcDbLine
 10
7.198245323016919
 20
368.5499441204799
 30
0.0
 11
8.707502428412396
 21
367.7089966875098
 31
0.0
  0
LINE
  5
8EE
330
1E
100
AcDbEntity
  8
0
100
AcDbLine
 10
7.198245323016919
 20
368.5499441204799
 30
0.0
 11
8.707502428412396
 21
367.7089966875098
 31
0.0
  0
LINE
  5
8EF
330
1E
100
AcDbEntity
  8
0
100
AcDbLine
 10
6.942800000000033
 20
368.0019999999999
 30
0.0
 11
7.304849037171948
 21
368.7786148892479
 31
0.0
  0
LINE
  5
8F0
330
1E
100
AcDbEntity
  8
0
100
AcDbLine
 10
5.135400000000004
 20
368.8449999999998
 30
0.0
 11
6.100700000080166
 21
368.3951612705799
 31
0.0
  0
LINE
  5
8F1
330
1E
100
AcDbEntity
  8
0
100
AcDbLine
 10
5.135400000000004
 20
368.8449999999998
 30
0.0
 11
6.10070000008028
 21
368.3951612705799
 31
0.0
  0
LINE
  5
8F2
330
1E
100
AcDbEntity
  8
0
100
AcDbLine
 10
5.796899999999993
 20
368.5369999999999
 30
0.0
 11
6.942800000000033
 21
368.0019999999999
 31
0.0
  0
LINE
  5
8F3
330
1E
100
AcDbEntity
  8
0
100
AcDbLine
 10
5.756316957583351
 20
368.5556469540538
 30
0.0
 11
6.083100000000001
 21
368.4029999999999
 31
0.0
  0
LINE
  5
8F4
330
1E
100
AcDbEntity
  8
0
100
AcDbLine
 10
5.756316957583408
 20
368.5556469540538
 30
0.0
 11
6.083100000000001
 21
368.4029999999999
 31
0.0
  0
LINE
  5
8F5
330
1E
100
AcDbEntity
  8
0
100
AcDbLine
 10
7.22890000000001
 20
367.8689999999999
 30
0.0
 11
7.474701592997405
 21
368.3959046332798
 31
0.0
  0
LINE
  5
8F6
330
1E
100
AcDbEntity
  8
0
100
AcDbLine
 10
6.942929019174584
 20
368.0022767531507
 30
0.0
 11
7.22890000000001
 21
367.8689999999999
 31
0.0
  0
LINE
  5
8F7
330
1E
100
AcDbEntity
  8
0
100
AcDbLine
 10
6.56740000000002
 20
368.177
 30
0.0
 11
6.777438071081974
 21
368.0792044960039
 31
0.0
  0
LINE
  5
8F8
330
1E
100
AcDbEntity
  8
0
100
AcDbLine
 10
6.56740000000002
 20
368.177
 30
0.0
 11
6.777438071081974
 21
368.0792044960039
 31
0.0
  0
LINE
  5
8F9
330
1E
100
AcDbEntity
  8
0
100
AcDbLine
 10
6.942880662276024
 20
368.0021730249718
 30
0.0
 11
7.22890000000001
 21
367.8689999999999
 31
0.0
  0
LINE
  5
8FA
330
1E
100
AcDbEntity
  8
0
100
AcDbLine
 10
6.083100000000001
 20
368.4029999999999
 30
0.0
 11
6.537895752501924
 21
368.19104247527
 31
0.0
  0
LINE
  5
8FB
330
1E
100
AcDbEntity
  8
0
100
AcDbLine
 10
6.083100000000001
 20
368.4029999999999
 30
0.0
 11
6.537895752501867
 21
368.19104247527
 31
0.0
  0
LINE
  5
8FC
330
1E
100
AcDbEntity
  8
0
100
AcDbLine
 10
6.232799999977373
 20
368.3332323267689
 30
0.0
 11
6.56740000000002
 21
368.177
 31
0.0
  0
LINE
  5
8FD
330
1E
100
AcDbEntity
  8
0
100
AcDbLine
 10
6.232799999977544
 20
368.3332323267689
 30
0.0
 11
6.56740000000002
 21
368.177
 31
0.0
  0
LINE
  5
8FE
330
1E
100
AcDbEntity
  8
0
100
AcDbLine
 10
1.825800000000015
 20
372.5949999999997
 30
0.0
 11
3.678100000000029
 21
371.7309999999999
 31
0.0
  0
LINE
  5
8FF
330
1E
100
AcDbEntity
  8
0
100
AcDbLine
 10
1.99860000000001
 20
371.4109999999999
 30
0.0
 11
3.91700000000003
 21
370.5159999999999
 31
0.0
  0
LINE
  5
900
330
1E
100
AcDbEntity
  8
0
100
AcDbLine
 10
2.397348561972023
 20
371.2249699942839
 30
0.0
 11
3.743661330239547
 21
370.4748139987268
 31
0.0
  0
LINE
  5
901
330
1E
100
AcDbEntity
  8
0
100
AcDbLine
 10
2.397348561972023
 20
371.2249699942839
 30
0.0
 11
3.743661330239547
 21
370.4748139987268
 31
0.0
  0
LINE
  5
902
330
1E
100
AcDbEntity
  8
0
100
AcDbLine
 10
0.1718999999999937
 20
373.3669999999999
 30
0.0
 11
0.6350000000000478
 21
373.1499999999998
 31
0.0
  0
LINE
  5
903
330
1E
100
AcDbEntity
  8
0
100
AcDbLine
 10
0.1718999999999937
 20
373.3669999999999
 30
0.0
 11
0.6350000000000478
 21
373.1499999999998
 31
0.0
  0
LINE
  5
904
330
1E
100
AcDbEntity
  8
0
100
AcDbLine
 10
0.4107999999999948
 20
372.1519999999999
 30
0.0
 11
0.8740000000000236
 21
371.9349999999998
 31
0.0
  0
LINE
  5
905
330
1E
100
AcDbEntity
  8
0
100
AcDbLine
 10
0.1718999999999937
 20
373.3669999999999
 30
0.0
 11
0.4107999999999948
 21
372.1519999999999
 31
0.0
  0
LINE
  5
906
330
1E
100
AcDbEntity
  8
0
100
AcDbLine
 10
0.6350000000000478
 20
373.1499999999998
 30
0.0
 11
1.825800000000015
 21
372.5949999999997
 31
0.0
  0
LINE
  5
907
330
1E
100
AcDbEntity
  8
0
100
AcDbLine
 10
1.99860000000001
 20
371.4109999999999
 30
0.0
 11
2.397348561972023
 21
371.2249699942839
 31
0.0
  0
LINE
  5
908
330
1E
100
AcDbEntity
  8
0
100
AcDbLine
 10
0.8740000000000236
 20
371.9349999999998
 30
0.0
 11
1.99860000000001
 21
371.4109999999999
 31
0.0
  0
LINE
  5
909
330
1E
100
AcDbEntity
  8
0
100
AcDbLine
 10
3.678100000000029
 20
371.7309999999999
 30
0.0
 11
6.258100000000013
 21
370.5279999999999
 31
0.0
  0
LINE
  5
90A
330
1E
100
AcDbEntity
  8
0
100
AcDbLine
 10
3.91700000000003
 20
370.5159999999999
 30
0.0
 11
6.364800000000002
 21
369.3749999999998
 31
0.0
  0
LINE
  5
90B
330
1E
100
AcDbEntity
  8
0
100
AcDbLine
 10
5.796899999999993
 20
368.5369999999999
 30
0.0
 11
6.200751641591807
 21
369.4027035071148
 31
0.0
  0
LINE
  5
90C
330
1E
100
AcDbEntity
  8
0
100
AcDbLine
 10
5.135400000000004
 20
368.8449999999998
 30
0.0
 11
5.796899999999993
 21
368.5369999999999
 31
0.0
  0
LINE
  5
90D
330
1E
100
AcDbEntity
  8
0
100
AcDbLine
 10
5.135400000000004
 20
368.8449999999998
 30
0.0
 11
5.557878674288474
 21
369.7511325404999
 31
0.0
  0
LINE
  5
90E
330
1E
100
AcDbEntity
  8
0
100
AcDbLine
 10
5.17532767830562
 20
368.8260593644478
 30
0.0
 11
5.252700000000004
 21
368.7899999999998
 31
0.0
  0
LINE
  5
90F
330
1E
100
AcDbEntity
  8
0
100
AcDbLine
 10
4.029500000000041
 20
369.3609999999998
 30
0.0
 11
5.175299999999992
 21
368.8259999999999
 31
0.0
  0
LINE
  5
910
330
1E
100
AcDbEntity
  8
0
100
AcDbLine
 10
4.029500000000041
 20
369.3609999999998
 30
0.0
 11
4.399096281992115
 21
370.1533668515968
 31
0.0
  0
LINE
  5
911
330
1E
100
AcDbEntity
  8
0
100
AcDbLine
 10
4.106899999999995
 20
369.3239999999999
 30
0.0
 11
5.092500000063296
 21
368.8646611973867
 31
0.0
  0
LINE
  5
912
330
1E
100
AcDbEntity
  8
0
100
AcDbLine
 10
4.106899999999995
 20
369.3239999999999
 30
0.0
 11
5.092500000063353
 21
368.8646611973867
 31
0.0
  0
LINE
  5
913
330
1E
100
AcDbEntity
  8
0
100
AcDbLine
 10
3.367999999999994
 20
369.6689999999999
 30
0.0
 11
4.412797006339019
 21
369.1820299368199
 31
0.0
  0
LINE
  5
914
330
1E
100
AcDbEntity
  8
0
100
AcDbLine
 10
3.367999999999994
 20
369.6689999999999
 30
0.0
 11
4.412797006338962
 21
369.1820299368199
 31
0.0
  0
LINE
  5
915
330
1E
100
AcDbEntity
  8
0
100
AcDbLine
 10
3.367999999999994
 20
369.6689999999999
 30
0.0
 11
4.029500000000041
 21
369.3609999999998
 31
0.0
  0
LINE
  5
916
330
1E
100
AcDbEntity
  8
0
100
AcDbLine
 10
3.367999999999994
 20
369.6689999999999
 30
0.0
 11
3.75873206995584
 21
370.5071415556428
 31
0.0
  0
LINE
  5
917
330
1E
100
AcDbEntity
  8
0
100
AcDbLine
 10
3.518645674760307
 20
369.5987854671189
 30
0.0
 11
4.106899999999995
 21
369.3239999999999
 31
0.0
  0
LINE
  5
918
330
1E
100
AcDbEntity
  8
0
100
AcDbLine
 10
3.518645674760307
 20
369.5987854671189
 30
0.0
 11
4.106899999999995
 21
369.3239999999999
 31
0.0
  0
LINE
  5
919
330
1E
100
AcDbEntity
  8
0
100
AcDbLine
 10
7.583389473919794
 20
368.8068947367319
 30
0.0
 11
8.084800000000029
 21
368.5729999999998
 31
0.0
  0
LINE
  5
91A
330
1E
100
AcDbEntity
  8
0
100
AcDbLine
 10
7.583389473919964
 20
368.8068947367319
 30
0.0
 11
8.084800000000029
 21
368.5729999999998
 31
0.0
  0
LINE
  5
91B
330
1E
100
AcDbEntity
  8
0
100
AcDbLine
 10
9.565899999999999
 20
368.9859999999999
 30
0.0
 11
13.46879999999998
 21
367.1659999999999
 31
0.0
  0
LINE
  5
91C
330
1E
100
AcDbEntity
  8
0
100
AcDbLine
 10
23.14019999999999
 20
354.2149999999998
 30
0.0
 11
34.16410000000002
 21
354.2049999999998
 31
0.0
  0
LINE
  5
91D
330
1E
100
AcDbEntity
  8
0
100
AcDbLine
 10
30.30259999999998
 20
355.4549999999998
 30
0.0
 11
30.56583590527703
 21
356.0192771328069
 31
0.0
  0
LINE
  5
91E
330
1E
100
AcDbEntity
  8
0
100
AcDbLine
 10
30.30259999999998
 20
355.4549999999998
 30
0.0
 11
30.644312976354
 21
356.1875019675297
 31
0.0
  0
LINE
  5
91F
330
1E
100
AcDbEntity
  8
0
100
AcDbLine
 10
28.15499999999997
 20
360.3179999999998
 30
0.0
 11
33.77819999999997
 21
357.6949999999998
 31
0.0
  0
LINE
  5
920
330
1E
100
AcDbEntity
  8
0
100
AcDbLine
 10
27.99700000000001
 20
359.2879999999999
 30
0.0
 11
33.8186
 21
356.5729999999998
 31
0.0
  0
LINE
  5
921
330
1E
100
AcDbEntity
  8
0
100
AcDbLine
 10
19.05231567341547
 20
359.1003549480059
 30
0.0
 11
19.65100000000001
 21
358.0029999999999
 31
0.0
  0
LINE
  5
922
330
1E
100
AcDbEntity
  8
0
100
AcDbLine
 10
19.13249999999999
 20
363.4209999999999
 30
0.0
 11
23.82929999999999
 21
361.2309999999999
 31
0.0
  0
LINE
  5
923
330
1E
100
AcDbEntity
  8
0
100
AcDbLine
 10
18.96429999999998
 20
362.3969999999999
 30
0.0
 11
20.28750000000002
 21
361.7799999999998
 31
0.0
  0
LINE
  5
924
330
1E
100
AcDbEntity
  8
0
100
AcDbLine
 10
19.50400000000001
 20
361.0419999999999
 30
0.0
 11
20.16559999999998
 21
360.7329999999998
 31
0.0
  0
LINE
  5
925
330
1E
100
AcDbEntity
  8
0
100
AcDbLine
 10
19.50400000000001
 20
361.0419999999999
 30
0.0
 11
19.82708076030138
 21
361.7346435608919
 31
0.0
  0
LINE
  5
926
330
1E
100
AcDbEntity
  8
0
100
AcDbLine
 10
17.96730000000002
 20
365.0679999999998
 30
0.0
 11
22.92889999999999
 21
362.7549999999998
 31
0.0
  0
LINE
  5
927
330
1E
100
AcDbEntity
  8
0
100
AcDbLine
 10
17.9418
 20
363.9769999999999
 30
0.0
 11
22.83719999999999
 21
361.6939999999999
 31
0.0
  0
LINE
  5
928
330
1E
100
AcDbEntity
  8
0
100
AcDbLine
 10
17.12642209738658
 20
363.0953431619319
 30
0.0
 11
19.80338348040419
 21
361.6838396432709
 31
0.0
  0
LINE
  5
929
330
1E
100
AcDbEntity
  8
0
100
AcDbLine
 10
17.12642209738658
 20
363.0953431619319
 30
0.0
 11
19.80338348040419
 21
361.6838396432709
 31
0.0
  0
LINE
  5
92A
330
1E
100
AcDbEntity
  8
0
100
AcDbLine
 10
13.46879999999998
 20
367.1659999999999
 30
0.0
 11
17.96730000000002
 21
365.0679999999998
 31
0.0
  0
LINE
  5
92B
330
1E
100
AcDbEntity
  8
0
100
AcDbLine
 10
13.50940000000002
 20
366.0429999999998
 30
0.0
 11
17.9418
 21
363.9769999999999
 31
0.0
  0
LINE
  5
92C
330
1E
100
AcDbEntity
  8
0
100
AcDbLine
 10
13.80770447765468
 20
364.2498675239418
 30
0.0
 11
14.1164
 21
364.1059999999999
 31
0.0
  0
LINE
  5
92D
330
1E
100
AcDbEntity
  8
0
100
AcDbLine
 10
13.8076439490211
 20
364.2497377020879
 30
0.0
 11
14.1164
 21
364.1059999999999
 31
0.0
  0
LINE
  5
92E
330
1E
100
AcDbEntity
  8
0
100
AcDbLine
 10
12.85739999999998
 20
365.2439999999999
 30
0.0
 11
14.18060000000002
 21
364.6269999999999
 31
0.0
  0
LINE
  5
92F
330
1E
100
AcDbEntity
  8
0
100
AcDbLine
 10
11.26019999999999
 20
367.0919999999999
 30
0.0
 11
12.11802429789059
 21
366.6920910885518
 31
0.0
  0
LINE
  5
930
330
1E
100
AcDbEntity
  8
0
100
AcDbLine
 10
11.26019999999999
 20
367.0919999999999
 30
0.0
 11
12.11802429789088
 21
366.6920910885518
 31
0.0
  0
LINE
  5
931
330
1E
100
AcDbEntity
  8
0
100
AcDbLine
 10
10.45401787523769
 20
366.7358505771478
 30
0.0
 11
12.28955166225381
 21
365.71310407438
 31
0.0
  0
LINE
  5
932
330
1E
100
AcDbEntity
  8
0
100
AcDbLine
 10
11.12369999999998
 20
365.5009999999998
 30
0.0
 11
12.00022996163761
 21
365.0924932802279
 31
0.0
  0
LINE
  5
933
330
1E
100
AcDbEntity
  8
0
100
AcDbLine
 10
11.12369999999998
 20
365.5009999999998
 30
0.0
 11
11.7853
 21
365.1929999999998
 31
0.0
  0
LINE
  5
934
330
1E
100
AcDbEntity
  8
0
100
AcDbLine
 10
11.12369999999998
 20
365.5009999999998
 30
0.0
 11
11.45441647074511
 21
366.2104048289879
 31
0.0
  0
LINE
  5
935
330
1E
100
AcDbEntity
  8
0
100
AcDbLine
 10
9.672400000000038
 20
367.8329999999998
 30
0.0
 11
13.50940000000002
 21
366.0429999999998
 31
0.0
  0
LINE
  5
936
330
1E
100
AcDbEntity
  8
0
100
AcDbLine
 10
10.31189999999998
 20
366.4309999999999
 30
0.0
 11
10.45401787523769
 21
366.7358505771478
 31
0.0
  0
LINE
  5
937
330
1E
100
AcDbEntity
  8
0
100
AcDbLine
 10
10.31189999999998
 20
366.4309999999999
 30
0.0
 11
10.45401787523769
 21
366.7358505771478
 31
0.0
  0
LINE
  5
938
330
1E
100
AcDbEntity
  8
0
100
AcDbLine
 10
10.31189999999998
 20
366.4309999999999
 30
0.0
 11
10.6494323272903
 21
367.1550252122298
 31
0.0
  0
LINE
  5
939
330
1E
100
AcDbEntity
  8
0
100
AcDbLine
 10
9.166100000000028
 20
366.9649999999998
 30
0.0
 11
10.31189999999998
 21
366.4309999999999
 31
0.0
  0
LINE
  5
93A
330
1E
100
AcDbEntity
  8
0
100
AcDbLine
 10
9.166100000000028
 20
366.9649999999998
 30
0.0
 11
9.588899467823011
 21
367.8719278693358
 31
0.0
  0
LINE
  5
93B
330
1E
100
AcDbEntity
  8
0
100
AcDbLine
 10
13.80729999999999
 20
364.2489999999999
 30
0.0
 11
14.01873144717069
 21
364.7024783079619
 31
0.0
  0
LINE
  5
93C
330
1E
100
AcDbEntity
  8
0
100
AcDbLine
 10
12.85739999999998
 20
365.2439999999999
 30
0.0
 11
13.27981523014239
 21
366.1501036585988
 31
0.0
  0
LINE
  5
93D
330
1E
100
AcDbEntity
  8
0
100
AcDbLine
 10
12.0
 20
365.0919999999999
 30
0.0
 11
12.35824254167607
 21
365.8604497492409
 31
0.0
  0
LINE
  5
93E
330
1E
100
AcDbEntity
  8
0
100
AcDbLine
 10
12.0
 20
365.0919999999999
 30
0.0
 11
12.99609999999188
 21
364.6277676732448
 31
0.0
  0
LINE
  5
93F
330
1E
100
AcDbEntity
  8
0
100
AcDbLine
 10
12.0
 20
365.0919999999999
 30
0.0
 11
12.99609999999188
 21
364.6277676732448
 31
0.0
  0
LINE
  5
940
330
1E
100
AcDbEntity
  8
0
100
AcDbLine
 10
12.0
 20
365.0919999999999
 30
0.0
 11
12.66149999999998
 21
364.7839999999999
 31
0.0
  0
LINE
  5
941
330
1E
100
AcDbEntity
  8
0
100
AcDbLine
 10
12.0
 20
365.0919999999999
 30
0.0
 11
12.35824254167607
 21
365.8604497492409
 31
0.0
  0
LINE
  5
942
330
1E
100
AcDbEntity
  8
0
100
AcDbLine
 10
12.66149999999998
 20
364.7839999999999
 30
0.0
 11
13.80729999999999
 21
364.2489999999999
 31
0.0
  0
LINE
  5
943
330
1E
100
AcDbEntity
  8
0
100
AcDbLine
 10
12.66149999999998
 20
364.7839999999999
 30
0.0
 11
12.87273068444989
 21
365.2368513963829
 31
0.0
  0
LINE
  5
944
330
1E
100
AcDbEntity
  8
0
100
AcDbLine
 10
11.7853
 20
365.1929999999998
 30
0.0
 11
12.00035629896081
 21
365.0927642806618
 31
0.0
  0
LINE
  5
945
330
1E
100
AcDbEntity
  8
0
100
AcDbLine
 10
11.7853
 20
365.1929999999998
 30
0.0
 11
12.0935971356605
 21
365.8539493727129
 31
0.0
  0
LINE
  5
946
330
1E
100
AcDbEntity
  8
0
100
AcDbLine
 10
16.31409999999999
 20
363.0799999999998
 30
0.0
 11
16.97559999999998
 21
362.7719999999999
 31
0.0
  0
LINE
  5
947
330
1E
100
AcDbEntity
  8
0
100
AcDbLine
 10
16.01010506844221
 20
364.8773884416109
 30
0.0
 11
19.13249999999999
 21
363.4209999999999
 31
0.0
  0
LINE
  5
948
330
1E
100
AcDbEntity
  8
0
100
AcDbLine
 10
16.01010506844159
 20
364.8773884416118
 30
0.0
 11
19.13249999999999
 21
363.4209999999999
 31
0.0
  0
LINE
  5
949
330
1E
100
AcDbEntity
  8
0
100
AcDbLine
 10
15.82960000000002
 20
363.307
 30
0.0
 11
16.97559999999998
 21
362.7719999999999
 31
0.0
  0
LINE
  5
94A
330
1E
100
AcDbEntity
  8
0
100
AcDbLine
 10
15.16809999999998
 20
363.6149999999998
 30
0.0
 11
16.31409999999999
 21
363.0799999999998
 31
0.0
  0
LINE
  5
94B
330
1E
100
AcDbEntity
  8
0
100
AcDbLine
 10
15.16809999999998
 20
363.6149999999998
 30
0.0
 11
15.82960000000002
 21
363.307
 31
0.0
  0
LINE
  5
94C
330
1E
100
AcDbEntity
  8
0
100
AcDbLine
 10
15.16809999999998
 20
363.6149999999998
 30
0.0
 11
15.50320947839617
 21
364.3338280694888
 31
0.0
  0
LINE
  5
94D
330
1E
100
AcDbEntity
  8
0
100
AcDbLine
 10
15.82960000000002
 20
363.307
 30
0.0
 11
16.19429594830342
 21
364.0892926576829
 31
0.0
  0
LINE
  5
94E
330
1E
100
AcDbEntity
  8
0
100
AcDbLine
 10
14.19259936578419
 20
364.6527392926718
 30
0.0
 11
14.5421
 21
364.4579999999998
 31
0.0
  0
LINE
  5
94F
330
1E
100
AcDbEntity
  8
0
100
AcDbLine
 10
14.5421
 20
364.4579999999998
 30
0.0
 11
15.36003860804817
 21
364.0267187605199
 31
0.0
  0
LINE
  5
950
330
1E
100
AcDbEntity
  8
0
100
AcDbLine
 10
14.5421
 20
364.4579999999998
 30
0.0
 11
15.36003860804817
 21
364.0267187605199
 31
0.0
  0
LINE
  5
951
330
1E
100
AcDbEntity
  8
0
100
AcDbLine
 10
14.18060000000002
 20
364.6269999999999
 30
0.0
 11
14.4907214308709
 21
365.2922273475728
 31
0.0
  0
LINE
  5
952
330
1E
100
AcDbEntity
  8
0
100
AcDbLine
 10
14.18060000000002
 20
364.6269999999999
 30
0.0
 11
14.60307186509311
 21
365.5332251436508
 31
0.0
  0
LINE
  5
953
330
1E
100
AcDbEntity
  8
0
100
AcDbLine
 10
14.18060000000002
 20
364.6269999999999
 30
0.0
 11
14.60307186509311
 21
365.5332251436508
 31
0.0
  0
LINE
  5
954
330
1E
100
AcDbEntity
  8
0
100
AcDbLine
 10
14.1164
 20
364.1059999999999
 30
0.0
 11
14.33455563099369
 21
364.5736422611618
 31
0.0
  0
LINE
  5
955
330
1E
100
AcDbEntity
  8
0
100
AcDbLine
 10
18.1261
 20
361.6509999999999
 30
0.0
 11
18.70879999999999
 21
359.7299999999999
 31
0.0
  0
LINE
  5
956
330
1E
100
AcDbEntity
  8
0
100
AcDbLine
 10
18.70879999999999
 20
359.7299999999999
 30
0.0
 11
19.03035215768272
 21
359.1406128461919
 31
0.0
  0
LINE
  5
957
330
1E
100
AcDbEntity
  8
0
100
AcDbLine
 10
18.70879999999999
 20
359.7299999999999
 30
0.0
 11
19.03035215768272
 21
359.1406128461919
 31
0.0
  0
LINE
  5
958
330
1E
100
AcDbEntity
  8
0
100
AcDbLine
 10
18.96429999999998
 20
362.3969999999999
 30
0.0
 11
19.372583976844
 21
363.2722047391948
 31
0.0
  0
LINE
  5
959
330
1E
100
AcDbEntity
  8
0
100
AcDbLine
 10
18.96429999999998
 20
362.3969999999999
 30
0.0
 11
19.3869673868931
 21
363.3030372708508
 31
0.0
  0
LINE
  5
95A
330
1E
100
AcDbEntity
  8
0
100
AcDbLine
 10
17.97482332156261
 20
362.6479996474689
 30
0.0
 11
18.1261
 21
361.6509999999999
 31
0.0
  0
LINE
  5
95B
330
1E
100
AcDbEntity
  8
0
100
AcDbLine
 10
17.60984077034129
 20
364.1317305677449
 30
0.0
 11
17.9418
 21
363.9769999999999
 31
0.0
  0
LINE
  5
95C
330
1E
100
AcDbEntity
  8
0
100
AcDbLine
 10
16.97559999999998
 20
362.7719999999999
 30
0.0
 11
17.12642209738658
 21
363.0953431619319
 31
0.0
  0
LINE
  5
95D
330
1E
100
AcDbEntity
  8
0
100
AcDbLine
 10
16.97559999999998
 20
362.7719999999999
 30
0.0
 11
17.30388670609011
 21
363.475804438518
 31
0.0
  0
LINE
  5
95E
330
1E
100
AcDbEntity
  8
0
100
AcDbLine
 10
22.92889999999999
 20
362.7549999999998
 30
0.0
 11
28.15499999999997
 21
360.3179999999998
 31
0.0
  0
LINE
  5
95F
330
1E
100
AcDbEntity
  8
0
100
AcDbLine
 10
23.82929999999999
 20
361.2309999999999
 30
0.0
 11
27.1370333333366
 21
359.6889999999979
 31
0.0
  0
LINE
  5
960
330
1E
100
AcDbEntity
  8
0
100
AcDbLine
 10
23.82929999999999
 20
361.2309999999999
 30
0.0
 11
27.13703333333597
 21
359.6889999999988
 31
0.0
  0
LINE
  5
961
330
1E
100
AcDbEntity
  8
0
100
AcDbLine
 10
24.48428543207808
 20
360.9259687682509
 30
0.0
 11
26.74448704995069
 21
359.872043210554
 31
0.0
  0
LINE
  5
962
330
1E
100
AcDbEntity
  8
0
100
AcDbLine
 10
24.48428543207808
 20
360.9259687682509
 30
0.0
 11
26.74448704995069
 21
359.872043210554
 31
0.0
  0
LINE
  5
963
330
1E
100
AcDbEntity
  8
0
100
AcDbLine
 10
23.84401168187559
 20
359.55330426829
 30
0.0
 11
27.4080132869185
 21
357.6740837319218
 31
0.0
  0
LINE
  5
964
330
1E
100
AcDbEntity
  8
0
100
AcDbLine
 10
24.4443
 20
355.6579999999998
 30
0.0
 11
25.60879999999997
 21
355.8009999999999
 31
0.0
  0
LINE
  5
965
330
1E
100
AcDbEntity
  8
0
100
AcDbLine
 10
22.83719999999999
 20
361.6939999999999
 30
0.0
 11
27.99700000000001
 21
359.2879999999999
 31
0.0
  0
LINE
  5
966
330
1E
100
AcDbEntity
  8
0
100
AcDbLine
 10
20.91770000000002
 20
356.5559999999999
 30
0.0
 11
22.43599999999998
 21
355.4459999999999
 31
0.0
  0
LINE
  5
967
330
1E
100
AcDbEntity
  8
0
100
AcDbLine
 10
21.83170000000001
 20
359.9559999999998
 30
0.0
 11
22.97759999999999
 21
359.4219999999999
 31
0.0
  0
LINE
  5
968
330
1E
100
AcDbEntity
  8
0
100
AcDbLine
 10
21.83170000000001
 20
359.9559999999998
 30
0.0
 11
22.49340000000001
 21
359.6479999999999
 31
0.0
  0
LINE
  5
969
330
1E
100
AcDbEntity
  8
0
100
AcDbLine
 10
21.59421890254117
 20
360.739571072299
 30
0.0
 11
22.07808211498451
 21
360.4844405234429
 31
0.0
  0
LINE
  5
96A
330
1E
100
AcDbEntity
  8
0
100
AcDbLine
 10
21.59421890254117
 20
360.739571072299
 30
0.0
 11
22.07808211498451
 21
360.4844405234429
 31
0.0
  0
LINE
  5
96B
330
1E
100
AcDbEntity
  8
0
100
AcDbLine
 10
21.83170000000001
 20
359.9559999999998
 30
0.0
 11
22.0839750020537
 21
360.4970795915329
 31
0.0
  0
LINE
  5
96C
330
1E
100
AcDbEntity
  8
0
100
AcDbLine
 10
21.83170000000001
 20
359.9559999999998
 30
0.0
 11
22.16228978964579
 21
360.6650491998439
 31
0.0
  0
LINE
  5
96D
330
1E
100
AcDbEntity
  8
0
100
AcDbLine
 10
20.28750000000002
 20
361.7799999999998
 30
0.0
 11
20.64877998421047
 21
362.5545377796838
 31
0.0
  0
LINE
  5
96E
330
1E
100
AcDbEntity
  8
0
100
AcDbLine
 10
20.28750000000002
 20
361.7799999999998
 30
0.0
 11
20.71009471752762
 21
362.6859886750589
 31
0.0
  0
LINE
  5
96F
330
1E
100
AcDbEntity
  8
0
100
AcDbLine
 10
21.54779999999999
 20
360.6399999999998
 30
0.0
 11
21.83765081820467
 21
361.2617457801758
 31
0.0
  0
LINE
  5
970
330
1E
100
AcDbEntity
  8
0
100
AcDbLine
 10
21.31130000000001
 20
360.1989999999999
 30
0.0
 11
21.52242961885411
 21
360.6518309463889
 31
0.0
  0
LINE
  5
971
330
1E
100
AcDbEntity
  8
0
100
AcDbLine
 10
21.31150665131087
 20
360.1994432258679
 30
0.0
 11
21.36610000000001
 21
360.1739999999999
 31
0.0
  0
LINE
  5
972
330
1E
100
AcDbEntity
  8
0
100
AcDbLine
 10
21.36610000000001
 20
360.1739999999999
 30
0.0
 11
21.628893713036
 21
360.7373292417139
 31
0.0
  0
LINE
  5
973
330
1E
100
AcDbEntity
  8
0
100
AcDbLine
 10
21.31149594671501
 20
360.1994202666438
 30
0.0
 11
21.36610000000001
 21
360.1739999999999
 31
0.0
  0
LINE
  5
974
330
1E
100
AcDbEntity
  8
0
100
AcDbLine
 10
20.22469999999998
 20
361.2569999999999
 30
0.0
 11
20.53583539704522
 21
361.9244023602019
 31
0.0
  0
LINE
  5
975
330
1E
100
AcDbEntity
  8
0
100
AcDbLine
 10
20.22469999999998
 20
361.2569999999999
 30
0.0
 11
21.54779999999999
 21
360.6399999999998
 31
0.0
  0
LINE
  5
976
330
1E
100
AcDbEntity
  8
0
100
AcDbLine
 10
20.22469999999998
 20
361.2569999999999
 30
0.0
 11
20.57760919699382
 21
362.0140094346298
 31
0.0
  0
LINE
  5
977
330
1E
100
AcDbEntity
  8
0
100
AcDbLine
 10
20.16559999999998
 20
360.7329999999998
 30
0.0
 11
21.31130000000001
 21
360.1989999999999
 31
0.0
  0
LINE
  5
978
330
1E
100
AcDbEntity
  8
0
100
AcDbLine
 10
20.16559999999998
 20
360.7329999999998
 30
0.0
 11
20.37683425631229
 21
361.1860553728778
 31
0.0
  0
LINE
  5
979
330
1E
100
AcDbEntity
  8
0
100
AcDbLine
 10
19.55880000000002
 20
361.0159999999999
 30
0.0
 11
19.98183739165631
 21
360.8188262484558
 31
0.0
  0
LINE
  5
97A
330
1E
100
AcDbEntity
  8
0
100
AcDbLine
 10
19.55880000000002
 20
361.0159999999999
 30
0.0
 11
19.84030721421982
 21
360.8849278579288
 31
0.0
  0
LINE
  5
97B
330
1E
100
AcDbEntity
  8
0
100
AcDbLine
 10
19.55880000000002
 20
361.0159999999999
 30
0.0
 11
19.84030721421987
 21
360.8849278579288
 31
0.0
  0
LINE
  5
97C
330
1E
100
AcDbEntity
  8
0
100
AcDbLine
 10
19.65100000000001
 20
358.0029999999999
 30
0.0
 11
20.91770000000002
 21
356.5559999999999
 31
0.0
  0
LINE
  5
97D
330
1E
100
AcDbEntity
  8
0
100
AcDbLine
 10
22.86729999999999
 20
354.7139999999999
 30
0.0
 11
22.86790000000002
 21
354.5019999999999
 31
0.0
  0
LINE
  5
97E
330
1E
100
AcDbEntity
  8
0
100
AcDbLine
 10
22.86729999999999
 20
354.7139999999999
 30
0.0
 11
23.05791628747482
 21
355.5031908963118
 31
0.0
  0
LINE
  5
97F
330
1E
100
AcDbEntity
  8
0
100
AcDbLine
 10
23.07463999061951
 20
361.5832824106688
 30
0.0
 11
23.33859999999998
 21
361.4599999999998
 31
0.0
  0
LINE
  5
980
330
1E
100
AcDbEntity
  8
0
100
AcDbLine
 10
23.33859999999998
 20
361.4599999999998
 30
0.0
 11
24.30019980346389
 21
361.0118073709958
 31
0.0
  0
LINE
  5
981
330
1E
100
AcDbEntity
  8
0
100
AcDbLine
 10
23.63909999999998
 20
359.1139999999999
 30
0.0
 11
23.96805253920422
 21
359.8192318990039
 31
0.0
  0
LINE
  5
982
330
1E
100
AcDbEntity
  8
0
100
AcDbLine
 10
23.0746399906194
 20
361.5832824106688
 30
0.0
 11
23.33859999999998
 21
361.4599999999998
 31
0.0
  0
LINE
  5
983
330
1E
100
AcDbEntity
  8
0
100
AcDbLine
 10
22.97759999999999
 20
359.4219999999999
 30
0.0
 11
23.63909999999998
 21
359.1139999999999
 31
0.0
  0
LINE
  5
984
330
1E
100
AcDbEntity
  8
0
100
AcDbLine
 10
22.92880000000002
 20
355.4889999999999
 30
0.0
 11
23.54750000000001
 21
355.557
 31
0.0
  0
LINE
  5
985
330
1E
100
AcDbEntity
  8
0
100
AcDbLine
 10
23.54750000000001
 20
355.557
 30
0.0
 11
24.4443
 21
355.6579999999998
 31
0.0
  0
LINE
  5
986
330
1E
100
AcDbEntity
  8
0
100
AcDbLine
 10
22.49340000000001
 20
359.6479999999999
 30
0.0
 11
23.63909999999998
 21
359.1139999999999
 31
0.0
  0
LINE
  5
987
330
1E
100
AcDbEntity
  8
0
100
AcDbLine
 10
22.49340000000001
 20
359.6479999999999
 30
0.0
 11
22.85555161687227
 21
360.4244064479088
 31
0.0
  0
LINE
  5
988
330
1E
100
AcDbEntity
  8
0
100
AcDbLine
 10
22.43599999999998
 20
355.4459999999999
 30
0.0
 11
22.57499999999998
 21
355.4549999999998
 31
0.0
  0
LINE
  5
989
330
1E
100
AcDbEntity
  8
0
100
AcDbLine
 10
22.57499999999998
 20
355.4549999999998
 30
0.0
 11
22.92880000000002
 21
355.4889999999999
 31
0.0
  0
LINE
  5
98A
330
1E
100
AcDbEntity
  8
0
100
AcDbLine
 10
22.96829999999999
 20
354.3189999999999
 30
0.0
 11
23.14019999999999
 21
354.2149999999998
 31
0.0
  0
LINE
  5
98B
330
1E
100
AcDbEntity
  8
0
100
AcDbLine
 10
22.86790000000002
 20
354.5019999999999
 30
0.0
 11
22.96829999999999
 21
354.3189999999999
 31
0.0
  0
LINE
  5
98C
330
1E
100
AcDbEntity
  8
0
100
AcDbLine
 10
27.02679999999998
 20
356.0039999999998
 30
0.0
 11
28.55752499640829
 21
356.2680441231719
 31
0.0
  0
LINE
  5
98D
330
1E
100
AcDbEntity
  8
0
100
AcDbLine
 10
27.64519999999999
 20
358.3489999999999
 30
0.0
 11
28.06760135040741
 21
359.2550738858119
 31
0.0
  0
LINE
  5
98E
330
1E
100
AcDbEntity
  8
0
100
AcDbLine
 10
27.58109999999999
 20
357.8259999999999
 30
0.0
 11
27.86349951287911
 21
358.4317623247159
 31
0.0
  0
LINE
  5
98F
330
1E
100
AcDbEntity
  8
0
100
AcDbLine
 10
27.58109999999999
 20
357.8259999999999
 30
0.0
 11
27.9170885514319
 21
358.5467137289939
 31
0.0
  0
LINE
  5
990
330
1E
100
AcDbEntity
  8
0
100
AcDbLine
 10
27.29750000000001
 20
357.4069999999999
 30
0.0
 11
28.62049999999999
 21
356.7899999999998
 31
0.0
  0
LINE
  5
991
330
1E
100
AcDbEntity
  8
0
100
AcDbLine
 10
27.3356
 20
356.8379999999998
 30
0.0
 11
28.48149999999998
 21
356.3029999999999
 31
0.0
  0
LINE
  5
992
330
1E
100
AcDbEntity
  8
0
100
AcDbLine
 10
27.29750000000001
 20
357.4069999999999
 30
0.0
 11
27.50861586981051
 21
357.859801457431
 31
0.0
  0
LINE
  5
993
330
1E
100
AcDbEntity
  8
0
100
AcDbLine
 10
27.3356
 20
356.8379999999998
 30
0.0
 11
27.54668507380978
 21
357.2907889716249
 31
0.0
  0
LINE
  5
994
330
1E
100
AcDbEntity
  8
0
100
AcDbLine
 10
26.32209999999997
 20
358.9659999999998
 30
0.0
 11
27.64519999999999
 21
358.3489999999999
 31
0.0
  0
LINE
  5
995
330
1E
100
AcDbEntity
  8
0
100
AcDbLine
 10
26.32209999999997
 20
358.9659999999998
 30
0.0
 11
26.74448704995069
 21
359.872043210554
 31
0.0
  0
LINE
  5
996
330
1E
100
AcDbEntity
  8
0
100
AcDbLine
 10
26.67410000000001
 20
357.1469999999999
 30
0.0
 11
27.3356
 21
356.8379999999998
 31
0.0
  0
LINE
  5
997
330
1E
100
AcDbEntity
  8
0
100
AcDbLine
 10
26.67410000000001
 20
357.1469999999999
 30
0.0
 11
27.03066792342247
 21
357.9114357279239
 31
0.0
  0
LINE
  5
998
330
1E
100
AcDbEntity
  8
0
100
AcDbLine
 10
26.25799999999998
 20
358.4429999999998
 30
0.0
 11
27.58109999999999
 21
357.8259999999999
 31
0.0
  0
LINE
  5
999
330
1E
100
AcDbEntity
  8
0
100
AcDbLine
 10
26.25799999999998
 20
358.4429999999998
 30
0.0
 11
26.469723668168
 21
358.897158791278
 31
0.0
  0
LINE
  5
99A
330
1E
100
AcDbEntity
  8
0
100
AcDbLine
 10
25.60879999999997
 20
355.8009999999999
 30
0.0
 11
27.02679999999998
 21
356.0039999999998
 31
0.0
  0
LINE
  5
99B
330
1E
100
AcDbEntity
  8
0
100
AcDbLine
 10
29.64109999999999
 20
355.7629999999999
 30
0.0
 11
30.30259999999998
 21
355.4549999999998
 31
0.0
  0
LINE
  5
99C
330
1E
100
AcDbEntity
  8
0
100
AcDbLine
 10
28.71210128317
 20
356.9864664928269
 30
0.0
 11
28.7961876609736
 21
356.9421295745238
 31
0.0
  0
LINE
  5
99D
330
1E
100
AcDbEntity
  8
0
100
AcDbLine
 10
29.15690000000001
 20
355.9889999999999
 30
0.0
 11
30.30259999999998
 21
355.4549999999998
 31
0.0
  0
LINE
  5
99E
330
1E
100
AcDbEntity
  8
0
100
AcDbLine
 10
29.15690000000001
 20
355.9889999999999
 30
0.0
 11
29.5318151869481
 21
356.7926748121968
 31
0.0
  0
LINE
  5
99F
330
1E
100
AcDbEntity
  8
0
100
AcDbLine
 10
28.49540000000001
 20
356.2969999999999
 30
0.0
 11
28.80045014350889
 21
356.9512717498898
 31
0.0
  0
LINE
  5
9A0
330
1E
100
AcDbEntity
  8
0
100
AcDbLine
 10
28.49540000000001
 20
356.2969999999999
 30
0.0
 11
29.64109999999999
 21
355.7629999999999
 31
0.0
  0
LINE
  5
9A1
330
1E
100
AcDbEntity
  8
0
100
AcDbLine
 10
28.49540000000001
 20
356.2969999999999
 30
0.0
 11
29.15690000000001
 21
355.9889999999999
 31
0.0
  0
LINE
  5
9A2
330
1E
100
AcDbEntity
  8
0
100
AcDbLine
 10
28.49540000000001
 20
356.2969999999999
 30
0.0
 11
28.86512498779149
 21
357.089986398753
 31
0.0
  0
LINE
  5
9A3
330
1E
100
AcDbEntity
  8
0
100
AcDbLine
 10
28.62049999999999
 20
356.7899999999998
 30
0.0
 11
28.94146096301921
 21
357.4783972861159
 31
0.0
  0
LINE
  5
9A4
330
1E
100
AcDbEntity
  8
0
100
AcDbLine
 10
28.48149999999998
 20
356.3029999999999
 30
0.0
 11
28.79540710018568
 21
356.9767989347258
 31
0.0
  0
LINE
  5
9A5
330
1E
100
AcDbEntity
  8
0
100
AcDbLine
 10
39.66579999999999
 20
354.9499999999998
 30
0.0
 11
45.4873
 21
352.2359999999999
 31
0.0
  0
LINE
  5
9A6
330
1E
100
AcDbEntity
  8
0
100
AcDbLine
 10
39.3093
 20
354.0129999999999
 30
0.0
 11
44.40300345922321
 21
351.6375786418749
 31
0.0
  0
LINE
  5
9A7
330
1E
100
AcDbEntity
  8
0
100
AcDbLine
 10
39.3093
 20
354.0129999999999
 30
0.0
 11
45.06470000000001
 21
351.3289999999999
 31
0.0
  0
LINE
  5
9A8
330
1E
100
AcDbEntity
  8
0
100
AcDbLine
 10
39.44159999999999
 20
353.9509999999999
 30
0.0
 11
45.06470000000001
 21
351.3289999999999
 31
0.0
  0
LINE
  5
9A9
330
1E
100
AcDbEntity
  8
0
100
AcDbLine
 10
37.38887365228072
 20
352.7014434827078
 30
0.0
 11
41.24259999999998
 21
350.9049999999998
 31
0.0
  0
LINE
  5
9AA
330
1E
100
AcDbEntity
  8
0
100
AcDbLine
 10
40.92579999999998
 20
349.9489999999999
 30
0.0
 11
41.45510000000001
 21
349.702
 31
0.0
  0
LINE
  5
9AB
330
1E
100
AcDbEntity
  8
0
100
AcDbLine
 10
35.46440000000001
 20
353.5989999999999
 30
0.0
 11
36.7876
 21
352.9819999999999
 31
0.0
  0
LINE
  5
9AC
330
1E
100
AcDbEntity
  8
0
100
AcDbLine
 10
34.74470000000002
 20
356.1409999999999
 30
0.0
 11
39.44159999999999
 21
353.9509999999999
 31
0.0
  0
LINE
  5
9AD
330
1E
100
AcDbEntity
  8
0
100
AcDbLine
 10
35.07780000000002
 20
354.8829999999999
 30
0.0
 11
36.4008
 21
354.2659999999999
 31
0.0
  0
LINE
  5
9AE
330
1E
100
AcDbEntity
  8
0
100
AcDbLine
 10
35.01369999999997
 20
354.3609999999998
 30
0.0
 11
36.3367
 21
353.7439999999999
 31
0.0
  0
LINE
  5
9AF
330
1E
100
AcDbEntity
  8
0
100
AcDbLine
 10
35.15899999999999
 20
352.6379999999999
 30
0.0
 11
36.2037970063314
 21
352.151029936824
 31
0.0
  0
LINE
  5
9B0
330
1E
100
AcDbEntity
  8
0
100
AcDbLine
 10
35.15899999999999
 20
352.6379999999999
 30
0.0
 11
36.20379700633151
 21
352.151029936824
 31
0.0
  0
LINE
  5
9B1
330
1E
100
AcDbEntity
  8
0
100
AcDbLine
 10
35.15899999999999
 20
352.6379999999999
 30
0.0
 11
35.82049999999998
 21
352.3299999999998
 31
0.0
  0
LINE
  5
9B2
330
1E
100
AcDbEntity
  8
0
100
AcDbLine
 10
34.73810000000003
 20
353.3859999999998
 30
0.0
 11
36.06119999999998
 21
352.7689999999998
 31
0.0
  0
LINE
  5
9B3
330
1E
100
AcDbEntity
  8
0
100
AcDbLine
 10
33.77819999999997
 20
357.6949999999998
 30
0.0
 11
39.66579999999999
 21
354.9499999999998
 31
0.0
  0
LINE
  5
9B4
330
1E
100
AcDbEntity
  8
0
100
AcDbLine
 10
33.8186
 20
356.5729999999998
 30
0.0
 11
39.3093
 21
354.0129999999999
 31
0.0
  0
LINE
  5
9B5
330
1E
100
AcDbEntity
  8
0
100
AcDbLine
 10
34.73810000000003
 20
353.3859999999998
 30
0.0
 11
35.37027578232789
 21
353.091198051775
 31
0.0
  0
LINE
  5
9B6
330
1E
100
AcDbEntity
  8
0
100
AcDbLine
 10
35.15899999999999
 20
352.6379999999999
 30
0.0
 11
35.37027578232789
 21
353.091198051775
 31
0.0
  0
LINE
  5
9B7
330
1E
100
AcDbEntity
  8
0
100
AcDbLine
 10
33.06238680709299
 20
356.9256726018178
 30
0.0
 11
34.74470000000002
 21
356.1409999999999
 31
0.0
  0
LINE
  5
9B8
330
1E
100
AcDbEntity
  8
0
100
AcDbLine
 10
33.0623868070864
 20
356.9256726018209
 30
0.0
 11
34.74470000000002
 21
356.1409999999999
 31
0.0
  0
LINE
  5
9B9
330
1E
100
AcDbEntity
  8
0
100
AcDbLine
 10
33.06238680709288
 20
356.9256726018178
 30
0.0
 11
33.8186
 21
356.5729999999998
 31
0.0
  0
LINE
  5
9BA
330
1E
100
AcDbEntity
  8
0
100
AcDbLine
 10
33.0623868070972
 20
356.9256726018159
 30
0.0
 11
33.8186
 21
356.5729999999998
 31
0.0
  0
LINE
  5
9BB
330
1E
100
AcDbEntity
  8
0
100
AcDbLine
 10
32.64260000000001
 20
354.9139999999999
 30
0.0
 11
34.94958933092988
 21
353.8396561251488
 31
0.0
  0
LINE
  5
9BC
330
1E
100
AcDbEntity
  8
0
100
AcDbLine
 10
32.77499999999998
 20
354.8529999999998
 30
0.0
 11
33.0396
 21
354.7289999999999
 31
0.0
  0
LINE
  5
9BD
330
1E
100
AcDbEntity
  8
0
100
AcDbLine
 10
30.56200026677351
 20
356.0110549904099
 30
0.0
 11
32.64260000000001
 21
354.9139999999999
 31
0.0
  0
LINE
  5
9BE
330
1E
100
AcDbEntity
  8
0
100
AcDbLine
 10
35.46440000000001
 20
353.5989999999999
 30
0.0
 11
35.67572697564321
 21
354.0522542373608
 31
0.0
  0
LINE
  5
9BF
330
1E
100
AcDbEntity
  8
0
100
AcDbLine
 10
35.07780000000002
 20
354.8829999999999
 30
0.0
 11
35.4505030137816
 21
355.6820272846338
 31
0.0
  0
LINE
  5
9C0
330
1E
100
AcDbEntity
  8
0
100
AcDbLine
 10
35.07780000000002
 20
354.8829999999999
 30
0.0
 11
35.50035121186738
 21
355.7888954045238
 31
0.0
  0
LINE
  5
9C1
330
1E
100
AcDbEntity
  8
0
100
AcDbLine
 10
35.01369999999997
 20
354.3609999999998
 30
0.0
 11
35.22503874199799
 21
354.8143331036939
 31
0.0
  0
LINE
  5
9C2
330
1E
100
AcDbEntity
  8
0
100
AcDbLine
 10
34.73810000000003
 20
353.3859999999998
 30
0.0
 11
34.94958933092988
 21
353.8396561251488
 31
0.0
  0
LINE
  5
9C3
330
1E
100
AcDbEntity
  8
0
100
AcDbLine
 10
34.73810000000003
 20
353.3859999999998
 30
0.0
 11
35.06775943800767
 21
354.0931374362369
 31
0.0
  0
LINE
  5
9C4
330
1E
100
AcDbEntity
  8
0
100
AcDbLine
 10
34.73810000000003
 20
353.3859999999998
 30
0.0
 11
35.10986459261687
 21
354.1834552844469
 31
0.0
  0
LINE
  5
9C5
330
1E
100
AcDbEntity
  8
0
100
AcDbLine
 10
33.8186
 20
356.5729999999998
 30
0.0
 11
35.50035121186738
 21
355.7888954045238
 31
0.0
  0
LINE
  5
9C6
330
1E
100
AcDbEntity
  8
0
100
AcDbLine
 10
36.7876
 20
352.9819999999999
 30
0.0
 11
37.18281797204372
 21
353.8297640597669
 31
0.0
  0
LINE
  5
9C7
330
1E
100
AcDbEntity
  8
0
100
AcDbLine
 10
36.06119999999998
 20
352.7689999999998
 30
0.0
 11
36.27247623964808
 21
353.2221990327519
 31
0.0
  0
LINE
  5
9C8
330
1E
100
AcDbEntity
  8
0
100
AcDbLine
 10
36.6530556784665
 20
353.0447371874138
 30
0.0
 11
37.2072
 21
352.7859999999999
 31
0.0
  0
LINE
  5
9C9
330
1E
100
AcDbEntity
  8
0
100
AcDbLine
 10
36.65305567846627
 20
353.0447371874138
 30
0.0
 11
37.2072
 21
352.7859999999999
 31
0.0
  0
LINE
  5
9CA
330
1E
100
AcDbEntity
  8
0
100
AcDbLine
 10
35.82049999999998
 20
352.3299999999998
 30
0.0
 11
36.96629999999998
 21
351.7949999999998
 31
0.0
  0
LINE
  5
9CB
330
1E
100
AcDbEntity
  8
0
100
AcDbLine
 10
35.82049999999998
 20
352.3299999999998
 30
0.0
 11
36.0316889260834
 21
352.7827618718208
 31
0.0
  0
LINE
  5
9CC
330
1E
100
AcDbEntity
  8
0
100
AcDbLine
 10
36.96629999999998
 20
351.7949999999998
 30
0.0
 11
37.38887365228072
 21
352.7014434827078
 31
0.0
  0
LINE
  5
9CD
330
1E
100
AcDbEntity
  8
0
100
AcDbLine
 10
36.20379700633151
 20
352.151029936824
 30
0.0
 11
36.96629999999998
 21
351.7949999999998
 31
0.0
  0
LINE
  5
9CE
330
1E
100
AcDbEntity
  8
0
100
AcDbLine
 10
36.20379700633151
 20
352.151029936824
 30
0.0
 11
36.96629999999998
 21
351.7949999999998
 31
0.0
  0
LINE
  5
9CF
330
1E
100
AcDbEntity
  8
0
100
AcDbLine
 10
40.48919999999998
 20
350.1519999999999
 30
0.0
 11
40.91179999999996
 21
351.0589999999999
 31
0.0
  0
LINE
  5
9D0
330
1E
100
AcDbEntity
  8
0
100
AcDbLine
 10
40.48919999999998
 20
350.1519999999999
 30
0.0
 11
40.60820000000001
 21
350.0969999999999
 31
0.0
  0
LINE
  5
9D1
330
1E
100
AcDbEntity
  8
0
100
AcDbLine
 10
40.60820000000001
 20
350.0969999999999
 30
0.0
 11
40.92579999999998
 21
349.9489999999999
 31
0.0
  0
LINE
  5
9D2
330
1E
100
AcDbEntity
  8
0
100
AcDbLine
 10
37.6326683624145
 20
354.7947176302149
 30
0.0
 11
39.3093
 21
354.0129999999999
 31
0.0
  0
LINE
  5
9D3
330
1E
100
AcDbEntity
  8
0
100
AcDbLine
 10
36.4008
 20
354.2659999999999
 30
0.0
 11
36.82345381717709
 21
355.1720081825679
 31
0.0
  0
LINE
  5
9D4
330
1E
100
AcDbEntity
  8
0
100
AcDbLine
 10
36.3367
 20
353.7439999999999
 30
0.0
 11
36.6059340342469
 21
354.3215216565189
 31
0.0
  0
LINE
  5
9D5
330
1E
100
AcDbEntity
  8
0
100
AcDbLine
 10
45.4873
 20
352.2359999999999
 30
0.0
 11
51.30889999999999
 21
349.5209999999999
 31
0.0
  0
LINE
  5
9D6
330
1E
100
AcDbEntity
  8
0
100
AcDbLine
 10
45.06470000000001
 20
351.3289999999999
 30
0.0
 11
50.82019999999999
 21
348.6449999999998
 31
0.0
  0
LINE
  5
9D7
330
1E
100
AcDbEntity
  8
0
100
AcDbLine
 10
45.74099999999998
 20
348.807
 30
0.0
 11
47.19639999999998
 21
348.1279999999999
 31
0.0
  0
LINE
  5
9D8
330
1E
100
AcDbEntity
  8
0
100
AcDbLine
 10
46.13859999999999
 20
347.5189999999999
 30
0.0
 11
46.66800000000001
 21
347.2719999999999
 31
0.0
  0
LINE
  5
9D9
330
1E
100
AcDbEntity
  8
0
100
AcDbLine
 10
43.76929999999998
 20
350.2789999999998
 30
0.0
 11
44.0301201655252
 21
350.8381648603069
 31
0.0
  0
LINE
  5
9DA
330
1E
100
AcDbEntity
  8
0
100
AcDbLine
 10
43.76929999999998
 20
350.2789999999998
 30
0.0
 11
45.09230000000002
 21
349.6619999999999
 31
0.0
  0
LINE
  5
9DB
330
1E
100
AcDbEntity
  8
0
100
AcDbLine
 10
43.55799999999999
 20
349.8249999999998
 30
0.0
 11
44.88099999999997
 21
349.2079999999998
 31
0.0
  0
LINE
  5
9DC
330
1E
100
AcDbEntity
  8
0
100
AcDbLine
 10
43.3467
 20
349.3709999999998
 30
0.0
 11
44.66969999999998
 21
348.7549999999998
 31
0.0
  0
LINE
  5
9DD
330
1E
100
AcDbEntity
  8
0
100
AcDbLine
 10
43.1354
 20
348.9179999999998
 30
0.0
 11
44.27852784093937
 21
348.3857499999858
 31
0.0
  0
LINE
  5
9DE
330
1E
100
AcDbEntity
  8
0
100
AcDbLine
 10
43.1354
 20
348.9179999999998
 30
0.0
 11
44.27852784093937
 21
348.3857499999858
 31
0.0
  0
LINE
  5
9DF
330
1E
100
AcDbEntity
  8
0
100
AcDbLine
 10
43.1354
 20
348.9179999999998
 30
0.0
 11
44.45839999999998
 21
348.302
 31
0.0
  0
LINE
  5
9E0
330
1E
100
AcDbEntity
  8
0
100
AcDbLine
 10
41.24259999999998
 20
350.9049999999998
 30
0.0
 11
42.69799999999998
 21
350.2259999999998
 31
0.0
  0
LINE
  5
9E1
330
1E
100
AcDbEntity
  8
0
100
AcDbLine
 10
42.69799999999998
 20
350.2259999999998
 30
0.0
 11
43.55809603040012
 21
349.8252059904349
 31
0.0
  0
LINE
  5
9E2
330
1E
100
AcDbEntity
  8
0
100
AcDbLine
 10
41.45510000000001
 20
349.702
 30
0.0
 11
42.15620000000001
 21
349.3759999999998
 31
0.0
  0
LINE
  5
9E3
330
1E
100
AcDbEntity
  8
0
100
AcDbLine
 10
42.15620000000001
 20
349.3759999999998
 30
0.0
 11
42.95010000000002
 21
349.0049999999998
 31
0.0
  0
LINE
  5
9E4
330
1E
100
AcDbEntity
  8
0
100
AcDbLine
 10
43.55799999999999
 20
349.8249999999998
 30
0.0
 11
43.76958720020502
 21
350.2788660600708
 31
0.0
  0
LINE
  5
9E5
330
1E
100
AcDbEntity
  8
0
100
AcDbLine
 10
43.3467
 20
349.3709999999998
 30
0.0
 11
43.55819138009508
 21
349.8249107471509
 31
0.0
  0
LINE
  5
9E6
330
1E
100
AcDbEntity
  8
0
100
AcDbLine
 10
43.1354
 20
348.9179999999998
 30
0.0
 11
43.55809598690519
 21
349.8252060107029
 31
0.0
  0
LINE
  5
9E7
330
1E
100
AcDbEntity
  8
0
100
AcDbLine
 10
42.95010000000002
 20
349.0049999999998
 30
0.0
 11
43.13569608098271
 21
348.9186354601309
 31
0.0
  0
LINE
  5
9E8
330
1E
100
AcDbEntity
  8
0
100
AcDbLine
 10
43.98059999999998
 20
350.7319999999999
 30
0.0
 11
44.40300345922321
 21
351.6375786418749
 31
0.0
  0
LINE
  5
9E9
330
1E
100
AcDbEntity
  8
0
100
AcDbLine
 10
43.98059999999998
 20
350.7319999999999
 30
0.0
 11
45.30360000000001
 21
350.1149999999999
 31
0.0
  0
LINE
  5
9EA
330
1E
100
AcDbEntity
  8
0
100
AcDbLine
 10
45.30360000000001
 20
350.1149999999999
 30
0.0
 11
45.72601548355402
 21
351.0206044204918
 31
0.0
  0
LINE
  5
9EB
330
1E
100
AcDbEntity
  8
0
100
AcDbLine
 10
45.09230000000002
 20
349.6619999999999
 30
0.0
 11
45.30360000000001
 21
350.1149999999999
 31
0.0
  0
LINE
  5
9EC
330
1E
100
AcDbEntity
  8
0
100
AcDbLine
 10
45.86020000000002
 20
348.7509999999998
 30
0.0
 11
46.11014778445587
 21
348.6347783800699
 31
0.0
  0
LINE
  5
9ED
330
1E
100
AcDbEntity
  8
0
100
AcDbLine
 10
45.86020000000002
 20
348.7509999999998
 30
0.0
 11
46.11014778445587
 21
348.6347783800699
 31
0.0
  0
LINE
  5
9EE
330
1E
100
AcDbEntity
  8
0
100
AcDbLine
 10
45.06630000000001
 20
349.1209999999998
 30
0.0
 11
45.86020000000002
 21
348.7509999999998
 31
0.0
  0
LINE
  5
9EF
330
1E
100
AcDbEntity
  8
0
100
AcDbLine
 10
45.4375
 20
347.8449999999998
 30
0.0
 11
46.13859999999999
 21
347.5189999999999
 31
0.0
  0
LINE
  5
9F0
330
1E
100
AcDbEntity
  8
0
100
AcDbLine
 10
44.88077197040172
 20
349.2077608641007
 30
0.0
 11
45.06630000000001
 21
349.1209999999998
 31
0.0
  0
LINE
  5
9F1
330
1E
100
AcDbEntity
  8
0
100
AcDbLine
 10
44.88112041673082
 20
349.2082583004409
 30
0.0
 11
45.74099999999998
 21
348.807
 31
0.0
  0
LINE
  5
9F2
330
1E
100
AcDbEntity
  8
0
100
AcDbLine
 10
44.88099999999997
 20
349.2079999999998
 30
0.0
 11
45.3035524053003
 21
350.1143979067788
 31
0.0
  0
LINE
  5
9F3
330
1E
100
AcDbEntity
  8
0
100
AcDbLine
 10
44.66969999999998
 20
348.7549999999998
 30
0.0
 11
44.88090426659829
 21
349.2080446466429
 31
0.0
  0
LINE
  5
9F4
330
1E
100
AcDbEntity
  8
0
100
AcDbLine
 10
44.64370000000002
 20
348.2149999999998
 30
0.0
 11
45.4375
 21
347.8449999999998
 31
0.0
  0
LINE
  5
9F5
330
1E
100
AcDbEntity
  8
0
100
AcDbLine
 10
44.27852784093937
 20
348.3857499999858
 30
0.0
 11
44.64370000000002
 21
348.2149999999998
 31
0.0
  0
LINE
  5
9F6
330
1E
100
AcDbEntity
  8
0
100
AcDbLine
 10
44.27852784093937
 20
348.3857499999858
 30
0.0
 11
44.64370000000002
 21
348.2149999999998
 31
0.0
  0
LINE
  5
9F7
330
1E
100
AcDbEntity
  8
0
100
AcDbLine
 10
44.45839999999998
 20
348.302
 30
0.0
 11
44.66960423888099
 21
348.7550445871878
 31
0.0
  0
LINE
  5
9F8
330
1E
100
AcDbEntity
  8
0
100
AcDbLine
 10
48.65179999999998
 20
347.4489999999999
 30
0.0
 11
49.97489999999999
 21
346.8319999999999
 31
0.0
  0
LINE
  5
9F9
330
1E
100
AcDbEntity
  8
0
100
AcDbLine
 10
46.98540000000003
 20
347.1229999999999
 30
0.0
 11
47.10450000000003
 21
347.0679999999998
 31
0.0
  0
LINE
  5
9FA
330
1E
100
AcDbEntity
  8
0
100
AcDbLine
 10
46.66800000000001
 20
347.2719999999999
 30
0.0
 11
46.98540000000003
 21
347.1229999999999
 31
0.0
  0
LINE
  5
9FB
330
1E
100
AcDbEntity
  8
0
100
AcDbLine
 10
47.40809999999998
 20
348.0289999999998
 30
0.0
 11
47.46180782494002
 21
348.0041770556999
 31
0.0
  0
LINE
  5
9FC
330
1E
100
AcDbEntity
  8
0
100
AcDbLine
 10
47.32316544295071
 20
348.06885905197
 30
0.0
 11
47.46180782494002
 21
348.0041770556999
 31
0.0
  0
LINE
  5
9FD
330
1E
100
AcDbEntity
  8
0
100
AcDbLine
 10
47.32316544295071
 20
348.06885905197
 30
0.0
 11
47.40809999999998
 21
348.0289999999998
 31
0.0
  0
LINE
  5
9FE
330
1E
100
AcDbEntity
  8
0
100
AcDbLine
 10
47.32316544295071
 20
348.06885905197
 30
0.0
 11
47.40809999999998
 21
348.0289999999998
 31
0.0
  0
LINE
  5
9FF
330
1E
100
AcDbEntity
  8
0
100
AcDbLine
 10
47.32316544295071
 20
348.06885905197
 30
0.0
 11
47.46180782494002
 21
348.0041770556999
 31
0.0
  0
LINE
  5
A00
330
1E
100
AcDbEntity
  8
0
100
AcDbLine
 10
47.19639999999998
 20
348.1279999999999
 30
0.0
 11
48.65179999999998
 21
347.4489999999999
 31
0.0
  0
LINE
  5
A01
330
1E
100
AcDbEntity
  8
0
100
AcDbLine
 10
47.52699110837511
 20
347.9737665503728
 30
0.0
 11
48.65179999999998
 21
347.4489999999999
 31
0.0
  0
LINE
  5
A02
330
1E
100
AcDbEntity
  8
0
100
AcDbLine
 10
47.10450000000003
 20
347.0679999999998
 30
0.0
 11
47.52699110837511
 21
347.9737665503728
 31
0.0
  0
LINE
  5
A03
330
1E
100
AcDbEntity
  8
0
100
AcDbLine
 10
49.97489999999999
 20
346.8319999999999
 30
0.0
 11
51.05031798178669
 21
346.3314673248898
 31
0.0
  0
LINE
  5
A04
330
1E
100
AcDbEntity
  8
0
100
AcDbLine
 10
49.97489999999999
 20
346.8319999999999
 30
0.0
 11
51.23180000000002
 21
346.2469999999999
 31
0.0
  0
LINE
  5
A05
330
1E
100
AcDbEntity
  8
0
100
AcDbLine
 10
51.77330000000001
 20
344.8909999999999
 30
0.0
 11
51.98433099561407
 21
345.3433697670088
 31
0.0
  0
LINE
  5
A06
330
1E
100
AcDbEntity
  8
0
100
AcDbLine
 10
50.6275
 20
345.4249999999998
 30
0.0
 11
51.28910000000002
 21
345.1159999999998
 31
0.0
  0
LINE
  5
A07
330
1E
100
AcDbEntity
  8
0
100
AcDbLine
 10
50.6275
 20
345.4249999999998
 30
0.0
 11
51.05031798178669
 21
346.3314673248898
 31
0.0
  0
LINE
  5
A08
330
1E
100
AcDbEntity
  8
0
100
AcDbLine
 10
50.6275
 20
345.4249999999998
 30
0.0
 11
51.77330000000001
 21
344.8909999999999
 31
0.0
  0
LINE
  5
A09
330
1E
100
AcDbEntity
  8
0
100
AcDbLine
 10
51.6515
 20
346.0499999999998
 30
0.0
 11
51.87219572787182
 21
346.5237215126718
 31
0.0
  0
LINE
  5
A0A
330
1E
100
AcDbEntity
  8
0
100
AcDbLine
 10
51.6515
 20
346.0499999999998
 30
0.0
 11
52.0469789952055
 21
346.8988923172438
 31
0.0
  0
LINE
  5
A0B
330
1E
100
AcDbEntity
  8
0
100
AcDbLine
 10
27.6619
 20
384.8219999999999
 30
0.0
 11
32.55729999999999
 21
382.539
 31
0.0
  0
LINE
  5
A0C
330
1E
100
AcDbEntity
  8
0
100
AcDbLine
 10
26.84230000000002
 20
384.1009999999998
 30
0.0
 11
31.80399999999997
 21
381.7869999999999
 31
0.0
  0
LINE
  5
A0D
330
1E
100
AcDbEntity
  8
0
100
AcDbLine
 10
19.39260000000001
 20
388.6779999999999
 30
0.0
 11
23.22969999999997
 21
386.8889999999998
 31
0.0
  0
LINE
  5
A0E
330
1E
100
AcDbEntity
  8
0
100
AcDbLine
 10
18.44089999999999
 20
388.0189999999998
 30
0.0
 11
22.34390000000002
 21
386.1979999999998
 31
0.0
  0
LINE
  5
A0F
330
1E
100
AcDbEntity
  8
0
100
AcDbLine
 10
13.6372
 20
391.3619999999999
 30
0.0
 11
16.08499999999998
 21
390.2209999999998
 31
0.0
  0
LINE
  5
A10
330
1E
100
AcDbEntity
  8
0
100
AcDbLine
 10
12.55309999999997
 20
390.7639999999998
 30
0.0
 11
15.13299999999998
 21
389.5609999999999
 31
0.0
  0
LINE
  5
A11
330
1E
100
AcDbEntity
  8
0
100
AcDbLine
 10
10.5942
 20
392.7809999999999
 30
0.0
 11
11.71879999999998
 21
392.2559999999998
 31
0.0
  0
LINE
  5
A12
330
1E
100
AcDbEntity
  8
0
100
AcDbLine
 10
10.70069999999998
 20
391.6279999999999
 30
0.0
 11
12.55309999999997
 21
390.7639999999998
 31
0.0
  0
LINE
  5
A13
330
1E
100
AcDbEntity
  8
0
100
AcDbLine
 10
10.1311
 20
392.9959999999998
 30
0.0
 11
10.5942
 21
392.7809999999999
 31
0.0
  0
LINE
  5
A14
330
1E
100
AcDbEntity
  8
0
100
AcDbLine
 10
9.046899999999993
 20
392.3989999999998
 30
0.0
 11
10.1311
 21
392.9959999999998
 31
0.0
  0
LINE
  5
A15
330
1E
100
AcDbEntity
  8
0
100
AcDbLine
 10
9.046899999999993
 20
392.3989999999998
 30
0.0
 11
9.50999999999999
 21
392.1829999999999
 31
0.0
  0
LINE
  5
A16
330
1E
100
AcDbEntity
  8
0
100
AcDbLine
 10
9.50999999999999
 20
392.1829999999999
 30
0.0
 11
10.70069999999998
 21
391.6279999999999
 31
0.0
  0
LINE
  5
A17
330
1E
100
AcDbEntity
  8
0
100
AcDbLine
 10
11.71879999999998
 20
392.2559999999998
 30
0.0
 11
13.6372
 21
391.3619999999999
 31
0.0
  0
LINE
  5
A18
330
1E
100
AcDbEntity
  8
0
100
AcDbLine
 10
16.08499999999998
 20
390.2209999999998
 30
0.0
 11
19.39260000000001
 21
388.6779999999999
 31
0.0
  0
LINE
  5
A19
330
1E
100
AcDbEntity
  8
0
100
AcDbLine
 10
15.13299999999998
 20
389.5609999999999
 30
0.0
 11
18.44089999999999
 21
388.0189999999998
 31
0.0
  0
LINE
  5
A1A
330
1E
100
AcDbEntity
  8
0
100
AcDbLine
 10
23.22969999999997
 20
386.8889999999998
 30
0.0
 11
27.6619
 21
384.8219999999999
 31
0.0
  0
LINE
  5
A1B
330
1E
100
AcDbEntity
  8
0
100
AcDbLine
 10
22.34390000000002
 20
386.1979999999998
 30
0.0
 11
26.84230000000002
 21
384.1009999999998
 31
0.0
  0
LINE
  5
A1C
330
1E
100
AcDbEntity
  8
0
100
AcDbLine
 10
37.71730000000002
 20
380.1329999999999
 30
0.0
 11
43.53879999999998
 21
377.4189999999999
 31
0.0
  0
LINE
  5
A1D
330
1E
100
AcDbEntity
  8
0
100
AcDbLine
 10
37.02999999999997
 20
379.3499999999998
 30
0.0
 11
42.65309999999999
 21
376.7279999999998
 31
0.0
  0
LINE
  5
A1E
330
1E
100
AcDbEntity
  8
0
100
AcDbLine
 10
32.55729999999999
 20
382.539
 30
0.0
 11
37.71730000000002
 21
380.1329999999999
 31
0.0
  0
LINE
  5
A1F
330
1E
100
AcDbEntity
  8
0
100
AcDbLine
 10
31.80399999999997
 20
381.7869999999999
 30
0.0
 11
37.02999999999997
 21
379.3499999999998
 31
0.0
  0
LINE
  5
A20
330
1E
100
AcDbEntity
  8
0
100
AcDbLine
 10
43.53879999999998
 20
377.4189999999999
 30
0.0
 11
49.02960000000001
 21
374.8579999999998
 31
0.0
  0
LINE
  5
A21
330
1E
100
AcDbEntity
  8
0
100
AcDbLine
 10
42.65309999999999
 20
376.7279999999998
 30
0.0
 11
48.54079999999999
 21
373.9829999999998
 31
0.0
  0
LINE
  5
A22
330
1E
100
AcDbEntity
  8
0
100
AcDbLine
 10
93.48509999999999
 20
354.1279999999999
 30
0.0
 11
95.93309999999997
 21
352.9859999999998
 31
0.0
  0
LINE
  5
A23
330
1E
100
AcDbEntity
  8
0
100
AcDbLine
 10
55.6302
 20
373.9869999999999
 30
0.0
 11
99.4391
 21
351.3519999999999
 31
0.0
  0
LINE
  5
A24
330
1E
100
AcDbEntity
  8
0
100
AcDbLine
 10
93.59109999999999
 20
352.9749999999998
 30
0.0
 11
96.1721
 21
351.7709999999999
 31
0.0
  0
LINE
  5
A25
330
1E
100
AcDbEntity
  8
0
100
AcDbLine
 10
91.00111240822673
 20
331.5571075660909
 30
0.0
 11
104.4130323129349
 21
315.4090814956018
 31
0.0
  0
LINE
  5
A26
330
1E
100
AcDbEntity
  8
0
100
AcDbLine
 10
60.54039999999997
 20
369.4899999999999
 30
0.0
 11
66.03109999999998
 21
366.9299999999998
 31
0.0
  0
LINE
  5
A27
330
1E
100
AcDbEntity
  8
0
100
AcDbLine
 10
60.1839
 20
368.5529999999999
 30
0.0
 11
66.07159999999999
 21
365.807
 31
0.0
  0
LINE
  5
A28
330
1E
100
AcDbEntity
  8
0
100
AcDbLine
 10
71.85270000000002
 20
364.2149999999998
 30
0.0
 11
77.01260000000002
 21
361.8089999999999
 31
0.0
  0
LINE
  5
A29
330
1E
100
AcDbEntity
  8
0
100
AcDbLine
 10
71.69470000000001
 20
363.1859999999999
 30
0.0
 11
76.92079999999998
 21
360.7489999999998
 31
0.0
  0
LINE
  5
A2A
330
1E
100
AcDbEntity
  8
0
100
AcDbLine
 10
73.00740000000002
 20
339.4019999999999
 30
0.0
 11
77.50589999999999
 21
337.3049999999998
 31
0.0
  0
LINE
  5
A2B
330
1E
100
AcDbEntity
  8
0
100
AcDbLine
 10
72.18779999999998
 20
338.6809999999999
 30
0.0
 11
76.62009999999998
 21
336.6149999999998
 31
0.0
  0
LINE
  5
A2C
330
1E
100
AcDbEntity
  8
0
100
AcDbLine
 10
73.6934
 20
336.3239999999999
 30
0.0
 11
74.02868396740621
 21
337.0431172754139
 31
0.0
  0
LINE
  5
A2D
330
1E
100
AcDbEntity
  8
0
100
AcDbLine
 10
62.81959999999997
 20
344.1539999999998
 30
0.0
 11
68.04579999999998
 21
341.7159999999999
 31
0.0
  0
LINE
  5
A2E
330
1E
100
AcDbEntity
  8
0
100
AcDbLine
 10
62.13240000000002
 20
343.3709999999998
 30
0.0
 11
67.29239999999999
 21
340.9639999999999
 31
0.0
  0
LINE
  5
A2F
330
1E
100
AcDbEntity
  8
0
100
AcDbLine
 10
61.33850000000001
 20
343.7409999999998
 30
0.0
 11
64.65150883028548
 21
342.1959040785858
 31
0.0
  0
LINE
  5
A30
330
1E
100
AcDbEntity
  8
0
100
AcDbLine
 10
61.41558663970318
 20
341.8250128623319
 30
0.0
 11
65.00514817233647
 21
340.3602685002908
 31
0.0
  0
LINE
  5
A31
330
1E
100
AcDbEntity
  8
0
100
AcDbLine
 10
61.41558663970318
 20
341.8250128623319
 30
0.0
 11
65.00514817233647
 21
340.3602685002908
 31
0.0
  0
LINE
  5
A32
330
1E
100
AcDbEntity
  8
0
100
AcDbLine
 10
61.63900000000001
 20
342.4969999999999
 30
0.0
 11
62.96210000000002
 21
341.8799999999998
 31
0.0
  0
LINE
  5
A33
330
1E
100
AcDbEntity
  8
0
100
AcDbLine
 10
57.19659999999999
 20
346.7759999999999
 30
0.0
 11
62.81959999999997
 21
344.1539999999998
 31
0.0
  0
LINE
  5
A34
330
1E
100
AcDbEntity
  8
0
100
AcDbLine
 10
56.3109
 20
346.0849999999997
 30
0.0
 11
62.13240000000002
 21
343.3709999999998
 31
0.0
  0
LINE
  5
A35
330
1E
100
AcDbEntity
  8
0
100
AcDbLine
 10
55.79629999999998
 20
344.1179999999998
 30
0.0
 11
57.97369916219953
 21
343.2294978479268
 31
0.0
  0
LINE
  5
A36
330
1E
100
AcDbEntity
  8
0
100
AcDbLine
 10
54.2749
 20
344.8269999999999
 30
0.0
 11
54.87029999999998
 21
344.5499999999998
 31
0.0
  0
LINE
  5
A37
330
1E
100
AcDbEntity
  8
0
100
AcDbLine
 10
54.2749
 20
344.8269999999999
 30
0.0
 11
54.87029999999998
 21
344.5499999999998
 31
0.0
  0
LINE
  5
A38
330
1E
100
AcDbEntity
  8
0
100
AcDbLine
 10
52.88339999999999
 20
346.5799999999997
 30
0.0
 11
53.30604618282302
 21
347.4859918174319
 31
0.0
  0
LINE
  5
A39
330
1E
100
AcDbEntity
  8
0
100
AcDbLine
 10
52.88339999999999
 20
346.5799999999997
 30
0.0
 11
54.20640000000003
 21
345.9629999999998
 31
0.0
  0
LINE
  5
A3A
330
1E
100
AcDbEntity
  8
0
100
AcDbLine
 10
54.20640000000003
 20
345.9629999999998
 30
0.0
 11
54.62910772520769
 21
346.8691237407738
 31
0.0
  0
LINE
  5
A3B
330
1E
100
AcDbEntity
  8
0
100
AcDbLine
 10
53.84800000000002
 20
345.5779999999998
 30
0.0
 11
54.0594348661482
 21
346.0315392952278
 31
0.0
  0
LINE
  5
A3C
330
1E
100
AcDbEntity
  8
0
100
AcDbLine
 10
52.97449999999997
 20
345.4339999999999
 30
0.0
 11
53.18563781039569
 21
345.8869020944719
 31
0.0
  0
LINE
  5
A3D
330
1E
100
AcDbEntity
  8
0
100
AcDbLine
 10
52.52499999999997
 20
346.1949999999998
 30
0.0
 11
52.79454770713789
 21
346.7731945019419
 31
0.0
  0
LINE
  5
A3E
330
1E
100
AcDbEntity
  8
0
100
AcDbLine
 10
52.52499999999997
 20
346.1949999999998
 30
0.0
 11
53.84800000000002
 21
345.5779999999998
 31
0.0
  0
LINE
  5
A3F
330
1E
100
AcDbEntity
  8
0
100
AcDbLine
 10
52.43479999999999
 20
344.5819999999999
 30
0.0
 11
52.64594473228441
 21
345.0348633616838
 31
0.0
  0
LINE
  5
A40
330
1E
100
AcDbEntity
  8
0
100
AcDbLine
 10
53.2783
 20
344.7399999999999
 30
0.0
 11
53.64993388679209
 21
345.5371749133388
 31
0.0
  0
LINE
  5
A41
330
1E
100
AcDbEntity
  8
0
100
AcDbLine
 10
55.39949999999999
 20
344.3029999999998
 30
0.0
 11
55.66410000000002
 21
344.1799999999998
 31
0.0
  0
LINE
  5
A42
330
1E
100
AcDbEntity
  8
0
100
AcDbLine
 10
59.14385574143091
 20
344.7642679065107
 30
0.0
 11
61.33850000000001
 21
343.7409999999998
 31
0.0
  0
LINE
  5
A43
330
1E
100
AcDbEntity
  8
0
100
AcDbLine
 10
59.1438557414333
 20
344.7642679065098
 30
0.0
 11
61.33850000000001
 21
343.7409999999998
 31
0.0
  0
LINE
  5
A44
330
1E
100
AcDbEntity
  8
0
100
AcDbLine
 10
59.81849999999997
 20
342.2429999999998
 30
0.0
 11
61.14150000000001
 21
341.6259999999998
 31
0.0
  0
LINE
  5
A45
330
1E
100
AcDbEntity
  8
0
100
AcDbLine
 10
59.53499999999997
 20
341.8229999999998
 30
0.0
 11
60.68090000000001
 21
341.2879999999999
 31
0.0
  0
LINE
  5
A46
330
1E
100
AcDbEntity
  8
0
100
AcDbLine
 10
59.82235878537437
 20
342.4751400424509
 30
0.0
 11
59.91009266434651
 21
342.4393396519529
 31
0.0
  0
LINE
  5
A47
330
1E
100
AcDbEntity
  8
0
100
AcDbLine
 10
59.82235878537437
 20
342.4751400424509
 30
0.0
 11
59.91009266434651
 21
342.4393396519529
 31
0.0
  0
LINE
  5
A48
330
1E
100
AcDbEntity
  8
0
100
AcDbLine
 10
58.85950000000002
 20
342.1379999999999
 30
0.0
 11
59.23462913692429
 21
342.9421334391419
 31
0.0
  0
LINE
  5
A49
330
1E
100
AcDbEntity
  8
0
100
AcDbLine
 10
58.85950000000002
 20
342.1379999999999
 30
0.0
 11
59.52109999999999
 21
341.8289999999999
 31
0.0
  0
LINE
  5
A4A
330
1E
100
AcDbEntity
  8
0
100
AcDbLine
 10
57.71379999999999
 20
342.6719999999999
 30
0.0
 11
57.9773838021083
 21
343.2374016010678
 31
0.0
  0
LINE
  5
A4B
330
1E
100
AcDbEntity
  8
0
100
AcDbLine
 10
57.71379999999999
 20
342.6719999999999
 30
0.0
 11
58.37529999999998
 21
342.3629999999998
 31
0.0
  0
LINE
  5
A4C
330
1E
100
AcDbEntity
  8
0
100
AcDbLine
 10
57.71379999999999
 20
342.6719999999999
 30
0.0
 11
58.05570013600572
 21
343.4053943996429
 31
0.0
  0
LINE
  5
A4D
330
1E
100
AcDbEntity
  8
0
100
AcDbLine
 10
57.71379999999999
 20
342.6719999999999
 30
0.0
 11
58.85950000000002
 21
342.1379999999999
 31
0.0
  0
LINE
  5
A4E
330
1E
100
AcDbEntity
  8
0
100
AcDbLine
 10
58.37529999999998
 20
342.3629999999998
 30
0.0
 11
59.52109999999999
 21
341.8289999999999
 31
0.0
  0
LINE
  5
A4F
330
1E
100
AcDbEntity
  8
0
100
AcDbLine
 10
59.81849999999997
 20
342.2429999999998
 30
0.0
 11
60.13930796685349
 21
342.9306896201799
 31
0.0
  0
LINE
  5
A50
330
1E
100
AcDbEntity
  8
0
100
AcDbLine
 10
59.52109999999999
 20
341.8289999999999
 30
0.0
 11
59.89099570987889
 21
342.6223525635988
 31
0.0
  0
LINE
  5
A51
330
1E
100
AcDbEntity
  8
0
100
AcDbLine
 10
59.53499999999997
 20
341.8229999999998
 30
0.0
 11
59.84911098620592
 21
342.4967851608978
 31
0.0
  0
LINE
  5
A52
330
1E
100
AcDbEntity
  8
0
100
AcDbLine
 10
61.63900000000001
 20
342.4969999999999
 30
0.0
 11
62.06183531302361
 21
343.4038974594959
 31
0.0
  0
LINE
  5
A53
330
1E
100
AcDbEntity
  8
0
100
AcDbLine
 10
62.6037
 20
341.4959999999998
 30
0.0
 11
62.81486612656641
 21
341.9486594361038
 31
0.0
  0
LINE
  5
A54
330
1E
100
AcDbEntity
  8
0
100
AcDbLine
 10
60.68090000000001
 20
341.2879999999999
 30
0.0
 11
60.89258853433637
 21
341.7420834272969
 31
0.0
  0
LINE
  5
A55
330
1E
100
AcDbEntity
  8
0
100
AcDbLine
 10
60.68090000000001
 20
341.2879999999999
 30
0.0
 11
61.3424
 21
340.9799999999999
 31
0.0
  0
LINE
  5
A56
330
1E
100
AcDbEntity
  8
0
100
AcDbLine
 10
61.3424
 20
340.9799999999999
 30
0.0
 11
61.6993329132253
 21
341.7457311225618
 31
0.0
  0
LINE
  5
A57
330
1E
100
AcDbEntity
  8
0
100
AcDbLine
 10
61.28059999999999
 20
342.1129999999998
 30
0.0
 11
61.5626506668259
 21
342.7176803221589
 31
0.0
  0
LINE
  5
A58
330
1E
100
AcDbEntity
  8
0
100
AcDbLine
 10
61.28059999999999
 20
342.1129999999998
 30
0.0
 11
61.61626881803897
 21
342.8326307362598
 31
0.0
  0
LINE
  5
A59
330
1E
100
AcDbEntity
  8
0
100
AcDbLine
 10
61.28059999999999
 20
342.1129999999998
 30
0.0
 11
62.6037
 21
341.4959999999998
 31
0.0
  0
LINE
  5
A5A
330
1E
100
AcDbEntity
  8
0
100
AcDbLine
 10
61.14150000000001
 20
341.6259999999998
 30
0.0
 11
61.35294737127589
 21
342.0792623172269
 31
0.0
  0
LINE
  5
A5B
330
1E
100
AcDbEntity
  8
0
100
AcDbLine
 10
69.2349794837666
 20
338.6342578136168
 30
0.0
 11
72.03707287875892
 21
337.4908450416349
 31
0.0
  0
LINE
  5
A5C
330
1E
100
AcDbEntity
  8
0
100
AcDbLine
 10
71.8861
 20
337.1669999999999
 30
0.0
 11
72.21434059107321
 21
337.8710939323419
 31
0.0
  0
LINE
  5
A5D
330
1E
100
AcDbEntity
  8
0
100
AcDbLine
 10
73.0319
 20
336.6329999999999
 30
0.0
 11
73.39681773204381
 21
337.4156757934408
 31
0.0
  0
LINE
  5
A5E
330
1E
100
AcDbEntity
  8
0
100
AcDbLine
 10
73.0319
 20
336.6329999999999
 30
0.0
 11
73.6934
 21
336.3239999999999
 31
0.0
  0
LINE
  5
A5F
330
1E
100
AcDbEntity
  8
0
100
AcDbLine
 10
72.88220000001349
 20
336.7027676732349
 30
0.0
 11
73.6934
 21
336.3239999999999
 31
0.0
  0
LINE
  5
A60
330
1E
100
AcDbEntity
  8
0
100
AcDbLine
 10
72.88220000001349
 20
336.7027676732349
 30
0.0
 11
73.6934
 21
336.3239999999999
 31
0.0
  0
LINE
  5
A61
330
1E
100
AcDbEntity
  8
0
100
AcDbLine
 10
71.8861
 20
337.1669999999999
 30
0.0
 11
72.03707287875892
 21
337.4908450416349
 31
0.0
  0
LINE
  5
A62
330
1E
100
AcDbEntity
  8
0
100
AcDbLine
 10
71.8861
 20
337.1669999999999
 30
0.0
 11
73.0319
 21
336.6329999999999
 31
0.0
  0
LINE
  5
A63
330
1E
100
AcDbEntity
  8
0
100
AcDbLine
 10
66.03109999999998
 20
366.9299999999998
 30
0.0
 11
71.85270000000002
 21
364.2149999999998
 31
0.0
  0
LINE
  5
A64
330
1E
100
AcDbEntity
  8
0
100
AcDbLine
 10
66.07159999999999
 20
365.807
 30
0.0
 11
71.69470000000001
 21
363.1859999999999
 31
0.0
  0
LINE
  5
A65
330
1E
100
AcDbEntity
  8
0
100
AcDbLine
 10
68.04579999999998
 20
341.7159999999999
 30
0.0
 11
73.00740000000002
 21
339.4019999999999
 31
0.0
  0
LINE
  5
A66
330
1E
100
AcDbEntity
  8
0
100
AcDbLine
 10
68.27339999999998
 20
338.2999999999998
 30
0.0
 11
68.48472893111301
 21
338.7530084268029
 31
0.0
  0
LINE
  5
A67
330
1E
100
AcDbEntity
  8
0
100
AcDbLine
 10
68.27339999999998
 20
338.2999999999998
 30
0.0
 11
68.93510000000003
 21
337.9909999999998
 31
0.0
  0
LINE
  5
A68
330
1E
100
AcDbEntity
  8
0
100
AcDbLine
 10
67.29239999999999
 20
340.9639999999999
 30
0.0
 11
72.18779999999998
 21
338.6809999999999
 31
0.0
  0
LINE
  5
A69
330
1E
100
AcDbEntity
  8
0
100
AcDbLine
 10
67.78919999999999
 20
338.5249999999998
 30
0.0
 11
68.93510000000003
 21
337.9909999999998
 31
0.0
  0
LINE
  5
A6A
330
1E
100
AcDbEntity
  8
0
100
AcDbLine
 10
67.31389999999999
 20
339.2989999999999
 30
0.0
 11
68.637
 21
338.682
 31
0.0
  0
LINE
  5
A6B
330
1E
100
AcDbEntity
  8
0
100
AcDbLine
 10
64.79989999999998
 20
339.9199999999998
 30
0.0
 11
65.94569999999999
 21
339.3849999999998
 31
0.0
  0
LINE
  5
A6C
330
1E
100
AcDbEntity
  8
0
100
AcDbLine
 10
63.38482867073333
 20
342.7867760057258
 30
0.0
 11
64.651508830284
 21
342.1959040785869
 31
0.0
  0
LINE
  5
A6D
330
1E
100
AcDbEntity
  8
0
100
AcDbLine
 10
64.79989999999998
 20
339.9199999999998
 30
0.0
 11
65.01044325243919
 21
340.3716267352958
 31
0.0
  0
LINE
  5
A6E
330
1E
100
AcDbEntity
  8
0
100
AcDbLine
 10
64.79989999999998
 20
339.9199999999998
 30
0.0
 11
65.12899958608119
 21
340.6259365233848
 31
0.0
  0
LINE
  5
A6F
330
1E
100
AcDbEntity
  8
0
100
AcDbLine
 10
62.96210000000002
 20
341.8799999999998
 30
0.0
 11
63.38482867073333
 21
342.7867760057258
 31
0.0
  0
LINE
  5
A70
330
1E
100
AcDbEntity
  8
0
100
AcDbLine
 10
67.31389999999999
 20
339.2989999999999
 30
0.0
 11
67.60370641647137
 21
339.9202341495868
 31
0.0
  0
LINE
  5
A71
330
1E
100
AcDbEntity
  8
0
100
AcDbLine
 10
66.85413915948993
 20
339.6057754795488
 30
0.0
 11
67.36060150266246
 21
339.3991101654138
 31
0.0
  0
LINE
  5
A72
330
1E
100
AcDbEntity
  8
0
100
AcDbLine
 10
65.94569999999999
 20
339.3849999999998
 30
0.0
 11
66.30819475253281
 21
340.1625709729549
 31
0.0
  0
LINE
  5
A73
330
1E
100
AcDbEntity
  8
0
100
AcDbLine
 10
65.94569999999999
 20
339.3849999999998
 30
0.0
 11
66.6073
 21
339.0759999999999
 31
0.0
  0
LINE
  5
A74
330
1E
100
AcDbEntity
  8
0
100
AcDbLine
 10
66.6073
 20
339.0759999999999
 30
0.0
 11
66.93805963323973
 21
339.7858887537819
 31
0.0
  0
LINE
  5
A75
330
1E
100
AcDbEntity
  8
0
100
AcDbLine
 10
67.1277
 20
338.8339999999999
 30
0.0
 11
67.78919999999999
 21
338.5249999999998
 31
0.0
  0
LINE
  5
A76
330
1E
100
AcDbEntity
  8
0
100
AcDbLine
 10
67.1277
 20
338.8339999999999
 30
0.0
 11
67.33913361600031
 21
339.2872328311748
 31
0.0
  0
LINE
  5
A77
330
1E
100
AcDbEntity
  8
0
100
AcDbLine
 10
67.1277
 20
338.8339999999999
 30
0.0
 11
68.27339999999998
 21
338.2999999999998
 31
0.0
  0
LINE
  5
A78
330
1E
100
AcDbEntity
  8
0
100
AcDbLine
 10
67.07280000000003
 20
338.8599999999998
 30
0.0
 11
67.33581033384422
 21
339.4241047382698
 31
0.0
  0
LINE
  5
A79
330
1E
100
AcDbEntity
  8
0
100
AcDbLine
 10
67.07280000000003
 20
338.8599999999998
 30
0.0
 11
67.12784103898662
 21
338.8343023336609
 31
0.0
  0
LINE
  5
A7A
330
1E
100
AcDbEntity
  8
0
100
AcDbLine
 10
68.9968
 20
339.0659999999999
 30
0.0
 11
69.35857451327468
 21
339.8415062321698
 31
0.0
  0
LINE
  5
A7B
330
1E
100
AcDbEntity
  8
0
100
AcDbLine
 10
68.9968
 20
339.0659999999999
 30
0.0
 11
69.41946421710162
 21
339.9720304760299
 31
0.0
  0
LINE
  5
A7C
330
1E
100
AcDbEntity
  8
0
100
AcDbLine
 10
68.9968
 20
339.0659999999999
 30
0.0
 11
70.32
 21
338.4489999999999
 31
0.0
  0
LINE
  5
A7D
330
1E
100
AcDbEntity
  8
0
100
AcDbLine
 10
68.637
 20
338.682
 30
0.0
 11
68.98993784957139
 21
339.4385638038838
 31
0.0
  0
LINE
  5
A7E
330
1E
100
AcDbEntity
  8
0
100
AcDbLine
 10
70.32
 20
338.4489999999999
 30
0.0
 11
70.72872872648719
 21
339.3252617751949
 31
0.0
  0
LINE
  5
A7F
330
1E
100
AcDbEntity
  8
0
100
AcDbLine
 10
70.32
 20
338.4489999999999
 30
0.0
 11
70.74259154804417
 21
339.354981880095
 31
0.0
  0
LINE
  5
A80
330
1E
100
AcDbEntity
  8
0
100
AcDbLine
 10
68.93510000000003
 20
337.9909999999998
 30
0.0
 11
69.25854879273856
 21
338.6848152641208
 31
0.0
  0
LINE
  5
A81
330
1E
100
AcDbEntity
  8
0
100
AcDbLine
 10
81.90800000000001
 20
359.5269999999999
 30
0.0
 11
86.3403
 21
357.4589999999999
 31
0.0
  0
LINE
  5
A82
330
1E
100
AcDbEntity
  8
0
100
AcDbLine
 10
81.88240000000002
 20
358.4349999999998
 30
0.0
 11
86.3809
 21
356.3369999999999
 31
0.0
  0
LINE
  5
A83
330
1E
100
AcDbEntity
  8
0
100
AcDbLine
 10
81.40890000000002
 20
335.4849999999998
 30
0.0
 11
84.71659999999998
 21
333.9429999999998
 31
0.0
  0
LINE
  5
A84
330
1E
100
AcDbEntity
  8
0
100
AcDbLine
 10
83.76470000000001
 20
333.2829999999999
 30
0.0
 11
86.2124
 21
332.1419999999999
 31
0.0
  0
LINE
  5
A85
330
1E
100
AcDbEntity
  8
0
100
AcDbLine
 10
84.10899999999998
 20
332.0189999999998
 30
0.0
 11
85.25479999999999
 21
331.4849999999998
 31
0.0
  0
LINE
  5
A86
330
1E
100
AcDbEntity
  8
0
100
AcDbLine
 10
84.03160000000003
 20
332.0549999999998
 30
0.0
 11
85.17740000000003
 21
331.5209999999999
 31
0.0
  0
LINE
  5
A87
330
1E
100
AcDbEntity
  8
0
100
AcDbLine
 10
77.50589999999999
 20
337.3049999999998
 30
0.0
 11
81.40890000000002
 21
335.4849999999998
 31
0.0
  0
LINE
  5
A88
330
1E
100
AcDbEntity
  8
0
100
AcDbLine
 10
76.62009999999998
 20
336.6149999999998
 30
0.0
 11
80.457
 21
334.8249999999998
 31
0.0
  0
LINE
  5
A89
330
1E
100
AcDbEntity
  8
0
100
AcDbLine
 10
78.97230000000002
 20
334.4139999999999
 30
0.0
 11
79.30995788150011
 21
335.1382945328438
 31
0.0
  0
LINE
  5
A8A
330
1E
100
AcDbEntity
  8
0
100
AcDbLine
 10
78.97230000000002
 20
334.4139999999999
 30
0.0
 11
80.1182
 21
333.8799999999999
 31
0.0
  0
LINE
  5
A8B
330
1E
100
AcDbEntity
  8
0
100
AcDbLine
 10
75.16480000000001
 20
337.2929999999998
 30
0.0
 11
77.96062540650479
 21
335.9896147990188
 31
0.0
  0
LINE
  5
A8C
330
1E
100
AcDbEntity
  8
0
100
AcDbLine
 10
75.16480000000001
 20
337.2929999999998
 30
0.0
 11
77.96062540650507
 21
335.9896147990188
 31
0.0
  0
LINE
  5
A8D
330
1E
100
AcDbEntity
  8
0
100
AcDbLine
 10
76.42680000000002
 20
335.6009999999999
 30
0.0
 11
76.84960156462807
 21
336.5079323670969
 31
0.0
  0
LINE
  5
A8E
330
1E
100
AcDbEntity
  8
0
100
AcDbLine
 10
76.2002
 20
335.1549999999998
 30
0.0
 11
76.86169999999998
 21
334.8469999999999
 31
0.0
  0
LINE
  5
A8F
330
1E
100
AcDbEntity
  8
0
100
AcDbLine
 10
74.07386600027177
 20
337.8018599696408
 30
0.0
 11
75.16480000000001
 21
337.2929999999998
 31
0.0
  0
LINE
  5
A90
330
1E
100
AcDbEntity
  8
0
100
AcDbLine
 10
74.07386600027149
 20
337.8018599696408
 30
0.0
 11
75.16480000000001
 21
337.2929999999998
 31
0.0
  0
LINE
  5
A91
330
1E
100
AcDbEntity
  8
0
100
AcDbLine
 10
74.32735332990557
 20
337.6837035219669
 30
0.0
 11
75.37898874391942
 21
337.1935113496518
 31
0.0
  0
LINE
  5
A92
330
1E
100
AcDbEntity
  8
0
100
AcDbLine
 10
73.88572167429908
 20
336.7364916544469
 30
0.0
 11
74.74220000000002
 21
336.3869999999999
 31
0.0
  0
LINE
  5
A93
330
1E
100
AcDbEntity
  8
0
100
AcDbLine
 10
74.74220000000002
 20
336.3869999999999
 30
0.0
 11
75.11593592781531
 21
336.2444581061509
 31
0.0
  0
LINE
  5
A94
330
1E
100
AcDbEntity
  8
0
100
AcDbLine
 10
74.74220000000002
 20
336.3869999999999
 30
0.0
 11
75.1159359278152
 21
336.2444581061509
 31
0.0
  0
LINE
  5
A95
330
1E
100
AcDbEntity
  8
0
100
AcDbLine
 10
75.05430000000001
 20
335.6899999999998
 30
0.0
 11
75.7158
 21
335.3809999999998
 31
0.0
  0
LINE
  5
A96
330
1E
100
AcDbEntity
  8
0
100
AcDbLine
 10
75.05430000000001
 20
335.6899999999998
 30
0.0
 11
75.26541378275499
 21
336.1425472309858
 31
0.0
  0
LINE
  5
A97
330
1E
100
AcDbEntity
  8
0
100
AcDbLine
 10
75.05430000000001
 20
335.6899999999998
 30
0.0
 11
76.2002
 21
335.1549999999998
 31
0.0
  0
LINE
  5
A98
330
1E
100
AcDbEntity
  8
0
100
AcDbLine
 10
74.74520000000001
 20
335.8339999999999
 30
0.0
 11
75.40679999999998
 21
335.5249999999998
 31
0.0
  0
LINE
  5
A99
330
1E
100
AcDbEntity
  8
0
100
AcDbLine
 10
74.74520000000001
 20
335.8339999999999
 30
0.0
 11
74.97474797834008
 21
336.326392906685
 31
0.0
  0
LINE
  5
A9A
330
1E
100
AcDbEntity
  8
0
100
AcDbLine
 10
74.74520000000001
 20
335.8339999999999
 30
0.0
 11
75.89100000000001
 21
335.2989999999999
 31
0.0
  0
LINE
  5
A9B
330
1E
100
AcDbEntity
  8
0
100
AcDbLine
 10
75.10360000000003
 20
336.2179999999998
 30
0.0
 11
75.41393277775501
 21
336.8836019473198
 31
0.0
  0
LINE
  5
A9C
330
1E
100
AcDbEntity
  8
0
100
AcDbLine
 10
75.10360000000003
 20
336.2179999999998
 30
0.0
 11
75.52639147886378
 21
337.1248034439608
 31
0.0
  0
LINE
  5
A9D
330
1E
100
AcDbEntity
  8
0
100
AcDbLine
 10
75.10360000000003
 20
336.2179999999998
 30
0.0
 11
76.42680000000002
 21
335.6009999999999
 31
0.0
  0
LINE
  5
A9E
330
1E
100
AcDbEntity
  8
0
100
AcDbLine
 10
75.40679999999998
 20
335.5249999999998
 30
0.0
 11
75.50770299368207
 21
335.4779700631699
 31
0.0
  0
LINE
  5
A9F
330
1E
100
AcDbEntity
  8
0
100
AcDbLine
 10
75.40679999999998
 20
335.5249999999998
 30
0.0
 11
75.50770299368219
 21
335.4779700631699
 31
0.0
  0
LINE
  5
AA0
330
1E
100
AcDbEntity
  8
0
100
AcDbLine
 10
76.2002
 20
335.1549999999998
 30
0.0
 11
76.4114556917188
 21
335.6081549563249
 31
0.0
  0
LINE
  5
AA1
330
1E
100
AcDbEntity
  8
0
100
AcDbLine
 10
75.7158
 20
335.3809999999998
 30
0.0
 11
75.8964000000725
 21
335.296838729349
 31
0.0
  0
LINE
  5
AA2
330
1E
100
AcDbEntity
  8
0
100
AcDbLine
 10
75.89100000000001
 20
335.2989999999999
 30
0.0
 11
76.17360913706988
 21
335.1674147933219
 31
0.0
  0
LINE
  5
AA3
330
1E
100
AcDbEntity
  8
0
100
AcDbLine
 10
77.15128728403858
 20
335.4681804850469
 30
0.0
 11
79.11465421280121
 21
334.7193575340848
 31
0.0
  0
LINE
  5
AA4
330
1E
100
AcDbEntity
  8
0
100
AcDbLine
 10
78.97230000000002
 20
334.4139999999999
 30
0.0
 11
79.11465421280121
 21
334.7193575340848
 31
0.0
  0
LINE
  5
AA5
330
1E
100
AcDbEntity
  8
0
100
AcDbLine
 10
76.86169999999998
 20
334.8469999999999
 30
0.0
 11
77.21971062643922
 21
335.6149522784359
 31
0.0
  0
LINE
  5
AA6
330
1E
100
AcDbEntity
  8
0
100
AcDbLine
 10
77.0763
 20
334.7469999999999
 30
0.0
 11
77.38476065706669
 21
335.4082999415579
 31
0.0
  0
LINE
  5
AA7
330
1E
100
AcDbEntity
  8
0
100
AcDbLine
 10
77.0763
 20
334.7469999999999
 30
0.0
 11
77.73789999999997
 21
334.4379999999998
 31
0.0
  0
LINE
  5
AA8
330
1E
100
AcDbEntity
  8
0
100
AcDbLine
 10
76.86170882474209
 20
334.8470189295519
 30
0.0
 11
77.0763
 21
334.7469999999999
 31
0.0
  0
LINE
  5
AA9
330
1E
100
AcDbEntity
  8
0
100
AcDbLine
 10
76.9753970063386
 20
334.7940299368199
 30
0.0
 11
77.73789999999997
 21
334.4379999999998
 31
0.0
  0
LINE
  5
AAA
330
1E
100
AcDbEntity
  8
0
100
AcDbLine
 10
76.9753970063386
 20
334.7940299368199
 30
0.0
 11
77.73789999999997
 21
334.4379999999998
 31
0.0
  0
LINE
  5
AAB
330
1E
100
AcDbEntity
  8
0
100
AcDbLine
 10
77.73789999999997
 20
334.4379999999998
 30
0.0
 11
78.0687671544535
 21
335.1477280537439
 31
0.0
  0
LINE
  5
AAC
330
1E
100
AcDbEntity
  8
0
100
AcDbLine
 10
80.457
 20
334.8249999999998
 30
0.0
 11
83.76470000000001
 21
333.2829999999999
 31
0.0
  0
LINE
  5
AAD
330
1E
100
AcDbEntity
  8
0
100
AcDbLine
 10
80.98259522090257
 20
334.0069297767358
 30
0.0
 11
82.59699565230619
 21
333.3912017243949
 31
0.0
  0
LINE
  5
AAE
330
1E
100
AcDbEntity
  8
0
100
AcDbLine
 10
80.98259522090257
 20
334.0069297767358
 30
0.0
 11
82.59699565230619
 21
333.3912017243949
 31
0.0
  0
LINE
  5
AAF
330
1E
100
AcDbEntity
  8
0
100
AcDbLine
 10
80.1182
 20
333.8799999999999
 30
0.0
 11
80.54062418140938
 21
334.7860156641369
 31
0.0
  0
LINE
  5
AB0
330
1E
100
AcDbEntity
  8
0
100
AcDbLine
 10
80.1182
 20
333.8799999999999
 30
0.0
 11
80.77969999999998
 21
333.572
 31
0.0
  0
LINE
  5
AB1
330
1E
100
AcDbEntity
  8
0
100
AcDbLine
 10
80.77969999999998
 20
333.572
 30
0.0
 11
80.98259522090257
 21
334.0069297767358
 31
0.0
  0
LINE
  5
AB2
330
1E
100
AcDbEntity
  8
0
100
AcDbLine
 10
80.77969999999998
 20
333.572
 30
0.0
 11
81.17524593126399
 21
334.4198992398559
 31
0.0
  0
LINE
  5
AB3
330
1E
100
AcDbEntity
  8
0
100
AcDbLine
 10
83.48730000000001
 20
332.3089999999999
 30
0.0
 11
83.89113832095659
 21
333.1752551773479
 31
0.0
  0
LINE
  5
AB4
330
1E
100
AcDbEntity
  8
0
100
AcDbLine
 10
83.48730000000001
 20
332.3089999999999
 30
0.0
 11
84.1488
 21
332.0009999999998
 31
0.0
  0
LINE
  5
AB5
330
1E
100
AcDbEntity
  8
0
100
AcDbLine
 10
82.34140000000001
 20
332.8429999999998
 30
0.0
 11
82.70354565961133
 21
333.6197302506508
 31
0.0
  0
LINE
  5
AB6
330
1E
100
AcDbEntity
  8
0
100
AcDbLine
 10
82.34140000000001
 20
332.8429999999998
 30
0.0
 11
83.48730000000001
 21
332.3089999999999
 31
0.0
  0
LINE
  5
AB7
330
1E
100
AcDbEntity
  8
0
100
AcDbLine
 10
83.20109999999999
 20
332.4419999999999
 30
0.0
 11
83.86270000000001
 21
332.1339999999999
 31
0.0
  0
LINE
  5
AB8
330
1E
100
AcDbEntity
  8
0
100
AcDbLine
 10
82.79400804641642
 20
332.6320804635779
 30
0.0
 11
83.20109999999999
 21
332.4419999999999
 31
0.0
  0
LINE
  5
AB9
330
1E
100
AcDbEntity
  8
0
100
AcDbLine
 10
82.79400804641648
 20
332.6320804635779
 30
0.0
 11
83.20109999999999
 21
332.4419999999999
 31
0.0
  0
LINE
  5
ABA
330
1E
100
AcDbEntity
  8
0
100
AcDbLine
 10
82.66267655860719
 20
332.6932821517619
 30
0.0
 11
82.71680000000003
 21
332.6679999999999
 31
0.0
  0
LINE
  5
ABB
330
1E
100
AcDbEntity
  8
0
100
AcDbLine
 10
82.71680000000003
 20
332.6679999999999
 30
0.0
 11
82.85983446182262
 21
332.6013446176689
 31
0.0
  0
LINE
  5
ABC
330
1E
100
AcDbEntity
  8
0
100
AcDbLine
 10
82.66267655860719
 20
332.6932821517619
 30
0.0
 11
82.71680000000003
 21
332.6679999999999
 31
0.0
  0
LINE
  5
ABD
330
1E
100
AcDbEntity
  8
0
100
AcDbLine
 10
82.05529999999999
 20
332.9769999999999
 30
0.0
 11
82.34153664889602
 21
332.8432930846428
 31
0.0
  0
LINE
  5
ABE
330
1E
100
AcDbEntity
  8
0
100
AcDbLine
 10
82.05529999999999
 20
332.9769999999999
 30
0.0
 11
82.30116111831103
 21
333.5040322327919
 31
0.0
  0
LINE
  5
ABF
330
1E
100
AcDbEntity
  8
0
100
AcDbLine
 10
82.05529999999999
 20
332.9769999999999
 30
0.0
 11
82.3415582950729
 21
332.8433395113768
 31
0.0
  0
LINE
  5
AC0
330
1E
100
AcDbEntity
  8
0
100
AcDbLine
 10
84.1488
 20
332.0009999999998
 30
0.0
 11
84.57138285997041
 21
332.9069632539829
 31
0.0
  0
LINE
  5
AC1
330
1E
100
AcDbEntity
  8
0
100
AcDbLine
 10
77.01260000000002
 20
361.8089999999999
 30
0.0
 11
81.90800000000001
 21
359.5269999999999
 31
0.0
  0
LINE
  5
AC2
330
1E
100
AcDbEntity
  8
0
100
AcDbLine
 10
76.92079999999998
 20
360.7489999999998
 30
0.0
 11
81.88240000000002
 21
358.4349999999998
 31
0.0
  0
LINE
  5
AC3
330
1E
100
AcDbEntity
  8
0
100
AcDbLine
 10
89.14909999999997
 20
331.8759999999998
 30
0.0
 11
90.3401
 21
331.3199999999998
 31
0.0
  0
LINE
  5
AC4
330
1E
100
AcDbEntity
  8
0
100
AcDbLine
 10
89.71910000000002
 20
330.5069999999999
 30
0.0
 11
90.80309999999997
 21
331.1039999999999
 31
0.0
  0
LINE
  5
AC5
330
1E
100
AcDbEntity
  8
0
100
AcDbLine
 10
87.29649999999997
 20
332.7389999999999
 30
0.0
 11
89.14909999999997
 21
331.8759999999998
 31
0.0
  0
LINE
  5
AC6
330
1E
100
AcDbEntity
  8
0
100
AcDbLine
 10
86.2124
 20
332.1419999999999
 30
0.0
 11
88.13109999999999
 21
331.2469999999999
 31
0.0
  0
LINE
  5
AC7
330
1E
100
AcDbEntity
  8
0
100
AcDbLine
 10
86.33912971234337
 20
332.0828854471528
 30
0.0
 11
88.13109999999999
 21
331.2469999999999
 31
0.0
  0
LINE
  5
AC8
330
1E
100
AcDbEntity
  8
0
100
AcDbLine
 10
86.29205353317349
 20
331.9819164268819
 30
0.0
 11
87.7339
 21
331.432
 31
0.0
  0
LINE
  5
AC9
330
1E
100
AcDbEntity
  8
0
100
AcDbLine
 10
87.33699999999998
 20
331.6169999999999
 30
0.0
 11
87.7339
 21
331.432
 31
0.0
  0
LINE
  5
ACA
330
1E
100
AcDbEntity
  8
0
100
AcDbLine
 10
84.71659999999998
 20
333.9429999999998
 30
0.0
 11
87.29649999999997
 21
332.7389999999999
 31
0.0
  0
LINE
  5
ACB
330
1E
100
AcDbEntity
  8
0
100
AcDbLine
 10
86.2124
 20
332.1419999999999
 30
0.0
 11
87.33699999999998
 21
331.6169999999999
 31
0.0
  0
LINE
  5
ACC
330
1E
100
AcDbEntity
  8
0
100
AcDbLine
 10
85.25479999999999
 20
331.4849999999998
 30
0.0
 11
85.6244012930926
 21
332.2772838555348
 31
0.0
  0
LINE
  5
ACD
330
1E
100
AcDbEntity
  8
0
100
AcDbLine
 10
85.25479999999999
 20
331.4849999999998
 30
0.0
 11
85.91629999999998
 21
331.1759999999999
 31
0.0
  0
LINE
  5
ACE
330
1E
100
AcDbEntity
  8
0
100
AcDbLine
 10
85.91629999999998
 20
331.1759999999999
 30
0.0
 11
86.30705442868878
 21
332.014090357521
 31
0.0
  0
LINE
  5
ACF
330
1E
100
AcDbEntity
  8
0
100
AcDbLine
 10
85.10510000001477
 20
331.5547676732338
 30
0.0
 11
85.91629999999998
 21
331.1759999999999
 31
0.0
  0
LINE
  5
AD0
330
1E
100
AcDbEntity
  8
0
100
AcDbLine
 10
85.02770000000902
 20
331.5907676732368
 30
0.0
 11
85.83889999999996
 21
331.212
 31
0.0
  0
LINE
  5
AD1
330
1E
100
AcDbEntity
  8
0
100
AcDbLine
 10
85.02770000000902
 20
331.5907676732368
 30
0.0
 11
85.83889999999996
 21
331.212
 31
0.0
  0
LINE
  5
AD2
330
1E
100
AcDbEntity
  8
0
100
AcDbLine
 10
85.10510000001488
 20
331.5547676732338
 30
0.0
 11
85.91629999999998
 21
331.1759999999999
 31
0.0
  0
LINE
  5
AD3
330
1E
100
AcDbEntity
  8
0
100
AcDbLine
 10
85.17740000000003
 20
331.5209999999999
 30
0.0
 11
85.83889999999996
 21
331.212
 31
0.0
  0
LINE
  5
AD4
330
1E
100
AcDbEntity
  8
0
100
AcDbLine
 10
89.25509999999997
 20
330.7229999999998
 30
0.0
 11
89.71910000000002
 21
330.5069999999999
 31
0.0
  0
LINE
  5
AD5
330
1E
100
AcDbEntity
  8
0
100
AcDbLine
 10
88.13109999999999
 20
331.2469999999999
 30
0.0
 11
89.25509999999997
 21
330.7229999999998
 31
0.0
  0
LINE
  5
AD6
330
1E
100
AcDbEntity
  8
0
100
AcDbLine
 10
90.3401
 20
331.3199999999998
 30
0.0
 11
90.80309999999997
 21
331.1039999999999
 31
0.0
  0
LINE
  5
AD7
330
1E
100
AcDbEntity
  8
0
100
AcDbLine
 10
90.80309999999997
 20
331.1039999999999
 30
0.0
 11
91.01290250826139
 21
331.553934776309
 31
0.0
  0
LINE
  5
AD8
330
1E
100
AcDbEntity
  8
0
100
AcDbLine
 10
86.3403
 20
357.4589999999999
 30
0.0
 11
90.17709999999999
 21
355.6709999999999
 31
0.0
  0
LINE
  5
AD9
330
1E
100
AcDbEntity
  8
0
100
AcDbLine
 10
86.3809
 20
356.3369999999999
 30
0.0
 11
90.28409999999997
 21
354.5179999999999
 31
0.0
  0
LINE
  5
ADA
330
1E
100
AcDbEntity
  8
0
100
AcDbLine
 10
90.28409999999997
 20
354.5179999999999
 30
0.0
 11
93.59109999999999
 21
352.9749999999998
 31
0.0
  0
LINE
  5
ADB
330
1E
100
AcDbEntity
  8
0
100
AcDbLine
 10
90.17709999999999
 20
355.6709999999999
 30
0.0
 11
93.48509999999999
 21
354.1279999999999
 31
0.0
  0
LINE
  5
ADC
330
1E
100
AcDbEntity
  8
0
100
AcDbLine
 10
54.78499999999996
 20
372.174
 30
0.0
 11
60.54039999999997
 21
369.4899999999999
 31
0.0
  0
LINE
  5
ADD
330
1E
100
AcDbEntity
  8
0
100
AcDbLine
 10
54.36239999999997
 20
371.2679999999999
 30
0.0
 11
60.1839
 21
368.5529999999999
 31
0.0
  0
LINE
  5
ADE
330
1E
100
AcDbEntity
  8
0
100
AcDbLine
 10
99.06483224617922
 20
348.821808432848
 30
0.0
 11
112.2611
 21
332.9729999999998
 31
0.0
  0
LINE
  5
ADF
330
1E
100
AcDbEntity
  8
0
100
AcDbLine
 10
106.302038388635
 20
319.6360142180298
 30
0.0
 11
106.3850999999999
 21
319.822
 31
0.0
  0
LINE
  5
AE0
330
1E
100
AcDbEntity
  8
0
100
AcDbLine
 10
105.6350999999999
 20
318.1449999999998
 30
0.0
 11
106.9381
 21
321.0579999999998
 31
0.0
  0
LINE
  5
AE1
330
1E
100
AcDbEntity
  8
0
100
AcDbLine
 10
106.302038388635
 20
319.6360142180298
 30
0.0
 11
106.3850999999999
 21
319.822
 31
0.0
  0
LINE
  5
AE2
330
1E
100
AcDbEntity
  8
0
100
AcDbLine
 10
103.6240999999999
 20
313.6437999999999
 30
0.0
 11
104.4920999999999
 21
315.5859999999999
 31
0.0
  0
LINE
  5
AE3
330
1E
100
AcDbEntity
  8
0
100
AcDbLine
 10
103.0720999999999
 20
312.4077999999999
 30
0.0
 11
103.6240999999999
 21
313.6437999999999
 31
0.0
  0
LINE
  5
AE4
330
1E
100
AcDbEntity
  8
0
100
AcDbLine
 10
102.8750999999999
 20
311.9667999999999
 30
0.0
 11
103.0720999999999
 21
312.4077999999999
 31
0.0
  0
LINE
  5
AE5
330
1E
100
AcDbEntity
  8
0
100
AcDbLine
 10
104.4920999999999
 20
315.5859999999999
 30
0.0
 11
105.6350999999999
 21
318.1449999999998
 31
0.0
  0
LINE
  5
AE6
330
1E
100
AcDbEntity
  8
0
100
AcDbLine
 10
97.85109999999997
 20
352.0919999999999
 30
0.0
 11
98.97609999999998
 21
351.5679999999998
 31
0.0
  0
LINE
  5
AE7
330
1E
100
AcDbEntity
  8
0
100
AcDbLine
 10
98.02409999999998
 20
350.909
 30
0.0
 11
99.21510000000001
 21
350.3529999999998
 31
0.0
  0
LINE
  5
AE8
330
1E
100
AcDbEntity
  8
0
100
AcDbLine
 10
95.93309999999997
 20
352.9859999999998
 30
0.0
 11
97.85109999999997
 21
352.0919999999999
 31
0.0
  0
LINE
  5
AE9
330
1E
100
AcDbEntity
  8
0
100
AcDbLine
 10
96.1721
 20
351.7709999999999
 30
0.0
 11
98.02409999999998
 21
350.909
 31
0.0
  0
LINE
  5
AEA
330
1E
100
AcDbEntity
  8
0
100
AcDbLine
 10
98.97609999999998
 20
351.5679999999998
 30
0.0
 11
99.4391
 21
351.3519999999999
 31
0.0
  0
LINE
  5
AEB
330
1E
100
AcDbEntity
  8
0
100
AcDbLine
 10
99.4391
 20
351.3519999999999
 30
0.0
 11
99.67809999999998
 21
350.1369999999999
 31
0.0
  0
LINE
  5
AEC
330
1E
100
AcDbEntity
  8
0
100
AcDbLine
 10
99.21510000000001
 20
350.3529999999998
 30
0.0
 11
99.67809999999998
 21
350.1369999999999
 31
0.0
  0
LINE
  5
AED
330
1E
100
AcDbEntity
  8
0
100
AcDbLine
 10
99.06483224617922
 20
348.821808432848
 30
0.0
 11
99.67809999999998
 21
350.1369999999999
 31
0.0
  0
LINE
  5
AEE
330
1E
100
AcDbEntity
  8
0
100
AcDbLine
 10
99.06483224617922
 20
348.821808432848
 30
0.0
 11
99.67809999999998
 21
350.1369999999999
 31
0.0
  0
LINE
  5
AEF
330
1E
100
AcDbEntity
  8
0
100
AcDbLine
 10
111.0391
 20
330.2359999999998
 30
0.0
 11
112.1820999999999
 21
332.7959999999999
 31
0.0
  0
LINE
  5
AF0
330
1E
100
AcDbEntity
  8
0
100
AcDbLine
 10
107.3310999999999
 20
321.9399999999998
 30
0.0
 11
108.3181
 21
324.1469999999999
 31
0.0
  0
LINE
  5
AF1
330
1E
100
AcDbEntity
  8
0
100
AcDbLine
 10
106.9381
 20
321.0579999999998
 30
0.0
 11
108.3181
 21
324.1469999999999
 31
0.0
  0
LINE
  5
AF2
330
1E
100
AcDbEntity
  8
0
100
AcDbLine
 10
106.3850999999999
 20
319.822
 30
0.0
 11
107.3310999999999
 21
321.9399999999998
 31
0.0
  0
LINE
  5
AF3
330
1E
100
AcDbEntity
  8
0
100
AcDbLine
 10
108.3181
 20
324.1469999999999
 30
0.0
 11
109.7371
 21
327.3239999999999
 31
0.0
  0
LINE
  5
AF4
330
1E
100
AcDbEntity
  8
0
100
AcDbLine
 10
108.3181
 20
324.1469999999999
 30
0.0
 11
109.3421
 21
326.4409999999999
 31
0.0
  0
LINE
  5
AF5
330
1E
100
AcDbEntity
  8
0
100
AcDbLine
 10
108.3181
 20
324.1469999999999
 30
0.0
 11
109.7371
 21
327.3239999999999
 31
0.0
  0
LINE
  5
AF6
330
1E
100
AcDbEntity
  8
0
100
AcDbLine
 10
111.7091
 20
331.7369999999999
 30
0.0
 11
111.766024202995
 21
331.8641067013709
 31
0.0
  0
LINE
  5
AF7
330
1E
100
AcDbEntity
  8
0
100
AcDbLine
 10
111.7091
 20
331.7369999999999
 30
0.0
 11
111.766024202995
 21
331.8641067013709
 31
0.0
  0
LINE
  5
AF8
330
1E
100
AcDbEntity
  8
0
100
AcDbLine
 10
111.4590193548269
 20
331.1765017920879
 30
0.0
 11
111.7091
 21
331.7369999999999
 31
0.0
  0
LINE
  5
AF9
330
1E
100
AcDbEntity
  8
0
100
AcDbLine
 10
111.4590193548269
 20
331.1765017920879
 30
0.0
 11
111.7091
 21
331.7369999999999
 31
0.0
  0
LINE
  5
AFA
330
1E
100
AcDbEntity
  8
0
100
AcDbLine
 10
110.2891
 20
328.5599999999998
 30
0.0
 11
110.8849857142969
 21
329.89131428574
 31
0.0
  0
LINE
  5
AFB
330
1E
100
AcDbEntity
  8
0
100
AcDbLine
 10
110.2891
 20
328.5599999999998
 30
0.0
 11
110.8849857142969
 21
329.89131428574
 31
0.0
  0
LINE
  5
AFC
330
1E
100
AcDbEntity
  8
0
100
AcDbLine
 10
109.3421
 20
326.4409999999999
 30
0.0
 11
110.2891
 21
328.5599999999998
 31
0.0
  0
LINE
  5
AFD
330
1E
100
AcDbEntity
  8
0
100
AcDbLine
 10
109.7371
 20
327.3239999999999
 30
0.0
 11
110.8849857142969
 21
329.89131428574
 31
0.0
  0
LINE
  5
AFE
330
1E
100
AcDbEntity
  8
0
100
AcDbLine
 10
109.7371
 20
327.3239999999999
 30
0.0
 11
110.8849857142969
 21
329.89131428574
 31
0.0
  0
LINE
  5
AFF
330
1E
100
AcDbEntity
  8
0
100
AcDbLine
 10
109.7371
 20
327.3239999999999
 30
0.0
 11
111.0391
 21
330.2359999999998
 31
0.0
  0
LINE
  5
B00
330
1E
100
AcDbEntity
  8
0
100
AcDbLine
 10
112.2353409138099
 20
332.9149190031118
 30
0.0
 11
113.0511
 21
334.7369999999999
 31
0.0
  0
LINE
  5
B01
330
1E
100
AcDbEntity
  8
0
100
AcDbLine
 10
112.2353409138099
 20
332.9149190031118
 30
0.0
 11
112.2611
 21
332.9729999999998
 31
0.0
  0
LINE
  5
B02
330
1E
100
AcDbEntity
  8
0
100
AcDbLine
 10
113.5620999999999
 20
335.8849999999999
 30
0.0
 11
113.7600999999999
 21
336.3259999999999
 31
0.0
  0
LINE
  5
B03
330
1E
100
AcDbEntity
  8
0
100
AcDbLine
 10
113.0511
 20
334.7369999999999
 30
0.0
 11
113.5620999999999
 21
335.8849999999999
 31
0.0
  0
LINE
  5
B04
330
1E
100
AcDbEntity
  8
0
100
AcDbLine
 10
112.1820999999999
 20
332.7959999999999
 30
0.0
 11
113.0511
 21
334.7369999999999
 31
0.0
  0
LINE
  5
B05
330
1E
100
AcDbEntity
  8
0
100
AcDbLine
 10
220.8280999999999
 20
223.6559999999999
 30
0.0
 11
226.2281
 21
223.6559999999999
 31
0.0
  0
LINE
  5
B06
330
1E
100
AcDbEntity
  8
0
100
AcDbLine
 10
221.5281
 20
222.6559999999999
 30
0.0
 11
227.1281
 21
222.6559999999999
 31
0.0
  0
LINE
  5
B07
330
1E
100
AcDbEntity
  8
0
100
AcDbLine
 10
220.8280999999999
 20
273.2359999999999
 30
0.0
 11
220.8280999999999
 21
229.6559999999999
 31
0.0
  0
LINE
  5
B08
330
1E
100
AcDbEntity
  8
0
100
AcDbLine
 10
216.8280999999999
 20
265.2359999999998
 30
0.0
 11
216.8280999999999
 21
233.6559999999999
 31
0.0
  0
LINE
  5
B09
330
1E
100
AcDbEntity
  8
0
100
AcDbLine
 10
216.8280999999999
 20
233.6559999999999
 30
0.0
 11
216.8280999999999
 21
265.2359999999998
 31
0.0
  0
LINE
  5
B0A
330
1E
100
AcDbEntity
  8
0
100
AcDbLine
 10
220.8280999999999
 20
229.6559999999999
 30
0.0
 11
220.8280999999999
 21
273.2359999999999
 31
0.0
  0
LINE
  5
B0B
330
1E
100
AcDbEntity
  8
0
100
AcDbLine
 10
184.8670999999999
 20
251.2463999999999
 30
0.0
 11
193.7281
 21
240.6559999999999
 31
0.0
  0
LINE
  5
B0C
330
1E
100
AcDbEntity
  8
0
100
AcDbLine
 10
163.0561
 20
245.6362999999999
 30
0.0
 11
164.9280999999999
 21
247.2064999999999
 31
0.0
  0
LINE
  5
B0D
330
1E
100
AcDbEntity
  8
0
100
AcDbLine
 10
161.8600999999999
 20
244.9950999999999
 30
0.0
 11
165.0121
 21
247.6396999999999
 31
0.0
  0
LINE
  5
B0E
330
1E
100
AcDbEntity
  8
0
100
AcDbLine
 10
160.9150999999999
 20
245.4133999999999
 30
0.0
 11
162.3391
 21
246.6551999999999
 31
0.0
  0
LINE
  5
B0F
330
1E
100
AcDbEntity
  8
0
100
AcDbLine
 10
180.1281
 20
233.3559999999998
 30
0.0
 11
182.9280999999999
 21
234.8559999999999
 31
0.0
  0
LINE
  5
B10
330
1E
100
AcDbEntity
  8
0
100
AcDbLine
 10
179.9280999999999
 20
223.6559999999999
 30
0.0
 11
188.1281
 21
223.6559999999999
 31
0.0
  0
LINE
  5
B11
330
1E
100
AcDbEntity
  8
0
100
AcDbLine
 10
179.4280999999999
 20
222.6559999999999
 30
0.0
 11
187.8281
 21
222.6559999999999
 31
0.0
  0
LINE
  5
B12
330
1E
100
AcDbEntity
  8
0
100
AcDbLine
 10
160.3971
 20
243.4048999999999
 30
0.0
 11
160.7250999999999
 21
243.6803999999999
 31
0.0
  0
LINE
  5
B13
330
1E
100
AcDbEntity
  8
0
100
AcDbLine
 10
160.3971
 20
243.4048999999999
 30
0.0
 11
160.7110999999999
 21
244.0308999999998
 31
0.0
  0
LINE
  5
B14
330
1E
100
AcDbEntity
  8
0
100
AcDbLine
 10
160.3971
 20
243.4048999999999
 30
0.0
 11
160.7690999999999
 21
242.6288
 31
0.0
  0
LINE
  5
B15
330
1E
100
AcDbEntity
  8
0
100
AcDbLine
 10
160.0340999999999
 20
244.6593999999999
 30
0.0
 11
160.9150999999999
 21
245.4133999999999
 31
0.0
  0
LINE
  5
B16
330
1E
100
AcDbEntity
  8
0
100
AcDbLine
 10
159.6581
 20
244.3047999999999
 30
0.0
 11
160.9041716357189
 21
244.1926627218189
 31
0.0
  0
LINE
  5
B17
330
1E
100
AcDbEntity
  8
0
100
AcDbLine
 10
159.6581
 20
244.3047999999999
 30
0.0
 11
160.0340999999999
 21
244.6593999999999
 31
0.0
  0
LINE
  5
B18
330
1E
100
AcDbEntity
  8
0
100
AcDbLine
 10
169.8281
 20
223.6559999999999
 30
0.0
 11
172.1281
 21
229.0559999999999
 31
0.0
  0
LINE
  5
B19
330
1E
100
AcDbEntity
  8
0
100
AcDbLine
 10
167.4280999999999
 20
223.6559999999999
 30
0.0
 11
172.8281
 21
223.6559999999999
 31
0.0
  0
LINE
  5
B1A
330
1E
100
AcDbEntity
  8
0
100
AcDbLine
 10
166.4821
 20
235.8194999999999
 30
0.0
 11
172.1281
 21
229.0559999999999
 31
0.0
  0
LINE
  5
B1B
330
1E
100
AcDbEntity
  8
0
100
AcDbLine
 10
166.5281
 20
222.6559999999999
 30
0.0
 11
172.1281
 21
222.6559999999999
 31
0.0
  0
LINE
  5
B1C
330
1E
100
AcDbEntity
  8
0
100
AcDbLine
 10
161.8281
 20
213.6559999999999
 30
0.0
 11
161.8281
 21
222.6559999999999
 31
0.0
  0
LINE
  5
B1D
330
1E
100
AcDbEntity
  8
0
100
AcDbLine
 10
161.8281
 20
213.6559999999999
 30
0.0
 11
161.8281
 21
220.2359999999999
 31
0.0
  0
LINE
  5
B1E
330
1E
100
AcDbEntity
  8
0
100
AcDbLine
 10
161.8281
 20
220.2359999999999
 30
0.0
 11
161.8281
 21
213.6559999999999
 31
0.0
  0
LINE
  5
B1F
330
1E
100
AcDbEntity
  8
0
100
AcDbLine
 10
161.8281
 20
222.6559999999999
 30
0.0
 11
161.8281
 21
213.6559999999999
 31
0.0
  0
LINE
  5
B20
330
1E
100
AcDbEntity
  8
0
100
AcDbLine
 10
164.0280999999999
 20
223.6559999999999
 30
0.0
 11
167.4280999999999
 21
223.6559999999999
 31
0.0
  0
LINE
  5
B21
330
1E
100
AcDbEntity
  8
0
100
AcDbLine
 10
163.1281
 20
222.6559999999999
 30
0.0
 11
166.5281
 21
222.6559999999999
 31
0.0
  0
LINE
  5
B22
330
1E
100
AcDbEntity
  8
0
100
AcDbLine
 10
160.7690999999999
 20
242.6288
 30
0.0
 11
166.4821
 21
235.8194999999999
 31
0.0
  0
LINE
  5
B23
330
1E
100
AcDbEntity
  8
0
100
AcDbLine
 10
162.8281
 20
223.6559999999999
 30
0.0
 11
164.0280999999999
 21
223.6559999999999
 31
0.0
  0
LINE
  5
B24
330
1E
100
AcDbEntity
  8
0
100
AcDbLine
 10
161.8281
 20
222.6559999999999
 30
0.0
 11
163.1281
 21
222.6559999999999
 31
0.0
  0
LINE
  5
B25
330
1E
100
AcDbEntity
  8
0
100
AcDbLine
 10
161.8281
 20
222.6559999999999
 30
0.0
 11
162.8281
 21
223.6559999999999
 31
0.0
  0
LINE
  5
B26
330
1E
100
AcDbEntity
  8
0
100
AcDbLine
 10
161.6120999999999
 20
244.4241999999999
 30
0.0
 11
163.0561
 21
245.6362999999999
 31
0.0
  0
LINE
  5
B27
330
1E
100
AcDbEntity
  8
0
100
AcDbLine
 10
160.7110999999999
 20
244.0308999999998
 30
0.0
 11
161.8600999999999
 21
244.9950999999999
 31
0.0
  0
LINE
  5
B28
330
1E
100
AcDbEntity
  8
0
100
AcDbLine
 10
160.7250999999999
 20
243.6803999999999
 30
0.0
 11
161.6120999999999
 21
244.4241999999999
 31
0.0
  0
LINE
  5
B29
330
1E
100
AcDbEntity
  8
0
100
AcDbLine
 10
175.2281
 20
230.7559999999998
 30
0.0
 11
177.5280999999999
 21
231.9559999999999
 31
0.0
  0
LINE
  5
B2A
330
1E
100
AcDbEntity
  8
0
100
AcDbLine
 10
172.8281
 20
223.6559999999999
 30
0.0
 11
179.9280999999999
 21
223.6559999999999
 31
0.0
  0
LINE
  5
B2B
330
1E
100
AcDbEntity
  8
0
100
AcDbLine
 10
172.1281
 20
222.6559999999999
 30
0.0
 11
179.4280999999999
 21
222.6559999999999
 31
0.0
  0
LINE
  5
B2C
330
1E
100
AcDbEntity
  8
0
100
AcDbLine
 10
173.5281
 20
229.8559999999999
 30
0.0
 11
175.2281
 21
230.7559999999998
 31
0.0
  0
LINE
  5
B2D
330
1E
100
AcDbEntity
  8
0
100
AcDbLine
 10
172.1281
 20
229.0559999999999
 30
0.0
 11
172.5281
 21
229.2559999999999
 31
0.0
  0
LINE
  5
B2E
330
1E
100
AcDbEntity
  8
0
100
AcDbLine
 10
172.5281
 20
229.2559999999999
 30
0.0
 11
173.5281
 21
229.8559999999999
 31
0.0
  0
LINE
  5
B2F
330
1E
100
AcDbEntity
  8
0
100
AcDbLine
 10
177.5280999999999
 20
231.9559999999999
 30
0.0
 11
180.1281
 21
233.3559999999998
 31
0.0
  0
LINE
  5
B30
330
1E
100
AcDbEntity
  8
0
100
AcDbLine
 10
203.8281
 20
240.1559999999999
 30
0.0
 11
215.8281
 21
234.6559999999999
 31
0.0
  0
LINE
  5
B31
330
1E
100
AcDbEntity
  8
0
100
AcDbLine
 10
196.8281
 20
223.6559999999999
 30
0.0
 11
205.5280999999999
 21
223.6559999999999
 31
0.0
  0
LINE
  5
B32
330
1E
100
AcDbEntity
  8
0
100
AcDbLine
 10
196.8281
 20
222.6559999999999
 30
0.0
 11
205.8281
 21
222.6559999999999
 31
0.0
  0
LINE
  5
B33
330
1E
100
AcDbEntity
  8
0
100
AcDbLine
 10
192.2281
 20
239.8559999999999
 30
0.0
 11
193.3281
 21
240.4559999999999
 31
0.0
  0
LINE
  5
B34
330
1E
100
AcDbEntity
  8
0
100
AcDbLine
 10
188.1281
 20
223.6559999999999
 30
0.0
 11
196.8281
 21
223.6559999999999
 31
0.0
  0
LINE
  5
B35
330
1E
100
AcDbEntity
  8
0
100
AcDbLine
 10
187.8281
 20
222.6559999999999
 30
0.0
 11
196.8281
 21
222.6559999999999
 31
0.0
  0
LINE
  5
B36
330
1E
100
AcDbEntity
  8
0
100
AcDbLine
 10
185.7281
 20
236.3559999999999
 30
0.0
 11
188.2281
 21
237.7559999999999
 31
0.0
  0
LINE
  5
B37
330
1E
100
AcDbEntity
  8
0
100
AcDbLine
 10
182.9280999999999
 20
234.8559999999999
 30
0.0
 11
185.7281
 21
236.3559999999999
 31
0.0
  0
LINE
  5
B38
330
1E
100
AcDbEntity
  8
0
100
AcDbLine
 10
188.2281
 20
237.7559999999999
 30
0.0
 11
190.5281
 21
238.9559999999999
 31
0.0
  0
LINE
  5
B39
330
1E
100
AcDbEntity
  8
0
100
AcDbLine
 10
190.5281
 20
238.9559999999999
 30
0.0
 11
192.2281
 21
239.8559999999999
 31
0.0
  0
LINE
  5
B3A
330
1E
100
AcDbEntity
  8
0
100
AcDbLine
 10
196.8281
 20
240.6559999999999
 30
0.0
 11
203.8281
 21
240.1559999999999
 31
0.0
  0
LINE
  5
B3B
330
1E
100
AcDbEntity
  8
0
100
AcDbLine
 10
193.7281
 20
240.6559999999999
 30
0.0
 11
196.8281
 21
240.6559999999999
 31
0.0
  0
LINE
  5
B3C
330
1E
100
AcDbEntity
  8
0
100
AcDbLine
 10
193.3281
 20
240.4559999999999
 30
0.0
 11
193.7281
 21
240.6559999999999
 31
0.0
  0
LINE
  5
B3D
330
1E
100
AcDbEntity
  8
0
100
AcDbLine
 10
213.7281
 20
223.6559999999999
 30
0.0
 11
220.8280999999999
 21
223.6559999999999
 31
0.0
  0
LINE
  5
B3E
330
1E
100
AcDbEntity
  8
0
100
AcDbLine
 10
214.2281
 20
222.6559999999999
 30
0.0
 11
221.5281
 21
222.6559999999999
 31
0.0
  0
LINE
  5
B3F
330
1E
100
AcDbEntity
  8
0
100
AcDbLine
 10
205.5280999999999
 20
223.6559999999999
 30
0.0
 11
213.7281
 21
223.6559999999999
 31
0.0
  0
LINE
  5
B40
330
1E
100
AcDbEntity
  8
0
100
AcDbLine
 10
205.8281
 20
222.6559999999999
 30
0.0
 11
214.2281
 21
222.6559999999999
 31
0.0
  0
LINE
  5
B41
330
1E
100
AcDbEntity
  8
0
100
AcDbLine
 10
215.8281
 20
234.6559999999999
 30
0.0
 11
221.8281
 21
228.6559999999999
 31
0.0
  0
LINE
  5
B42
330
1E
100
AcDbEntity
  8
0
100
AcDbLine
 10
221.8281
 20
228.6559999999999
 30
0.0
 11
223.8281
 21
223.6559999999999
 31
0.0
  0
LINE
  5
B43
330
1E
100
AcDbEntity
  8
0
100
AcDbLine
 10
181.6521
 20
366.0979999999998
 30
0.0
 11
185.2921
 21
363.5199999999998
 31
0.0
  0
LINE
  5
B44
330
1E
100
AcDbEntity
  8
0
100
AcDbLine
 10
179.8360999999999
 20
273.2359999999999
 30
0.0
 11
184.9241
 21
273.2359999999999
 31
0.0
  0
LINE
  5
B45
330
1E
100
AcDbEntity
  8
0
100
AcDbLine
 10
181.0831
 20
339.3309999999999
 30
0.0
 11
182.6010999999999
 21
336.2609999999998
 31
0.0
  0
LINE
  5
B46
330
1E
100
AcDbEntity
  8
0
100
AcDbLine
 10
179.9481
 20
265.6559999999999
 30
0.0
 11
183.0680999999999
 21
265.6559999999999
 31
0.0
  0
LINE
  5
B47
330
1E
100
AcDbEntity
  8
0
100
AcDbLine
 10
174.2681
 20
273.6559999999999
 30
0.0
 11
185.2120999999999
 21
273.6559999999999
 31
0.0
  0
LINE
  5
B48
330
1E
100
AcDbEntity
  8
0
100
AcDbLine
 10
179.4680999999999
 20
265.2359999999998
 30
0.0
 11
182.6680999999999
 21
265.2359999999998
 31
0.0
  0
LINE
  5
B49
330
1E
100
AcDbEntity
  8
0
100
AcDbLine
 10
179.1540999999999
 20
258.0556999999998
 30
0.0
 11
184.8670999999999
 21
251.2463999999999
 31
0.0
  0
LINE
  5
B4A
330
1E
100
AcDbEntity
  8
0
100
AcDbLine
 10
173.7561
 20
370.0699999999998
 30
0.0
 11
177.7930999999999
 21
368.284
 31
0.0
  0
LINE
  5
B4B
330
1E
100
AcDbEntity
  8
0
100
AcDbLine
 10
159.8591
 20
353.3629999999998
 30
0.0
 11
162.2780999999999
 21
352.9129999999998
 31
0.0
  0
LINE
  5
B4C
330
1E
100
AcDbEntity
  8
0
100
AcDbLine
 10
146.0960999999999
 20
354.0499999999998
 30
0.0
 11
151.3460999999999
 21
354.0139999999999
 31
0.0
  0
LINE
  5
B4D
330
1E
100
AcDbEntity
  8
0
100
AcDbLine
 10
153.8130999999999
 20
353.9349999999998
 30
0.0
 11
157.3401
 21
353.6829999999998
 31
0.0
  0
LINE
  5
B4E
330
1E
100
AcDbEntity
  8
0
100
AcDbLine
 10
151.3460999999999
 20
354.0139999999999
 30
0.0
 11
153.8130999999999
 21
353.9349999999998
 31
0.0
  0
LINE
  5
B4F
330
1E
100
AcDbEntity
  8
0
100
AcDbLine
 10
157.3401
 20
353.6829999999998
 30
0.0
 11
159.8591
 21
353.3629999999998
 31
0.0
  0
LINE
  5
B50
330
1E
100
AcDbEntity
  8
0
100
AcDbLine
 10
169.4261
 20
250.9805999999998
 30
0.0
 11
171.7571
 21
252.9365999999999
 31
0.0
  0
LINE
  5
B51
330
1E
100
AcDbEntity
  8
0
100
AcDbLine
 10
169.2470999999999
 20
251.1933999999999
 30
0.0
 11
173.645920210424
 21
254.7499232054399
 31
0.0
  0
LINE
  5
B52
330
1E
100
AcDbEntity
  8
0
100
AcDbLine
 10
171.1930999999999
 20
254.0638999999999
 30
0.0
 11
173.4190999999999
 21
255.8831999999998
 31
0.0
  0
LINE
  5
B53
330
1E
100
AcDbEntity
  8
0
100
AcDbLine
 10
164.9280999999999
 20
247.2064999999999
 30
0.0
 11
167.0951
 21
249.0246999999999
 31
0.0
  0
LINE
  5
B54
330
1E
100
AcDbEntity
  8
0
100
AcDbLine
 10
165.0121
 20
247.6396999999999
 30
0.0
 11
167.0471
 21
249.3476999999999
 31
0.0
  0
LINE
  5
B55
330
1E
100
AcDbEntity
  8
0
100
AcDbLine
 10
164.2291
 20
248.2081999999999
 30
0.0
 11
166.4940999999999
 21
250.1156999999999
 31
0.0
  0
LINE
  5
B56
330
1E
100
AcDbEntity
  8
0
100
AcDbLine
 10
162.3391
 20
246.6551999999999
 30
0.0
 11
164.2291
 21
248.2081999999999
 31
0.0
  0
LINE
  5
B57
330
1E
100
AcDbEntity
  8
0
100
AcDbLine
 10
167.0951
 20
249.0246999999999
 30
0.0
 11
169.4261
 21
250.9805999999998
 31
0.0
  0
LINE
  5
B58
330
1E
100
AcDbEntity
  8
0
100
AcDbLine
 10
167.0471
 20
249.3476999999999
 30
0.0
 11
169.2470999999999
 21
251.1933999999999
 31
0.0
  0
LINE
  5
B59
330
1E
100
AcDbEntity
  8
0
100
AcDbLine
 10
166.4940999999999
 20
250.1156999999999
 30
0.0
 11
168.7991
 21
252.1114999999999
 31
0.0
  0
LINE
  5
B5A
330
1E
100
AcDbEntity
  8
0
100
AcDbLine
 10
168.7991
 20
252.1114999999999
 30
0.0
 11
171.1930999999999
 21
254.0638999999999
 31
0.0
  0
LINE
  5
B5B
330
1E
100
AcDbEntity
  8
0
100
AcDbLine
 10
176.8280999999999
 20
265.2359999999998
 30
0.0
 11
177.5480999999999
 21
265.2359999999998
 31
0.0
  0
LINE
  5
B5C
330
1E
100
AcDbEntity
  8
0
100
AcDbLine
 10
176.8280999999999
 20
265.2359999999998
 30
0.0
 11
177.3080999999999
 21
265.6559999999999
 31
0.0
  0
LINE
  5
B5D
330
1E
100
AcDbEntity
  8
0
100
AcDbLine
 10
175.9961
 20
273.2359999999999
 30
0.0
 11
179.8360999999999
 21
273.2359999999999
 31
0.0
  0
LINE
  5
B5E
330
1E
100
AcDbEntity
  8
0
100
AcDbLine
 10
176.8341
 20
257.4468999999999
 30
0.0
 11
177.5860999999999
 21
258.1559999999999
 31
0.0
  0
LINE
  5
B5F
330
1E
100
AcDbEntity
  8
0
100
AcDbLine
 10
175.7951
 20
256.3249999999999
 30
0.0
 11
177.2391
 21
257.5370999999999
 31
0.0
  0
LINE
  5
B60
330
1E
100
AcDbEntity
  8
0
100
AcDbLine
 10
176.7721
 20
258.7660999999999
 30
0.0
 11
177.6531
 21
259.5201999999999
 31
0.0
  0
LINE
  5
B61
330
1E
100
AcDbEntity
  8
0
100
AcDbLine
 10
176.8280999999999
 20
265.2359999999998
 30
0.0
 11
176.8280999999999
 21
261.1700239455699
 31
0.0
  0
LINE
  5
B62
330
1E
100
AcDbEntity
  8
0
100
AcDbLine
 10
176.8280999999999
 20
261.1700239455699
 30
0.0
 11
176.8280999999999
 21
265.2359999999998
 31
0.0
  0
LINE
  5
B63
330
1E
100
AcDbEntity
  8
0
100
AcDbLine
 10
173.9230999999999
 20
254.7546999999999
 30
0.0
 11
175.7951
 21
256.3249999999999
 31
0.0
  0
LINE
  5
B64
330
1E
100
AcDbEntity
  8
0
100
AcDbLine
 10
173.6890999999999
 20
254.7852999999999
 30
0.0
 11
175.4501
 21
256.2933999999998
 31
0.0
  0
LINE
  5
B65
330
1E
100
AcDbEntity
  8
0
100
AcDbLine
 10
173.4190999999999
 20
255.8831999999998
 30
0.0
 11
175.3480999999999
 21
257.5243999999999
 31
0.0
  0
LINE
  5
B66
330
1E
100
AcDbEntity
  8
0
100
AcDbLine
 10
173.645920210424
 20
254.7499232054399
 30
0.0
 11
173.6890999999999
 21
254.7852999999999
 31
0.0
  0
LINE
  5
B67
330
1E
100
AcDbEntity
  8
0
100
AcDbLine
 10
171.7571
 20
252.9365999999999
 30
0.0
 11
173.9230999999999
 21
254.7546999999999
 31
0.0
  0
LINE
  5
B68
330
1E
100
AcDbEntity
  8
0
100
AcDbLine
 10
175.3480999999999
 20
257.5243999999999
 30
0.0
 11
176.7721
 21
258.7660999999999
 31
0.0
  0
LINE
  5
B69
330
1E
100
AcDbEntity
  8
0
100
AcDbLine
 10
175.4501
 20
256.2933999999998
 30
0.0
 11
176.8341
 21
257.4468999999999
 31
0.0
  0
LINE
  5
B6A
330
1E
100
AcDbEntity
  8
0
100
AcDbLine
 10
173.4040999999999
 20
273.6559999999999
 30
0.0
 11
174.2681
 21
273.6559999999999
 31
0.0
  0
LINE
  5
B6B
330
1E
100
AcDbEntity
  8
0
100
AcDbLine
 10
173.6920999999999
 20
273.2359999999999
 30
0.0
 11
175.9961
 21
273.2359999999999
 31
0.0
  0
LINE
  5
B6C
330
1E
100
AcDbEntity
  8
0
100
AcDbLine
 10
172.8281
 20
273.2359999999999
 30
0.0
 11
173.6920999999999
 21
273.2359999999999
 31
0.0
  0
LINE
  5
B6D
330
1E
100
AcDbEntity
  8
0
100
AcDbLine
 10
172.8281
 20
273.2359999999999
 30
0.0
 11
173.4040999999999
 21
273.6559999999999
 31
0.0
  0
LINE
  5
B6E
330
1E
100
AcDbEntity
  8
0
100
AcDbLine
 10
172.8281
 20
273.2359999999999
 30
0.0
 11
172.8281
 21
265.9366869794018
 31
0.0
  0
LINE
  5
B6F
330
1E
100
AcDbEntity
  8
0
100
AcDbLine
 10
172.8281
 20
265.9366869794018
 30
0.0
 11
172.8281
 21
273.2359999999999
 31
0.0
  0
LINE
  5
B70
330
1E
100
AcDbEntity
  8
0
100
AcDbLine
 10
178.4541
 20
258.5562999999999
 30
0.0
 11
179.1540999999999
 21
258.0556999999998
 31
0.0
  0
LINE
  5
B71
330
1E
100
AcDbEntity
  8
0
100
AcDbLine
 10
177.6531
 20
259.5201999999999
 30
0.0
 11
177.9891
 21
259.7864999999999
 31
0.0
  0
LINE
  5
B72
330
1E
100
AcDbEntity
  8
0
100
AcDbLine
 10
177.8717124770889
 20
258.3823648888349
 30
0.0
 11
177.9220999999999
 21
258.4222999999999
 31
0.0
  0
LINE
  5
B73
330
1E
100
AcDbEntity
  8
0
100
AcDbLine
 10
177.8717124770889
 20
258.3823648888349
 30
0.0
 11
178.4541
 21
258.5562999999999
 31
0.0
  0
LINE
  5
B74
330
1E
100
AcDbEntity
  8
0
100
AcDbLine
 10
178.1261
 20
258.2807999999999
 30
0.0
 11
178.4541
 21
258.5562999999999
 31
0.0
  0
LINE
  5
B75
330
1E
100
AcDbEntity
  8
0
100
AcDbLine
 10
177.9220999999999
 20
258.4222999999999
 30
0.0
 11
177.9891
 21
259.7864999999999
 31
0.0
  0
LINE
  5
B76
330
1E
100
AcDbEntity
  8
0
100
AcDbLine
 10
177.2391
 20
257.5370999999999
 30
0.0
 11
178.1261
 21
258.2807999999999
 31
0.0
  0
LINE
  5
B77
330
1E
100
AcDbEntity
  8
0
100
AcDbLine
 10
177.5860999999999
 20
258.1559999999999
 30
0.0
 11
177.9220999999999
 21
258.4222999999999
 31
0.0
  0
LINE
  5
B78
330
1E
100
AcDbEntity
  8
0
100
AcDbLine
 10
178.0281
 20
265.6559999999999
 30
0.0
 11
179.9481
 21
265.6559999999999
 31
0.0
  0
LINE
  5
B79
330
1E
100
AcDbEntity
  8
0
100
AcDbLine
 10
177.3080999999999
 20
265.6559999999999
 30
0.0
 11
178.0281
 21
265.6559999999999
 31
0.0
  0
LINE
  5
B7A
330
1E
100
AcDbEntity
  8
0
100
AcDbLine
 10
177.5480999999999
 20
265.2359999999998
 30
0.0
 11
179.4680999999999
 21
265.2359999999998
 31
0.0
  0
LINE
  5
B7B
330
1E
100
AcDbEntity
  8
0
100
AcDbLine
 10
168.9351
 20
350.6779999999999
 30
0.0
 11
171.9130999999999
 21
349.0419999999999
 31
0.0
  0
LINE
  5
B7C
330
1E
100
AcDbEntity
  8
0
100
AcDbLine
 10
165.7201
 20
351.9659999999999
 30
0.0
 11
168.9351
 21
350.6779999999999
 31
0.0
  0
LINE
  5
B7D
330
1E
100
AcDbEntity
  8
0
100
AcDbLine
 10
162.2780999999999
 20
352.9129999999998
 30
0.0
 11
165.7201
 21
351.9659999999999
 31
0.0
  0
LINE
  5
B7E
330
1E
100
AcDbEntity
  8
0
100
AcDbLine
 10
174.6371
 20
347.0639999999999
 30
0.0
 11
177.0880999999999
 21
344.7679999999999
 31
0.0
  0
LINE
  5
B7F
330
1E
100
AcDbEntity
  8
0
100
AcDbLine
 10
171.9130999999999
 20
349.0419999999999
 30
0.0
 11
174.6371
 21
347.0639999999999
 31
0.0
  0
LINE
  5
B80
330
1E
100
AcDbEntity
  8
0
100
AcDbLine
 10
179.2421
 20
342.1789999999999
 30
0.0
 11
181.0831
 21
339.3309999999999
 31
0.0
  0
LINE
  5
B81
330
1E
100
AcDbEntity
  8
0
100
AcDbLine
 10
177.0880999999999
 20
344.7679999999999
 30
0.0
 11
179.2421
 21
342.1789999999999
 31
0.0
  0
LINE
  5
B82
330
1E
100
AcDbEntity
  8
0
100
AcDbLine
 10
177.7930999999999
 20
368.284
 30
0.0
 11
181.6521
 21
366.0979999999998
 31
0.0
  0
LINE
  5
B83
330
1E
100
AcDbEntity
  8
0
100
AcDbLine
 10
159.4710999999999
 20
373.2759999999999
 30
0.0
 11
162.3951
 21
372.9409999999999
 31
0.0
  0
LINE
  5
B84
330
1E
100
AcDbEntity
  8
0
100
AcDbLine
 10
147.6010999999999
 20
373.6559999999999
 30
0.0
 11
152.9061
 21
373.6199999999998
 31
0.0
  0
LINE
  5
B85
330
1E
100
AcDbEntity
  8
0
100
AcDbLine
 10
152.9061
 20
373.6199999999998
 30
0.0
 11
155.5421
 21
373.5379999999999
 31
0.0
  0
LINE
  5
B86
330
1E
100
AcDbEntity
  8
0
100
AcDbLine
 10
155.5421
 20
373.5379999999999
 30
0.0
 11
159.4710999999999
 21
373.2759999999999
 31
0.0
  0
LINE
  5
B87
330
1E
100
AcDbEntity
  8
0
100
AcDbLine
 10
167.357072577802
 20
371.9798411797738
 30
0.0
 11
173.7561
 21
370.0699999999998
 31
0.0
  0
LINE
  5
B88
330
1E
100
AcDbEntity
  8
0
100
AcDbLine
 10
165.2930999999999
 20
372.4649999999998
 30
0.0
 11
167.357072577802
 21
371.9798411797738
 31
0.0
  0
LINE
  5
B89
330
1E
100
AcDbEntity
  8
0
100
AcDbLine
 10
165.2930999999999
 20
372.4649999999998
 30
0.0
 11
167.357072577802
 21
371.9798411797738
 31
0.0
  0
LINE
  5
B8A
330
1E
100
AcDbEntity
  8
0
100
AcDbLine
 10
162.3951
 20
372.9409999999999
 30
0.0
 11
165.2930999999999
 21
372.4649999999998
 31
0.0
  0
LINE
  5
B8B
330
1E
100
AcDbEntity
  8
0
100
AcDbLine
 10
203.3860999999999
 20
330.5579999999999
 30
0.0
 11
204.1001
 21
325.5219999999999
 31
0.0
  0
LINE
  5
B8C
330
1E
100
AcDbEntity
  8
0
100
AcDbLine
 10
203.8281
 20
273.2359999999999
 30
0.0
 11
208.7321
 21
273.2359999999999
 31
0.0
  0
LINE
  5
B8D
330
1E
100
AcDbEntity
  8
0
100
AcDbLine
 10
203.8281
 20
273.6559999999999
 30
0.0
 11
217.7234312703917
 21
273.6559999999999
 31
0.0
  0
LINE
  5
B8E
330
1E
100
AcDbEntity
  8
0
100
AcDbLine
 10
201.8681
 20
265.6559999999999
 30
0.0
 11
206.5081
 21
265.6559999999999
 31
0.0
  0
LINE
  5
B8F
330
1E
100
AcDbEntity
  8
0
100
AcDbLine
 10
201.9481
 20
265.2359999999998
 30
0.0
 11
206.7481
 21
265.2359999999998
 31
0.0
  0
LINE
  5
B90
330
1E
100
AcDbEntity
  8
0
100
AcDbLine
 10
185.7091
 20
273.6559999999999
 30
0.0
 11
185.7091
 21
314.8039999999999
 31
0.0
  0
LINE
  5
B91
330
1E
100
AcDbEntity
  8
0
100
AcDbLine
 10
185.7091
 20
314.8039999999999
 30
0.0
 11
185.7091
 21
273.6559999999999
 31
0.0
  0
LINE
  5
B92
330
1E
100
AcDbEntity
  8
0
100
AcDbLine
 10
192.0121
 20
286.6559999999999
 30
0.0
 11
193.4401
 21
286.6559999999999
 31
0.0
  0
LINE
  5
B93
330
1E
100
AcDbEntity
  8
0
100
AcDbLine
 10
191.7880999999999
 20
265.6559999999999
 30
0.0
 11
200.222739467686
 21
265.6559999999999
 31
0.0
  0
LINE
  5
B94
330
1E
100
AcDbEntity
  8
0
100
AcDbLine
 10
191.7080999999999
 20
265.2359999999998
 30
0.0
 11
196.8281
 21
265.2359999999998
 31
0.0
  0
LINE
  5
B95
330
1E
100
AcDbEntity
  8
0
100
AcDbLine
 10
189.8281
 20
286.3724999999999
 30
0.0
 11
189.8281
 21
265.6559999999999
 31
0.0
  0
LINE
  5
B96
330
1E
100
AcDbEntity
  8
0
100
AcDbLine
 10
189.8281
 20
265.6559999999999
 30
0.0
 11
189.8281
 21
286.3724999999999
 31
0.0
  0
LINE
  5
B97
330
1E
100
AcDbEntity
  8
0
100
AcDbLine
 10
185.2120999999999
 20
273.6559999999999
 30
0.0
 11
189.8281
 21
273.6559999999999
 31
0.0
  0
LINE
  5
B98
330
1E
100
AcDbEntity
  8
0
100
AcDbLine
 10
184.9241
 20
273.2359999999999
 30
0.0
 11
189.8281
 21
273.2359999999999
 31
0.0
  0
LINE
  5
B99
330
1E
100
AcDbEntity
  8
0
100
AcDbLine
 10
187.1480999999999
 20
265.6559999999999
 30
0.0
 11
191.7880999999999
 21
265.6559999999999
 31
0.0
  0
LINE
  5
B9A
330
1E
100
AcDbEntity
  8
0
100
AcDbLine
 10
186.9080999999999
 20
265.2359999999998
 30
0.0
 11
191.7080999999999
 21
265.2359999999998
 31
0.0
  0
LINE
  5
B9B
330
1E
100
AcDbEntity
  8
0
100
AcDbLine
 10
183.0680999999999
 20
265.6559999999999
 30
0.0
 11
187.1480999999999
 21
265.6559999999999
 31
0.0
  0
LINE
  5
B9C
330
1E
100
AcDbEntity
  8
0
100
AcDbLine
 10
182.6680999999999
 20
265.2359999999998
 30
0.0
 11
186.9080999999999
 21
265.2359999999998
 31
0.0
  0
LINE
  5
B9D
330
1E
100
AcDbEntity
  8
0
100
AcDbLine
 10
190.2481
 20
286.6559999999999
 30
0.0
 11
190.9200999999999
 21
286.6559999999999
 31
0.0
  0
LINE
  5
B9E
330
1E
100
AcDbEntity
  8
0
100
AcDbLine
 10
189.8281
 20
286.3724999999999
 30
0.0
 11
189.9961
 21
286.6559999999999
 31
0.0
  0
LINE
  5
B9F
330
1E
100
AcDbEntity
  8
0
100
AcDbLine
 10
189.9961
 20
286.6559999999999
 30
0.0
 11
190.2481
 21
286.6559999999999
 31
0.0
  0
LINE
  5
BA0
330
1E
100
AcDbEntity
  8
0
100
AcDbLine
 10
190.9200999999999
 20
286.6559999999999
 30
0.0
 11
192.0121
 21
286.6559999999999
 31
0.0
  0
LINE
  5
BA1
330
1E
100
AcDbEntity
  8
0
100
AcDbLine
 10
203.8281
 20
286.3724999999999
 30
0.0
 11
203.8281
 21
265.6559999999999
 31
0.0
  0
LINE
  5
BA2
330
1E
100
AcDbEntity
  8
0
100
AcDbLine
 10
203.8281
 20
265.6559999999999
 30
0.0
 11
203.8281
 21
286.3724999999999
 31
0.0
  0
LINE
  5
BA3
330
1E
100
AcDbEntity
  8
0
100
AcDbLine
 10
196.8281
 20
265.2359999999998
 30
0.0
 11
201.9481
 21
265.2359999999998
 31
0.0
  0
LINE
  5
BA4
330
1E
100
AcDbEntity
  8
0
100
AcDbLine
 10
200.222739467686
 20
265.6559999999999
 30
0.0
 11
201.8681
 21
265.6559999999999
 31
0.0
  0
LINE
  5
BA5
330
1E
100
AcDbEntity
  8
0
100
AcDbLine
 10
198.5920999999999
 20
286.6559999999999
 30
0.0
 11
200.2161
 21
286.6559999999999
 31
0.0
  0
LINE
  5
BA6
330
1E
100
AcDbEntity
  8
0
100
AcDbLine
 10
195.0641
 20
286.6559999999999
 30
0.0
 11
196.8281
 21
286.6559999999999
 31
0.0
  0
LINE
  5
BA7
330
1E
100
AcDbEntity
  8
0
100
AcDbLine
 10
193.4401
 20
286.6559999999999
 30
0.0
 11
195.0641
 21
286.6559999999999
 31
0.0
  0
LINE
  5
BA8
330
1E
100
AcDbEntity
  8
0
100
AcDbLine
 10
196.8281
 20
286.6559999999999
 30
0.0
 11
198.5920999999999
 21
286.6559999999999
 31
0.0
  0
LINE
  5
BA9
330
1E
100
AcDbEntity
  8
0
100
AcDbLine
 10
200.2161
 20
286.6559999999999
 30
0.0
 11
201.6440999999999
 21
286.6559999999999
 31
0.0
  0
LINE
  5
BAA
330
1E
100
AcDbEntity
  8
0
100
AcDbLine
 10
203.4081
 20
286.6559999999999
 30
0.0
 11
203.6601
 21
286.6559999999999
 31
0.0
  0
LINE
  5
BAB
330
1E
100
AcDbEntity
  8
0
100
AcDbLine
 10
203.6601
 20
286.6559999999999
 30
0.0
 11
203.8281
 21
286.3724999999999
 31
0.0
  0
LINE
  5
BAC
330
1E
100
AcDbEntity
  8
0
100
AcDbLine
 10
202.7360999999999
 20
286.6559999999999
 30
0.0
 11
203.4081
 21
286.6559999999999
 31
0.0
  0
LINE
  5
BAD
330
1E
100
AcDbEntity
  8
0
100
AcDbLine
 10
201.6440999999999
 20
286.6559999999999
 30
0.0
 11
202.7360999999999
 21
286.6559999999999
 31
0.0
  0
LINE
  5
BAE
330
1E
100
AcDbEntity
  8
0
100
AcDbLine
 10
192.4941
 20
356.3939999999998
 30
0.0
 11
194.0471
 21
354.3509999999999
 31
0.0
  0
LINE
  5
BAF
330
1E
100
AcDbEntity
  8
0
100
AcDbLine
 10
185.3720999999999
 20
324.8569999999999
 30
0.0
 11
185.6041
 21
321.5899999999998
 31
0.0
  0
LINE
  5
BB0
330
1E
100
AcDbEntity
  8
0
100
AcDbLine
 10
185.6041
 20
321.5899999999998
 30
0.0
 11
185.6761
 21
319.3679999999998
 31
0.0
  0
LINE
  5
BB1
330
1E
100
AcDbEntity
  8
0
100
AcDbLine
 10
185.6761
 20
319.3679999999998
 30
0.0
 11
185.7091
 21
314.8039999999999
 31
0.0
  0
LINE
  5
BB2
330
1E
100
AcDbEntity
  8
0
100
AcDbLine
 10
184.6631
 20
329.5959999999999
 30
0.0
 11
185.0780999999999
 21
327.2519999999999
 31
0.0
  0
LINE
  5
BB3
330
1E
100
AcDbEntity
  8
0
100
AcDbLine
 10
182.6010999999999
 20
336.2609999999998
 30
0.0
 11
183.7921
 21
333.0059999999998
 31
0.0
  0
LINE
  5
BB4
330
1E
100
AcDbEntity
  8
0
100
AcDbLine
 10
183.7921
 20
333.0059999999998
 30
0.0
 11
184.6631
 21
329.5959999999999
 31
0.0
  0
LINE
  5
BB5
330
1E
100
AcDbEntity
  8
0
100
AcDbLine
 10
185.0780999999999
 20
327.2519999999999
 30
0.0
 11
185.3720999999999
 21
324.8569999999999
 31
0.0
  0
LINE
  5
BB6
330
1E
100
AcDbEntity
  8
0
100
AcDbLine
 10
187.2301
 20
361.9039999999998
 30
0.0
 11
189.0791
 21
360.1749999999998
 31
0.0
  0
LINE
  5
BB7
330
1E
100
AcDbEntity
  8
0
100
AcDbLine
 10
185.2921
 20
363.5199999999998
 30
0.0
 11
187.2301
 21
361.9039999999998
 31
0.0
  0
LINE
  5
BB8
330
1E
100
AcDbEntity
  8
0
100
AcDbLine
 10
189.0791
 20
360.1749999999998
 30
0.0
 11
190.8370999999999
 21
358.3359999999998
 31
0.0
  0
LINE
  5
BB9
330
1E
100
AcDbEntity
  8
0
100
AcDbLine
 10
190.8370999999999
 20
358.3359999999998
 30
0.0
 11
192.4941
 21
356.3939999999998
 31
0.0
  0
LINE
  5
BBA
330
1E
100
AcDbEntity
  8
0
100
AcDbLine
 10
201.0480999999999
 20
340.1799999999998
 30
0.0
 11
201.8161
 21
337.5879999999998
 31
0.0
  0
LINE
  5
BBB
330
1E
100
AcDbEntity
  8
0
100
AcDbLine
 10
201.8120999999999
 20
337.6014999999998
 30
0.0
 11
202.6841
 21
334.2079999999998
 31
0.0
  0
LINE
  5
BBC
330
1E
100
AcDbEntity
  8
0
100
AcDbLine
 10
202.6841
 20
334.2079999999998
 30
0.0
 11
203.3860999999999
 21
330.5579999999999
 31
0.0
  0
LINE
  5
BBD
330
1E
100
AcDbEntity
  8
0
100
AcDbLine
 10
198.0520999999999
 20
347.6909999999999
 30
0.0
 11
199.1600999999999
 21
345.312
 31
0.0
  0
LINE
  5
BBE
330
1E
100
AcDbEntity
  8
0
100
AcDbLine
 10
194.0471
 20
354.3509999999999
 30
0.0
 11
195.4940999999999
 21
352.2179999999998
 31
0.0
  0
LINE
  5
BBF
330
1E
100
AcDbEntity
  8
0
100
AcDbLine
 10
195.4940999999999
 20
352.2179999999998
 30
0.0
 11
196.8291
 21
349.9959999999998
 31
0.0
  0
LINE
  5
BC0
330
1E
100
AcDbEntity
  8
0
100
AcDbLine
 10
196.8291
 20
349.9959999999998
 30
0.0
 11
198.0520999999999
 21
347.6909999999999
 31
0.0
  0
LINE
  5
BC1
330
1E
100
AcDbEntity
  8
0
100
AcDbLine
 10
199.1600999999999
 20
345.312
 30
0.0
 11
200.1540999999999
 21
342.8579999999998
 31
0.0
  0
LINE
  5
BC2
330
1E
100
AcDbEntity
  8
0
100
AcDbLine
 10
200.1540999999999
 20
342.8579999999998
 30
0.0
 11
201.0480999999999
 21
340.1799999999998
 31
0.0
  0
LINE
  5
BC3
330
1E
100
AcDbEntity
  8
0
100
AcDbLine
 10
205.0440999999999
 20
314.8039999999999
 30
0.0
 11
206.6431
 21
292.1649999999998
 31
0.0
  0
LINE
  5
BC4
330
1E
100
AcDbEntity
  8
0
100
AcDbLine
 10
213.8201
 20
273.2359999999999
 30
0.0
 11
217.6601
 21
273.2359999999999
 31
0.0
  0
LINE
  5
BC5
330
1E
100
AcDbEntity
  8
0
100
AcDbLine
 10
213.7081
 20
265.6559999999999
 30
0.0
 11
215.6281
 21
265.6559999999999
 31
0.0
  0
LINE
  5
BC6
330
1E
100
AcDbEntity
  8
0
100
AcDbLine
 10
214.1880999999999
 20
265.2359999999998
 30
0.0
 11
216.1081
 21
265.2359999999998
 31
0.0
  0
LINE
  5
BC7
330
1E
100
AcDbEntity
  8
0
100
AcDbLine
 10
206.6431
 20
292.1649999999998
 30
0.0
 11
207.8281
 21
273.6559999999999
 31
0.0
  0
LINE
  5
BC8
330
1E
100
AcDbEntity
  8
0
100
AcDbLine
 10
208.7321
 20
273.2359999999999
 30
0.0
 11
213.8201
 21
273.2359999999999
 31
0.0
  0
LINE
  5
BC9
330
1E
100
AcDbEntity
  8
0
100
AcDbLine
 10
206.5081
 20
265.6559999999999
 30
0.0
 11
210.5881
 21
265.6559999999999
 31
0.0
  0
LINE
  5
BCA
330
1E
100
AcDbEntity
  8
0
100
AcDbLine
 10
206.7481
 20
265.2359999999998
 30
0.0
 11
210.9881
 21
265.2359999999998
 31
0.0
  0
LINE
  5
BCB
330
1E
100
AcDbEntity
  8
0
100
AcDbLine
 10
210.5881
 20
265.6559999999999
 30
0.0
 11
213.7081
 21
265.6559999999999
 31
0.0
  0
LINE
  5
BCC
330
1E
100
AcDbEntity
  8
0
100
AcDbLine
 10
210.9881
 20
265.2359999999998
 30
0.0
 11
214.1880999999999
 21
265.2359999999998
 31
0.0
  0
LINE
  5
BCD
330
1E
100
AcDbEntity
  8
0
100
AcDbLine
 10
220.2521
 20
273.6559999999999
 30
0.0
 11
220.8280999999999
 21
273.2359999999999
 31
0.0
  0
LINE
  5
BCE
330
1E
100
AcDbEntity
  8
0
100
AcDbLine
 10
219.9641
 20
273.2359999999999
 30
0.0
 11
220.8280999999999
 21
273.2359999999999
 31
0.0
  0
LINE
  5
BCF
330
1E
100
AcDbEntity
  8
0
100
AcDbLine
 10
217.0841
 20
273.6559999999999
 30
0.0
 11
219.3881
 21
273.6559999999999
 31
0.0
  0
LINE
  5
BD0
330
1E
100
AcDbEntity
  8
0
100
AcDbLine
 10
216.3480999999999
 20
265.6559999999999
 30
0.0
 11
216.8280999999999
 21
265.2359999999998
 31
0.0
  0
LINE
  5
BD1
330
1E
100
AcDbEntity
  8
0
100
AcDbLine
 10
215.6281
 20
265.6559999999999
 30
0.0
 11
216.3480999999999
 21
265.6559999999999
 31
0.0
  0
LINE
  5
BD2
330
1E
100
AcDbEntity
  8
0
100
AcDbLine
 10
216.1081
 20
265.2359999999998
 30
0.0
 11
216.8280999999999
 21
265.2359999999998
 31
0.0
  0
LINE
  5
BD3
330
1E
100
AcDbEntity
  8
0
100
AcDbLine
 10
219.3881
 20
273.6559999999999
 30
0.0
 11
220.2521
 21
273.6559999999999
 31
0.0
  0
LINE
  5
BD4
330
1E
100
AcDbEntity
  8
0
100
AcDbLine
 10
217.6601
 20
273.2359999999999
 30
0.0
 11
219.9641
 21
273.2359999999999
 31
0.0
  0
LINE
  5
BD5
330
1E
100
AcDbEntity
  8
0
100
AcDbLine
 10
204.1001
 20
325.5219999999999
 30
0.0
 11
204.4630999999999
 21
322.0509999999999
 31
0.0
  0
LINE
  5
BD6
330
1E
100
AcDbEntity
  8
0
100
AcDbLine
 10
204.4630999999999
 20
322.0509999999999
 30
0.0
 11
205.0440999999999
 21
314.8039999999999
 31
0.0
  0
LINE
  5
BD7
330
1E
100
AcDbEntity
  8
0
100
AcDbLine
 10
231.8281
 20
222.6559999999999
 30
0.0
 11
231.8281
 21
213.6559999999999
 31
0.0
  0
LINE
  5
BD8
330
1E
100
AcDbEntity
  8
0
100
AcDbLine
 10
231.8281
 20
213.6559999999999
 30
0.0
 11
231.8281
 21
222.6559999999999
 31
0.0
  0
LINE
  5
BD9
330
1E
100
AcDbEntity
  8
0
100
AcDbLine
 10
230.8281
 20
223.6559999999999
 30
0.0
 11
231.8281
 21
222.6559999999999
 31
0.0
  0
LINE
  5
BDA
330
1E
100
AcDbEntity
  8
0
100
AcDbLine
 10
230.5280999999999
 20
222.6559999999999
 30
0.0
 11
231.8281
 21
222.6559999999999
 31
0.0
  0
LINE
  5
BDB
330
1E
100
AcDbEntity
  8
0
100
AcDbLine
 10
226.2281
 20
223.6559999999999
 30
0.0
 11
229.6281
 21
223.6559999999999
 31
0.0
  0
LINE
  5
BDC
330
1E
100
AcDbEntity
  8
0
100
AcDbLine
 10
227.1281
 20
222.6559999999999
 30
0.0
 11
230.5280999999999
 21
222.6559999999999
 31
0.0
  0
LINE
  5
BDD
330
1E
100
AcDbEntity
  8
0
100
AcDbLine
 10
229.6281
 20
223.6559999999999
 30
0.0
 11
230.8281
 21
223.6559999999999
 31
0.0
  0
ENDSEC
  0
SECTION
  2
OBJECTS
  0
DICTIONARY
  5
C
330
0
100
AcDbDictionary
281
     1
  3
ACAD_GROUP
350
D
  3
ACAD_LAYOUT
350
19
  3
ACAD_MLINESTYLE
350
16
  3
ACAD_PLOTSETTINGS
350
18
  3
ACAD_PLOTSTYLENAME
350
E
  3
AcDbVariableDictionary
350
BDF
  0
DICTIONARY
  5
D
102
{ACAD_REACTORS
330
C
102
}
330
C
100
AcDbDictionary
281
     1
  0
DICTIONARY
  5
19
102
{ACAD_REACTORS
330
C
102
}
330
C
100
AcDbDictionary
281
     1
  3
Layout1
350
1D
  3
Model
350
21
  0
DICTIONARY
  5
16
102
{ACAD_REACTORS
330
C
102
}
330
C
100
AcDbDictionary
281
     1
  3
Standard
350
17
  0
DICTIONARY
  5
18
102
{ACAD_REACTORS
330
C
102
}
330
C
100
AcDbDictionary
281
     1
  0
ACDBDICTIONARYWDFLT
  5
E
102
{ACAD_REACTORS
330
C
102
}
330
C
100
AcDbDictionary
281
     1
  3
Normal
350
F
100
AcDbDictionaryWithDefault
340
F
  0
DICTIONARY
  5
BDF
102
{ACAD_REACTORS
330
C
102
}
330
C
100
AcDbDictionary
281
     1
  3
DIMASSOC
350
BE0
  0
LAYOUT
  5
1D
102
{ACAD_REACTORS
330
19
102
}
330
19
100
AcDbPlotSettings
  1

  2
C:\Programme\AutoCAD LT 2002 Deu\plotters\DWF ePlot (optimized for plotting).pc3
  4

  6

 40
0.0
 41
0.0
 42
0.0
 43
0.0
 44
0.0
 45
0.0
 46
0.0
 47
0.0
 48
0.0
 49
0.0
140
0.0
141
0.0
142
1.0
143
1.0
 70
   688
 72
     0
 73
     0
 74
     5
  7

 75
    16
147
1.0
148
0.0
149
0.0
100
AcDbLayout
  1
Layout1
 70
     1
 71
     1
 10
0.0
 20
0.0
 11
12.0
 21
9.0
 12
0.0
 22
0.0
 32
0.0
 14
1.000000000000000E+20
 24
1.000000000000000E+20
 34
1.000000000000000E+20
 15
-1.000000000000000E+20
 25
-1.000000000000000E+20
 35
-1.000000000000000E+20
146
0.0
 13
0.0
 23
0.0
 33
0.0
 16
1.0
 26
0.0
 36
0.0
 17
0.0
 27
1.0
 37
0.0
 76
     0
330
1A
  0
LAYOUT
  5
21
102
{ACAD_REACTORS
330
19
102
}
330
19
100
AcDbPlotSettings
  1

  2
C:\Programme\AutoCAD LT 2002 Deu\plotters\DWF ePlot (optimized for plotting).pc3
  4

  6

 40
0.0
 41
0.0
 42
0.0
 43
0.0
 44
0.0
 45
0.0
 46
0.0
 47
0.0
 48
0.0
 49
0.0
140
0.0
141
0.0
142
1.0
143
1.0
 70
  1712
 72
     0
 73
     0
 74
     0
  7

 75
     0
147
1.0
148
0.0
149
0.0
100
AcDbLayout
  1
Model
 70
     1
 71
     0
 10
0.0
 20
0.0
 11
12.0
 21
9.0
 12
0.0
 22
0.0
 32
0.0
 14
0.0
 24
0.0
 34
0.0
 15
0.0
 25
0.0
 35
0.0
146
0.0
 13
0.0
 23
0.0
 33
0.0
 16
1.0
 26
0.0
 36
0.0
 17
0.0
 27
1.0
 37
0.0
 76
     0
330
1E
  0
MLINESTYLE
  5
17
102
{ACAD_REACTORS
330
16
102
}
330
16
100
AcDbMlineStyle
  2
STANDARD
 70
     0
  3

 62
   256
 51
90.0
 52
90.0
 71
     2
 49
0.5
 62
   256
  6
BYLAYER
 49
-0.5
 62
   256
  6
BYLAYER
  0
ACDBPLACEHOLDER
  5
F
102
{ACAD_REACTORS
330
E
102
}
330
E
  0
DICTIONARYVAR
  5
BE0
102
{ACAD_REACTORS
330
BDF
102
}
330
BDF
100
DictionaryVariables
280
     0
  1
1
  0
ENDSEC
  0
EOF
