  0
SECTION
  2
HEADER
  9
$ACADVER
  1
AC1015
  9
$ACADMAINTVER
 70
    13
  9
$DWGCODEPAGE
  3
ANSI_1252
  9
$INSBASE
 10
0.0
 20
0.0
 30
0.0
  9
$EXTMIN
 10
0.0
 20
213.6559999999999
 30
0.0
  9
$EXTMAX
 10
410.0
 20
392.9959999999998
 30
0.0
  9
$LIMMIN
 10
0.0
 20
0.0
  9
$LIMMAX
 10
12.0
 20
9.0
  9
$ORTHOMODE
 70
     0
  9
$REGENMODE
 70
     1
  9
$FILLMODE
 70
     1
  9
$QTEXTMODE
 70
     0
  9
$MIRRTEXT
 70
     1
  9
$LTSCALE
 40
1.0
  9
$ATTMODE
 70
     1
  9
$TEXTSIZE
 40
0.2
  9
$TRACEWID
 40
0.05
  9
$TEXTSTYLE
  7
Standard
  9
$CLAYER
  8
0
  9
$CELTYPE
  6
Continuous
  9
$CECOLOR
 62
   256
  9
$CELTSCALE
 40
1.0
  9
$DISPSILH
 70
     0
  9
$DIMSCALE
 40
1.0
  9
$DIMASZ
 40
0.18
  9
$DIMEXO
 40
0.0625
  9
$DIMDLI
 40
0.38
  9
$DIMRND
 40
0.0
  9
$DIMDLE
 40
0.0
  9
$DIMEXE
 40
0.18
  9
$DIMTP
 40
0.0
  9
$DIMTM
 40
0.0
  9
$DIMTXT
 40
0.18
  9
$DIMCEN
 40
0.09
  9
$DIMTSZ
 40
0.0
  9
$DIMTOL
 70
     0
  9
$DIMLIM
 70
     0
  9
$DIMTIH
 70
     1
  9
$DIMTOH
 70
     1
  9
$DIMSE1
 70
     0
  9
$DIMSE2
 70
     0
  9
$DIMTAD
 70
     0
  9
$DIMZIN
 70
     0
  9
$DIMBLK
  1

  9
$DIMASO
 70
     1
  9
$DIMSHO
 70
     1
  9
$DIMPOST
  1

  9
$DIMAPOST
  1

  9
$DIMALT
 70
     0
  9
$DIMALTD
 70
     2
  9
$DIMALTF
 40
25.4
  9
$DIMLFAC
 40
1.0
  9
$DIMTOFL
 70
     0
  9
$DIMTVP
 40
0.0
  9
$DIMTIX
 70
     0
  9
$DIMSOXD
 70
     0
  9
$DIMSAH
 70
     0
  9
$DIMBLK1
  1

  9
$DIMBLK2
  1

  9
$DIMSTYLE
  2
Standard
  9
$DIMCLRD
 70
     0
  9
$DIMCLRE
 70
     0
  9
$DIMCLRT
 70
     0
  9
$DIMTFAC
 40
1.0
  9
$DIMGAP
 40
0.09
  9
$DIMJUST
 70
     0
  9
$DIMSD1
 70
     0
  9
$DIMSD2
 70
     0
  9
$DIMTOLJ
 70
     1
  9
$DIMTZIN
 70
     0
  9
$DIMALTZ
 70
     0
  9
$DIMALTTZ
 70
     0
  9
$DIMUPT
 70
     0
  9
$DIMDEC
 70
     4
  9
$DIMTDEC
 70
     4
  9
$DIMALTU
 70
     2
  9
$DIMALTTD
 70
     2
  9
$DIMTXSTY
  7
Standard
  9
$DIMAUNIT
 70
     0
  9
$DIMADEC
 70
     0
  9
$DIMALTRND
 40
0.0
  9
$DIMAZIN
 70
     0
  9
$DIMDSEP
 70
    46
  9
$DIMATFIT
 70
     3
  9
$DIMFRAC
 70
     0
  9
$DIMLDRBLK
  1

  9
$DIMLUNIT
 70
     2
  9
$DIMLWD
 70
    -2
  9
$DIMLWE
 70
    -2
  9
$DIMTMOVE
 70
     0
  9
$LUNITS
 70
     2
  9
$LUPREC
 70
     4
  9
$SKETCHINC
 40
0.1
  9
$FILLETRAD
 40
0.0
  9
$AUNITS
 70
     0
  9
$AUPREC
 70
     0
  9
$MENU
  1
.
  9
$ELEVATION
 40
0.0
  9
$PELEVATION
 40
0.0
  9
$THICKNESS
 40
0.0
  9
$LIMCHECK
 70
     0
  9
$CHAMFERA
 40
0.0
  9
$CHAMFERB
 40
0.0
  9
$CHAMFERC
 40
0.0
  9
$CHAMFERD
 40
0.0
  9
$SKPOLY
 70
     0
  9
$TDCREATE
 40
2455655.880057685
  9
$TDUCREATE
 40
2455655.796724351
  9
$TDUPDATE
 40
2455655.884084734
  9
$TDUUPDATE
 40
2455655.800751400
  9
$TDINDWG
 40
0.0040270486
  9
$TDUSRTIMER
 40
0.0040270486
  9
$USRTIMER
 70
     1
  9
$ANGBASE
 50
0.0
  9
$ANGDIR
 70
     0
  9
$PDMODE
 70
     0
  9
$PDSIZE
 40
0.0
  9
$PLINEWID
 40
0.0
  9
$SPLFRAME
 70
     0
  9
$SPLINETYPE
 70
     6
  9
$SPLINESEGS
 70
     8
  9
$HANDSEED
  5
2014
  9
$SURFTAB1
 70
     6
  9
$SURFTAB2
 70
     6
  9
$SURFTYPE
 70
     6
  9
$SURFU
 70
     6
  9
$SURFV
 70
     6
  9
$UCSBASE
  2

  9
$UCSNAME
  2

  9
$UCSORG
 10
0.0
 20
0.0
 30
0.0
  9
$UCSXDIR
 10
1.0
 20
0.0
 30
0.0
  9
$UCSYDIR
 10
0.0
 20
1.0
 30
0.0
  9
$UCSORTHOREF
  2

  9
$UCSORTHOVIEW
 70
     1
  9
$UCSORGTOP
 10
0.0
 20
0.0
 30
0.0
  9
$UCSORGBOTTOM
 10
0.0
 20
0.0
 30
0.0
  9
$UCSORGLEFT
 10
0.0
 20
0.0
 30
0.0
  9
$UCSORGRIGHT
 10
0.0
 20
0.0
 30
0.0
  9
$UCSORGFRONT
 10
0.0
 20
0.0
 30
0.0
  9
$UCSORGBACK
 10
0.0
 20
0.0
 30
0.0
  9
$PUCSBASE
  2

  9
$PUCSNAME
  2

  9
$PUCSORG
 10
0.0
 20
0.0
 30
0.0
  9
$PUCSXDIR
 10
1.0
 20
0.0
 30
0.0
  9
$PUCSYDIR
 10
0.0
 20
1.0
 30
0.0
  9
$PUCSORTHOREF
  2

  9
$PUCSORTHOVIEW
 70
     0
  9
$PUCSORGTOP
 10
0.0
 20
0.0
 30
0.0
  9
$PUCSORGBOTTOM
 10
0.0
 20
0.0
 30
0.0
  9
$PUCSORGLEFT
 10
0.0
 20
0.0
 30
0.0
  9
$PUCSORGRIGHT
 10
0.0
 20
0.0
 30
0.0
  9
$PUCSORGFRONT
 10
0.0
 20
0.0
 30
0.0
  9
$PUCSORGBACK
 10
0.0
 20
0.0
 30
0.0
  9
$USERI1
 70
     0
  9
$USERI2
 70
     0
  9
$USERI3
 70
     0
  9
$USERI4
 70
     0
  9
$USERI5
 70
     0
  9
$USERR1
 40
0.0
  9
$USERR2
 40
0.0
  9
$USERR3
 40
0.0
  9
$USERR4
 40
0.0
  9
$USERR5
 40
0.0
  9
$WORLDVIEW
 70
     1
  9
$SHADEDGE
 70
     3
  9
$SHADEDIF
 70
    70
  9
$TILEMODE
 70
     1
  9
$MAXACTVP
 70
    64
  9
$PINSBASE
 10
0.0
 20
0.0
 30
0.0
  9
$PLIMCHECK
 70
     0
  9
$PEXTMIN
 10
1.000000000000000E+20
 20
1.000000000000000E+20
 30
1.000000000000000E+20
  9
$PEXTMAX
 10
-1.000000000000000E+20
 20
-1.000000000000000E+20
 30
-1.000000000000000E+20
  9
$PLIMMIN
 10
0.0
 20
0.0
  9
$PLIMMAX
 10
12.0
 20
9.0
  9
$UNITMODE
 70
     0
  9
$VISRETAIN
 70
     1
  9
$PLINEGEN
 70
     0
  9
$PSLTSCALE
 70
     1
  9
$TREEDEPTH
 70
  3020
  9
$CMLSTYLE
  2
Standard
  9
$CMLJUST
 70
     0
  9
$CMLSCALE
 40
1.0
  9
$PROXYGRAPHICS
 70
     1
  9
$MEASUREMENT
 70
     0
  9
$CELWEIGHT
370
    -1
  9
$ENDCAPS
280
     0
  9
$JOINSTYLE
280
     0
  9
$LWDISPLAY
290
     0
  9
$INSUNITS
 70
     0
  9
$HYPERLINKBASE
  1

  9
$STYLESHEET
  1

  9
$XEDIT
290
     1
  9
$CEPSNTYPE
380
     0
  9
$PSTYLEMODE
290
     1
  9
$FINGERPRINTGUID
  2
{E4A5981C-87CB-450F-A9D0-7A0BD2A06739}
  9
$VERSIONGUID
  2
{D222C417-A77A-42EC-8AB5-ED47F746B7AC}
  9
$EXTNAMES
290
     1
  9
$PSVPSCALE
 40
0.0
  9
$OLESTARTUP
290
     0
  0
ENDSEC
  0
SECTION
  2
CLASSES
  0
CLASS
  1
ACDBDICTIONARYWDFLT
  2
AcDbDictionaryWithDefault
  3
AutoCAD 2000
 90
        0
280
     0
281
     0
  0
CLASS
  1
ACDBPLACEHOLDER
  2
AcDbPlaceHolder
  3
AutoCAD 2000
 90
        0
280
     0
281
     0
  0
CLASS
  1
LAYOUT
  2
AcDbLayout
  3
AutoCAD 2000
 90
        0
280
     0
281
     0
  0
CLASS
  1
DICTIONARYVAR
  2
AcDbDictionaryVar
  3
AutoCAD 2000
 90
        0
280
     0
281
     0
  0
ENDSEC
  0
SECTION
  2
TABLES
  0
TABLE
  2
VPORT
  5
8
330
0
100
AcDbSymbolTable
 70
     4
  0
VPORT
  5
2013
330
8
100
AcDbSymbolTableRecord
100
AcDbViewportTableRecord
  2
*Active
 70
     0
 10
0.0
 20
0.0
 11
1.0
 21
1.0
 12
205.0
 22
303.3259999999998
 13
0.0
 23
0.0
 14
1.0
 24
1.0
 15
0.0
 25
0.0
 16
0.0
 26
0.0
 36
1.0
 17
0.0
 27
0.0
 37
0.0
 40
198.3918521646982
 41
2.073363431151241
 42
50.0
 43
0.0
 44
0.0
 50
0.0
 51
0.0
 71
     0
 72
   100
 73
     1
 74
     3
 75
     0
 76
     0
 77
     0
 78
     0
281
     0
 65
     1
110
0.0
120
0.0
130
0.0
111
1.0
121
0.0
131
0.0
112
0.0
122
1.0
132
0.0
 79
     1
146
0.0
  0
ENDTAB
  0
TABLE
  2
LTYPE
  5
5
330
0
100
AcDbSymbolTable
 70
     1
  0
LTYPE
  5
13
330
5
100
AcDbSymbolTableRecord
100
AcDbLinetypeTableRecord
  2
ByBlock
 70
     0
  3

 72
    65
 73
     0
 40
0.0
  0
LTYPE
  5
14
330
5
100
AcDbSymbolTableRecord
100
AcDbLinetypeTableRecord
  2
ByLayer
 70
     0
  3

 72
    65
 73
     0
 40
0.0
  0
LTYPE
  5
15
330
5
100
AcDbSymbolTableRecord
100
AcDbLinetypeTableRecord
  2
Continuous
 70
     0
  3
Solid line
 72
    65
 73
     0
 40
0.0
  0
ENDTAB
  0
TABLE
  2
LAYER
  5
2
330
0
100
AcDbSymbolTable
 70
     1
  0
LAYER
  5
10
330
2
100
AcDbSymbolTableRecord
100
AcDbLayerTableRecord
  2
0
 70
     0
 62
     7
  6
Continuous
370
    -3
390
F
  0
ENDTAB
  0
TABLE
  2
STYLE
  5
3
330
0
100
AcDbSymbolTable
 70
     1
  0
STYLE
  5
11
330
3
100
AcDbSymbolTableRecord
100
AcDbTextStyleTableRecord
  2
Standard
 70
     0
 40
0.0
 41
1.0
 50
0.0
 71
     0
 42
0.2
  3
txt
  4

  0
ENDTAB
  0
TABLE
  2
VIEW
  5
6
330
0
100
AcDbSymbolTable
 70
     0
  0
ENDTAB
  0
TABLE
  2
UCS
  5
7
330
0
100
AcDbSymbolTable
 70
     0
  0
ENDTAB
  0
TABLE
  2
APPID
  5
9
330
0
100
AcDbSymbolTable
 70
     1
  0
APPID
  5
12
330
9
100
AcDbSymbolTableRecord
100
AcDbRegAppTableRecord
  2
ACAD
 70
     0
  0
ENDTAB
  0
TABLE
  2
DIMSTYLE
  5
A
330
0
100
AcDbSymbolTable
 70
     1
100
AcDbDimStyleTable
 71
     0
  0
DIMSTYLE
105
10AE
330
A
100
AcDbSymbolTableRecord
100
AcDbDimStyleTableRecord
  2
Standard
 70
     0
340
11
  0
ENDTAB
  0
TABLE
  2
BLOCK_RECORD
  5
1
330
0
100
AcDbSymbolTable
 70
     1
  0
BLOCK_RECORD
  5
1E
330
1
100
AcDbSymbolTableRecord
100
AcDbBlockTableRecord
  2
*Model_Space
340
21
  0
BLOCK_RECORD
  5
1A
330
1
100
AcDbSymbolTableRecord
100
AcDbBlockTableRecord
  2
*Paper_Space
340
1D
  0
ENDTAB
  0
ENDSEC
  0
SECTION
  2
BLOCKS
  0
BLOCK
  5
1F
330
1E
100
AcDbEntity
  8
0
100
AcDbBlockBegin
  2
*Model_Space
 70
     0
 10
0.0
 20
0.0
 30
0.0
  3
*Model_Space
  1

  0
ENDBLK
  5
20
330
1E
100
AcDbEntity
  8
0
100
AcDbBlockEnd
  0
BLOCK
  5
1B
330
1A
100
AcDbEntity
 67
     1
  8
0
100
AcDbBlockBegin
  2
*Paper_Space
 70
     0
 10
0.0
 20
0.0
 30
0.0
  3
*Paper_Space
  1

  0
ENDBLK
  5
1C
330
1A
100
AcDbEntity
 67
     1
  8
0
100
AcDbBlockEnd
  0
ENDSEC
  0
SECTION
  2
ENTITIES
  0
LINE
  5
22
330
1E
100
AcDbEntity
  8
0
100
AcDbLine
 10
0.0000000000000057
 20
213.6559999999999
 30
0.0
 11
1.08000000000001
 21
213.6559999999999
 31
0.0
  0
LINE
  5
24
330
1E
100
AcDbEntity
  8
0
100
AcDbLine
 10
1.08000000000001
 20
213.6559999999999
 30
0.0
 11
3.959999999999999
 21
213.6559999999999
 31
0.0
  0
LINE
  5
5F
330
1E
100
AcDbEntity
  8
0
100
AcDbLine
 10
10.0
 20
213.6559999999999
 30
0.0
 11
10.72
 21
213.6559999999999
 31
0.0
  0
LINE
  5
6B
330
1E
100
AcDbEntity
  8
0
100
AcDbLine
 10
10.72
 20
213.6559999999999
 30
0.0
 11
12.64
 21
213.6559999999999
 31
0.0
  0
LINE
  5
6E
330
1E
100
AcDbEntity
  8
0
100
AcDbLine
 10
12.64
 20
213.6559999999999
 30
0.0
 11
15.84
 21
213.6559999999999
 31
0.0
  0
LINE
  5
AA
330
1E
100
AcDbEntity
  8
0
100
AcDbLine
 10
15.84
 20
213.6559999999999
 30
0.0
 11
20.08
 21
213.6559999999999
 31
0.0
  0
LINE
  5
B8
330
1E
100
AcDbEntity
  8
0
100
AcDbLine
 10
24.87999999999999
 20
213.6559999999999
 30
0.0
 11
30.0
 21
213.6559999999999
 31
0.0
  0
LINE
  5
B9
330
1E
100
AcDbEntity
  8
0
100
AcDbLine
 10
20.08
 20
213.6559999999999
 30
0.0
 11
24.87999999999999
 21
213.6559999999999
 31
0.0
  0
LINE
  5
C0
330
1E
100
AcDbEntity
  8
0
100
AcDbLine
 10
35.12
 20
213.6559999999999
 30
0.0
 11
39.92
 21
213.6559999999999
 31
0.0
  0
LINE
  5
C3
330
1E
100
AcDbEntity
  8
0
100
AcDbLine
 10
15.12
 20
213.6559999999999
 30
0.0
 11
22.32
 21
213.6559999999999
 31
0.0
  0
LINE
  5
C4
330
1E
100
AcDbEntity
  8
0
100
AcDbLine
 10
22.32
 20
213.6559999999999
 30
0.0
 11
30.0
 21
213.6559999999999
 31
0.0
  0
LINE
  5
10F
330
1E
100
AcDbEntity
  8
0
100
AcDbLine
 10
39.92
 20
213.6559999999999
 30
0.0
 11
44.15999999999999
 21
213.6559999999999
 31
0.0
  0
LINE
  5
116
330
1E
100
AcDbEntity
  8
0
100
AcDbLine
 10
44.15999999999999
 20
213.6559999999999
 30
0.0
 11
47.35999999999999
 21
213.6559999999999
 31
0.0
  0
LINE
  5
117
330
1E
100
AcDbEntity
  8
0
100
AcDbLine
 10
47.35999999999999
 20
213.6559999999999
 30
0.0
 11
49.28
 21
213.6559999999999
 31
0.0
  0
LINE
  5
12B
330
1E
100
AcDbEntity
  8
0
100
AcDbLine
 10
49.28
 20
213.6559999999999
 30
0.0
 11
50.0
 21
213.6559999999999
 31
0.0
  0
LINE
  5
131
330
1E
100
AcDbEntity
  8
0
100
AcDbLine
 10
44.88
 20
213.6559999999999
 30
0.0
 11
51.24
 21
213.6559999999999
 31
0.0
  0
LINE
  5
132
330
1E
100
AcDbEntity
  8
0
100
AcDbLine
 10
37.68
 20
213.6559999999999
 30
0.0
 11
44.88
 21
213.6559999999999
 31
0.0
  0
LINE
  5
133
330
1E
100
AcDbEntity
  8
0
100
AcDbLine
 10
30.0
 20
213.6559999999999
 30
0.0
 11
37.68
 21
213.6559999999999
 31
0.0
  0
LINE
  5
134
330
1E
100
AcDbEntity
  8
0
100
AcDbLine
 10
30.0
 20
213.6559999999999
 30
0.0
 11
35.12
 21
213.6559999999999
 31
0.0
  0
LINE
  5
135
330
1E
100
AcDbEntity
  8
0
100
AcDbLine
 10
3.959999999999999
 20
213.6559999999999
 30
0.0
 11
8.760000000000008
 21
213.6559999999999
 31
0.0
  0
LINE
  5
136
330
1E
100
AcDbEntity
  8
0
100
AcDbLine
 10
8.760000000000008
 20
213.6559999999999
 30
0.0
 11
10.0
 21
213.6559999999999
 31
0.0
  0
LINE
  5
137
330
1E
100
AcDbEntity
  8
0
100
AcDbLine
 10
8.760000000000008
 20
213.6559999999999
 30
0.0
 11
15.12
 21
213.6559999999999
 31
0.0
  0
LINE
  5
269
330
1E
100
AcDbEntity
  8
0
100
AcDbLine
 10
58.92
 20
213.6559999999999
 30
0.0
 11
60.0
 21
213.6559999999999
 31
0.0
  0
LINE
  5
26A
330
1E
100
AcDbEntity
  8
0
100
AcDbLine
 10
56.04
 20
213.6559999999999
 30
0.0
 11
58.92
 21
213.6559999999999
 31
0.0
  0
LINE
  5
26B
330
1E
100
AcDbEntity
  8
0
100
AcDbLine
 10
51.24
 20
213.6559999999999
 30
0.0
 11
56.04
 21
213.6559999999999
 31
0.0
  0
LINE
  5
26C
330
1E
100
AcDbEntity
  8
0
100
AcDbLine
 10
50.0
 20
213.6559999999999
 30
0.0
 11
51.24
 21
213.6559999999999
 31
0.0
  0
LINE
  5
26E
330
1E
100
AcDbEntity
  8
0
100
AcDbLine
 10
105.0
 20
213.6559999999999
 30
0.0
 11
106.2599999999999
 21
213.6559999999999
 31
0.0
  0
LINE
  5
319
330
1E
100
AcDbEntity
  8
0
100
AcDbLine
 10
115.0
 20
213.6559999999999
 30
0.0
 11
115.9
 21
213.6559999999999
 31
0.0
  0
LINE
  5
31A
330
1E
100
AcDbEntity
  8
0
100
AcDbLine
 10
106.2599999999999
 20
213.6559999999999
 30
0.0
 11
109.62
 21
213.6559999999999
 31
0.0
  0
LINE
  5
31B
330
1E
100
AcDbEntity
  8
0
100
AcDbLine
 10
109.62
 20
213.6559999999999
 30
0.0
 11
115.22
 21
213.6559999999999
 31
0.0
  0
LINE
  5
31C
330
1E
100
AcDbEntity
  8
0
100
AcDbLine
 10
109.62
 20
213.6559999999999
 30
0.0
 11
115.0
 21
213.6559999999999
 31
0.0
  0
LINE
  5
3C2
330
1E
100
AcDbEntity
  8
0
100
AcDbLine
 10
127.6
 20
213.6559999999999
 30
0.0
 11
133.6
 21
213.6559999999999
 31
0.0
  0
LINE
  5
3C3
330
1E
100
AcDbEntity
  8
0
100
AcDbLine
 10
122.3
 20
213.6559999999999
 30
0.0
 11
127.6
 21
213.6559999999999
 31
0.0
  0
LINE
  5
3C4
330
1E
100
AcDbEntity
  8
0
100
AcDbLine
 10
118.3
 20
213.6559999999999
 30
0.0
 11
122.3
 21
213.6559999999999
 31
0.0
  0
LINE
  5
3C5
330
1E
100
AcDbEntity
  8
0
100
AcDbLine
 10
115.9
 20
213.6559999999999
 30
0.0
 11
118.3
 21
213.6559999999999
 31
0.0
  0
LINE
  5
3C6
330
1E
100
AcDbEntity
  8
0
100
AcDbLine
 10
115.22
 20
213.6559999999999
 30
0.0
 11
122.6399999999999
 21
213.6559999999999
 31
0.0
  0
LINE
  5
3C7
330
1E
100
AcDbEntity
  8
0
100
AcDbLine
 10
122.6399999999999
 20
213.6559999999999
 30
0.0
 11
131.04
 21
213.6559999999999
 31
0.0
  0
LINE
  5
44F
330
1E
100
AcDbEntity
  8
0
100
AcDbLine
 10
133.6
 20
213.6559999999999
 30
0.0
 11
140.0
 21
213.6559999999999
 31
0.0
  0
LINE
  5
450
330
1E
100
AcDbEntity
  8
0
100
AcDbLine
 10
146.4
 20
213.6559999999999
 30
0.0
 11
152.4
 21
213.6559999999999
 31
0.0
  0
LINE
  5
4C8
330
1E
100
AcDbEntity
  8
0
100
AcDbLine
 10
152.4
 20
213.6559999999999
 30
0.0
 11
157.6999999999999
 21
213.6559999999999
 31
0.0
  0
LINE
  5
4C9
330
1E
100
AcDbEntity
  8
0
100
AcDbLine
 10
157.6999999999999
 20
213.6559999999999
 30
0.0
 11
161.6999999999999
 21
213.6559999999999
 31
0.0
  0
LINE
  5
4EB
330
1E
100
AcDbEntity
  8
0
100
AcDbLine
 10
161.6999999999999
 20
213.6559999999999
 30
0.0
 11
164.1
 21
213.6559999999999
 31
0.0
  0
LINE
  5
4EC
330
1E
100
AcDbEntity
  8
0
100
AcDbLine
 10
164.1
 20
213.6559999999999
 30
0.0
 11
165.0
 21
213.6559999999999
 31
0.0
  0
LINE
  5
57B
330
1E
100
AcDbEntity
  8
0
100
AcDbLine
 10
165.0
 20
213.6559999999999
 30
0.0
 11
170.38
 21
213.6559999999999
 31
0.0
  0
LINE
  5
66C
330
1E
100
AcDbEntity
  8
0
100
AcDbLine
 10
173.74
 20
213.6559999999999
 30
0.0
 11
175.0
 21
213.6559999999999
 31
0.0
  0
LINE
  5
66D
330
1E
100
AcDbEntity
  8
0
100
AcDbLine
 10
170.38
 20
213.6559999999999
 30
0.0
 11
173.74
 21
213.6559999999999
 31
0.0
  0
LINE
  5
66E
330
1E
100
AcDbEntity
  8
0
100
AcDbLine
 10
164.78
 20
213.6559999999999
 30
0.0
 11
170.38
 21
213.6559999999999
 31
0.0
  0
LINE
  5
66F
330
1E
100
AcDbEntity
  8
0
100
AcDbLine
 10
157.36
 20
213.6559999999999
 30
0.0
 11
164.78
 21
213.6559999999999
 31
0.0
  0
LINE
  5
670
330
1E
100
AcDbEntity
  8
0
100
AcDbLine
 10
148.96
 20
213.6559999999999
 30
0.0
 11
157.36
 21
213.6559999999999
 31
0.0
  0
LINE
  5
671
330
1E
100
AcDbEntity
  8
0
100
AcDbLine
 10
140.0
 20
213.6559999999999
 30
0.0
 11
148.96
 21
213.6559999999999
 31
0.0
  0
LINE
  5
672
330
1E
100
AcDbEntity
  8
0
100
AcDbLine
 10
140.0
 20
213.6559999999999
 30
0.0
 11
146.4
 21
213.6559999999999
 31
0.0
  0
LINE
  5
673
330
1E
100
AcDbEntity
  8
0
100
AcDbLine
 10
131.04
 20
213.6559999999999
 30
0.0
 11
140.0
 21
213.6559999999999
 31
0.0
  0
LINE
  5
674
330
1E
100
AcDbEntity
  8
0
100
AcDbLine
 10
220.0
 20
213.6559999999999
 30
0.0
 11
221.08
 21
213.6559999999999
 31
0.0
  0
LINE
  5
6A0
330
1E
100
AcDbEntity
  8
0
100
AcDbLine
 10
221.08
 20
213.6559999999999
 30
0.0
 11
223.96
 21
213.6559999999999
 31
0.0
  0
LINE
  5
6A1
330
1E
100
AcDbEntity
  8
0
100
AcDbLine
 10
223.96
 20
213.6559999999999
 30
0.0
 11
228.7599999999999
 21
213.6559999999999
 31
0.0
  0
LINE
  5
702
330
1E
100
AcDbEntity
  8
0
100
AcDbLine
 10
230.0
 20
213.6559999999999
 30
0.0
 11
230.7199999999999
 21
213.6559999999999
 31
0.0
  0
LINE
  5
706
330
1E
100
AcDbEntity
  8
0
100
AcDbLine
 10
235.84
 20
213.6559999999999
 30
0.0
 11
240.08
 21
213.6559999999999
 31
0.0
  0
LINE
  5
707
330
1E
100
AcDbEntity
  8
0
100
AcDbLine
 10
232.64
 20
213.6559999999999
 30
0.0
 11
235.84
 21
213.6559999999999
 31
0.0
  0
LINE
  5
708
330
1E
100
AcDbEntity
  8
0
100
AcDbLine
 10
230.7199999999999
 20
213.6559999999999
 30
0.0
 11
232.64
 21
213.6559999999999
 31
0.0
  0
LINE
  5
717
330
1E
100
AcDbEntity
  8
0
100
AcDbLine
 10
240.08
 20
213.6559999999999
 30
0.0
 11
244.8799999999999
 21
213.6559999999999
 31
0.0
  0
LINE
  5
71B
330
1E
100
AcDbEntity
  8
0
100
AcDbLine
 10
228.7599999999999
 20
213.6559999999999
 30
0.0
 11
235.1199999999999
 21
213.6559999999999
 31
0.0
  0
LINE
  5
71C
330
1E
100
AcDbEntity
  8
0
100
AcDbLine
 10
228.7599999999999
 20
213.6559999999999
 30
0.0
 11
230.0
 21
213.6559999999999
 31
0.0
  0
LINE
  5
9C5
330
1E
100
AcDbEntity
  8
0
100
AcDbLine
 10
235.1199999999999
 20
213.6559999999999
 30
0.0
 11
242.32
 21
213.6559999999999
 31
0.0
  0
LINE
  5
9DB
330
1E
100
AcDbEntity
  8
0
100
AcDbLine
 10
244.8799999999999
 20
213.6559999999999
 30
0.0
 11
250.0
 21
213.6559999999999
 31
0.0
  0
LINE
  5
A01
330
1E
100
AcDbEntity
  8
0
100
AcDbLine
 10
255.12
 20
213.6559999999999
 30
0.0
 11
259.92
 21
213.6559999999999
 31
0.0
  0
LINE
  5
A04
330
1E
100
AcDbEntity
  8
0
100
AcDbLine
 10
259.92
 20
213.6559999999999
 30
0.0
 11
264.16
 21
213.6559999999999
 31
0.0
  0
LINE
  5
A0F
330
1E
100
AcDbEntity
  8
0
100
AcDbLine
 10
264.16
 20
213.6559999999999
 30
0.0
 11
267.3599999999999
 21
213.6559999999999
 31
0.0
  0
LINE
  5
A4E
330
1E
100
AcDbEntity
  8
0
100
AcDbLine
 10
267.3599999999999
 20
213.6559999999999
 30
0.0
 11
269.2799999999999
 21
213.6559999999999
 31
0.0
  0
LINE
  5
A5A
330
1E
100
AcDbEntity
  8
0
100
AcDbLine
 10
269.2799999999999
 20
213.6559999999999
 30
0.0
 11
270.0
 21
213.6559999999999
 31
0.0
  0
LINE
  5
A5B
330
1E
100
AcDbEntity
  8
0
100
AcDbLine
 10
270.0
 20
213.6559999999999
 30
0.0
 11
271.24
 21
213.6559999999999
 31
0.0
  0
LINE
  5
A6F
330
1E
100
AcDbEntity
  8
0
100
AcDbLine
 10
335.0
 20
213.6559999999999
 30
0.0
 11
335.8999999999999
 21
213.6559999999999
 31
0.0
  0
LINE
  5
ADA
330
1E
100
AcDbEntity
  8
0
100
AcDbLine
 10
347.6
 20
213.6559999999999
 30
0.0
 11
353.6
 21
213.6559999999999
 31
0.0
  0
LINE
  5
ADB
330
1E
100
AcDbEntity
  8
0
100
AcDbLine
 10
342.3
 20
213.6559999999999
 30
0.0
 11
347.6
 21
213.6559999999999
 31
0.0
  0
LINE
  5
ADC
330
1E
100
AcDbEntity
  8
0
100
AcDbLine
 10
338.3
 20
213.6559999999999
 30
0.0
 11
342.3
 21
213.6559999999999
 31
0.0
  0
LINE
  5
ADD
330
1E
100
AcDbEntity
  8
0
100
AcDbLine
 10
335.8999999999999
 20
213.6559999999999
 30
0.0
 11
338.3
 21
213.6559999999999
 31
0.0
  0
LINE
  5
B2B
330
1E
100
AcDbEntity
  8
0
100
AcDbLine
 10
353.6
 20
213.6559999999999
 30
0.0
 11
360.0
 21
213.6559999999999
 31
0.0
  0
LINE
  5
B2E
330
1E
100
AcDbEntity
  8
0
100
AcDbLine
 10
366.3999999999999
 20
213.6559999999999
 30
0.0
 11
372.3999999999999
 21
213.6559999999999
 31
0.0
  0
LINE
  5
B34
330
1E
100
AcDbEntity
  8
0
100
AcDbLine
 10
360.0
 20
213.6559999999999
 30
0.0
 11
369.0
 21
213.6559999999999
 31
0.0
  0
LINE
  5
B35
330
1E
100
AcDbEntity
  8
0
100
AcDbLine
 10
360.0
 20
213.6559999999999
 30
0.0
 11
366.3999999999999
 21
213.6559999999999
 31
0.0
  0
LINE
  5
B5B
330
1E
100
AcDbEntity
  8
0
100
AcDbLine
 10
372.3999999999999
 20
213.6559999999999
 30
0.0
 11
377.7
 21
213.6559999999999
 31
0.0
  0
LINE
  5
B87
330
1E
100
AcDbEntity
  8
0
100
AcDbLine
 10
377.7
 20
213.6559999999999
 30
0.0
 11
381.7
 21
213.6559999999999
 31
0.0
  0
LINE
  5
B88
330
1E
100
AcDbEntity
  8
0
100
AcDbLine
 10
381.7
 20
213.6559999999999
 30
0.0
 11
384.1
 21
213.6559999999999
 31
0.0
  0
LINE
  5
BA0
330
1E
100
AcDbEntity
  8
0
100
AcDbLine
 10
384.1
 20
213.6559999999999
 30
0.0
 11
385.0
 21
213.6559999999999
 31
0.0
  0
LINE
  5
BA4
330
1E
100
AcDbEntity
  8
0
100
AcDbLine
 10
369.0
 20
213.6559999999999
 30
0.0
 11
377.4
 21
213.6559999999999
 31
0.0
  0
LINE
  5
BA5
330
1E
100
AcDbEntity
  8
0
100
AcDbLine
 10
377.4
 20
213.6559999999999
 30
0.0
 11
384.6999999999999
 21
213.6559999999999
 31
0.0
  0
LINE
  5
BB1
330
1E
100
AcDbEntity
  8
0
100
AcDbLine
 10
385.0
 20
213.6559999999999
 30
0.0
 11
390.3
 21
213.6559999999999
 31
0.0
  0
LINE
  5
BB3
330
1E
100
AcDbEntity
  8
0
100
AcDbLine
 10
384.6999999999999
 20
213.6559999999999
 30
0.0
 11
390.3
 21
213.6559999999999
 31
0.0
  0
LINE
  5
BB4
330
1E
100
AcDbEntity
  8
0
100
AcDbLine
 10
390.3
 20
213.6559999999999
 30
0.0
 11
393.6999999999999
 21
213.6559999999999
 31
0.0
  0
LINE
  5
BB5
330
1E
100
AcDbEntity
  8
0
100
AcDbLine
 10
393.6999999999999
 20
213.6559999999999
 30
0.0
 11
395.0
 21
213.6559999999999
 31
0.0
  0
LINE
  5
BB7
330
1E
100
AcDbEntity
  8
0
100
AcDbLine
 10
351.0
 20
213.6559999999999
 30
0.0
 11
360.0
 21
213.6559999999999
 31
0.0
  0
LINE
  5
BB8
330
1E
100
AcDbEntity
  8
0
100
AcDbLine
 10
342.6
 20
213.6559999999999
 30
0.0
 11
351.0
 21
213.6559999999999
 31
0.0
  0
LINE
  5
BB9
330
1E
100
AcDbEntity
  8
0
100
AcDbLine
 10
335.3
 20
213.6559999999999
 30
0.0
 11
342.6
 21
213.6559999999999
 31
0.0
  0
LINE
  5
BBA
330
1E
100
AcDbEntity
  8
0
100
AcDbLine
 10
329.7
 20
213.6559999999999
 30
0.0
 11
335.3
 21
213.6559999999999
 31
0.0
  0
LINE
  5
BBB
330
1E
100
AcDbEntity
  8
0
100
AcDbLine
 10
329.7
 20
213.6559999999999
 30
0.0
 11
335.0
 21
213.6559999999999
 31
0.0
  0
LINE
  5
BBC
330
1E
100
AcDbEntity
  8
0
100
AcDbLine
 10
326.3
 20
213.6559999999999
 30
0.0
 11
329.7
 21
213.6559999999999
 31
0.0
  0
LINE
  5
BBD
330
1E
100
AcDbEntity
  8
0
100
AcDbLine
 10
325.0
 20
213.6559999999999
 30
0.0
 11
326.3
 21
213.6559999999999
 31
0.0
  0
LINE
  5
BC0
330
1E
100
AcDbEntity
  8
0
100
AcDbLine
 10
278.92
 20
213.6559999999999
 30
0.0
 11
280.0
 21
213.6559999999999
 31
0.0
  0
LINE
  5
BC1
330
1E
100
AcDbEntity
  8
0
100
AcDbLine
 10
276.04
 20
213.6559999999999
 30
0.0
 11
278.92
 21
213.6559999999999
 31
0.0
  0
LINE
  5
BC2
330
1E
100
AcDbEntity
  8
0
100
AcDbLine
 10
271.24
 20
213.6559999999999
 30
0.0
 11
276.04
 21
213.6559999999999
 31
0.0
  0
LINE
  5
BC3
330
1E
100
AcDbEntity
  8
0
100
AcDbLine
 10
264.88
 20
213.6559999999999
 30
0.0
 11
271.24
 21
213.6559999999999
 31
0.0
  0
LINE
  5
BD1
330
1E
100
AcDbEntity
  8
0
100
AcDbLine
 10
257.6799999999999
 20
213.6559999999999
 30
0.0
 11
264.88
 21
213.6559999999999
 31
0.0
  0
LINE
  5
BD2
330
1E
100
AcDbEntity
  8
0
100
AcDbLine
 10
250.0
 20
213.6559999999999
 30
0.0
 11
257.6799999999999
 21
213.6559999999999
 31
0.0
  0
LINE
  5
BD3
330
1E
100
AcDbEntity
  8
0
100
AcDbLine
 10
250.0
 20
213.6559999999999
 30
0.0
 11
255.12
 21
213.6559999999999
 31
0.0
  0
LINE
  5
10AD
330
1E
100
AcDbEntity
  8
0
100
AcDbLine
 10
242.32
 20
213.6559999999999
 30
0.0
 11
250.0
 21
213.6559999999999
 31
0.0
  0
LINE
  5
17D7
330
1E
100
AcDbEntity
  8
0
100
AcDbLine
 10
164.0
 20
273.2359999999999
 30
0.0
 11
164.0
 21
220.6559999999999
 31
0.0
  0
LINE
  5
17D8
330
1E
100
AcDbEntity
  8
0
100
AcDbLine
 10
116.0
 20
273.2359999999999
 30
0.0
 11
116.0
 21
220.6559999999999
 31
0.0
  0
LINE
  5
17D9
330
1E
100
AcDbEntity
  8
0
100
AcDbLine
 10
50.0
 20
265.2359999999998
 30
0.0
 11
50.0
 21
220.6559999999999
 31
0.0
  0
LINE
  5
17DA
330
1E
100
AcDbEntity
  8
0
100
AcDbLine
 10
10.0
 20
265.2359999999998
 30
0.0
 11
10.0
 21
220.6559999999999
 31
0.0
  0
LINE
  5
17DB
330
1E
100
AcDbEntity
  8
0
100
AcDbLine
 10
164.0
 20
220.6559999999999
 30
0.0
 11
164.0
 21
273.2359999999999
 31
0.0
  0
LINE
  5
17DC
330
1E
100
AcDbEntity
  8
0
100
AcDbLine
 10
116.0
 20
220.6559999999999
 30
0.0
 11
116.0
 21
273.2359999999999
 31
0.0
  0
LINE
  5
17DD
330
1E
100
AcDbEntity
  8
0
100
AcDbLine
 10
10.0
 20
220.6559999999999
 30
0.0
 11
10.0
 21
265.2359999999998
 31
0.0
  0
LINE
  5
17DE
330
1E
100
AcDbEntity
  8
0
100
AcDbLine
 10
50.0
 20
220.6559999999999
 30
0.0
 11
50.0
 21
265.2359999999998
 31
0.0
  0
LINE
  5
17DF
330
1E
100
AcDbEntity
  8
0
100
AcDbLine
 10
30.0
 20
220.6559999999999
 30
0.0
 11
44.51999999999998
 21
220.6559999999999
 31
0.0
  0
LINE
  5
17E0
330
1E
100
AcDbEntity
  8
0
100
AcDbLine
 10
30.0
 20
220.2359999999999
 30
0.0
 11
37.68000000000006
 21
220.2359999999999
 31
0.0
  0
LINE
  5
17E1
330
1E
100
AcDbEntity
  8
0
100
AcDbLine
 10
1.800000000000011
 20
220.6559999999999
 30
0.0
 11
4.680000000000006
 21
220.6559999999999
 31
0.0
  0
LINE
  5
17E2
330
1E
100
AcDbEntity
  8
0
100
AcDbLine
 10
1.08000000000004
 20
220.2359999999999
 30
0.0
 11
3.960000000000036
 21
220.2359999999999
 31
0.0
  0
LINE
  5
17E3
330
1E
100
AcDbEntity
  8
0
100
AcDbLine
 10
0.0
 20
220.2359999999999
 30
0.0
 11
0.0
 21
213.6559999999999
 31
0.0
  0
LINE
  5
17E4
330
1E
100
AcDbEntity
  8
0
100
AcDbLine
 10
0.0
 20
213.6559999999999
 30
0.0
 11
0.0
 21
220.2359999999999
 31
0.0
  0
LINE
  5
17E5
330
1E
100
AcDbEntity
  8
0
100
AcDbLine
 10
0.7200000000000273
 20
220.6559999999999
 30
0.0
 11
1.800000000000011
 21
220.6559999999999
 31
0.0
  0
LINE
  5
17E6
330
1E
100
AcDbEntity
  8
0
100
AcDbLine
 10
0.0
 20
220.2359999999999
 30
0.0
 11
1.08000000000004
 21
220.2359999999999
 31
0.0
  0
LINE
  5
17E7
330
1E
100
AcDbEntity
  8
0
100
AcDbLine
 10
0.0
 20
220.2359999999999
 30
0.0
 11
0.7200000000000273
 21
220.6559999999999
 31
0.0
  0
LINE
  5
17E8
330
1E
100
AcDbEntity
  8
0
100
AcDbLine
 10
9.360000000000013
 20
220.6559999999999
 30
0.0
 11
30.0
 21
220.6559999999999
 31
0.0
  0
LINE
  5
17E9
330
1E
100
AcDbEntity
  8
0
100
AcDbLine
 10
15.12
 20
220.2359999999999
 30
0.0
 11
22.31999999999999
 21
220.2359999999999
 31
0.0
  0
LINE
  5
17EA
330
1E
100
AcDbEntity
  8
0
100
AcDbLine
 10
8.75999999999999
 20
220.2359999999999
 30
0.0
 11
15.12
 21
220.2359999999999
 31
0.0
  0
LINE
  5
17EB
330
1E
100
AcDbEntity
  8
0
100
AcDbLine
 10
4.680000000000006
 20
220.6559999999999
 30
0.0
 11
9.360000000000013
 21
220.6559999999999
 31
0.0
  0
LINE
  5
17EC
330
1E
100
AcDbEntity
  8
0
100
AcDbLine
 10
3.960000000000036
 20
220.2359999999999
 30
0.0
 11
8.75999999999999
 21
220.2359999999999
 31
0.0
  0
LINE
  5
17ED
330
1E
100
AcDbEntity
  8
0
100
AcDbLine
 10
22.31999999999999
 20
220.2359999999999
 30
0.0
 11
30.0
 21
220.2359999999999
 31
0.0
  0
LINE
  5
17EE
330
1E
100
AcDbEntity
  8
0
100
AcDbLine
 10
58.20000000000004
 20
220.6559999999999
 30
0.0
 11
59.27999999999997
 21
220.6559999999999
 31
0.0
  0
LINE
  5
17EF
330
1E
100
AcDbEntity
  8
0
100
AcDbLine
 10
56.03999999999996
 20
220.2359999999999
 30
0.0
 11
58.91999999999995
 21
220.2359999999999
 31
0.0
  0
LINE
  5
17F0
330
1E
100
AcDbEntity
  8
0
100
AcDbLine
 10
44.51999999999998
 20
220.6559999999999
 30
0.0
 11
50.63999999999999
 21
220.6559999999999
 31
0.0
  0
LINE
  5
17F1
330
1E
100
AcDbEntity
  8
0
100
AcDbLine
 10
37.68000000000006
 20
220.2359999999999
 30
0.0
 11
44.87999999999999
 21
220.2359999999999
 31
0.0
  0
LINE
  5
17F2
330
1E
100
AcDbEntity
  8
0
100
AcDbLine
 10
50.63999999999999
 20
220.6559999999999
 30
0.0
 11
55.31999999999993
 21
220.6559999999999
 31
0.0
  0
LINE
  5
17F3
330
1E
100
AcDbEntity
  8
0
100
AcDbLine
 10
51.24000000000001
 20
220.2359999999999
 30
0.0
 11
56.03999999999996
 21
220.2359999999999
 31
0.0
  0
LINE
  5
17F4
330
1E
100
AcDbEntity
  8
0
100
AcDbLine
 10
44.87999999999999
 20
220.2359999999999
 30
0.0
 11
51.24000000000001
 21
220.2359999999999
 31
0.0
  0
LINE
  5
17F5
330
1E
100
AcDbEntity
  8
0
100
AcDbLine
 10
55.31999999999993
 20
220.6559999999999
 30
0.0
 11
58.20000000000004
 21
220.6559999999999
 31
0.0
  0
LINE
  5
17F6
330
1E
100
AcDbEntity
  8
0
100
AcDbLine
 10
60.0
 20
220.2359999999999
 30
0.0
 11
60.0
 21
213.6559999999999
 31
0.0
  0
LINE
  5
17F7
330
1E
100
AcDbEntity
  8
0
100
AcDbLine
 10
60.0
 20
213.6559999999999
 30
0.0
 11
60.0
 21
220.2359999999999
 31
0.0
  0
LINE
  5
17F8
330
1E
100
AcDbEntity
  8
0
100
AcDbLine
 10
59.27999999999997
 20
220.6559999999999
 30
0.0
 11
60.0
 21
220.2359999999999
 31
0.0
  0
LINE
  5
17F9
330
1E
100
AcDbEntity
  8
0
100
AcDbLine
 10
58.91999999999995
 20
220.2359999999999
 30
0.0
 11
60.0
 21
220.2359999999999
 31
0.0
  0
LINE
  5
17FA
330
1E
100
AcDbEntity
  8
0
100
AcDbLine
 10
140.0
 20
220.6559999999999
 30
0.0
 11
148.8199999999999
 21
220.6559999999999
 31
0.0
  0
LINE
  5
17FB
330
1E
100
AcDbEntity
  8
0
100
AcDbLine
 10
140.0
 20
220.2359999999999
 30
0.0
 11
148.96
 21
220.2359999999999
 31
0.0
  0
LINE
  5
17FC
330
1E
100
AcDbEntity
  8
0
100
AcDbLine
 10
110.46
 20
220.6559999999999
 30
0.0
 11
115.92
 21
220.6559999999999
 31
0.0
  0
LINE
  5
17FD
330
1E
100
AcDbEntity
  8
0
100
AcDbLine
 10
109.62
 20
220.2359999999999
 30
0.0
 11
115.22
 21
220.2359999999999
 31
0.0
  0
LINE
  5
17FE
330
1E
100
AcDbEntity
  8
0
100
AcDbLine
 10
105.0
 20
220.2359999999999
 30
0.0
 11
105.0
 21
213.6559999999999
 31
0.0
  0
LINE
  5
17FF
330
1E
100
AcDbEntity
  8
0
100
AcDbLine
 10
105.0
 20
213.6559999999999
 30
0.0
 11
105.0
 21
220.2359999999999
 31
0.0
  0
LINE
  5
1800
330
1E
100
AcDbEntity
  8
0
100
AcDbLine
 10
105.8399999999999
 20
220.6559999999999
 30
0.0
 11
107.1
 21
220.6559999999999
 31
0.0
  0
LINE
  5
1801
330
1E
100
AcDbEntity
  8
0
100
AcDbLine
 10
105.0
 20
220.2359999999999
 30
0.0
 11
106.2599999999999
 21
220.2359999999999
 31
0.0
  0
LINE
  5
1802
330
1E
100
AcDbEntity
  8
0
100
AcDbLine
 10
105.0
 20
220.2359999999999
 30
0.0
 11
105.8399999999999
 21
220.6559999999999
 31
0.0
  0
LINE
  5
1803
330
1E
100
AcDbEntity
  8
0
100
AcDbLine
 10
107.1
 20
220.6559999999999
 30
0.0
 11
110.46
 21
220.6559999999999
 31
0.0
  0
LINE
  5
1804
330
1E
100
AcDbEntity
  8
0
100
AcDbLine
 10
106.2599999999999
 20
220.2359999999999
 30
0.0
 11
109.62
 21
220.2359999999999
 31
0.0
  0
LINE
  5
1805
330
1E
100
AcDbEntity
  8
0
100
AcDbLine
 10
123.0599999999999
 20
220.6559999999999
 30
0.0
 11
131.18
 21
220.6559999999999
 31
0.0
  0
LINE
  5
1806
330
1E
100
AcDbEntity
  8
0
100
AcDbLine
 10
122.6399999999999
 20
220.2359999999999
 30
0.0
 11
131.0399999999999
 21
220.2359999999999
 31
0.0
  0
LINE
  5
1807
330
1E
100
AcDbEntity
  8
0
100
AcDbLine
 10
115.92
 20
220.6559999999999
 30
0.0
 11
123.0599999999999
 21
220.6559999999999
 31
0.0
  0
LINE
  5
1808
330
1E
100
AcDbEntity
  8
0
100
AcDbLine
 10
115.22
 20
220.2359999999999
 30
0.0
 11
122.6399999999999
 21
220.2359999999999
 31
0.0
  0
LINE
  5
1809
330
1E
100
AcDbEntity
  8
0
100
AcDbLine
 10
131.18
 20
220.6559999999999
 30
0.0
 11
140.0
 21
220.6559999999999
 31
0.0
  0
LINE
  5
180A
330
1E
100
AcDbEntity
  8
0
100
AcDbLine
 10
131.0399999999999
 20
220.2359999999999
 30
0.0
 11
140.0
 21
220.2359999999999
 31
0.0
  0
LINE
  5
180B
330
1E
100
AcDbEntity
  8
0
100
AcDbLine
 10
164.0799999999999
 20
220.6559999999999
 30
0.0
 11
169.5399999999999
 21
220.6559999999999
 31
0.0
  0
LINE
  5
180C
330
1E
100
AcDbEntity
  8
0
100
AcDbLine
 10
164.7799999999999
 20
220.2359999999999
 30
0.0
 11
170.38
 21
220.2359999999999
 31
0.0
  0
LINE
  5
180D
330
1E
100
AcDbEntity
  8
0
100
AcDbLine
 10
148.8199999999999
 20
220.6559999999999
 30
0.0
 11
156.94
 21
220.6559999999999
 31
0.0
  0
LINE
  5
180E
330
1E
100
AcDbEntity
  8
0
100
AcDbLine
 10
148.96
 20
220.2359999999999
 30
0.0
 11
157.36
 21
220.2359999999999
 31
0.0
  0
LINE
  5
180F
330
1E
100
AcDbEntity
  8
0
100
AcDbLine
 10
156.94
 20
220.6559999999999
 30
0.0
 11
164.0799999999999
 21
220.6559999999999
 31
0.0
  0
LINE
  5
1810
330
1E
100
AcDbEntity
  8
0
100
AcDbLine
 10
157.36
 20
220.2359999999999
 30
0.0
 11
164.7799999999999
 21
220.2359999999999
 31
0.0
  0
LINE
  5
1811
330
1E
100
AcDbEntity
  8
0
100
AcDbLine
 10
175.0
 20
220.2359999999999
 30
0.0
 11
175.0
 21
213.6559999999999
 31
0.0
  0
LINE
  5
1812
330
1E
100
AcDbEntity
  8
0
100
AcDbLine
 10
175.0
 20
213.6559999999999
 30
0.0
 11
175.0
 21
220.2359999999999
 31
0.0
  0
LINE
  5
1813
330
1E
100
AcDbEntity
  8
0
100
AcDbLine
 10
174.16
 20
220.6559999999999
 30
0.0
 11
175.0
 21
220.2359999999999
 31
0.0
  0
LINE
  5
1814
330
1E
100
AcDbEntity
  8
0
100
AcDbLine
 10
173.74
 20
220.2359999999999
 30
0.0
 11
175.0
 21
220.2359999999999
 31
0.0
  0
LINE
  5
1815
330
1E
100
AcDbEntity
  8
0
100
AcDbLine
 10
169.5399999999999
 20
220.6559999999999
 30
0.0
 11
172.8999999999999
 21
220.6559999999999
 31
0.0
  0
LINE
  5
1816
330
1E
100
AcDbEntity
  8
0
100
AcDbLine
 10
172.8999999999999
 20
220.6559999999999
 30
0.0
 11
174.16
 21
220.6559999999999
 31
0.0
  0
LINE
  5
1817
330
1E
100
AcDbEntity
  8
0
100
AcDbLine
 10
170.38
 20
220.2359999999999
 30
0.0
 11
173.74
 21
220.2359999999999
 31
0.0
  0
LINE
  5
1818
330
1E
100
AcDbEntity
  8
0
100
AcDbLine
 10
17.0
 20
286.6559999999999
 30
0.0
 11
43.0
 21
286.6559999999999
 31
0.0
  0
LINE
  5
1819
330
1E
100
AcDbEntity
  8
0
100
AcDbLine
 10
30.0
 20
265.2359999999998
 30
0.0
 11
35.12
 21
265.2359999999998
 31
0.0
  0
LINE
  5
181A
330
1E
100
AcDbEntity
  8
0
100
AcDbLine
 10
10.0
 20
286.3724999999999
 30
0.0
 11
10.0
 21
264.6559999999999
 31
0.0
  0
LINE
  5
181B
330
1E
100
AcDbEntity
  8
0
100
AcDbLine
 10
10.0
 20
264.6559999999999
 30
0.0
 11
10.0
 21
286.3724999999999
 31
0.0
  0
LINE
  5
181C
330
1E
100
AcDbEntity
  8
0
100
AcDbLine
 10
15.84000000000003
 20
265.2359999999998
 30
0.0
 11
20.08000000000004
 21
265.2359999999998
 31
0.0
  0
LINE
  5
181D
330
1E
100
AcDbEntity
  8
0
100
AcDbLine
 10
10.0
 20
265.2359999999998
 30
0.0
 11
10.72000000000002
 21
265.2359999999998
 31
0.0
  0
LINE
  5
181E
330
1E
100
AcDbEntity
  8
0
100
AcDbLine
 10
12.63999999999998
 20
265.2359999999998
 30
0.0
 11
15.84000000000003
 21
265.2359999999998
 31
0.0
  0
LINE
  5
181F
330
1E
100
AcDbEntity
  8
0
100
AcDbLine
 10
10.72000000000002
 20
265.2359999999998
 30
0.0
 11
12.63999999999998
 21
265.2359999999998
 31
0.0
  0
LINE
  5
1820
330
1E
100
AcDbEntity
  8
0
100
AcDbLine
 10
20.08000000000004
 20
265.2359999999998
 30
0.0
 11
24.87999999999999
 21
265.2359999999998
 31
0.0
  0
LINE
  5
1821
330
1E
100
AcDbEntity
  8
0
100
AcDbLine
 10
24.87999999999999
 20
265.2359999999998
 30
0.0
 11
30.0
 21
265.2359999999998
 31
0.0
  0
LINE
  5
1822
330
1E
100
AcDbEntity
  8
0
100
AcDbLine
 10
10.41999999999996
 20
286.6559999999999
 30
0.0
 11
11.09199999999998
 21
286.6559999999999
 31
0.0
  0
LINE
  5
1823
330
1E
100
AcDbEntity
  8
0
100
AcDbLine
 10
10.168
 20
286.6559999999999
 30
0.0
 11
10.41999999999996
 21
286.6559999999999
 31
0.0
  0
LINE
  5
1824
330
1E
100
AcDbEntity
  8
0
100
AcDbLine
 10
10.0
 20
286.3724999999999
 30
0.0
 11
10.168
 21
286.6559999999999
 31
0.0
  0
LINE
  5
1825
330
1E
100
AcDbEntity
  8
0
100
AcDbLine
 10
15.23599999999999
 20
286.6559999999999
 30
0.0
 11
17.0
 21
286.6559999999999
 31
0.0
  0
LINE
  5
1826
330
1E
100
AcDbEntity
  8
0
100
AcDbLine
 10
13.61199999999996
 20
286.6559999999999
 30
0.0
 11
15.23599999999999
 21
286.6559999999999
 31
0.0
  0
LINE
  5
1827
330
1E
100
AcDbEntity
  8
0
100
AcDbLine
 10
12.18400000000002
 20
286.6559999999999
 30
0.0
 11
13.61199999999996
 21
286.6559999999999
 31
0.0
  0
LINE
  5
1828
330
1E
100
AcDbEntity
  8
0
100
AcDbLine
 10
11.09199999999998
 20
286.6559999999999
 30
0.0
 11
12.18400000000002
 21
286.6559999999999
 31
0.0
  0
LINE
  5
1829
330
1E
100
AcDbEntity
  8
0
100
AcDbLine
 10
50.0
 20
286.3724999999999
 30
0.0
 11
50.0
 21
264.6559999999999
 31
0.0
  0
LINE
  5
182A
330
1E
100
AcDbEntity
  8
0
100
AcDbLine
 10
50.0
 20
264.6559999999999
 30
0.0
 11
50.0
 21
286.3724999999999
 31
0.0
  0
LINE
  5
182B
330
1E
100
AcDbEntity
  8
0
100
AcDbLine
 10
44.15999999999996
 20
265.2359999999998
 30
0.0
 11
47.36000000000001
 21
265.2359999999998
 31
0.0
  0
LINE
  5
182C
330
1E
100
AcDbEntity
  8
0
100
AcDbLine
 10
35.12
 20
265.2359999999998
 30
0.0
 11
39.91999999999995
 21
265.2359999999998
 31
0.0
  0
LINE
  5
182D
330
1E
100
AcDbEntity
  8
0
100
AcDbLine
 10
39.91999999999995
 20
265.2359999999998
 30
0.0
 11
44.15999999999996
 21
265.2359999999998
 31
0.0
  0
LINE
  5
182E
330
1E
100
AcDbEntity
  8
0
100
AcDbLine
 10
47.36000000000001
 20
265.2359999999998
 30
0.0
 11
49.27999999999997
 21
265.2359999999998
 31
0.0
  0
LINE
  5
182F
330
1E
100
AcDbEntity
  8
0
100
AcDbLine
 10
49.27999999999997
 20
265.2359999999998
 30
0.0
 11
50.0
 21
265.2359999999998
 31
0.0
  0
LINE
  5
1830
330
1E
100
AcDbEntity
  8
0
100
AcDbLine
 10
43.0
 20
286.6559999999999
 30
0.0
 11
44.764
 21
286.6559999999999
 31
0.0
  0
LINE
  5
1831
330
1E
100
AcDbEntity
  8
0
100
AcDbLine
 10
44.764
 20
286.6559999999999
 30
0.0
 11
46.38800000000003
 21
286.6559999999999
 31
0.0
  0
LINE
  5
1832
330
1E
100
AcDbEntity
  8
0
100
AcDbLine
 10
46.38800000000003
 20
286.6559999999999
 30
0.0
 11
47.81600000000003
 21
286.6559999999999
 31
0.0
  0
LINE
  5
1833
330
1E
100
AcDbEntity
  8
0
100
AcDbLine
 10
47.81600000000003
 20
286.6559999999999
 30
0.0
 11
48.90800000000002
 21
286.6559999999999
 31
0.0
  0
LINE
  5
1834
330
1E
100
AcDbEntity
  8
0
100
AcDbLine
 10
49.58000000000004
 20
286.6559999999999
 30
0.0
 11
49.832
 21
286.6559999999999
 31
0.0
  0
LINE
  5
1835
330
1E
100
AcDbEntity
  8
0
100
AcDbLine
 10
48.90800000000002
 20
286.6559999999999
 30
0.0
 11
49.58000000000004
 21
286.6559999999999
 31
0.0
  0
LINE
  5
1836
330
1E
100
AcDbEntity
  8
0
100
AcDbLine
 10
49.832
 20
286.6559999999999
 30
0.0
 11
50.0
 21
286.3724999999999
 31
0.0
  0
LINE
  5
1837
330
1E
100
AcDbEntity
  8
0
100
AcDbLine
 10
157.5
 20
372.4819999999999
 30
0.0
 11
157.5
 21
365.552
 31
0.0
  0
LINE
  5
1838
330
1E
100
AcDbEntity
  8
0
100
AcDbLine
 10
157.5
 20
365.552
 30
0.0
 11
157.5
 21
372.4819999999999
 31
0.0
  0
LINE
  5
1839
330
1E
100
AcDbEntity
  8
0
100
AcDbLine
 10
122.5
 20
365.552
 30
0.0
 11
122.5
 21
372.4819999999999
 31
0.0
  0
LINE
  5
183A
330
1E
100
AcDbEntity
  8
0
100
AcDbLine
 10
122.5
 20
372.4819999999999
 30
0.0
 11
122.5
 21
365.552
 31
0.0
  0
LINE
  5
183B
330
1E
100
AcDbEntity
  8
0
100
AcDbLine
 10
140.0
 20
352.0299999999998
 30
0.0
 11
140.5229999999999
 21
352.0289999999998
 31
0.0
  0
LINE
  5
183C
330
1E
100
AcDbEntity
  8
0
100
AcDbLine
 10
140.0
 20
353.8739999999999
 30
0.0
 11
141.125
 21
353.8639999999999
 31
0.0
  0
LINE
  5
183D
330
1E
100
AcDbEntity
  8
0
100
AcDbLine
 10
140.0
 20
353.9229999999998
 30
0.0
 11
141.045
 21
353.9149999999998
 31
0.0
  0
LINE
  5
183E
330
1E
100
AcDbEntity
  8
0
100
AcDbLine
 10
140.0
 20
355.4459999999999
 30
0.0
 11
142.1829999999999
 21
355.4549999999998
 31
0.0
  0
LINE
  5
183F
330
1E
100
AcDbEntity
  8
0
100
AcDbLine
 10
140.0
 20
353.567
 30
0.0
 11
140.447
 21
353.5689999999999
 31
0.0
  0
LINE
  5
1840
330
1E
100
AcDbEntity
  8
0
100
AcDbLine
 10
140.0
 20
349.1489999999998
 30
0.0
 11
140.447
 21
349.1479999999999
 31
0.0
  0
LINE
  5
1841
330
1E
100
AcDbEntity
  8
0
100
AcDbLine
 10
140.0
 20
348.794
 30
0.0
 11
141.045
 21
348.802
 31
0.0
  0
LINE
  5
1842
330
1E
100
AcDbEntity
  8
0
100
AcDbLine
 10
140.0
 20
348.4029999999999
 30
0.0
 11
140.3209999999999
 21
348.4019999999999
 31
0.0
  0
LINE
  5
1843
330
1E
100
AcDbEntity
  8
0
100
AcDbLine
 10
140.0
 20
348.7429999999998
 30
0.0
 11
141.125
 21
348.7539999999999
 31
0.0
  0
LINE
  5
1844
330
1E
100
AcDbEntity
  8
0
100
AcDbLine
 10
140.0
 20
273.2359999999999
 30
0.0
 11
146.144
 21
273.2359999999999
 31
0.0
  0
LINE
  5
1845
330
1E
100
AcDbEntity
  8
0
100
AcDbLine
 10
140.0
 20
273.6559999999999
 30
0.0
 11
146.048
 21
273.6559999999999
 31
0.0
  0
LINE
  5
1846
330
1E
100
AcDbEntity
  8
0
100
AcDbLine
 10
122.5
 20
314.8039999999999
 30
0.0
 11
122.5
 21
279.3320999999998
 31
0.0
  0
LINE
  5
1847
330
1E
100
AcDbEntity
  8
0
100
AcDbLine
 10
122.5
 20
314.8039999999999
 30
0.0
 11
122.5
 21
273.6559999999999
 31
0.0
  0
LINE
  5
1848
330
1E
100
AcDbEntity
  8
0
100
AcDbLine
 10
122.5
 20
314.799
 30
0.0
 11
122.5
 21
279.3320999999998
 31
0.0
  0
LINE
  5
1849
330
1E
100
AcDbEntity
  8
0
100
AcDbLine
 10
122.5
 20
279.3320999999998
 30
0.0
 11
122.5
 21
314.8039999999999
 31
0.0
  0
LINE
  5
184A
330
1E
100
AcDbEntity
  8
0
100
AcDbLine
 10
122.5
 20
279.3320999999998
 30
0.0
 11
122.5
 21
314.799
 31
0.0
  0
LINE
  5
184B
330
1E
100
AcDbEntity
  8
0
100
AcDbLine
 10
122.5
 20
273.6559999999999
 30
0.0
 11
122.5
 21
314.8039999999999
 31
0.0
  0
LINE
  5
184C
330
1E
100
AcDbEntity
  8
0
100
AcDbLine
 10
119.744
 20
273.6559999999999
 30
0.0
 11
128.384
 21
273.6559999999999
 31
0.0
  0
LINE
  5
184D
330
1E
100
AcDbEntity
  8
0
100
AcDbLine
 10
123.008
 20
273.2359999999999
 30
0.0
 11
128.096
 21
273.2359999999999
 31
0.0
  0
LINE
  5
184E
330
1E
100
AcDbEntity
  8
0
100
AcDbLine
 10
119.168
 20
273.2359999999999
 30
0.0
 11
123.008
 21
273.2359999999999
 31
0.0
  0
LINE
  5
184F
330
1E
100
AcDbEntity
  8
0
100
AcDbLine
 10
117.44
 20
273.6559999999999
 30
0.0
 11
119.744
 21
273.6559999999999
 31
0.0
  0
LINE
  5
1850
330
1E
100
AcDbEntity
  8
0
100
AcDbLine
 10
116.576
 20
273.6559999999999
 30
0.0
 11
117.44
 21
273.6559999999999
 31
0.0
  0
LINE
  5
1851
330
1E
100
AcDbEntity
  8
0
100
AcDbLine
 10
116.864
 20
273.2359999999999
 30
0.0
 11
119.168
 21
273.2359999999999
 31
0.0
  0
LINE
  5
1852
330
1E
100
AcDbEntity
  8
0
100
AcDbLine
 10
116.0
 20
273.2359999999999
 30
0.0
 11
116.576
 21
273.6559999999999
 31
0.0
  0
LINE
  5
1853
330
1E
100
AcDbEntity
  8
0
100
AcDbLine
 10
116.0
 20
273.2359999999999
 30
0.0
 11
116.864
 21
273.2359999999999
 31
0.0
  0
LINE
  5
1854
330
1E
100
AcDbEntity
  8
0
100
AcDbLine
 10
128.096
 20
273.2359999999999
 30
0.0
 11
133.8559999999999
 21
273.2359999999999
 31
0.0
  0
LINE
  5
1855
330
1E
100
AcDbEntity
  8
0
100
AcDbLine
 10
128.384
 20
273.6559999999999
 30
0.0
 11
133.952
 21
273.6559999999999
 31
0.0
  0
LINE
  5
1856
330
1E
100
AcDbEntity
  8
0
100
AcDbLine
 10
133.8559999999999
 20
273.2359999999999
 30
0.0
 11
140.0
 21
273.2359999999999
 31
0.0
  0
LINE
  5
1857
330
1E
100
AcDbEntity
  8
0
100
AcDbLine
 10
133.952
 20
273.6559999999999
 30
0.0
 11
140.0
 21
273.6559999999999
 31
0.0
  0
LINE
  5
1858
330
1E
100
AcDbEntity
  8
0
100
AcDbLine
 10
122.5
 20
338.1879999999998
 30
0.0
 11
122.5
 21
333.6199999999998
 31
0.0
  0
LINE
  5
1859
330
1E
100
AcDbEntity
  8
0
100
AcDbLine
 10
122.5
 20
333.6199999999998
 30
0.0
 11
122.5
 21
338.1879999999998
 31
0.0
  0
LINE
  5
185A
330
1E
100
AcDbEntity
  8
0
100
AcDbLine
 10
122.5
 20
323.1179999999998
 30
0.0
 11
122.5
 21
320.3149999999998
 31
0.0
  0
LINE
  5
185B
330
1E
100
AcDbEntity
  8
0
100
AcDbLine
 10
122.5
 20
320.3149999999998
 30
0.0
 11
122.5
 21
323.1179999999998
 31
0.0
  0
LINE
  5
185C
330
1E
100
AcDbEntity
  8
0
100
AcDbLine
 10
122.5
 20
314.8039999999999
 30
0.0
 11
122.5
 21
320.3149999999998
 31
0.0
  0
LINE
  5
185D
330
1E
100
AcDbEntity
  8
0
100
AcDbLine
 10
122.5
 20
314.799
 30
0.0
 11
122.5
 21
316.8619999999999
 31
0.0
  0
LINE
  5
185E
330
1E
100
AcDbEntity
  8
0
100
AcDbLine
 10
122.5
 20
320.3149999999998
 30
0.0
 11
122.5
 21
314.8039999999999
 31
0.0
  0
LINE
  5
185F
330
1E
100
AcDbEntity
  8
0
100
AcDbLine
 10
122.5
 20
316.8619999999999
 30
0.0
 11
122.5
 21
314.799
 31
0.0
  0
LINE
  5
1860
330
1E
100
AcDbEntity
  8
0
100
AcDbLine
 10
122.5
 20
323.1179999999998
 30
0.0
 11
122.5
 21
327.3429999999998
 31
0.0
  0
LINE
  5
1861
330
1E
100
AcDbEntity
  8
0
100
AcDbLine
 10
122.5
 20
333.6199999999998
 30
0.0
 11
122.5
 21
330.4989999999999
 31
0.0
  0
LINE
  5
1862
330
1E
100
AcDbEntity
  8
0
100
AcDbLine
 10
122.5
 20
330.4989999999999
 30
0.0
 11
122.5
 21
327.3429999999998
 31
0.0
  0
LINE
  5
1863
330
1E
100
AcDbEntity
  8
0
100
AcDbLine
 10
122.5
 20
330.4989999999999
 30
0.0
 11
122.5
 21
333.6199999999998
 31
0.0
  0
LINE
  5
1864
330
1E
100
AcDbEntity
  8
0
100
AcDbLine
 10
122.5
 20
327.3429999999998
 30
0.0
 11
122.5
 21
323.1179999999998
 31
0.0
  0
LINE
  5
1865
330
1E
100
AcDbEntity
  8
0
100
AcDbLine
 10
122.5
 20
327.3429999999998
 30
0.0
 11
122.5
 21
330.4989999999999
 31
0.0
  0
LINE
  5
1866
330
1E
100
AcDbEntity
  8
0
100
AcDbLine
 10
125.9183
 20
356.909
 30
0.0
 11
126.6417
 21
356.5419999999999
 31
0.0
  0
LINE
  5
1867
330
1E
100
AcDbEntity
  8
0
100
AcDbLine
 10
126.5461
 20
350.7339999999999
 30
0.0
 11
126.8850999999999
 21
350.4609999999999
 31
0.0
  0
LINE
  5
1868
330
1E
100
AcDbEntity
  8
0
100
AcDbLine
 10
126.0
 20
356.8675514238318
 30
0.0
 11
126.0
 21
351.7759999999999
 31
0.0
  0
LINE
  5
1869
330
1E
100
AcDbEntity
  8
0
100
AcDbLine
 10
126.0
 20
356.8675514238318
 30
0.0
 11
126.0
 21
351.6349999999998
 31
0.0
  0
LINE
  5
186A
330
1E
100
AcDbEntity
  8
0
100
AcDbLine
 10
122.5
 20
353.8529999999998
 30
0.0
 11
122.5
 21
352.2009999999998
 31
0.0
  0
LINE
  5
186B
330
1E
100
AcDbEntity
  8
0
100
AcDbLine
 10
122.5
 20
352.2009999999998
 30
0.0
 11
122.5
 21
353.8529999999998
 31
0.0
  0
LINE
  5
186C
330
1E
100
AcDbEntity
  8
0
100
AcDbLine
 10
126.0
 20
351.6349999999998
 30
0.0
 11
126.0
 21
356.8675514238318
 31
0.0
  0
LINE
  5
186D
330
1E
100
AcDbEntity
  8
0
100
AcDbLine
 10
126.0
 20
351.7759999999999
 30
0.0
 11
126.0
 21
356.8675514238318
 31
0.0
  0
LINE
  5
186E
330
1E
100
AcDbEntity
  8
0
100
AcDbLine
 10
122.5
 20
352.2009999999998
 30
0.0
 11
122.5
 21
350.4489999999999
 31
0.0
  0
LINE
  5
186F
330
1E
100
AcDbEntity
  8
0
100
AcDbLine
 10
126.0
 20
351.6349999999998
 30
0.0
 11
126.0635999999999
 21
351.4359999999999
 31
0.0
  0
LINE
  5
1870
330
1E
100
AcDbEntity
  8
0
100
AcDbLine
 10
126.3778999999999
 20
350.8699999999998
 30
0.0
 11
126.5461
 21
350.7339999999999
 31
0.0
  0
LINE
  5
1871
330
1E
100
AcDbEntity
  8
0
100
AcDbLine
 10
126.1576999999999
 20
351.1529999999999
 30
0.0
 11
126.3778999999999
 21
350.8699999999998
 31
0.0
  0
LINE
  5
1872
330
1E
100
AcDbEntity
  8
0
100
AcDbLine
 10
126.0635999999999
 20
351.4359999999999
 30
0.0
 11
126.1576999999999
 21
351.1529999999999
 31
0.0
  0
LINE
  5
1873
330
1E
100
AcDbEntity
  8
0
100
AcDbLine
 10
122.5
 20
351.3049999999998
 30
0.0
 11
122.5
 21
346.6679999999998
 31
0.0
  0
LINE
  5
1874
330
1E
100
AcDbEntity
  8
0
100
AcDbLine
 10
122.5
 20
351.3049999999998
 30
0.0
 11
122.5
 21
348.6029999999998
 31
0.0
  0
LINE
  5
1875
330
1E
100
AcDbEntity
  8
0
100
AcDbLine
 10
122.5
 20
350.4489999999999
 30
0.0
 11
122.5
 21
348.6029999999998
 31
0.0
  0
LINE
  5
1876
330
1E
100
AcDbEntity
  8
0
100
AcDbLine
 10
122.5
 20
350.4489999999999
 30
0.0
 11
122.5
 21
352.2009999999998
 31
0.0
  0
LINE
  5
1877
330
1E
100
AcDbEntity
  8
0
100
AcDbLine
 10
122.5
 20
348.6029999999998
 30
0.0
 11
122.5
 21
351.3049999999998
 31
0.0
  0
LINE
  5
1878
330
1E
100
AcDbEntity
  8
0
100
AcDbLine
 10
122.5
 20
348.6029999999998
 30
0.0
 11
122.5
 21
350.4489999999999
 31
0.0
  0
LINE
  5
1879
330
1E
100
AcDbEntity
  8
0
100
AcDbLine
 10
122.5
 20
344.6509999999999
 30
0.0
 11
122.5
 21
342.5599999999998
 31
0.0
  0
LINE
  5
187A
330
1E
100
AcDbEntity
  8
0
100
AcDbLine
 10
122.5
 20
344.6509999999999
 30
0.0
 11
122.5
 21
346.6679999999998
 31
0.0
  0
LINE
  5
187B
330
1E
100
AcDbEntity
  8
0
100
AcDbLine
 10
122.5
 20
346.6679999999998
 30
0.0
 11
122.5
 21
344.6509999999999
 31
0.0
  0
LINE
  5
187C
330
1E
100
AcDbEntity
  8
0
100
AcDbLine
 10
122.5
 20
346.6679999999998
 30
0.0
 11
122.5
 21
351.3049999999998
 31
0.0
  0
LINE
  5
187D
330
1E
100
AcDbEntity
  8
0
100
AcDbLine
 10
122.5
 20
342.5599999999998
 30
0.0
 11
122.5
 21
338.1879999999998
 31
0.0
  0
LINE
  5
187E
330
1E
100
AcDbEntity
  8
0
100
AcDbLine
 10
122.5
 20
342.5599999999998
 30
0.0
 11
122.5
 21
344.6509999999999
 31
0.0
  0
LINE
  5
187F
330
1E
100
AcDbEntity
  8
0
100
AcDbLine
 10
122.5
 20
338.1879999999998
 30
0.0
 11
122.5
 21
342.5599999999998
 31
0.0
  0
LINE
  5
1880
330
1E
100
AcDbEntity
  8
0
100
AcDbLine
 10
122.7599343386773
 20
362.0536195654491
 30
0.0
 11
122.6434169863819
 21
362.7251529820308
 31
0.0
  0
LINE
  5
1881
330
1E
100
AcDbEntity
  8
0
100
AcDbLine
 10
123.0769708323355
 20
360.7971395720365
 30
0.0
 11
122.7599343386773
 21
362.0536195654491
 31
0.0
  0
LINE
  5
1882
330
1E
100
AcDbEntity
  8
0
100
AcDbLine
 10
123.5470573232328
 20
359.6499201473412
 30
0.0
 11
123.0769708323355
 21
360.7971395720365
 31
0.0
  0
LINE
  5
1883
330
1E
100
AcDbEntity
  8
0
100
AcDbLine
 10
124.1701976233239
 20
358.6228840388681
 30
0.0
 11
123.5470573232328
 21
359.6499201473412
 31
0.0
  0
LINE
  5
1884
330
1E
100
AcDbEntity
  8
0
100
AcDbLine
 10
124.9901186695538
 20
357.6941839130692
 30
0.0
 11
124.1701976233239
 21
358.6228840388681
 31
0.0
  0
LINE
  5
1885
330
1E
100
AcDbEntity
  8
0
100
AcDbLine
 10
125.5975
 20
357.1389999999999
 30
0.0
 11
124.9901186695538
 21
357.6941839130692
 31
0.0
  0
LINE
  5
1886
330
1E
100
AcDbEntity
  8
0
100
AcDbLine
 10
122.6283
 20
362.802
 30
0.0
 11
122.6434169863819
 21
362.7251529820308
 31
0.0
  0
LINE
  5
1887
330
1E
100
AcDbEntity
  8
0
100
AcDbLine
 10
122.5602940344649
 20
363.4874325871669
 30
0.0
 11
122.6283
 21
362.802
 31
0.0
  0
LINE
  5
1888
330
1E
100
AcDbEntity
  8
0
100
AcDbLine
 10
125.5975
 20
357.1389999999999
 30
0.0
 11
125.9183
 21
356.909
 31
0.0
  0
LINE
  5
1889
330
1E
100
AcDbEntity
  8
0
100
AcDbLine
 10
122.5
 20
361.4409999999999
 30
0.0
 11
122.5
 21
359.3719999999999
 31
0.0
  0
LINE
  5
188A
330
1E
100
AcDbEntity
  8
0
100
AcDbLine
 10
122.5
 20
361.4409999999999
 30
0.0
 11
122.5
 21
363.0469999999998
 31
0.0
  0
LINE
  5
188B
330
1E
100
AcDbEntity
  8
0
100
AcDbLine
 10
122.5
 20
365.4289999999999
 30
0.0
 11
122.5
 21
365.1339999999998
 31
0.0
  0
LINE
  5
188C
330
1E
100
AcDbEntity
  8
0
100
AcDbLine
 10
122.5
 20
365.4289999999999
 30
0.0
 11
122.5
 21
365.5189999999998
 31
0.0
  0
LINE
  5
188D
330
1E
100
AcDbEntity
  8
0
100
AcDbLine
 10
122.5
 20
365.5189999999998
 30
0.0
 11
122.5
 21
365.4289999999999
 31
0.0
  0
LINE
  5
188E
330
1E
100
AcDbEntity
  8
0
100
AcDbLine
 10
122.5
 20
365.1339999999998
 30
0.0
 11
122.5
 21
364.7519999999999
 31
0.0
  0
LINE
  5
188F
330
1E
100
AcDbEntity
  8
0
100
AcDbLine
 10
122.5
 20
365.1339999999998
 30
0.0
 11
122.5
 21
365.4289999999999
 31
0.0
  0
LINE
  5
1890
330
1E
100
AcDbEntity
  8
0
100
AcDbLine
 10
122.5
 20
364.7519999999999
 30
0.0
 11
122.5
 21
364.2059999999998
 31
0.0
  0
LINE
  5
1891
330
1E
100
AcDbEntity
  8
0
100
AcDbLine
 10
122.5
 20
364.7519999999999
 30
0.0
 11
122.5
 21
365.1339999999998
 31
0.0
  0
LINE
  5
1892
330
1E
100
AcDbEntity
  8
0
100
AcDbLine
 10
122.5
 20
364.2059999999998
 30
0.0
 11
122.5
 21
363.0469999999998
 31
0.0
  0
LINE
  5
1893
330
1E
100
AcDbEntity
  8
0
100
AcDbLine
 10
122.5
 20
364.2059999999998
 30
0.0
 11
122.5
 21
364.7519999999999
 31
0.0
  0
LINE
  5
1894
330
1E
100
AcDbEntity
  8
0
100
AcDbLine
 10
122.5
 20
363.0469999999998
 30
0.0
 11
122.5
 21
364.2059999999998
 31
0.0
  0
LINE
  5
1895
330
1E
100
AcDbEntity
  8
0
100
AcDbLine
 10
122.5
 20
363.0469999999998
 30
0.0
 11
122.5
 21
361.4409999999999
 31
0.0
  0
LINE
  5
1896
330
1E
100
AcDbEntity
  8
0
100
AcDbLine
 10
122.5
 20
359.3719999999999
 30
0.0
 11
122.5
 21
361.4409999999999
 31
0.0
  0
LINE
  5
1897
330
1E
100
AcDbEntity
  8
0
100
AcDbLine
 10
122.5
 20
359.3719999999999
 30
0.0
 11
122.5
 21
356.8379999999998
 31
0.0
  0
LINE
  5
1898
330
1E
100
AcDbEntity
  8
0
100
AcDbLine
 10
122.5
 20
356.8379999999998
 30
0.0
 11
122.5
 21
359.3719999999999
 31
0.0
  0
LINE
  5
1899
330
1E
100
AcDbEntity
  8
0
100
AcDbLine
 10
122.5
 20
356.8379999999998
 30
0.0
 11
122.5
 21
353.8529999999998
 31
0.0
  0
LINE
  5
189A
330
1E
100
AcDbEntity
  8
0
100
AcDbLine
 10
122.5
 20
353.8529999999998
 30
0.0
 11
122.5
 21
356.8379999999998
 31
0.0
  0
LINE
  5
189B
330
1E
100
AcDbEntity
  8
0
100
AcDbLine
 10
133.2999999999999
 20
353.0369999999999
 30
0.0
 11
134.151
 21
353.1789999999999
 31
0.0
  0
LINE
  5
189C
330
1E
100
AcDbEntity
  8
0
100
AcDbLine
 10
131.3989999999999
 20
353.0889999999999
 30
0.0
 11
132.2819999999999
 21
353.2669999999999
 31
0.0
  0
LINE
  5
189D
330
1E
100
AcDbEntity
  8
0
100
AcDbLine
 10
131.276
 20
353.1109999999998
 30
0.0
 11
132.191
 21
353.2989999999999
 31
0.0
  0
LINE
  5
189E
330
1E
100
AcDbEntity
  8
0
100
AcDbLine
 10
133.1779999999999
 20
352.5819999999999
 30
0.0
 11
134.086
 21
352.427
 31
0.0
  0
LINE
  5
189F
330
1E
100
AcDbEntity
  8
0
100
AcDbLine
 10
133.245
 20
349.192
 30
0.0
 11
134.276
 21
349.0559999999999
 31
0.0
  0
LINE
  5
18A0
330
1E
100
AcDbEntity
  8
0
100
AcDbLine
 10
133.2999999999999
 20
349.6779999999998
 30
0.0
 11
134.151
 21
349.5379999999999
 31
0.0
  0
LINE
  5
18A1
330
1E
100
AcDbEntity
  8
0
100
AcDbLine
 10
133.1959999999999
 20
349.2499999999998
 30
0.0
 11
134.276
 21
349.1059999999998
 31
0.0
  0
LINE
  5
18A2
330
1E
100
AcDbEntity
  8
0
100
AcDbLine
 10
133.402
 20
348.7659999999999
 30
0.0
 11
134.5799999999999
 21
348.6419999999999
 31
0.0
  0
LINE
  5
18A3
330
1E
100
AcDbEntity
  8
0
100
AcDbLine
 10
132.3579999999999
 20
352.7569999999999
 30
0.0
 11
133.1779999999999
 21
352.5819999999999
 31
0.0
  0
LINE
  5
18A4
330
1E
100
AcDbEntity
  8
0
100
AcDbLine
 10
132.203195829622
 20
352.7982668575727
 30
0.0
 11
132.3579999999999
 21
352.7569999999999
 31
0.0
  0
LINE
  5
18A5
330
1E
100
AcDbEntity
  8
0
100
AcDbLine
 10
132.5219999999999
 20
352.8789999999998
 30
0.0
 11
133.2999999999999
 21
353.0369999999999
 31
0.0
  0
LINE
  5
18A6
330
1E
100
AcDbEntity
  8
0
100
AcDbLine
 10
130.6059999999999
 20
352.8929999999999
 30
0.0
 11
131.3989999999999
 21
353.0889999999999
 31
0.0
  0
LINE
  5
18A7
330
1E
100
AcDbEntity
  8
0
100
AcDbLine
 10
130.459
 20
352.9029999999999
 30
0.0
 11
131.276
 21
353.1109999999998
 31
0.0
  0
LINE
  5
18A8
330
1E
100
AcDbEntity
  8
0
100
AcDbLine
 10
129.9067999999999
 20
352.6809999999999
 30
0.0
 11
130.6059999999999
 21
352.8929999999999
 31
0.0
  0
LINE
  5
18A9
330
1E
100
AcDbEntity
  8
0
100
AcDbLine
 10
131.827
 20
352.7029999999998
 30
0.0
 11
132.5219999999999
 21
352.8789999999998
 31
0.0
  0
LINE
  5
18AA
330
1E
100
AcDbEntity
  8
0
100
AcDbLine
 10
129.3124
 20
352.4549999999998
 30
0.0
 11
129.9067999999999
 21
352.6809999999999
 31
0.0
  0
LINE
  5
18AB
330
1E
100
AcDbEntity
  8
0
100
AcDbLine
 10
129.7502999999999
 20
352.6749999999998
 30
0.0
 11
130.459
 21
352.9029999999999
 31
0.0
  0
LINE
  5
18AC
330
1E
100
AcDbEntity
  8
0
100
AcDbLine
 10
130.7059999999999
 20
352.3109999999999
 30
0.0
 11
131.219
 21
352.5129999999999
 31
0.0
  0
LINE
  5
18AD
330
1E
100
AcDbEntity
  8
0
100
AcDbLine
 10
131.219
 20
352.5129999999999
 30
0.0
 11
131.827
 21
352.7029999999998
 31
0.0
  0
LINE
  5
18AE
330
1E
100
AcDbEntity
  8
0
100
AcDbLine
 10
129.1569999999999
 20
352.4339999999999
 30
0.0
 11
129.7502999999999
 21
352.6749999999998
 31
0.0
  0
LINE
  5
18AF
330
1E
100
AcDbEntity
  8
0
100
AcDbLine
 10
128.8286
 20
352.217
 30
0.0
 11
129.3124
 21
352.4549999999998
 31
0.0
  0
LINE
  5
18B0
330
1E
100
AcDbEntity
  8
0
100
AcDbLine
 10
128.6861
 20
352.1809999999999
 30
0.0
 11
129.1569999999999
 21
352.4339999999999
 31
0.0
  0
LINE
  5
18B1
330
1E
100
AcDbEntity
  8
0
100
AcDbLine
 10
130.295
 20
352.0969999999999
 30
0.0
 11
130.7059999999999
 21
352.3109999999999
 31
0.0
  0
LINE
  5
18B2
330
1E
100
AcDbEntity
  8
0
100
AcDbLine
 10
129.9067999999999
 20
349.937
 30
0.0
 11
130.6059999999999
 21
349.7239999999999
 31
0.0
  0
LINE
  5
18B3
330
1E
100
AcDbEntity
  8
0
100
AcDbLine
 10
129.3124
 20
350.1629999999999
 30
0.0
 11
129.9067999999999
 21
349.937
 31
0.0
  0
LINE
  5
18B4
330
1E
100
AcDbEntity
  8
0
100
AcDbLine
 10
129.7937999999999
 20
351.0679999999998
 30
0.0
 11
129.9902999999999
 21
350.8409999999999
 31
0.0
  0
LINE
  5
18B5
330
1E
100
AcDbEntity
  8
0
100
AcDbLine
 10
129.7937999999999
 20
351.0679999999998
 30
0.0
 11
129.7937999999999
 21
351.6489999999998
 31
0.0
  0
LINE
  5
18B6
330
1E
100
AcDbEntity
  8
0
100
AcDbLine
 10
131.827
 20
350.0129999999999
 30
0.0
 11
132.5219999999999
 21
349.8379999999998
 31
0.0
  0
LINE
  5
18B7
330
1E
100
AcDbEntity
  8
0
100
AcDbLine
 10
129.9902999999999
 20
350.8409999999999
 30
0.0
 11
130.295
 21
350.6189999999999
 31
0.0
  0
LINE
  5
18B8
330
1E
100
AcDbEntity
  8
0
100
AcDbLine
 10
130.295
 20
350.6189999999999
 30
0.0
 11
130.7059999999999
 21
350.4059999999999
 31
0.0
  0
LINE
  5
18B9
330
1E
100
AcDbEntity
  8
0
100
AcDbLine
 10
130.7059999999999
 20
350.4059999999999
 30
0.0
 11
131.219
 21
350.2029999999998
 31
0.0
  0
LINE
  5
18BA
330
1E
100
AcDbEntity
  8
0
100
AcDbLine
 10
131.219
 20
350.2029999999998
 30
0.0
 11
131.827
 21
350.0129999999999
 31
0.0
  0
LINE
  5
18BB
330
1E
100
AcDbEntity
  8
0
100
AcDbLine
 10
129.9902999999999
 20
351.8759999999998
 30
0.0
 11
130.295
 21
352.0969999999999
 31
0.0
  0
LINE
  5
18BC
330
1E
100
AcDbEntity
  8
0
100
AcDbLine
 10
129.7502999999999
 20
350.0409999999999
 30
0.0
 11
130.459
 21
349.8149999999998
 31
0.0
  0
LINE
  5
18BD
330
1E
100
AcDbEntity
  8
0
100
AcDbLine
 10
129.7937999999999
 20
351.6489999999998
 30
0.0
 11
129.9902999999999
 21
351.8759999999998
 31
0.0
  0
LINE
  5
18BE
330
1E
100
AcDbEntity
  8
0
100
AcDbLine
 10
129.7937999999999
 20
351.6489999999998
 30
0.0
 11
129.7937999999999
 21
351.0679999999998
 31
0.0
  0
LINE
  5
18BF
330
1E
100
AcDbEntity
  8
0
100
AcDbLine
 10
128.4578
 20
351.9679999999998
 30
0.0
 11
128.8286
 21
352.217
 31
0.0
  0
LINE
  5
18C0
330
1E
100
AcDbEntity
  8
0
100
AcDbLine
 10
128.2071
 20
351.7139999999999
 30
0.0
 11
128.4578
 21
351.9679999999998
 31
0.0
  0
LINE
  5
18C1
330
1E
100
AcDbEntity
  8
0
100
AcDbLine
 10
128.3448
 20
351.9169999999999
 30
0.0
 11
128.6861
 21
352.1809999999999
 31
0.0
  0
LINE
  5
18C2
330
1E
100
AcDbEntity
  8
0
100
AcDbLine
 10
128.1329
 20
351.6489999999998
 30
0.0
 11
128.3448
 21
351.9169999999999
 31
0.0
  0
LINE
  5
18C3
330
1E
100
AcDbEntity
  8
0
100
AcDbLine
 10
128.1329
 20
351.6489999999998
 30
0.0
 11
129.7937999999999
 21
351.6489999999998
 31
0.0
  0
LINE
  5
18C4
330
1E
100
AcDbEntity
  8
0
100
AcDbLine
 10
127.9150999999999
 20
349.9449999999998
 30
0.0
 11
128.5966
 21
349.7039999999999
 31
0.0
  0
LINE
  5
18C5
330
1E
100
AcDbEntity
  8
0
100
AcDbLine
 10
128.8286
 20
350.4019999999999
 30
0.0
 11
129.3124
 21
350.1629999999999
 31
0.0
  0
LINE
  5
18C6
330
1E
100
AcDbEntity
  8
0
100
AcDbLine
 10
128.4578
 20
350.6479999999999
 30
0.0
 11
128.8286
 21
350.4019999999999
 31
0.0
  0
LINE
  5
18C7
330
1E
100
AcDbEntity
  8
0
100
AcDbLine
 10
128.6861
 20
350.5359999999999
 30
0.0
 11
129.1569999999999
 21
350.2819999999999
 31
0.0
  0
LINE
  5
18C8
330
1E
100
AcDbEntity
  8
0
100
AcDbLine
 10
128.2071
 20
350.9029999999999
 30
0.0
 11
128.4578
 21
350.6479999999999
 31
0.0
  0
LINE
  5
18C9
330
1E
100
AcDbEntity
  8
0
100
AcDbLine
 10
128.0763999999999
 20
351.1619999999999
 30
0.0
 11
128.2071
 21
350.9029999999999
 31
0.0
  0
LINE
  5
18CA
330
1E
100
AcDbEntity
  8
0
100
AcDbLine
 10
128.1329
 20
351.0679999999998
 30
0.0
 11
128.1329
 21
351.5675302218819
 31
0.0
  0
LINE
  5
18CB
330
1E
100
AcDbEntity
  8
0
100
AcDbLine
 10
128.1329
 20
351.0679999999998
 30
0.0
 11
128.3448
 21
350.7979999999998
 31
0.0
  0
LINE
  5
18CC
330
1E
100
AcDbEntity
  8
0
100
AcDbLine
 10
128.1329
 20
351.0679999999998
 30
0.0
 11
129.7937999999999
 21
351.0679999999998
 31
0.0
  0
LINE
  5
18CD
330
1E
100
AcDbEntity
  8
0
100
AcDbLine
 10
128.1329
 20
351.5675302218819
 30
0.0
 11
128.1329
 21
351.0679999999998
 31
0.0
  0
LINE
  5
18CE
330
1E
100
AcDbEntity
  8
0
100
AcDbLine
 10
128.0717999999999
 20
351.3079999999998
 30
0.0
 11
128.0763999999999
 21
351.4559999999999
 31
0.0
  0
LINE
  5
18CF
330
1E
100
AcDbEntity
  8
0
100
AcDbLine
 10
128.0717999999999
 20
351.3079999999998
 30
0.0
 11
128.0717999999999
 21
351.4553204232379
 31
0.0
  0
LINE
  5
18D0
330
1E
100
AcDbEntity
  8
0
100
AcDbLine
 10
128.0717999999999
 20
351.3079999999998
 30
0.0
 11
128.0763999999999
 21
351.1619999999999
 31
0.0
  0
LINE
  5
18D1
330
1E
100
AcDbEntity
  8
0
100
AcDbLine
 10
128.0717999999999
 20
351.4553204232379
 30
0.0
 11
128.0717999999999
 21
351.3079999999998
 31
0.0
  0
LINE
  5
18D2
330
1E
100
AcDbEntity
  8
0
100
AcDbLine
 10
128.0763999999999
 20
351.4559999999999
 30
0.0
 11
128.2071
 21
351.7139999999999
 31
0.0
  0
LINE
  5
18D3
330
1E
100
AcDbEntity
  8
0
100
AcDbLine
 10
128.3448
 20
350.7979999999998
 30
0.0
 11
128.6861
 21
350.5359999999999
 31
0.0
  0
LINE
  5
18D4
330
1E
100
AcDbEntity
  8
0
100
AcDbLine
 10
129.1569999999999
 20
350.2819999999999
 30
0.0
 11
129.7502999999999
 21
350.0409999999999
 31
0.0
  0
LINE
  5
18D5
330
1E
100
AcDbEntity
  8
0
100
AcDbLine
 10
127.3431
 20
350.1979999999998
 30
0.0
 11
127.9150999999999
 21
349.9449999999998
 31
0.0
  0
LINE
  5
18D6
330
1E
100
AcDbEntity
  8
0
100
AcDbLine
 10
126.8850999999999
 20
350.4609999999999
 30
0.0
 11
127.3431
 21
350.1979999999998
 31
0.0
  0
LINE
  5
18D7
330
1E
100
AcDbEntity
  8
0
100
AcDbLine
 10
130.459
 20
349.8149999999998
 30
0.0
 11
131.276
 21
349.6049999999998
 31
0.0
  0
LINE
  5
18D8
330
1E
100
AcDbEntity
  8
0
100
AcDbLine
 10
132.5219999999999
 20
349.8379999999998
 30
0.0
 11
133.2999999999999
 21
349.6779999999998
 31
0.0
  0
LINE
  5
18D9
330
1E
100
AcDbEntity
  8
0
100
AcDbLine
 10
131.2329999999999
 20
349.0809999999999
 30
0.0
 11
132.2819999999999
 21
348.9119999999999
 31
0.0
  0
LINE
  5
18DA
330
1E
100
AcDbEntity
  8
0
100
AcDbLine
 10
130.2629999999999
 20
349.2709999999999
 30
0.0
 11
131.2329999999999
 21
349.0809999999999
 31
0.0
  0
LINE
  5
18DB
330
1E
100
AcDbEntity
  8
0
100
AcDbLine
 10
132.2819999999999
 20
349.3499999999997
 30
0.0
 11
133.245
 21
349.192
 31
0.0
  0
LINE
  5
18DC
330
1E
100
AcDbEntity
  8
0
100
AcDbLine
 10
131.3989999999999
 20
349.5279999999999
 30
0.0
 11
132.2819999999999
 21
349.3499999999997
 31
0.0
  0
LINE
  5
18DD
330
1E
100
AcDbEntity
  8
0
100
AcDbLine
 10
130.6059999999999
 20
349.7239999999999
 30
0.0
 11
131.3989999999999
 21
349.5279999999999
 31
0.0
  0
LINE
  5
18DE
330
1E
100
AcDbEntity
  8
0
100
AcDbLine
 10
131.276
 20
349.6049999999998
 30
0.0
 11
132.191
 21
349.4159999999999
 31
0.0
  0
LINE
  5
18DF
330
1E
100
AcDbEntity
  8
0
100
AcDbLine
 10
132.191
 20
349.4159999999999
 30
0.0
 11
133.1959999999999
 21
349.2499999999998
 31
0.0
  0
LINE
  5
18E0
330
1E
100
AcDbEntity
  8
0
100
AcDbLine
 10
129.3817999999999
 20
349.4789999999999
 30
0.0
 11
130.2629999999999
 21
349.2709999999999
 31
0.0
  0
LINE
  5
18E1
330
1E
100
AcDbEntity
  8
0
100
AcDbLine
 10
128.5966
 20
349.7039999999999
 30
0.0
 11
129.3817999999999
 21
349.4789999999999
 31
0.0
  0
LINE
  5
18E2
330
1E
100
AcDbEntity
  8
0
100
AcDbLine
 10
132.2819999999999
 20
348.9119999999999
 30
0.0
 11
133.402
 21
348.7659999999999
 31
0.0
  0
LINE
  5
18E3
330
1E
100
AcDbEntity
  8
0
100
AcDbLine
 10
138.3289999999999
 20
352.0549999999998
 30
0.0
 11
139.477
 21
352.0289999999998
 31
0.0
  0
LINE
  5
18E4
330
1E
100
AcDbEntity
  8
0
100
AcDbLine
 10
137.201
 20
352.1099999999999
 30
0.0
 11
138.3289999999999
 21
352.0549999999998
 31
0.0
  0
LINE
  5
18E5
330
1E
100
AcDbEntity
  8
0
100
AcDbLine
 10
136.109
 20
352.1899999999998
 30
0.0
 11
137.201
 21
352.1099999999999
 31
0.0
  0
LINE
  5
18E6
330
1E
100
AcDbEntity
  8
0
100
AcDbLine
 10
135.066
 20
352.2959999999999
 30
0.0
 11
136.109
 21
352.1899999999998
 31
0.0
  0
LINE
  5
18E7
330
1E
100
AcDbEntity
  8
0
100
AcDbLine
 10
134.086
 20
352.427
 30
0.0
 11
135.066
 21
352.2959999999999
 31
0.0
  0
LINE
  5
18E8
330
1E
100
AcDbEntity
  8
0
100
AcDbLine
 10
139.477
 20
352.0289999999998
 30
0.0
 11
140.0
 21
352.0299999999998
 31
0.0
  0
LINE
  5
18E9
330
1E
100
AcDbEntity
  8
0
100
AcDbLine
 10
137.238
 20
349.2269999999999
 30
0.0
 11
138.385
 21
349.1729999999999
 31
0.0
  0
LINE
  5
18EA
330
1E
100
AcDbEntity
  8
0
100
AcDbLine
 10
136.1269999999999
 20
349.3089999999999
 30
0.0
 11
137.238
 21
349.2269999999999
 31
0.0
  0
LINE
  5
18EB
330
1E
100
AcDbEntity
  8
0
100
AcDbLine
 10
135.066
 20
349.4159999999999
 30
0.0
 11
136.1269999999999
 21
349.3089999999999
 31
0.0
  0
LINE
  5
18EC
330
1E
100
AcDbEntity
  8
0
100
AcDbLine
 10
134.151
 20
349.5379999999999
 30
0.0
 11
135.066
 21
349.4159999999999
 31
0.0
  0
LINE
  5
18ED
330
1E
100
AcDbEntity
  8
0
100
AcDbLine
 10
134.276
 20
349.1059999999998
 30
0.0
 11
135.3849999999999
 21
348.9919999999999
 31
0.0
  0
LINE
  5
18EE
330
1E
100
AcDbEntity
  8
0
100
AcDbLine
 10
139.5529999999999
 20
349.1479999999999
 30
0.0
 11
140.0
 21
349.1489999999998
 31
0.0
  0
LINE
  5
18EF
330
1E
100
AcDbEntity
  8
0
100
AcDbLine
 10
138.385
 20
349.1729999999999
 30
0.0
 11
139.5529999999999
 21
349.1479999999999
 31
0.0
  0
LINE
  5
18F0
330
1E
100
AcDbEntity
  8
0
100
AcDbLine
 10
135.3659999999999
 20
348.9429999999998
 30
0.0
 11
136.504
 21
348.8549999999999
 31
0.0
  0
LINE
  5
18F1
330
1E
100
AcDbEntity
  8
0
100
AcDbLine
 10
134.276
 20
349.0559999999999
 30
0.0
 11
135.3659999999999
 21
348.9429999999998
 31
0.0
  0
LINE
  5
18F2
330
1E
100
AcDbEntity
  8
0
100
AcDbLine
 10
135.3849999999999
 20
348.9919999999999
 30
0.0
 11
136.542
 21
348.9019999999999
 31
0.0
  0
LINE
  5
18F3
330
1E
100
AcDbEntity
  8
0
100
AcDbLine
 10
136.504
 20
348.8549999999999
 30
0.0
 11
137.677
 21
348.7909999999999
 31
0.0
  0
LINE
  5
18F4
330
1E
100
AcDbEntity
  8
0
100
AcDbLine
 10
136.542
 20
348.9019999999999
 30
0.0
 11
137.7359999999999
 21
348.8389999999999
 31
0.0
  0
LINE
  5
18F5
330
1E
100
AcDbEntity
  8
0
100
AcDbLine
 10
137.7359999999999
 20
348.8389999999999
 30
0.0
 11
138.9549999999999
 21
348.802
 31
0.0
  0
LINE
  5
18F6
330
1E
100
AcDbEntity
  8
0
100
AcDbLine
 10
138.9549999999999
 20
348.802
 30
0.0
 11
140.0
 21
348.794
 31
0.0
  0
LINE
  5
18F7
330
1E
100
AcDbEntity
  8
0
100
AcDbLine
 10
137.677
 20
348.7909999999999
 30
0.0
 11
138.8749999999999
 21
348.7539999999999
 31
0.0
  0
LINE
  5
18F8
330
1E
100
AcDbEntity
  8
0
100
AcDbLine
 10
138.8749999999999
 20
348.7539999999999
 30
0.0
 11
140.0
 21
348.7429999999998
 31
0.0
  0
LINE
  5
18F9
330
1E
100
AcDbEntity
  8
0
100
AcDbLine
 10
139.679
 20
348.4019999999999
 30
0.0
 11
140.0
 21
348.4029999999999
 31
0.0
  0
LINE
  5
18FA
330
1E
100
AcDbEntity
  8
0
100
AcDbLine
 10
138.3949999999999
 20
348.4209999999999
 30
0.0
 11
139.679
 21
348.4019999999999
 31
0.0
  0
LINE
  5
18FB
330
1E
100
AcDbEntity
  8
0
100
AcDbLine
 10
137.124
 20
348.4669999999999
 30
0.0
 11
138.3949999999999
 21
348.4209999999999
 31
0.0
  0
LINE
  5
18FC
330
1E
100
AcDbEntity
  8
0
100
AcDbLine
 10
135.8079999999999
 20
348.544
 30
0.0
 11
135.879
 21
348.5389999999999
 31
0.0
  0
LINE
  5
18FD
330
1E
100
AcDbEntity
  8
0
100
AcDbLine
 10
135.879
 20
348.5389999999999
 30
0.0
 11
137.124
 21
348.4669999999999
 31
0.0
  0
LINE
  5
18FE
330
1E
100
AcDbEntity
  8
0
100
AcDbLine
 10
134.5799999999999
 20
348.6419999999999
 30
0.0
 11
135.8079999999999
 21
348.544
 31
0.0
  0
LINE
  5
18FF
330
1E
100
AcDbEntity
  8
0
100
AcDbLine
 10
132.0609999999999
 20
355.6579999999998
 30
0.0
 11
133.975
 21
355.557
 31
0.0
  0
LINE
  5
1900
330
1E
100
AcDbEntity
  8
0
100
AcDbLine
 10
133.245
 20
353.424
 30
0.0
 11
134.276
 21
353.5609999999999
 31
0.0
  0
LINE
  5
1901
330
1E
100
AcDbEntity
  8
0
100
AcDbLine
 10
133.1959999999999
 20
353.4669999999999
 30
0.0
 11
134.276
 21
353.6099999999998
 31
0.0
  0
LINE
  5
1902
330
1E
100
AcDbEntity
  8
0
100
AcDbLine
 10
127.3742999999999
 20
356.2929999999998
 30
0.0
 11
128.709
 21
356.0039999999998
 31
0.0
  0
LINE
  5
1903
330
1E
100
AcDbEntity
  8
0
100
AcDbLine
 10
126.6417
 20
356.5419999999999
 30
0.0
 11
127.3742999999999
 21
356.2929999999998
 31
0.0
  0
LINE
  5
1904
330
1E
100
AcDbEntity
  8
0
100
AcDbLine
 10
128.709
 20
356.0039999999998
 30
0.0
 11
130.283
 21
355.8009999999999
 31
0.0
  0
LINE
  5
1905
330
1E
100
AcDbEntity
  8
0
100
AcDbLine
 10
130.283
 20
355.8009999999999
 30
0.0
 11
132.0609999999999
 21
355.6579999999998
 31
0.0
  0
LINE
  5
1906
330
1E
100
AcDbEntity
  8
0
100
AcDbLine
 10
132.2819999999999
 20
353.2669999999999
 30
0.0
 11
133.245
 21
353.424
 31
0.0
  0
LINE
  5
1907
330
1E
100
AcDbEntity
  8
0
100
AcDbLine
 10
132.191
 20
353.2989999999999
 30
0.0
 11
133.1959999999999
 21
353.4669999999999
 31
0.0
  0
LINE
  5
1908
330
1E
100
AcDbEntity
  8
0
100
AcDbLine
 10
137.817
 20
355.4549999999998
 30
0.0
 11
140.0
 21
355.4459999999999
 31
0.0
  0
LINE
  5
1909
330
1E
100
AcDbEntity
  8
0
100
AcDbLine
 10
133.975
 20
355.557
 30
0.0
 11
135.932
 21
355.4889999999999
 31
0.0
  0
LINE
  5
190A
330
1E
100
AcDbEntity
  8
0
100
AcDbLine
 10
135.932
 20
355.4889999999999
 30
0.0
 11
137.817
 21
355.4549999999998
 31
0.0
  0
LINE
  5
190B
330
1E
100
AcDbEntity
  8
0
100
AcDbLine
 10
137.7359999999999
 20
353.8779999999999
 30
0.0
 11
138.9549999999999
 21
353.9149999999998
 31
0.0
  0
LINE
  5
190C
330
1E
100
AcDbEntity
  8
0
100
AcDbLine
 10
138.9549999999999
 20
353.9149999999998
 30
0.0
 11
140.0
 21
353.9229999999998
 31
0.0
  0
LINE
  5
190D
330
1E
100
AcDbEntity
  8
0
100
AcDbLine
 10
138.8749999999999
 20
353.8639999999999
 30
0.0
 11
140.0
 21
353.8739999999999
 31
0.0
  0
LINE
  5
190E
330
1E
100
AcDbEntity
  8
0
100
AcDbLine
 10
137.677
 20
353.8259999999999
 30
0.0
 11
138.8749999999999
 21
353.8639999999999
 31
0.0
  0
LINE
  5
190F
330
1E
100
AcDbEntity
  8
0
100
AcDbLine
 10
136.504
 20
353.7619999999999
 30
0.0
 11
137.677
 21
353.8259999999999
 31
0.0
  0
LINE
  5
1910
330
1E
100
AcDbEntity
  8
0
100
AcDbLine
 10
136.542
 20
353.8149999999998
 30
0.0
 11
137.7359999999999
 21
353.8779999999999
 31
0.0
  0
LINE
  5
1911
330
1E
100
AcDbEntity
  8
0
100
AcDbLine
 10
139.5529999999999
 20
353.5689999999999
 30
0.0
 11
140.0
 21
353.567
 31
0.0
  0
LINE
  5
1912
330
1E
100
AcDbEntity
  8
0
100
AcDbLine
 10
135.3659999999999
 20
353.6739999999999
 30
0.0
 11
136.504
 21
353.7619999999999
 31
0.0
  0
LINE
  5
1913
330
1E
100
AcDbEntity
  8
0
100
AcDbLine
 10
135.3849999999999
 20
353.7249999999998
 30
0.0
 11
136.542
 21
353.8149999999998
 31
0.0
  0
LINE
  5
1914
330
1E
100
AcDbEntity
  8
0
100
AcDbLine
 10
134.276
 20
353.6099999999998
 30
0.0
 11
135.3849999999999
 21
353.7249999999998
 31
0.0
  0
LINE
  5
1915
330
1E
100
AcDbEntity
  8
0
100
AcDbLine
 10
138.385
 20
353.5429999999998
 30
0.0
 11
139.5529999999999
 21
353.5689999999999
 31
0.0
  0
LINE
  5
1916
330
1E
100
AcDbEntity
  8
0
100
AcDbLine
 10
137.238
 20
353.4899999999999
 30
0.0
 11
138.385
 21
353.5429999999998
 31
0.0
  0
LINE
  5
1917
330
1E
100
AcDbEntity
  8
0
100
AcDbLine
 10
136.1269999999999
 20
353.4079999999998
 30
0.0
 11
137.238
 21
353.4899999999999
 31
0.0
  0
LINE
  5
1918
330
1E
100
AcDbEntity
  8
0
100
AcDbLine
 10
134.276
 20
353.5609999999999
 30
0.0
 11
135.3659999999999
 21
353.6739999999999
 31
0.0
  0
LINE
  5
1919
330
1E
100
AcDbEntity
  8
0
100
AcDbLine
 10
135.066
 20
353.2989999999999
 30
0.0
 11
136.1269999999999
 21
353.4079999999998
 31
0.0
  0
LINE
  5
191A
330
1E
100
AcDbEntity
  8
0
100
AcDbLine
 10
134.151
 20
353.1789999999999
 30
0.0
 11
135.066
 21
353.2989999999999
 31
0.0
  0
LINE
  5
191B
330
1E
100
AcDbEntity
  8
0
100
AcDbLine
 10
157.5
 20
314.8039999999999
 30
0.0
 11
157.5
 21
279.3320999999998
 31
0.0
  0
LINE
  5
191C
330
1E
100
AcDbEntity
  8
0
100
AcDbLine
 10
157.5
 20
314.8039999999999
 30
0.0
 11
157.5
 21
273.6559999999999
 31
0.0
  0
LINE
  5
191D
330
1E
100
AcDbEntity
  8
0
100
AcDbLine
 10
157.5
 20
279.3320999999998
 30
0.0
 11
157.5
 21
314.8039999999999
 31
0.0
  0
LINE
  5
191E
330
1E
100
AcDbEntity
  8
0
100
AcDbLine
 10
157.5
 20
273.6559999999999
 30
0.0
 11
157.5
 21
314.8039999999999
 31
0.0
  0
LINE
  5
191F
330
1E
100
AcDbEntity
  8
0
100
AcDbLine
 10
151.6159999999999
 20
273.6559999999999
 30
0.0
 11
156.5119999999999
 21
273.6559999999999
 31
0.0
  0
LINE
  5
1920
330
1E
100
AcDbEntity
  8
0
100
AcDbLine
 10
151.9039999999999
 20
273.2359999999999
 30
0.0
 11
156.9919999999999
 21
273.2359999999999
 31
0.0
  0
LINE
  5
1921
330
1E
100
AcDbEntity
  8
0
100
AcDbLine
 10
146.144
 20
273.2359999999999
 30
0.0
 11
151.9039999999999
 21
273.2359999999999
 31
0.0
  0
LINE
  5
1922
330
1E
100
AcDbEntity
  8
0
100
AcDbLine
 10
146.048
 20
273.6559999999999
 30
0.0
 11
151.6159999999999
 21
273.6559999999999
 31
0.0
  0
LINE
  5
1923
330
1E
100
AcDbEntity
  8
0
100
AcDbLine
 10
160.2559999999999
 20
273.6559999999999
 30
0.0
 11
162.5599999999999
 21
273.6559999999999
 31
0.0
  0
LINE
  5
1924
330
1E
100
AcDbEntity
  8
0
100
AcDbLine
 10
156.9919999999999
 20
273.2359999999999
 30
0.0
 11
160.8319999999999
 21
273.2359999999999
 31
0.0
  0
LINE
  5
1925
330
1E
100
AcDbEntity
  8
0
100
AcDbLine
 10
156.5119999999999
 20
273.6559999999999
 30
0.0
 11
160.2559999999999
 21
273.6559999999999
 31
0.0
  0
LINE
  5
1926
330
1E
100
AcDbEntity
  8
0
100
AcDbLine
 10
163.4239999999999
 20
273.6559999999999
 30
0.0
 11
164.0
 21
273.2359999999999
 31
0.0
  0
LINE
  5
1927
330
1E
100
AcDbEntity
  8
0
100
AcDbLine
 10
162.5599999999999
 20
273.6559999999999
 30
0.0
 11
163.4239999999999
 21
273.6559999999999
 31
0.0
  0
LINE
  5
1928
330
1E
100
AcDbEntity
  8
0
100
AcDbLine
 10
160.8319999999999
 20
273.2359999999999
 30
0.0
 11
163.1359999999999
 21
273.2359999999999
 31
0.0
  0
LINE
  5
1929
330
1E
100
AcDbEntity
  8
0
100
AcDbLine
 10
163.1359999999999
 20
273.2359999999999
 30
0.0
 11
164.0
 21
273.2359999999999
 31
0.0
  0
LINE
  5
192A
330
1E
100
AcDbEntity
  8
0
100
AcDbLine
 10
157.5
 20
338.1879999999998
 30
0.0
 11
157.5
 21
333.6199999999998
 31
0.0
  0
LINE
  5
192B
330
1E
100
AcDbEntity
  8
0
100
AcDbLine
 10
157.5
 20
333.6199999999998
 30
0.0
 11
157.5
 21
338.1879999999998
 31
0.0
  0
LINE
  5
192C
330
1E
100
AcDbEntity
  8
0
100
AcDbLine
 10
157.5
 20
323.1179999999998
 30
0.0
 11
157.5
 21
320.3149999999998
 31
0.0
  0
LINE
  5
192D
330
1E
100
AcDbEntity
  8
0
100
AcDbLine
 10
157.5
 20
320.3149999999998
 30
0.0
 11
157.5
 21
323.1179999999998
 31
0.0
  0
LINE
  5
192E
330
1E
100
AcDbEntity
  8
0
100
AcDbLine
 10
157.5
 20
314.8039999999999
 30
0.0
 11
157.5
 21
320.3149999999998
 31
0.0
  0
LINE
  5
192F
330
1E
100
AcDbEntity
  8
0
100
AcDbLine
 10
157.5
 20
320.3149999999998
 30
0.0
 11
157.5
 21
314.8039999999999
 31
0.0
  0
LINE
  5
1930
330
1E
100
AcDbEntity
  8
0
100
AcDbLine
 10
157.5
 20
327.3429999999998
 30
0.0
 11
157.5
 21
330.4989999999999
 31
0.0
  0
LINE
  5
1931
330
1E
100
AcDbEntity
  8
0
100
AcDbLine
 10
157.5
 20
327.3429999999998
 30
0.0
 11
157.5
 21
323.1179999999998
 31
0.0
  0
LINE
  5
1932
330
1E
100
AcDbEntity
  8
0
100
AcDbLine
 10
157.5
 20
323.1179999999998
 30
0.0
 11
157.5
 21
327.3429999999998
 31
0.0
  0
LINE
  5
1933
330
1E
100
AcDbEntity
  8
0
100
AcDbLine
 10
157.5
 20
333.6199999999998
 30
0.0
 11
157.5
 21
330.4989999999999
 31
0.0
  0
LINE
  5
1934
330
1E
100
AcDbEntity
  8
0
100
AcDbLine
 10
157.5
 20
330.4989999999999
 30
0.0
 11
157.5
 21
333.6199999999998
 31
0.0
  0
LINE
  5
1935
330
1E
100
AcDbEntity
  8
0
100
AcDbLine
 10
157.5
 20
330.4989999999999
 30
0.0
 11
157.5
 21
327.3429999999998
 31
0.0
  0
LINE
  5
1936
330
1E
100
AcDbEntity
  8
0
100
AcDbLine
 10
154.0816999999999
 20
356.909
 30
0.0
 11
153.3582999999999
 21
356.5419999999999
 31
0.0
  0
LINE
  5
1937
330
1E
100
AcDbEntity
  8
0
100
AcDbLine
 10
153.9359999999999
 20
351.4359999999999
 30
0.0
 11
154.0
 21
351.6349999999998
 31
0.0
  0
LINE
  5
1938
330
1E
100
AcDbEntity
  8
0
100
AcDbLine
 10
147.718
 20
353.2669999999999
 30
0.0
 11
148.601
 21
353.0889999999999
 31
0.0
  0
LINE
  5
1939
330
1E
100
AcDbEntity
  8
0
100
AcDbLine
 10
147.8089999999999
 20
353.2989999999999
 30
0.0
 11
148.7239999999999
 21
353.1109999999998
 31
0.0
  0
LINE
  5
193A
330
1E
100
AcDbEntity
  8
0
100
AcDbLine
 10
145.8489999999999
 20
353.1789999999999
 30
0.0
 11
146.7
 21
353.0369999999999
 31
0.0
  0
LINE
  5
193B
330
1E
100
AcDbEntity
  8
0
100
AcDbLine
 10
146.822
 20
352.5819999999999
 30
0.0
 11
147.643
 21
352.7569999999999
 31
0.0
  0
LINE
  5
193C
330
1E
100
AcDbEntity
  8
0
100
AcDbLine
 10
146.7
 20
353.0369999999999
 30
0.0
 11
147.478
 21
352.8789999999998
 31
0.0
  0
LINE
  5
193D
330
1E
100
AcDbEntity
  8
0
100
AcDbLine
 10
146.5979999999999
 20
348.7659999999999
 30
0.0
 11
147.718
 21
348.9119999999999
 31
0.0
  0
LINE
  5
193E
330
1E
100
AcDbEntity
  8
0
100
AcDbLine
 10
146.7549999999999
 20
349.192
 30
0.0
 11
147.718
 21
349.3499999999997
 31
0.0
  0
LINE
  5
193F
330
1E
100
AcDbEntity
  8
0
100
AcDbLine
 10
146.804
 20
349.2499999999998
 30
0.0
 11
147.8089999999999
 21
349.4159999999999
 31
0.0
  0
LINE
  5
1940
330
1E
100
AcDbEntity
  8
0
100
AcDbLine
 10
146.7
 20
349.6779999999998
 30
0.0
 11
147.478
 21
349.8379999999998
 31
0.0
  0
LINE
  5
1941
330
1E
100
AcDbEntity
  8
0
100
AcDbLine
 10
141.671
 20
352.0549999999998
 30
0.0
 11
142.7989999999999
 21
352.1099999999999
 31
0.0
  0
LINE
  5
1942
330
1E
100
AcDbEntity
  8
0
100
AcDbLine
 10
142.7989999999999
 20
352.1099999999999
 30
0.0
 11
143.8909999999999
 21
352.1899999999998
 31
0.0
  0
LINE
  5
1943
330
1E
100
AcDbEntity
  8
0
100
AcDbLine
 10
143.8909999999999
 20
352.1899999999998
 30
0.0
 11
144.9339999999999
 21
352.2959999999999
 31
0.0
  0
LINE
  5
1944
330
1E
100
AcDbEntity
  8
0
100
AcDbLine
 10
144.9339999999999
 20
352.2959999999999
 30
0.0
 11
145.9139999999999
 21
352.427
 31
0.0
  0
LINE
  5
1945
330
1E
100
AcDbEntity
  8
0
100
AcDbLine
 10
145.9139999999999
 20
352.427
 30
0.0
 11
146.822
 21
352.5819999999999
 31
0.0
  0
LINE
  5
1946
330
1E
100
AcDbEntity
  8
0
100
AcDbLine
 10
140.5229999999999
 20
352.0289999999998
 30
0.0
 11
141.671
 21
352.0549999999998
 31
0.0
  0
LINE
  5
1947
330
1E
100
AcDbEntity
  8
0
100
AcDbLine
 10
145.7239999999999
 20
349.0559999999999
 30
0.0
 11
146.7549999999999
 21
349.192
 31
0.0
  0
LINE
  5
1948
330
1E
100
AcDbEntity
  8
0
100
AcDbLine
 10
145.8489999999999
 20
349.5379999999999
 30
0.0
 11
146.7
 21
349.6779999999998
 31
0.0
  0
LINE
  5
1949
330
1E
100
AcDbEntity
  8
0
100
AcDbLine
 10
142.3229999999999
 20
348.7909999999999
 30
0.0
 11
143.4959999999999
 21
348.8549999999999
 31
0.0
  0
LINE
  5
194A
330
1E
100
AcDbEntity
  8
0
100
AcDbLine
 10
143.4959999999999
 20
348.8549999999999
 30
0.0
 11
144.634
 21
348.9429999999998
 31
0.0
  0
LINE
  5
194B
330
1E
100
AcDbEntity
  8
0
100
AcDbLine
 10
144.634
 20
348.9429999999998
 30
0.0
 11
145.7239999999999
 21
349.0559999999999
 31
0.0
  0
LINE
  5
194C
330
1E
100
AcDbEntity
  8
0
100
AcDbLine
 10
144.615
 20
348.9919999999999
 30
0.0
 11
145.7239999999999
 21
349.1059999999998
 31
0.0
  0
LINE
  5
194D
330
1E
100
AcDbEntity
  8
0
100
AcDbLine
 10
145.7239999999999
 20
349.1059999999998
 30
0.0
 11
146.804
 21
349.2499999999998
 31
0.0
  0
LINE
  5
194E
330
1E
100
AcDbEntity
  8
0
100
AcDbLine
 10
144.9339999999999
 20
349.4159999999999
 30
0.0
 11
145.8489999999999
 21
349.5379999999999
 31
0.0
  0
LINE
  5
194F
330
1E
100
AcDbEntity
  8
0
100
AcDbLine
 10
143.873
 20
349.3089999999999
 30
0.0
 11
144.9339999999999
 21
349.4159999999999
 31
0.0
  0
LINE
  5
1950
330
1E
100
AcDbEntity
  8
0
100
AcDbLine
 10
143.4579999999999
 20
348.9019999999999
 30
0.0
 11
144.615
 21
348.9919999999999
 31
0.0
  0
LINE
  5
1951
330
1E
100
AcDbEntity
  8
0
100
AcDbLine
 10
140.447
 20
349.1479999999999
 30
0.0
 11
141.615
 21
349.1729999999999
 31
0.0
  0
LINE
  5
1952
330
1E
100
AcDbEntity
  8
0
100
AcDbLine
 10
141.615
 20
349.1729999999999
 30
0.0
 11
142.7619999999999
 21
349.2269999999999
 31
0.0
  0
LINE
  5
1953
330
1E
100
AcDbEntity
  8
0
100
AcDbLine
 10
142.7619999999999
 20
349.2269999999999
 30
0.0
 11
143.873
 21
349.3089999999999
 31
0.0
  0
LINE
  5
1954
330
1E
100
AcDbEntity
  8
0
100
AcDbLine
 10
142.264
 20
348.8389999999999
 30
0.0
 11
143.4579999999999
 21
348.9019999999999
 31
0.0
  0
LINE
  5
1955
330
1E
100
AcDbEntity
  8
0
100
AcDbLine
 10
141.045
 20
348.802
 30
0.0
 11
142.264
 21
348.8389999999999
 31
0.0
  0
LINE
  5
1956
330
1E
100
AcDbEntity
  8
0
100
AcDbLine
 10
140.3209999999999
 20
348.4019999999999
 30
0.0
 11
141.605
 21
348.4209999999999
 31
0.0
  0
LINE
  5
1957
330
1E
100
AcDbEntity
  8
0
100
AcDbLine
 10
141.605
 20
348.4209999999999
 30
0.0
 11
142.8759999999999
 21
348.4669999999999
 31
0.0
  0
LINE
  5
1958
330
1E
100
AcDbEntity
  8
0
100
AcDbLine
 10
142.8759999999999
 20
348.4669999999999
 30
0.0
 11
144.1209999999999
 21
348.5389999999999
 31
0.0
  0
LINE
  5
1959
330
1E
100
AcDbEntity
  8
0
100
AcDbLine
 10
144.1209999999999
 20
348.5389999999999
 30
0.0
 11
144.192
 21
348.544
 31
0.0
  0
LINE
  5
195A
330
1E
100
AcDbEntity
  8
0
100
AcDbLine
 10
144.192
 20
348.544
 30
0.0
 11
145.42
 21
348.6419999999999
 31
0.0
  0
LINE
  5
195B
330
1E
100
AcDbEntity
  8
0
100
AcDbLine
 10
145.42
 20
348.6419999999999
 30
0.0
 11
146.5979999999999
 21
348.7659999999999
 31
0.0
  0
LINE
  5
195C
330
1E
100
AcDbEntity
  8
0
100
AcDbLine
 10
141.125
 20
348.7539999999999
 30
0.0
 11
142.3229999999999
 21
348.7909999999999
 31
0.0
  0
LINE
  5
195D
330
1E
100
AcDbEntity
  8
0
100
AcDbLine
 10
149.394
 20
349.7239999999999
 30
0.0
 11
150.093
 21
349.937
 31
0.0
  0
LINE
  5
195E
330
1E
100
AcDbEntity
  8
0
100
AcDbLine
 10
150.093
 20
349.937
 30
0.0
 11
150.6879999999999
 21
350.1629999999999
 31
0.0
  0
LINE
  5
195F
330
1E
100
AcDbEntity
  8
0
100
AcDbLine
 10
150.6879999999999
 20
352.4549999999998
 30
0.0
 11
151.171
 21
352.217
 31
0.0
  0
LINE
  5
1960
330
1E
100
AcDbEntity
  8
0
100
AcDbLine
 10
151.171
 20
352.217
 30
0.0
 11
151.542
 21
351.9679999999998
 31
0.0
  0
LINE
  5
1961
330
1E
100
AcDbEntity
  8
0
100
AcDbLine
 10
150.843
 20
352.4339999999999
 30
0.0
 11
151.314
 21
352.1809999999999
 31
0.0
  0
LINE
  5
1962
330
1E
100
AcDbEntity
  8
0
100
AcDbLine
 10
151.542
 20
351.9679999999998
 30
0.0
 11
151.7929999999999
 21
351.7139999999999
 31
0.0
  0
LINE
  5
1963
330
1E
100
AcDbEntity
  8
0
100
AcDbLine
 10
151.6549999999999
 20
351.9169999999999
 30
0.0
 11
151.8669999999999
 21
351.6489999999998
 31
0.0
  0
LINE
  5
1964
330
1E
100
AcDbEntity
  8
0
100
AcDbLine
 10
151.314
 20
352.1809999999999
 30
0.0
 11
151.6549999999999
 21
351.9169999999999
 31
0.0
  0
LINE
  5
1965
330
1E
100
AcDbEntity
  8
0
100
AcDbLine
 10
150.2499999999999
 20
352.6749999999998
 30
0.0
 11
150.843
 21
352.4339999999999
 31
0.0
  0
LINE
  5
1966
330
1E
100
AcDbEntity
  8
0
100
AcDbLine
 10
152.085
 20
349.9449999999998
 30
0.0
 11
152.6569999999999
 21
350.1979999999998
 31
0.0
  0
LINE
  5
1967
330
1E
100
AcDbEntity
  8
0
100
AcDbLine
 10
152.6569999999999
 20
350.1979999999998
 30
0.0
 11
153.115
 21
350.4609999999999
 31
0.0
  0
LINE
  5
1968
330
1E
100
AcDbEntity
  8
0
100
AcDbLine
 10
153.115
 20
350.4609999999999
 30
0.0
 11
153.4539999999999
 21
350.7339999999999
 31
0.0
  0
LINE
  5
1969
330
1E
100
AcDbEntity
  8
0
100
AcDbLine
 10
153.4539999999999
 20
350.7339999999999
 30
0.0
 11
153.622
 21
350.8699999999998
 31
0.0
  0
LINE
  5
196A
330
1E
100
AcDbEntity
  8
0
100
AcDbLine
 10
153.622
 20
350.8699999999998
 30
0.0
 11
153.8419999999999
 21
351.1529999999999
 31
0.0
  0
LINE
  5
196B
330
1E
100
AcDbEntity
  8
0
100
AcDbLine
 10
153.8419999999999
 20
351.1529999999999
 30
0.0
 11
153.9359999999999
 21
351.4359999999999
 31
0.0
  0
LINE
  5
196C
330
1E
100
AcDbEntity
  8
0
100
AcDbLine
 10
150.6879999999999
 20
350.1629999999999
 30
0.0
 11
151.171
 21
350.4019999999999
 31
0.0
  0
LINE
  5
196D
330
1E
100
AcDbEntity
  8
0
100
AcDbLine
 10
151.171
 20
350.4019999999999
 30
0.0
 11
151.542
 21
350.6479999999999
 31
0.0
  0
LINE
  5
196E
330
1E
100
AcDbEntity
  8
0
100
AcDbLine
 10
151.542
 20
350.6479999999999
 30
0.0
 11
151.7929999999999
 21
350.9029999999999
 31
0.0
  0
LINE
  5
196F
330
1E
100
AcDbEntity
  8
0
100
AcDbLine
 10
151.7929999999999
 20
350.9029999999999
 30
0.0
 11
151.9239999999999
 21
351.1619999999999
 31
0.0
  0
LINE
  5
1970
330
1E
100
AcDbEntity
  8
0
100
AcDbLine
 10
151.9239999999999
 20
351.1619999999999
 30
0.0
 11
151.928
 21
351.3079999999998
 31
0.0
  0
LINE
  5
1971
330
1E
100
AcDbEntity
  8
0
100
AcDbLine
 10
151.928
 20
351.3079999999998
 30
0.0
 11
151.928
 21
351.4554085914088
 31
0.0
  0
LINE
  5
1972
330
1E
100
AcDbEntity
  8
0
100
AcDbLine
 10
151.8669999999999
 20
351.5682595419849
 30
0.0
 11
151.8669999999999
 21
351.0679999999998
 31
0.0
  0
LINE
  5
1973
330
1E
100
AcDbEntity
  8
0
100
AcDbLine
 10
151.9239999999999
 20
351.4559999999999
 30
0.0
 11
151.928
 21
351.3079999999998
 31
0.0
  0
LINE
  5
1974
330
1E
100
AcDbEntity
  8
0
100
AcDbLine
 10
151.928
 20
351.4554085914088
 30
0.0
 11
151.928
 21
351.3079999999998
 31
0.0
  0
LINE
  5
1975
330
1E
100
AcDbEntity
  8
0
100
AcDbLine
 10
151.8669999999999
 20
351.0679999999998
 30
0.0
 11
151.8669999999999
 21
351.5682595419849
 31
0.0
  0
LINE
  5
1976
330
1E
100
AcDbEntity
  8
0
100
AcDbLine
 10
151.6549999999999
 20
350.7979999999998
 30
0.0
 11
151.8669999999999
 21
351.0679999999998
 31
0.0
  0
LINE
  5
1977
330
1E
100
AcDbEntity
  8
0
100
AcDbLine
 10
151.7929999999999
 20
351.7139999999999
 30
0.0
 11
151.9239999999999
 21
351.4559999999999
 31
0.0
  0
LINE
  5
1978
330
1E
100
AcDbEntity
  8
0
100
AcDbLine
 10
151.314
 20
350.5359999999999
 30
0.0
 11
151.6549999999999
 21
350.7979999999998
 31
0.0
  0
LINE
  5
1979
330
1E
100
AcDbEntity
  8
0
100
AcDbLine
 10
150.2059999999999
 20
351.0679999999998
 30
0.0
 11
150.2059999999999
 21
351.6489999999998
 31
0.0
  0
LINE
  5
197A
330
1E
100
AcDbEntity
  8
0
100
AcDbLine
 10
150.2059999999999
 20
351.0679999999998
 30
0.0
 11
151.8669999999999
 21
351.0679999999998
 31
0.0
  0
LINE
  5
197B
330
1E
100
AcDbEntity
  8
0
100
AcDbLine
 10
150.2059999999999
 20
351.6489999999998
 30
0.0
 11
151.8669999999999
 21
351.6489999999998
 31
0.0
  0
LINE
  5
197C
330
1E
100
AcDbEntity
  8
0
100
AcDbLine
 10
150.2059999999999
 20
351.6489999999998
 30
0.0
 11
150.2059999999999
 21
351.0679999999998
 31
0.0
  0
LINE
  5
197D
330
1E
100
AcDbEntity
  8
0
100
AcDbLine
 10
150.843
 20
350.2819999999999
 30
0.0
 11
151.314
 21
350.5359999999999
 31
0.0
  0
LINE
  5
197E
330
1E
100
AcDbEntity
  8
0
100
AcDbLine
 10
150.2499999999999
 20
350.0409999999999
 30
0.0
 11
150.843
 21
350.2819999999999
 31
0.0
  0
LINE
  5
197F
330
1E
100
AcDbEntity
  8
0
100
AcDbLine
 10
147.643
 20
352.7569999999999
 30
0.0
 11
147.7972076187049
 21
352.7981646893639
 31
0.0
  0
LINE
  5
1980
330
1E
100
AcDbEntity
  8
0
100
AcDbLine
 10
149.394
 20
352.8929999999999
 30
0.0
 11
150.093
 21
352.6809999999999
 31
0.0
  0
LINE
  5
1981
330
1E
100
AcDbEntity
  8
0
100
AcDbLine
 10
149.5409999999999
 20
352.9029999999999
 30
0.0
 11
150.2499999999999
 21
352.6749999999998
 31
0.0
  0
LINE
  5
1982
330
1E
100
AcDbEntity
  8
0
100
AcDbLine
 10
148.601
 20
353.0889999999999
 30
0.0
 11
149.394
 21
352.8929999999999
 31
0.0
  0
LINE
  5
1983
330
1E
100
AcDbEntity
  8
0
100
AcDbLine
 10
148.7239999999999
 20
353.1109999999998
 30
0.0
 11
149.5409999999999
 21
352.9029999999999
 31
0.0
  0
LINE
  5
1984
330
1E
100
AcDbEntity
  8
0
100
AcDbLine
 10
147.478
 20
352.8789999999998
 30
0.0
 11
148.1729999999999
 21
352.7029999999998
 31
0.0
  0
LINE
  5
1985
330
1E
100
AcDbEntity
  8
0
100
AcDbLine
 10
150.093
 20
352.6809999999999
 30
0.0
 11
150.6879999999999
 21
352.4549999999998
 31
0.0
  0
LINE
  5
1986
330
1E
100
AcDbEntity
  8
0
100
AcDbLine
 10
149.294
 20
352.3109999999999
 30
0.0
 11
149.7049999999999
 21
352.0969999999999
 31
0.0
  0
LINE
  5
1987
330
1E
100
AcDbEntity
  8
0
100
AcDbLine
 10
148.7809999999999
 20
352.5129999999999
 30
0.0
 11
149.294
 21
352.3109999999999
 31
0.0
  0
LINE
  5
1988
330
1E
100
AcDbEntity
  8
0
100
AcDbLine
 10
148.1729999999999
 20
352.7029999999998
 30
0.0
 11
148.7809999999999
 21
352.5129999999999
 31
0.0
  0
LINE
  5
1989
330
1E
100
AcDbEntity
  8
0
100
AcDbLine
 10
149.7049999999999
 20
352.0969999999999
 30
0.0
 11
150.0099999999999
 21
351.8759999999998
 31
0.0
  0
LINE
  5
198A
330
1E
100
AcDbEntity
  8
0
100
AcDbLine
 10
149.5409999999999
 20
349.8149999999998
 30
0.0
 11
150.2499999999999
 21
350.0409999999999
 31
0.0
  0
LINE
  5
198B
330
1E
100
AcDbEntity
  8
0
100
AcDbLine
 10
147.478
 20
349.8379999999998
 30
0.0
 11
148.1729999999999
 21
350.0129999999999
 31
0.0
  0
LINE
  5
198C
330
1E
100
AcDbEntity
  8
0
100
AcDbLine
 10
150.0099999999999
 20
350.8409999999999
 30
0.0
 11
150.2059999999999
 21
351.0679999999998
 31
0.0
  0
LINE
  5
198D
330
1E
100
AcDbEntity
  8
0
100
AcDbLine
 10
150.0099999999999
 20
351.8759999999998
 30
0.0
 11
150.2059999999999
 21
351.6489999999998
 31
0.0
  0
LINE
  5
198E
330
1E
100
AcDbEntity
  8
0
100
AcDbLine
 10
149.7049999999999
 20
350.6189999999999
 30
0.0
 11
150.0099999999999
 21
350.8409999999999
 31
0.0
  0
LINE
  5
198F
330
1E
100
AcDbEntity
  8
0
100
AcDbLine
 10
149.294
 20
350.4059999999999
 30
0.0
 11
149.7049999999999
 21
350.6189999999999
 31
0.0
  0
LINE
  5
1990
330
1E
100
AcDbEntity
  8
0
100
AcDbLine
 10
148.7809999999999
 20
350.2029999999998
 30
0.0
 11
149.294
 21
350.4059999999999
 31
0.0
  0
LINE
  5
1991
330
1E
100
AcDbEntity
  8
0
100
AcDbLine
 10
148.1729999999999
 20
350.0129999999999
 30
0.0
 11
148.7809999999999
 21
350.2029999999998
 31
0.0
  0
LINE
  5
1992
330
1E
100
AcDbEntity
  8
0
100
AcDbLine
 10
147.718
 20
348.9119999999999
 30
0.0
 11
148.767
 21
349.0809999999999
 31
0.0
  0
LINE
  5
1993
330
1E
100
AcDbEntity
  8
0
100
AcDbLine
 10
148.767
 20
349.0809999999999
 30
0.0
 11
149.737
 21
349.2709999999999
 31
0.0
  0
LINE
  5
1994
330
1E
100
AcDbEntity
  8
0
100
AcDbLine
 10
149.737
 20
349.2709999999999
 30
0.0
 11
150.6179999999999
 21
349.4789999999999
 31
0.0
  0
LINE
  5
1995
330
1E
100
AcDbEntity
  8
0
100
AcDbLine
 10
150.6179999999999
 20
349.4789999999999
 30
0.0
 11
151.403
 21
349.7039999999999
 31
0.0
  0
LINE
  5
1996
330
1E
100
AcDbEntity
  8
0
100
AcDbLine
 10
151.403
 20
349.7039999999999
 30
0.0
 11
152.085
 21
349.9449999999998
 31
0.0
  0
LINE
  5
1997
330
1E
100
AcDbEntity
  8
0
100
AcDbLine
 10
148.601
 20
349.5279999999999
 30
0.0
 11
149.394
 21
349.7239999999999
 31
0.0
  0
LINE
  5
1998
330
1E
100
AcDbEntity
  8
0
100
AcDbLine
 10
148.7239999999999
 20
349.6049999999998
 30
0.0
 11
149.5409999999999
 21
349.8149999999998
 31
0.0
  0
LINE
  5
1999
330
1E
100
AcDbEntity
  8
0
100
AcDbLine
 10
147.8089999999999
 20
349.4159999999999
 30
0.0
 11
148.7239999999999
 21
349.6049999999998
 31
0.0
  0
LINE
  5
199A
330
1E
100
AcDbEntity
  8
0
100
AcDbLine
 10
147.718
 20
349.3499999999997
 30
0.0
 11
148.601
 21
349.5279999999999
 31
0.0
  0
LINE
  5
199B
330
1E
100
AcDbEntity
  8
0
100
AcDbLine
 10
146.7549999999999
 20
353.424
 30
0.0
 11
147.718
 21
353.2669999999999
 31
0.0
  0
LINE
  5
199C
330
1E
100
AcDbEntity
  8
0
100
AcDbLine
 10
146.804
 20
353.4669999999999
 30
0.0
 11
147.8089999999999
 21
353.2989999999999
 31
0.0
  0
LINE
  5
199D
330
1E
100
AcDbEntity
  8
0
100
AcDbLine
 10
146.0249999999999
 20
355.557
 30
0.0
 11
147.939
 21
355.6579999999998
 31
0.0
  0
LINE
  5
199E
330
1E
100
AcDbEntity
  8
0
100
AcDbLine
 10
145.7239999999999
 20
353.5609999999999
 30
0.0
 11
146.7549999999999
 21
353.424
 31
0.0
  0
LINE
  5
199F
330
1E
100
AcDbEntity
  8
0
100
AcDbLine
 10
144.634
 20
353.6739999999999
 30
0.0
 11
145.7239999999999
 21
353.5609999999999
 31
0.0
  0
LINE
  5
19A0
330
1E
100
AcDbEntity
  8
0
100
AcDbLine
 10
144.615
 20
353.7249999999998
 30
0.0
 11
145.7239999999999
 21
353.6099999999998
 31
0.0
  0
LINE
  5
19A1
330
1E
100
AcDbEntity
  8
0
100
AcDbLine
 10
144.0679999999999
 20
355.4889999999999
 30
0.0
 11
146.0249999999999
 21
355.557
 31
0.0
  0
LINE
  5
19A2
330
1E
100
AcDbEntity
  8
0
100
AcDbLine
 10
145.7239999999999
 20
353.6099999999998
 30
0.0
 11
146.804
 21
353.4669999999999
 31
0.0
  0
LINE
  5
19A3
330
1E
100
AcDbEntity
  8
0
100
AcDbLine
 10
144.9339999999999
 20
353.2989999999999
 30
0.0
 11
145.8489999999999
 21
353.1789999999999
 31
0.0
  0
LINE
  5
19A4
330
1E
100
AcDbEntity
  8
0
100
AcDbLine
 10
142.3229999999999
 20
353.8259999999999
 30
0.0
 11
143.4959999999999
 21
353.7619999999999
 31
0.0
  0
LINE
  5
19A5
330
1E
100
AcDbEntity
  8
0
100
AcDbLine
 10
142.264
 20
353.8779999999999
 30
0.0
 11
143.4579999999999
 21
353.8149999999998
 31
0.0
  0
LINE
  5
19A6
330
1E
100
AcDbEntity
  8
0
100
AcDbLine
 10
142.1829999999999
 20
355.4549999999998
 30
0.0
 11
144.0679999999999
 21
355.4889999999999
 31
0.0
  0
LINE
  5
19A7
330
1E
100
AcDbEntity
  8
0
100
AcDbLine
 10
143.4959999999999
 20
353.7619999999999
 30
0.0
 11
144.634
 21
353.6739999999999
 31
0.0
  0
LINE
  5
19A8
330
1E
100
AcDbEntity
  8
0
100
AcDbLine
 10
143.873
 20
353.4079999999998
 30
0.0
 11
144.9339999999999
 21
353.2989999999999
 31
0.0
  0
LINE
  5
19A9
330
1E
100
AcDbEntity
  8
0
100
AcDbLine
 10
143.4579999999999
 20
353.8149999999998
 30
0.0
 11
144.615
 21
353.7249999999998
 31
0.0
  0
LINE
  5
19AA
330
1E
100
AcDbEntity
  8
0
100
AcDbLine
 10
142.7619999999999
 20
353.4899999999999
 30
0.0
 11
143.873
 21
353.4079999999998
 31
0.0
  0
LINE
  5
19AB
330
1E
100
AcDbEntity
  8
0
100
AcDbLine
 10
141.045
 20
353.9149999999998
 30
0.0
 11
142.264
 21
353.8779999999999
 31
0.0
  0
LINE
  5
19AC
330
1E
100
AcDbEntity
  8
0
100
AcDbLine
 10
141.125
 20
353.8639999999999
 30
0.0
 11
142.3229999999999
 21
353.8259999999999
 31
0.0
  0
LINE
  5
19AD
330
1E
100
AcDbEntity
  8
0
100
AcDbLine
 10
141.615
 20
353.5429999999998
 30
0.0
 11
142.7619999999999
 21
353.4899999999999
 31
0.0
  0
LINE
  5
19AE
330
1E
100
AcDbEntity
  8
0
100
AcDbLine
 10
140.447
 20
353.5689999999999
 30
0.0
 11
141.615
 21
353.5429999999998
 31
0.0
  0
LINE
  5
19AF
330
1E
100
AcDbEntity
  8
0
100
AcDbLine
 10
151.2909999999999
 20
356.0039999999998
 30
0.0
 11
152.6259999999999
 21
356.2929999999998
 31
0.0
  0
LINE
  5
19B0
330
1E
100
AcDbEntity
  8
0
100
AcDbLine
 10
152.6259999999999
 20
356.2929999999998
 30
0.0
 11
153.3579999999999
 21
356.5419999999999
 31
0.0
  0
LINE
  5
19B1
330
1E
100
AcDbEntity
  8
0
100
AcDbLine
 10
149.7169999999999
 20
355.8009999999999
 30
0.0
 11
151.2909999999999
 21
356.0039999999998
 31
0.0
  0
LINE
  5
19B2
330
1E
100
AcDbEntity
  8
0
100
AcDbLine
 10
147.939
 20
355.6579999999998
 30
0.0
 11
149.7169999999999
 21
355.8009999999999
 31
0.0
  0
LINE
  5
19B3
330
1E
100
AcDbEntity
  8
0
100
AcDbLine
 10
154.0
 20
351.7759999999999
 30
0.0
 11
154.0
 21
356.8674337016568
 31
0.0
  0
LINE
  5
19B4
330
1E
100
AcDbEntity
  8
0
100
AcDbLine
 10
154.0
 20
356.8674337016568
 30
0.0
 11
154.0
 21
351.7759999999999
 31
0.0
  0
LINE
  5
19B5
330
1E
100
AcDbEntity
  8
0
100
AcDbLine
 10
157.5
 20
353.8529999999998
 30
0.0
 11
157.5
 21
352.2009999999998
 31
0.0
  0
LINE
  5
19B6
330
1E
100
AcDbEntity
  8
0
100
AcDbLine
 10
157.5
 20
352.2009999999998
 30
0.0
 11
157.5
 21
353.8529999999998
 31
0.0
  0
LINE
  5
19B7
330
1E
100
AcDbEntity
  8
0
100
AcDbLine
 10
154.0
 20
351.7759999999999
 30
0.0
 11
154.0
 21
351.6349999999998
 31
0.0
  0
LINE
  5
19B8
330
1E
100
AcDbEntity
  8
0
100
AcDbLine
 10
157.5
 20
352.2009999999998
 30
0.0
 11
157.5
 21
350.4489999999999
 31
0.0
  0
LINE
  5
19B9
330
1E
100
AcDbEntity
  8
0
100
AcDbLine
 10
154.0
 20
351.6349999999998
 30
0.0
 11
154.0
 21
351.7759999999999
 31
0.0
  0
LINE
  5
19BA
330
1E
100
AcDbEntity
  8
0
100
AcDbLine
 10
157.5
 20
350.4489999999999
 30
0.0
 11
157.5
 21
352.2009999999998
 31
0.0
  0
LINE
  5
19BB
330
1E
100
AcDbEntity
  8
0
100
AcDbLine
 10
157.5
 20
350.4489999999999
 30
0.0
 11
157.5
 21
348.6029999999998
 31
0.0
  0
LINE
  5
19BC
330
1E
100
AcDbEntity
  8
0
100
AcDbLine
 10
157.5
 20
346.6679999999998
 30
0.0
 11
157.5
 21
348.6029999999998
 31
0.0
  0
LINE
  5
19BD
330
1E
100
AcDbEntity
  8
0
100
AcDbLine
 10
157.5
 20
346.6679999999998
 30
0.0
 11
157.5
 21
344.6509999999999
 31
0.0
  0
LINE
  5
19BE
330
1E
100
AcDbEntity
  8
0
100
AcDbLine
 10
157.5
 20
348.6029999999998
 30
0.0
 11
157.5
 21
350.4489999999999
 31
0.0
  0
LINE
  5
19BF
330
1E
100
AcDbEntity
  8
0
100
AcDbLine
 10
157.5
 20
348.6029999999998
 30
0.0
 11
157.5
 21
346.6679999999998
 31
0.0
  0
LINE
  5
19C0
330
1E
100
AcDbEntity
  8
0
100
AcDbLine
 10
157.5
 20
344.6509999999999
 30
0.0
 11
157.5
 21
346.6679999999998
 31
0.0
  0
LINE
  5
19C1
330
1E
100
AcDbEntity
  8
0
100
AcDbLine
 10
157.5
 20
344.6509999999999
 30
0.0
 11
157.5
 21
342.5599999999998
 31
0.0
  0
LINE
  5
19C2
330
1E
100
AcDbEntity
  8
0
100
AcDbLine
 10
157.5
 20
342.5599999999998
 30
0.0
 11
157.5
 21
344.6509999999999
 31
0.0
  0
LINE
  5
19C3
330
1E
100
AcDbEntity
  8
0
100
AcDbLine
 10
157.5
 20
342.5599999999998
 30
0.0
 11
157.5
 21
338.1879999999998
 31
0.0
  0
LINE
  5
19C4
330
1E
100
AcDbEntity
  8
0
100
AcDbLine
 10
157.5
 20
338.1879999999998
 30
0.0
 11
157.5
 21
342.5599999999998
 31
0.0
  0
LINE
  5
19C5
330
1E
100
AcDbEntity
  8
0
100
AcDbLine
 10
154.4024999999999
 20
357.1389999999999
 30
0.0
 11
154.0816999999999
 21
356.909
 31
0.0
  0
LINE
  5
19C6
330
1E
100
AcDbEntity
  8
0
100
AcDbLine
 10
154.4024999999999
 20
357.1389999999999
 30
0.0
 11
155.0098813304462
 21
357.6941839130692
 31
0.0
  0
LINE
  5
19C7
330
1E
100
AcDbEntity
  8
0
100
AcDbLine
 10
155.0098813304462
 20
357.6941839130692
 30
0.0
 11
155.829802376676
 21
358.6228840388681
 31
0.0
  0
LINE
  5
19C8
330
1E
100
AcDbEntity
  8
0
100
AcDbLine
 10
155.829802376676
 20
358.6228840388681
 30
0.0
 11
156.4529426767671
 21
359.6499201473412
 31
0.0
  0
LINE
  5
19C9
330
1E
100
AcDbEntity
  8
0
100
AcDbLine
 10
156.4529426767671
 20
359.6499201473412
 30
0.0
 11
156.9230291676644
 21
360.7971395720365
 31
0.0
  0
LINE
  5
19CA
330
1E
100
AcDbEntity
  8
0
100
AcDbLine
 10
156.9230291676644
 20
360.7971395720365
 30
0.0
 11
157.2400656613226
 21
362.0536195654491
 31
0.0
  0
LINE
  5
19CB
330
1E
100
AcDbEntity
  8
0
100
AcDbLine
 10
157.439705965535
 20
363.4874325871669
 30
0.0
 11
157.3716999999999
 21
362.802
 31
0.0
  0
LINE
  5
19CC
330
1E
100
AcDbEntity
  8
0
100
AcDbLine
 10
157.3716999999999
 20
362.802
 30
0.0
 11
157.3565830136181
 21
362.7251529820308
 31
0.0
  0
LINE
  5
19CD
330
1E
100
AcDbEntity
  8
0
100
AcDbLine
 10
157.2400656613226
 20
362.0536195654491
 30
0.0
 11
157.3565830136181
 21
362.7251529820308
 31
0.0
  0
LINE
  5
19CE
330
1E
100
AcDbEntity
  8
0
100
AcDbLine
 10
157.5
 20
363.0469999999998
 30
0.0
 11
157.5
 21
364.2059999999998
 31
0.0
  0
LINE
  5
19CF
330
1E
100
AcDbEntity
  8
0
100
AcDbLine
 10
157.5
 20
363.0469999999998
 30
0.0
 11
157.5
 21
361.4409999999999
 31
0.0
  0
LINE
  5
19D0
330
1E
100
AcDbEntity
  8
0
100
AcDbLine
 10
157.5
 20
365.5189999999998
 30
0.0
 11
157.5
 21
365.4289999999999
 31
0.0
  0
LINE
  5
19D1
330
1E
100
AcDbEntity
  8
0
100
AcDbLine
 10
157.5
 20
365.4289999999999
 30
0.0
 11
157.5
 21
365.5189999999998
 31
0.0
  0
LINE
  5
19D2
330
1E
100
AcDbEntity
  8
0
100
AcDbLine
 10
157.5
 20
365.4289999999999
 30
0.0
 11
157.5
 21
365.1339999999998
 31
0.0
  0
LINE
  5
19D3
330
1E
100
AcDbEntity
  8
0
100
AcDbLine
 10
157.5
 20
365.1339999999998
 30
0.0
 11
157.5
 21
365.4289999999999
 31
0.0
  0
LINE
  5
19D4
330
1E
100
AcDbEntity
  8
0
100
AcDbLine
 10
157.5
 20
365.1339999999998
 30
0.0
 11
157.5
 21
364.7519999999999
 31
0.0
  0
LINE
  5
19D5
330
1E
100
AcDbEntity
  8
0
100
AcDbLine
 10
157.5
 20
364.7519999999999
 30
0.0
 11
157.5
 21
365.1339999999998
 31
0.0
  0
LINE
  5
19D6
330
1E
100
AcDbEntity
  8
0
100
AcDbLine
 10
157.5
 20
364.7519999999999
 30
0.0
 11
157.5
 21
364.2059999999998
 31
0.0
  0
LINE
  5
19D7
330
1E
100
AcDbEntity
  8
0
100
AcDbLine
 10
157.5
 20
361.4409999999999
 30
0.0
 11
157.5
 21
359.3719999999999
 31
0.0
  0
LINE
  5
19D8
330
1E
100
AcDbEntity
  8
0
100
AcDbLine
 10
157.5
 20
361.4409999999999
 30
0.0
 11
157.5
 21
363.0469999999998
 31
0.0
  0
LINE
  5
19D9
330
1E
100
AcDbEntity
  8
0
100
AcDbLine
 10
157.5
 20
364.2059999999998
 30
0.0
 11
157.5
 21
364.7519999999999
 31
0.0
  0
LINE
  5
19DA
330
1E
100
AcDbEntity
  8
0
100
AcDbLine
 10
157.5
 20
364.2059999999998
 30
0.0
 11
157.5
 21
363.0469999999998
 31
0.0
  0
LINE
  5
19DB
330
1E
100
AcDbEntity
  8
0
100
AcDbLine
 10
157.5
 20
353.8529999999998
 30
0.0
 11
157.5
 21
356.8379999999998
 31
0.0
  0
LINE
  5
19DC
330
1E
100
AcDbEntity
  8
0
100
AcDbLine
 10
157.5
 20
356.8379999999998
 30
0.0
 11
157.5
 21
353.8529999999998
 31
0.0
  0
LINE
  5
19DD
330
1E
100
AcDbEntity
  8
0
100
AcDbLine
 10
157.5
 20
356.8379999999998
 30
0.0
 11
157.5
 21
359.3719999999999
 31
0.0
  0
LINE
  5
19DE
330
1E
100
AcDbEntity
  8
0
100
AcDbLine
 10
157.5
 20
359.3719999999999
 30
0.0
 11
157.5
 21
356.8379999999998
 31
0.0
  0
LINE
  5
19DF
330
1E
100
AcDbEntity
  8
0
100
AcDbLine
 10
157.5
 20
359.3719999999999
 30
0.0
 11
157.5
 21
361.4409999999999
 31
0.0
  0
LINE
  5
19E0
330
1E
100
AcDbEntity
  8
0
100
AcDbLine
 10
140.0
 20
373.6559999999999
 30
0.0
 11
148.307
 21
373.5639999999999
 31
0.0
  0
LINE
  5
19E1
330
1E
100
AcDbEntity
  8
0
100
AcDbLine
 10
123.3854999999999
 20
373.2889999999999
 30
0.0
 11
131.6929999999999
 21
373.5639999999999
 31
0.0
  0
LINE
  5
19E2
330
1E
100
AcDbEntity
  8
0
100
AcDbLine
 10
122.9397999999999
 20
373.1669999999999
 30
0.0
 11
123.3854999999999
 21
373.2889999999999
 31
0.0
  0
LINE
  5
19E3
330
1E
100
AcDbEntity
  8
0
100
AcDbLine
 10
122.6167
 20
372.8739999999999
 30
0.0
 11
122.9397999999999
 21
373.1669999999999
 31
0.0
  0
LINE
  5
19E4
330
1E
100
AcDbEntity
  8
0
100
AcDbLine
 10
122.5
 20
372.4819999999999
 30
0.0
 11
122.6167
 21
372.8739999999999
 31
0.0
  0
LINE
  5
19E5
330
1E
100
AcDbEntity
  8
0
100
AcDbLine
 10
131.6929999999999
 20
373.5639999999999
 30
0.0
 11
140.0
 21
373.6559999999999
 31
0.0
  0
LINE
  5
19E6
330
1E
100
AcDbEntity
  8
0
100
AcDbLine
 10
148.307
 20
373.5639999999999
 30
0.0
 11
156.615
 21
373.2889999999999
 31
0.0
  0
LINE
  5
19E7
330
1E
100
AcDbEntity
  8
0
100
AcDbLine
 10
157.383
 20
372.8739999999999
 30
0.0
 11
157.5
 21
372.4819999999999
 31
0.0
  0
LINE
  5
19E8
330
1E
100
AcDbEntity
  8
0
100
AcDbLine
 10
156.615
 20
373.2889999999999
 30
0.0
 11
157.0599999999999
 21
373.1669999999999
 31
0.0
  0
LINE
  5
19E9
330
1E
100
AcDbEntity
  8
0
100
AcDbLine
 10
157.0599999999999
 20
373.1669999999999
 30
0.0
 11
157.383
 21
372.8739999999999
 31
0.0
  0
LINE
  5
19EA
330
1E
100
AcDbEntity
  8
0
100
AcDbLine
 10
230.0
 20
220.6559999999999
 30
0.0
 11
230.0
 21
265.2359999999998
 31
0.0
  0
LINE
  5
19EB
330
1E
100
AcDbEntity
  8
0
100
AcDbLine
 10
270.0
 20
220.6559999999999
 30
0.0
 11
270.0
 21
265.2359999999998
 31
0.0
  0
LINE
  5
19EC
330
1E
100
AcDbEntity
  8
0
100
AcDbLine
 10
270.0
 20
265.2359999999998
 30
0.0
 11
270.0
 21
220.6559999999999
 31
0.0
  0
LINE
  5
19ED
330
1E
100
AcDbEntity
  8
0
100
AcDbLine
 10
230.0
 20
265.2359999999998
 30
0.0
 11
230.0
 21
220.6559999999999
 31
0.0
  0
LINE
  5
19EE
330
1E
100
AcDbEntity
  8
0
100
AcDbLine
 10
372.0
 20
243.5329999999999
 30
0.0
 11
372.0
 21
250.3422999999999
 31
0.0
  0
LINE
  5
19EF
330
1E
100
AcDbEntity
  8
0
100
AcDbLine
 10
372.0
 20
250.3422999999999
 30
0.0
 11
372.0
 21
243.5329999999999
 31
0.0
  0
LINE
  5
19F0
330
1E
100
AcDbEntity
  8
0
100
AcDbLine
 10
349.7999999999999
 20
247.2064999999999
 30
0.0
 11
351.6859999999999
 21
245.6362999999999
 31
0.0
  0
LINE
  5
19F1
330
1E
100
AcDbEntity
  8
0
100
AcDbLine
 10
368.3139999999999
 20
245.6362999999999
 30
0.0
 11
370.2
 21
247.2064999999999
 31
0.0
  0
LINE
  5
19F2
330
1E
100
AcDbEntity
  8
0
100
AcDbLine
 10
365.952
 20
245.4133999999999
 30
0.0
 11
368.4479999999999
 21
246.6551999999999
 31
0.0
  0
LINE
  5
19F3
330
1E
100
AcDbEntity
  8
0
100
AcDbLine
 10
351.5519999999999
 20
246.6551999999999
 30
0.0
 11
354.048
 21
245.4133999999999
 31
0.0
  0
LINE
  5
19F4
330
1E
100
AcDbEntity
  8
0
100
AcDbLine
 10
348.0
 20
243.5329999999999
 30
0.0
 11
348.0
 21
250.3422999999999
 31
0.0
  0
LINE
  5
19F5
330
1E
100
AcDbEntity
  8
0
100
AcDbLine
 10
348.0
 20
250.3422999999999
 30
0.0
 11
348.0
 21
243.5329999999999
 31
0.0
  0
LINE
  5
19F6
330
1E
100
AcDbEntity
  8
0
100
AcDbLine
 10
242.44
 20
220.6559999999999
 30
0.0
 11
250.0
 21
220.6559999999999
 31
0.0
  0
LINE
  5
19F7
330
1E
100
AcDbEntity
  8
0
100
AcDbLine
 10
242.3199999999999
 20
220.2359999999999
 30
0.0
 11
250.0
 21
220.2359999999999
 31
0.0
  0
LINE
  5
19F8
330
1E
100
AcDbEntity
  8
0
100
AcDbLine
 10
221.7999999999999
 20
220.6559999999999
 30
0.0
 11
224.68
 21
220.6559999999999
 31
0.0
  0
LINE
  5
19F9
330
1E
100
AcDbEntity
  8
0
100
AcDbLine
 10
221.0799999999999
 20
220.2359999999999
 30
0.0
 11
223.96
 21
220.2359999999999
 31
0.0
  0
LINE
  5
19FA
330
1E
100
AcDbEntity
  8
0
100
AcDbLine
 10
220.0
 20
220.2359999999999
 30
0.0
 11
220.0
 21
213.6559999999999
 31
0.0
  0
LINE
  5
19FB
330
1E
100
AcDbEntity
  8
0
100
AcDbLine
 10
220.0
 20
213.6559999999999
 30
0.0
 11
220.0
 21
220.2359999999999
 31
0.0
  0
LINE
  5
19FC
330
1E
100
AcDbEntity
  8
0
100
AcDbLine
 10
220.72
 20
220.6559999999999
 30
0.0
 11
221.7999999999999
 21
220.6559999999999
 31
0.0
  0
LINE
  5
19FD
330
1E
100
AcDbEntity
  8
0
100
AcDbLine
 10
220.0
 20
220.2359999999999
 30
0.0
 11
220.72
 21
220.6559999999999
 31
0.0
  0
LINE
  5
19FE
330
1E
100
AcDbEntity
  8
0
100
AcDbLine
 10
220.0
 20
220.2359999999999
 30
0.0
 11
221.0799999999999
 21
220.2359999999999
 31
0.0
  0
LINE
  5
19FF
330
1E
100
AcDbEntity
  8
0
100
AcDbLine
 10
235.1199999999999
 20
220.2359999999999
 30
0.0
 11
242.3199999999999
 21
220.2359999999999
 31
0.0
  0
LINE
  5
1A00
330
1E
100
AcDbEntity
  8
0
100
AcDbLine
 10
235.48
 20
220.6559999999999
 30
0.0
 11
242.44
 21
220.6559999999999
 31
0.0
  0
LINE
  5
1A01
330
1E
100
AcDbEntity
  8
0
100
AcDbLine
 10
224.68
 20
220.6559999999999
 30
0.0
 11
229.36
 21
220.6559999999999
 31
0.0
  0
LINE
  5
1A02
330
1E
100
AcDbEntity
  8
0
100
AcDbLine
 10
228.7599999999999
 20
220.2359999999999
 30
0.0
 11
235.1199999999999
 21
220.2359999999999
 31
0.0
  0
LINE
  5
1A03
330
1E
100
AcDbEntity
  8
0
100
AcDbLine
 10
223.96
 20
220.2359999999999
 30
0.0
 11
228.7599999999999
 21
220.2359999999999
 31
0.0
  0
LINE
  5
1A04
330
1E
100
AcDbEntity
  8
0
100
AcDbLine
 10
229.36
 20
220.6559999999999
 30
0.0
 11
235.48
 21
220.6559999999999
 31
0.0
  0
LINE
  5
1A05
330
1E
100
AcDbEntity
  8
0
100
AcDbLine
 10
275.3199999999999
 20
220.6559999999999
 30
0.0
 11
278.2
 21
220.6559999999999
 31
0.0
  0
LINE
  5
1A06
330
1E
100
AcDbEntity
  8
0
100
AcDbLine
 10
276.0399999999999
 20
220.2359999999999
 30
0.0
 11
278.92
 21
220.2359999999999
 31
0.0
  0
LINE
  5
1A07
330
1E
100
AcDbEntity
  8
0
100
AcDbLine
 10
257.68
 20
220.2359999999999
 30
0.0
 11
264.88
 21
220.2359999999999
 31
0.0
  0
LINE
  5
1A08
330
1E
100
AcDbEntity
  8
0
100
AcDbLine
 10
257.5599999999999
 20
220.6559999999999
 30
0.0
 11
264.5199999999999
 21
220.6559999999999
 31
0.0
  0
LINE
  5
1A09
330
1E
100
AcDbEntity
  8
0
100
AcDbLine
 10
250.0
 20
220.2359999999999
 30
0.0
 11
257.68
 21
220.2359999999999
 31
0.0
  0
LINE
  5
1A0A
330
1E
100
AcDbEntity
  8
0
100
AcDbLine
 10
250.0
 20
220.6559999999999
 30
0.0
 11
257.5599999999999
 21
220.6559999999999
 31
0.0
  0
LINE
  5
1A0B
330
1E
100
AcDbEntity
  8
0
100
AcDbLine
 10
264.88
 20
220.2359999999999
 30
0.0
 11
271.24
 21
220.2359999999999
 31
0.0
  0
LINE
  5
1A0C
330
1E
100
AcDbEntity
  8
0
100
AcDbLine
 10
264.5199999999999
 20
220.6559999999999
 30
0.0
 11
270.6399999999999
 21
220.6559999999999
 31
0.0
  0
LINE
  5
1A0D
330
1E
100
AcDbEntity
  8
0
100
AcDbLine
 10
270.6399999999999
 20
220.6559999999999
 30
0.0
 11
275.3199999999999
 21
220.6559999999999
 31
0.0
  0
LINE
  5
1A0E
330
1E
100
AcDbEntity
  8
0
100
AcDbLine
 10
271.24
 20
220.2359999999999
 30
0.0
 11
276.0399999999999
 21
220.2359999999999
 31
0.0
  0
LINE
  5
1A0F
330
1E
100
AcDbEntity
  8
0
100
AcDbLine
 10
280.0
 20
220.2359999999999
 30
0.0
 11
280.0
 21
213.6559999999999
 31
0.0
  0
LINE
  5
1A10
330
1E
100
AcDbEntity
  8
0
100
AcDbLine
 10
280.0
 20
213.6559999999999
 30
0.0
 11
280.0
 21
220.2359999999999
 31
0.0
  0
LINE
  5
1A11
330
1E
100
AcDbEntity
  8
0
100
AcDbLine
 10
278.2
 20
220.6559999999999
 30
0.0
 11
279.2799999999999
 21
220.6559999999999
 31
0.0
  0
LINE
  5
1A12
330
1E
100
AcDbEntity
  8
0
100
AcDbLine
 10
279.2799999999999
 20
220.6559999999999
 30
0.0
 11
280.0
 21
220.2359999999999
 31
0.0
  0
LINE
  5
1A13
330
1E
100
AcDbEntity
  8
0
100
AcDbLine
 10
278.92
 20
220.2359999999999
 30
0.0
 11
280.0
 21
220.2359999999999
 31
0.0
  0
LINE
  5
1A14
330
1E
100
AcDbEntity
  8
0
100
AcDbLine
 10
356.957
 20
243.6803999999999
 30
0.0
 11
360.0
 21
243.4048999999999
 31
0.0
  0
LINE
  5
1A15
330
1E
100
AcDbEntity
  8
0
100
AcDbLine
 10
356.9280000000001
 20
244.6593999999999
 30
0.0
 11
360.0
 21
244.3047999999999
 31
0.0
  0
LINE
  5
1A16
330
1E
100
AcDbEntity
  8
0
100
AcDbLine
 10
356.8999999999999
 20
229.2559999999999
 30
0.0
 11
360.0
 21
229.0559999999999
 31
0.0
  0
LINE
  5
1A17
330
1E
100
AcDbEntity
  8
0
100
AcDbLine
 10
351.2999999999999
 20
223.6559999999999
 30
0.0
 11
360.0
 21
223.6559999999999
 31
0.0
  0
LINE
  5
1A18
330
1E
100
AcDbEntity
  8
0
100
AcDbLine
 10
351.0
 20
222.6559999999999
 30
0.0
 11
360.0
 21
222.6559999999999
 31
0.0
  0
LINE
  5
1A19
330
1E
100
AcDbEntity
  8
0
100
AcDbLine
 10
330.6
 20
223.6559999999999
 30
0.0
 11
336.0
 21
223.6559999999999
 31
0.0
  0
LINE
  5
1A1A
330
1E
100
AcDbEntity
  8
0
100
AcDbLine
 10
329.7
 20
222.6559999999999
 30
0.0
 11
335.2999999999999
 21
222.6559999999999
 31
0.0
  0
LINE
  5
1A1B
330
1E
100
AcDbEntity
  8
0
100
AcDbLine
 10
325.0
 20
222.6559999999999
 30
0.0
 11
325.0
 21
213.6559999999999
 31
0.0
  0
LINE
  5
1A1C
330
1E
100
AcDbEntity
  8
0
100
AcDbLine
 10
325.0
 20
213.6559999999999
 30
0.0
 11
325.0
 21
222.6559999999999
 31
0.0
  0
LINE
  5
1A1D
330
1E
100
AcDbEntity
  8
0
100
AcDbLine
 10
326.0
 20
223.6559999999999
 30
0.0
 11
327.2
 21
223.6559999999999
 31
0.0
  0
LINE
  5
1A1E
330
1E
100
AcDbEntity
  8
0
100
AcDbLine
 10
327.2
 20
223.6559999999999
 30
0.0
 11
330.6
 21
223.6559999999999
 31
0.0
  0
LINE
  5
1A1F
330
1E
100
AcDbEntity
  8
0
100
AcDbLine
 10
326.2999999999999
 20
222.6559999999999
 30
0.0
 11
329.7
 21
222.6559999999999
 31
0.0
  0
LINE
  5
1A20
330
1E
100
AcDbEntity
  8
0
100
AcDbLine
 10
325.0
 20
222.6559999999999
 30
0.0
 11
326.0
 21
223.6559999999999
 31
0.0
  0
LINE
  5
1A21
330
1E
100
AcDbEntity
  8
0
100
AcDbLine
 10
325.0
 20
222.6559999999999
 30
0.0
 11
326.2999999999999
 21
222.6559999999999
 31
0.0
  0
LINE
  5
1A22
330
1E
100
AcDbEntity
  8
0
100
AcDbLine
 10
341.0
 20
234.6559999999999
 30
0.0
 11
348.0
 21
237.2169756097559
 31
0.0
  0
LINE
  5
1A23
330
1E
100
AcDbEntity
  8
0
100
AcDbLine
 10
343.1
 20
223.6559999999999
 30
0.0
 11
351.2999999999999
 21
223.6559999999999
 31
0.0
  0
LINE
  5
1A24
330
1E
100
AcDbEntity
  8
0
100
AcDbLine
 10
342.6
 20
222.6559999999999
 30
0.0
 11
351.0
 21
222.6559999999999
 31
0.0
  0
LINE
  5
1A25
330
1E
100
AcDbEntity
  8
0
100
AcDbLine
 10
335.0
 20
228.6559999999999
 30
0.0
 11
341.0
 21
234.6559999999999
 31
0.0
  0
LINE
  5
1A26
330
1E
100
AcDbEntity
  8
0
100
AcDbLine
 10
336.0
 20
223.6559999999999
 30
0.0
 11
343.1
 21
223.6559999999999
 31
0.0
  0
LINE
  5
1A27
330
1E
100
AcDbEntity
  8
0
100
AcDbLine
 10
335.2999999999999
 20
222.6559999999999
 30
0.0
 11
342.6
 21
222.6559999999999
 31
0.0
  0
LINE
  5
1A28
330
1E
100
AcDbEntity
  8
0
100
AcDbLine
 10
333.0
 20
223.6559999999999
 30
0.0
 11
335.0
 21
228.6559999999999
 31
0.0
  0
LINE
  5
1A29
330
1E
100
AcDbEntity
  8
0
100
AcDbLine
 10
351.5
 20
230.7559999999998
 30
0.0
 11
354.0
 21
229.8559999999999
 31
0.0
  0
LINE
  5
1A2A
330
1E
100
AcDbEntity
  8
0
100
AcDbLine
 10
354.0
 20
229.8559999999999
 30
0.0
 11
356.8999999999999
 21
229.2559999999999
 31
0.0
  0
LINE
  5
1A2B
330
1E
100
AcDbEntity
  8
0
100
AcDbLine
 10
351.6859999999999
 20
245.6362999999999
 30
0.0
 11
354.129
 21
244.4241999999999
 31
0.0
  0
LINE
  5
1A2C
330
1E
100
AcDbEntity
  8
0
100
AcDbLine
 10
348.0
 20
234.8559999999999
 30
0.0
 11
348.0
 21
243.5329999999999
 31
0.0
  0
LINE
  5
1A2D
330
1E
100
AcDbEntity
  8
0
100
AcDbLine
 10
348.0
 20
234.8559999999999
 30
0.0
 11
348.3999999999999
 21
233.3559999999998
 31
0.0
  0
LINE
  5
1A2E
330
1E
100
AcDbEntity
  8
0
100
AcDbLine
 10
348.0
 20
243.5329999999999
 30
0.0
 11
348.0
 21
234.8559999999999
 31
0.0
  0
LINE
  5
1A2F
330
1E
100
AcDbEntity
  8
0
100
AcDbLine
 10
349.6
 20
231.9559999999999
 30
0.0
 11
351.5
 21
230.7559999999998
 31
0.0
  0
LINE
  5
1A30
330
1E
100
AcDbEntity
  8
0
100
AcDbLine
 10
348.3999999999999
 20
233.3559999999998
 30
0.0
 11
349.6
 21
231.9559999999999
 31
0.0
  0
LINE
  5
1A31
330
1E
100
AcDbEntity
  8
0
100
AcDbLine
 10
354.129
 20
244.4241999999999
 30
0.0
 11
356.957
 21
243.6803999999999
 31
0.0
  0
LINE
  5
1A32
330
1E
100
AcDbEntity
  8
0
100
AcDbLine
 10
354.048
 20
245.4133999999999
 30
0.0
 11
356.9280000000001
 21
244.6593999999999
 31
0.0
  0
LINE
  5
1A33
330
1E
100
AcDbEntity
  8
0
100
AcDbLine
 10
385.0
 20
228.6559999999999
 30
0.0
 11
387.0
 21
223.6559999999999
 31
0.0
  0
LINE
  5
1A34
330
1E
100
AcDbEntity
  8
0
100
AcDbLine
 10
384.0
 20
223.6559999999999
 30
0.0
 11
389.3999999999999
 21
223.6559999999999
 31
0.0
  0
LINE
  5
1A35
330
1E
100
AcDbEntity
  8
0
100
AcDbLine
 10
384.7
 20
222.6559999999999
 30
0.0
 11
390.2999999999999
 21
222.6559999999999
 31
0.0
  0
LINE
  5
1A36
330
1E
100
AcDbEntity
  8
0
100
AcDbLine
 10
372.0
 20
237.2169756097559
 30
0.0
 11
379.0
 21
234.6559999999999
 31
0.0
  0
LINE
  5
1A37
330
1E
100
AcDbEntity
  8
0
100
AcDbLine
 10
368.7
 20
223.6559999999999
 30
0.0
 11
376.8999999999999
 21
223.6559999999999
 31
0.0
  0
LINE
  5
1A38
330
1E
100
AcDbEntity
  8
0
100
AcDbLine
 10
369.0
 20
222.6559999999999
 30
0.0
 11
377.4
 21
222.6559999999999
 31
0.0
  0
LINE
  5
1A39
330
1E
100
AcDbEntity
  8
0
100
AcDbLine
 10
366.0
 20
229.8559999999999
 30
0.0
 11
368.5
 21
230.7559999999998
 31
0.0
  0
LINE
  5
1A3A
330
1E
100
AcDbEntity
  8
0
100
AcDbLine
 10
363.1
 20
229.2559999999999
 30
0.0
 11
366.0
 21
229.8559999999999
 31
0.0
  0
LINE
  5
1A3B
330
1E
100
AcDbEntity
  8
0
100
AcDbLine
 10
360.0
 20
223.6559999999999
 30
0.0
 11
368.7
 21
223.6559999999999
 31
0.0
  0
LINE
  5
1A3C
330
1E
100
AcDbEntity
  8
0
100
AcDbLine
 10
360.0
 20
222.6559999999999
 30
0.0
 11
369.0
 21
222.6559999999999
 31
0.0
  0
LINE
  5
1A3D
330
1E
100
AcDbEntity
  8
0
100
AcDbLine
 10
360.0
 20
229.0559999999999
 30
0.0
 11
363.1
 21
229.2559999999999
 31
0.0
  0
LINE
  5
1A3E
330
1E
100
AcDbEntity
  8
0
100
AcDbLine
 10
365.8709999999999
 20
244.4241999999999
 30
0.0
 11
368.3139999999999
 21
245.6362999999999
 31
0.0
  0
LINE
  5
1A3F
330
1E
100
AcDbEntity
  8
0
100
AcDbLine
 10
363.072
 20
244.6593999999999
 30
0.0
 11
365.952
 21
245.4133999999999
 31
0.0
  0
LINE
  5
1A40
330
1E
100
AcDbEntity
  8
0
100
AcDbLine
 10
360.0
 20
243.4048999999999
 30
0.0
 11
363.043
 21
243.6803999999999
 31
0.0
  0
LINE
  5
1A41
330
1E
100
AcDbEntity
  8
0
100
AcDbLine
 10
363.043
 20
243.6803999999999
 30
0.0
 11
365.8709999999999
 21
244.4241999999999
 31
0.0
  0
LINE
  5
1A42
330
1E
100
AcDbEntity
  8
0
100
AcDbLine
 10
360.0
 20
244.3047999999999
 30
0.0
 11
363.072
 21
244.6593999999999
 31
0.0
  0
LINE
  5
1A43
330
1E
100
AcDbEntity
  8
0
100
AcDbLine
 10
372.0
 20
243.5329999999999
 30
0.0
 11
372.0
 21
234.8559999999999
 31
0.0
  0
LINE
  5
1A44
330
1E
100
AcDbEntity
  8
0
100
AcDbLine
 10
372.0
 20
234.8559999999999
 30
0.0
 11
372.0
 21
243.5329999999999
 31
0.0
  0
LINE
  5
1A45
330
1E
100
AcDbEntity
  8
0
100
AcDbLine
 10
368.5
 20
230.7559999999998
 30
0.0
 11
370.3999999999999
 21
231.9559999999999
 31
0.0
  0
LINE
  5
1A46
330
1E
100
AcDbEntity
  8
0
100
AcDbLine
 10
370.3999999999999
 20
231.9559999999999
 30
0.0
 11
371.6
 21
233.3559999999998
 31
0.0
  0
LINE
  5
1A47
330
1E
100
AcDbEntity
  8
0
100
AcDbLine
 10
371.6
 20
233.3559999999998
 30
0.0
 11
372.0
 21
234.8559999999999
 31
0.0
  0
LINE
  5
1A48
330
1E
100
AcDbEntity
  8
0
100
AcDbLine
 10
379.0
 20
234.6559999999999
 30
0.0
 11
385.0
 21
228.6559999999999
 31
0.0
  0
LINE
  5
1A49
330
1E
100
AcDbEntity
  8
0
100
AcDbLine
 10
376.8999999999999
 20
223.6559999999999
 30
0.0
 11
384.0
 21
223.6559999999999
 31
0.0
  0
LINE
  5
1A4A
330
1E
100
AcDbEntity
  8
0
100
AcDbLine
 10
377.4
 20
222.6559999999999
 30
0.0
 11
384.7
 21
222.6559999999999
 31
0.0
  0
LINE
  5
1A4B
330
1E
100
AcDbEntity
  8
0
100
AcDbLine
 10
395.0
 20
222.6559999999999
 30
0.0
 11
395.0
 21
213.6559999999999
 31
0.0
  0
LINE
  5
1A4C
330
1E
100
AcDbEntity
  8
0
100
AcDbLine
 10
395.0
 20
213.6559999999999
 30
0.0
 11
395.0
 21
222.6559999999999
 31
0.0
  0
LINE
  5
1A4D
330
1E
100
AcDbEntity
  8
0
100
AcDbLine
 10
392.7999999999999
 20
223.6559999999999
 30
0.0
 11
394.0
 21
223.6559999999999
 31
0.0
  0
LINE
  5
1A4E
330
1E
100
AcDbEntity
  8
0
100
AcDbLine
 10
390.2999999999999
 20
222.6559999999999
 30
0.0
 11
393.7
 21
222.6559999999999
 31
0.0
  0
LINE
  5
1A4F
330
1E
100
AcDbEntity
  8
0
100
AcDbLine
 10
389.3999999999999
 20
223.6559999999999
 30
0.0
 11
392.7999999999999
 21
223.6559999999999
 31
0.0
  0
LINE
  5
1A50
330
1E
100
AcDbEntity
  8
0
100
AcDbLine
 10
393.7
 20
222.6559999999999
 30
0.0
 11
395.0
 21
222.6559999999999
 31
0.0
  0
LINE
  5
1A51
330
1E
100
AcDbEntity
  8
0
100
AcDbLine
 10
394.0
 20
223.6559999999999
 30
0.0
 11
395.0
 21
222.6559999999999
 31
0.0
  0
LINE
  5
1A52
330
1E
100
AcDbEntity
  8
0
100
AcDbLine
 10
250.0
 20
265.2359999999998
 30
0.0
 11
244.8799999999999
 21
265.2359999999998
 31
0.0
  0
LINE
  5
1A53
330
1E
100
AcDbEntity
  8
0
100
AcDbLine
 10
263.0
 20
286.6559999999999
 30
0.0
 11
237.0
 21
286.6559999999999
 31
0.0
  0
LINE
  5
1A54
330
1E
100
AcDbEntity
  8
0
100
AcDbLine
 10
230.0
 20
264.6559999999999
 30
0.0
 11
230.0
 21
286.3724999999999
 31
0.0
  0
LINE
  5
1A55
330
1E
100
AcDbEntity
  8
0
100
AcDbLine
 10
230.0
 20
286.3724999999999
 30
0.0
 11
230.0
 21
264.6559999999999
 31
0.0
  0
LINE
  5
1A56
330
1E
100
AcDbEntity
  8
0
100
AcDbLine
 10
240.08
 20
265.2359999999998
 30
0.0
 11
235.84
 21
265.2359999999998
 31
0.0
  0
LINE
  5
1A57
330
1E
100
AcDbEntity
  8
0
100
AcDbLine
 10
230.72
 20
265.2359999999998
 30
0.0
 11
230.0
 21
265.2359999999998
 31
0.0
  0
LINE
  5
1A58
330
1E
100
AcDbEntity
  8
0
100
AcDbLine
 10
232.64
 20
265.2359999999998
 30
0.0
 11
230.72
 21
265.2359999999998
 31
0.0
  0
LINE
  5
1A59
330
1E
100
AcDbEntity
  8
0
100
AcDbLine
 10
235.84
 20
265.2359999999998
 30
0.0
 11
232.64
 21
265.2359999999998
 31
0.0
  0
LINE
  5
1A5A
330
1E
100
AcDbEntity
  8
0
100
AcDbLine
 10
244.8799999999999
 20
265.2359999999998
 30
0.0
 11
240.08
 21
265.2359999999998
 31
0.0
  0
LINE
  5
1A5B
330
1E
100
AcDbEntity
  8
0
100
AcDbLine
 10
237.0
 20
286.6559999999999
 30
0.0
 11
235.236
 21
286.6559999999999
 31
0.0
  0
LINE
  5
1A5C
330
1E
100
AcDbEntity
  8
0
100
AcDbLine
 10
230.168
 20
286.6559999999999
 30
0.0
 11
230.0
 21
286.3724999999999
 31
0.0
  0
LINE
  5
1A5D
330
1E
100
AcDbEntity
  8
0
100
AcDbLine
 10
231.0919999999999
 20
286.6559999999999
 30
0.0
 11
230.4199999999999
 21
286.6559999999999
 31
0.0
  0
LINE
  5
1A5E
330
1E
100
AcDbEntity
  8
0
100
AcDbLine
 10
230.4199999999999
 20
286.6559999999999
 30
0.0
 11
230.168
 21
286.6559999999999
 31
0.0
  0
LINE
  5
1A5F
330
1E
100
AcDbEntity
  8
0
100
AcDbLine
 10
232.1839999999999
 20
286.6559999999999
 30
0.0
 11
231.0919999999999
 21
286.6559999999999
 31
0.0
  0
LINE
  5
1A60
330
1E
100
AcDbEntity
  8
0
100
AcDbLine
 10
233.6119999999999
 20
286.6559999999999
 30
0.0
 11
232.1839999999999
 21
286.6559999999999
 31
0.0
  0
LINE
  5
1A61
330
1E
100
AcDbEntity
  8
0
100
AcDbLine
 10
235.236
 20
286.6559999999999
 30
0.0
 11
233.6119999999999
 21
286.6559999999999
 31
0.0
  0
LINE
  5
1A62
330
1E
100
AcDbEntity
  8
0
100
AcDbLine
 10
270.0
 20
264.6559999999999
 30
0.0
 11
270.0
 21
286.3724999999999
 31
0.0
  0
LINE
  5
1A63
330
1E
100
AcDbEntity
  8
0
100
AcDbLine
 10
270.0
 20
286.3724999999999
 30
0.0
 11
270.0
 21
264.6559999999999
 31
0.0
  0
LINE
  5
1A64
330
1E
100
AcDbEntity
  8
0
100
AcDbLine
 10
264.1599999999999
 20
265.2359999999998
 30
0.0
 11
259.9199999999999
 21
265.2359999999998
 31
0.0
  0
LINE
  5
1A65
330
1E
100
AcDbEntity
  8
0
100
AcDbLine
 10
259.9199999999999
 20
265.2359999999998
 30
0.0
 11
255.12
 21
265.2359999999998
 31
0.0
  0
LINE
  5
1A66
330
1E
100
AcDbEntity
  8
0
100
AcDbLine
 10
255.12
 20
265.2359999999998
 30
0.0
 11
250.0
 21
265.2359999999998
 31
0.0
  0
LINE
  5
1A67
330
1E
100
AcDbEntity
  8
0
100
AcDbLine
 10
269.2799999999999
 20
265.2359999999998
 30
0.0
 11
267.3599999999999
 21
265.2359999999998
 31
0.0
  0
LINE
  5
1A68
330
1E
100
AcDbEntity
  8
0
100
AcDbLine
 10
267.3599999999999
 20
265.2359999999998
 30
0.0
 11
264.1599999999999
 21
265.2359999999998
 31
0.0
  0
LINE
  5
1A69
330
1E
100
AcDbEntity
  8
0
100
AcDbLine
 10
270.0
 20
265.2359999999998
 30
0.0
 11
269.2799999999999
 21
265.2359999999998
 31
0.0
  0
LINE
  5
1A6A
330
1E
100
AcDbEntity
  8
0
100
AcDbLine
 10
264.7639999999999
 20
286.6559999999999
 30
0.0
 11
263.0
 21
286.6559999999999
 31
0.0
  0
LINE
  5
1A6B
330
1E
100
AcDbEntity
  8
0
100
AcDbLine
 10
268.908
 20
286.6559999999999
 30
0.0
 11
267.816
 21
286.6559999999999
 31
0.0
  0
LINE
  5
1A6C
330
1E
100
AcDbEntity
  8
0
100
AcDbLine
 10
267.816
 20
286.6559999999999
 30
0.0
 11
266.388
 21
286.6559999999999
 31
0.0
  0
LINE
  5
1A6D
330
1E
100
AcDbEntity
  8
0
100
AcDbLine
 10
266.388
 20
286.6559999999999
 30
0.0
 11
264.7639999999999
 21
286.6559999999999
 31
0.0
  0
LINE
  5
1A6E
330
1E
100
AcDbEntity
  8
0
100
AcDbLine
 10
270.0
 20
286.3724999999999
 30
0.0
 11
269.8319999999999
 21
286.6559999999999
 31
0.0
  0
LINE
  5
1A6F
330
1E
100
AcDbEntity
  8
0
100
AcDbLine
 10
269.8319999999999
 20
286.6559999999999
 30
0.0
 11
269.58
 21
286.6559999999999
 31
0.0
  0
LINE
  5
1A70
330
1E
100
AcDbEntity
  8
0
100
AcDbLine
 10
269.58
 20
286.6559999999999
 30
0.0
 11
268.908
 21
286.6559999999999
 31
0.0
  0
LINE
  5
1A71
330
1E
100
AcDbEntity
  8
0
100
AcDbLine
 10
410.0
 20
352.2359999999999
 30
0.0
 11
410.0
 21
371.2679999999999
 31
0.0
  0
LINE
  5
1A72
330
1E
100
AcDbEntity
  8
0
100
AcDbLine
 10
410.0
 20
371.2679999999999
 30
0.0
 11
410.0
 21
352.2359999999999
 31
0.0
  0
LINE
  5
1A73
330
1E
100
AcDbEntity
  8
0
100
AcDbLine
 10
390.365
 20
368.9859999999999
 30
0.0
 11
395.329
 21
367.1659999999999
 31
0.0
  0
LINE
  5
1A74
330
1E
100
AcDbEntity
  8
0
100
AcDbLine
 10
384.525
 20
369.3749999999998
 30
0.0
 11
389.927
 21
367.8329999999998
 31
0.0
  0
LINE
  5
1A75
330
1E
100
AcDbEntity
  8
0
100
AcDbLine
 10
383.431
 20
368.5729999999998
 30
0.0
 11
388.613
 21
367.0919999999999
 31
0.0
  0
LINE
  5
1A76
330
1E
100
AcDbEntity
  8
0
100
AcDbLine
 10
383.442
 20
368.5698562331148
 30
0.0
 11
383.442
 21
366.9649999999998
 31
0.0
  0
LINE
  5
1A77
330
1E
100
AcDbEntity
  8
0
100
AcDbLine
 10
383.442
 20
366.9649999999998
 30
0.0
 11
383.442
 21
368.5698562331148
 31
0.0
  0
LINE
  5
1A78
330
1E
100
AcDbEntity
  8
0
100
AcDbLine
 10
373.5159999999999
 20
368.0019999999999
 30
0.0
 11
374.2459999999999
 21
368.5369999999999
 31
0.0
  0
LINE
  5
1A79
330
1E
100
AcDbEntity
  8
0
100
AcDbLine
 10
372.2509999999999
 20
368.3109999999999
 30
0.0
 11
372.9819999999999
 21
368.8449999999998
 31
0.0
  0
LINE
  5
1A7A
330
1E
100
AcDbEntity
  8
0
100
AcDbLine
 10
344.489
 20
368.712
 30
0.0
 11
345.753
 21
368.4029999999999
 31
0.0
  0
LINE
  5
1A7B
330
1E
100
AcDbEntity
  8
0
100
AcDbLine
 10
343.759
 20
368.177
 30
0.0
 11
343.759
 21
368.6423597068819
 31
0.0
  0
LINE
  5
1A7C
330
1E
100
AcDbEntity
  8
0
100
AcDbLine
 10
343.759
 20
368.177
 30
0.0
 11
344.489
 21
368.712
 31
0.0
  0
LINE
  5
1A7D
330
1E
100
AcDbEntity
  8
0
100
AcDbLine
 10
343.759
 20
368.6423597068819
 30
0.0
 11
343.759
 21
368.177
 31
0.0
  0
LINE
  5
1A7E
330
1E
100
AcDbEntity
  8
0
100
AcDbLine
 10
330.0730000000001
 20
367.8329999999998
 30
0.0
 11
335.475
 21
369.3749999999998
 31
0.0
  0
LINE
  5
1A7F
330
1E
100
AcDbEntity
  8
0
100
AcDbLine
 10
331.3869999999999
 20
367.0919999999999
 30
0.0
 11
336.5689999999999
 21
368.5729999999998
 31
0.0
  0
LINE
  5
1A80
330
1E
100
AcDbEntity
  8
0
100
AcDbLine
 10
336.558
 20
368.5698562331148
 30
0.0
 11
336.558
 21
366.9649999999998
 31
0.0
  0
LINE
  5
1A81
330
1E
100
AcDbEntity
  8
0
100
AcDbLine
 10
336.558
 20
366.9649999999998
 30
0.0
 11
336.558
 21
368.5698562331148
 31
0.0
  0
LINE
  5
1A82
330
1E
100
AcDbEntity
  8
0
100
AcDbLine
 10
324.672
 20
367.1659999999999
 30
0.0
 11
329.6349999999999
 21
368.9859999999999
 31
0.0
  0
LINE
  5
1A83
330
1E
100
AcDbEntity
  8
0
100
AcDbLine
 10
310.0
 20
371.2679999999999
 30
0.0
 11
310.0
 21
352.2359999999999
 31
0.0
  0
LINE
  5
1A84
330
1E
100
AcDbEntity
  8
0
100
AcDbLine
 10
310.0
 20
352.2359999999999
 30
0.0
 11
310.0
 21
371.2679999999999
 31
0.0
  0
LINE
  5
1A85
330
1E
100
AcDbEntity
  8
0
100
AcDbLine
 10
358.0639999999999
 20
365.5009999999998
 30
0.0
 11
359.329
 21
365.1929999999998
 31
0.0
  0
LINE
  5
1A86
330
1E
100
AcDbEntity
  8
0
100
AcDbLine
 10
358.599
 20
364.6589999999999
 30
0.0
 11
359.329
 21
365.1929999999998
 31
0.0
  0
LINE
  5
1A87
330
1E
100
AcDbEntity
  8
0
100
AcDbLine
 10
358.5019999999999
 20
356.6119999999999
 30
0.0
 11
359.2319999999999
 21
357.1469999999999
 31
0.0
  0
LINE
  5
1A88
330
1E
100
AcDbEntity
  8
0
100
AcDbLine
 10
358.5019999999999
 20
356.6119999999999
 30
0.0
 11
359.7659999999999
 21
356.3029999999999
 31
0.0
  0
LINE
  5
1A89
330
1E
100
AcDbEntity
  8
0
100
AcDbLine
 10
353.6499999999999
 20
330.7229999999998
 30
0.0
 11
360.0
 21
330.5069999999999
 31
0.0
  0
LINE
  5
1A8A
330
1E
100
AcDbEntity
  8
0
100
AcDbLine
 10
354.793
 20
331.5872699871048
 30
0.0
 11
360.0
 21
331.432
 31
0.0
  0
LINE
  5
1A8B
330
1E
100
AcDbEntity
  8
0
100
AcDbLine
 10
358.19
 20
350.8559999999998
 30
0.0
 11
359.066
 21
351.0039999999999
 31
0.0
  0
LINE
  5
1A8C
330
1E
100
AcDbEntity
  8
0
100
AcDbLine
 10
358.19
 20
347.2719999999999
 30
0.0
 11
359.066
 21
347.1229999999999
 31
0.0
  0
LINE
  5
1A8D
330
1E
100
AcDbEntity
  8
0
100
AcDbLine
 10
358.19
 20
349.9489999999999
 30
0.0
 11
359.066
 21
350.0969999999999
 31
0.0
  0
LINE
  5
1A8E
330
1E
100
AcDbEntity
  8
0
100
AcDbLine
 10
358.0639999999999
 20
334.4379999999998
 30
0.0
 11
359.329
 21
334.7469999999999
 31
0.0
  0
LINE
  5
1A8F
330
1E
100
AcDbEntity
  8
0
100
AcDbLine
 10
358.5019999999999
 20
341.5149999999998
 30
0.0
 11
359.2319999999999
 21
340.9799999999999
 31
0.0
  0
LINE
  5
1A90
330
1E
100
AcDbEntity
  8
0
100
AcDbLine
 10
358.5019999999999
 20
341.5149999999998
 30
0.0
 11
359.7659999999999
 21
341.8229999999998
 31
0.0
  0
LINE
  5
1A91
330
1E
100
AcDbEntity
  8
0
100
AcDbLine
 10
358.599
 20
335.2809999999999
 30
0.0
 11
359.329
 21
334.7469999999999
 31
0.0
  0
LINE
  5
1A92
330
1E
100
AcDbEntity
  8
0
100
AcDbLine
 10
357.7919999999999
 20
315.7619999999999
 30
0.0
 11
360.0
 21
315.409
 31
0.0
  0
LINE
  5
1A93
330
1E
100
AcDbEntity
  8
0
100
AcDbLine
 10
356.9280000000001
 20
312.4077999999999
 30
0.0
 11
360.0
 21
311.9667999999999
 31
0.0
  0
LINE
  5
1A94
330
1E
100
AcDbEntity
  8
0
100
AcDbLine
 10
348.0
 20
324.1469999999999
 30
0.0
 11
348.0
 21
252.1114999999999
 31
0.0
  0
LINE
  5
1A95
330
1E
100
AcDbEntity
  8
0
100
AcDbLine
 10
348.0
 20
252.1114999999999
 30
0.0
 11
348.0
 21
324.1469999999999
 31
0.0
  0
LINE
  5
1A96
330
1E
100
AcDbEntity
  8
0
100
AcDbLine
 10
352.2239999999999
 20
246.3113999999999
 30
0.0
 11
352.323889660313
 21
246.2595085354039
 31
0.0
  0
LINE
  5
1A97
330
1E
100
AcDbEntity
  8
0
100
AcDbLine
 10
348.413640972641
 20
250.0703953883709
 30
0.0
 11
348.643
 21
249.0246999999999
 31
0.0
  0
LINE
  5
1A98
330
1E
100
AcDbEntity
  8
0
100
AcDbLine
 10
348.2139999999999
 20
250.9805999999998
 30
0.0
 11
348.243234772088
 21
250.8473126090289
 31
0.0
  0
LINE
  5
1A99
330
1E
100
AcDbEntity
  8
0
100
AcDbLine
 10
348.384
 20
250.1156999999999
 30
0.0
 11
349.6319999999999
 21
248.2081999999999
 31
0.0
  0
LINE
  5
1A9A
330
1E
100
AcDbEntity
  8
0
100
AcDbLine
 10
348.643
 20
249.0246999999999
 30
0.0
 11
349.7999999999999
 21
247.2064999999999
 31
0.0
  0
LINE
  5
1A9B
330
1E
100
AcDbEntity
  8
0
100
AcDbLine
 10
349.6319999999999
 20
248.2081999999999
 30
0.0
 11
351.5519999999999
 21
246.6551999999999
 31
0.0
  0
LINE
  5
1A9C
330
1E
100
AcDbEntity
  8
0
100
AcDbLine
 10
351.5519999999999
 20
246.6551999999999
 30
0.0
 11
352.2239999999999
 21
246.3113999999999
 31
0.0
  0
LINE
  5
1A9D
330
1E
100
AcDbEntity
  8
0
100
AcDbLine
 10
348.0
 20
250.3422999999999
 30
0.0
 11
348.1801499836999
 21
251.1751892253409
 31
0.0
  0
LINE
  5
1A9E
330
1E
100
AcDbEntity
  8
0
100
AcDbLine
 10
348.0
 20
252.1114999999999
 30
0.0
 11
348.384
 21
250.1156999999999
 31
0.0
  0
LINE
  5
1A9F
330
1E
100
AcDbEntity
  8
0
100
AcDbLine
 10
330.278
 20
364.6269999999999
 30
0.0
 11
331.738
 21
364.6269999999999
 31
0.0
  0
LINE
  5
1AA0
330
1E
100
AcDbEntity
  8
0
100
AcDbLine
 10
330.278
 20
365.2439999999999
 30
0.0
 11
331.738
 21
365.2439999999999
 31
0.0
  0
LINE
  5
1AA1
330
1E
100
AcDbEntity
  8
0
100
AcDbLine
 10
330.0730000000001
 20
334.8249999999998
 30
0.0
 11
335.475
 21
333.2829999999999
 31
0.0
  0
LINE
  5
1AA2
330
1E
100
AcDbEntity
  8
0
100
AcDbLine
 10
331.3869999999999
 20
335.5659999999999
 30
0.0
 11
336.558
 21
334.0881437668849
 31
0.0
  0
LINE
  5
1AA3
330
1E
100
AcDbEntity
  8
0
100
AcDbLine
 10
330.278
 20
335.6009999999999
 30
0.0
 11
331.738
 21
335.6009999999999
 31
0.0
  0
LINE
  5
1AA4
330
1E
100
AcDbEntity
  8
0
100
AcDbLine
 10
330.278
 20
336.2179999999998
 30
0.0
 11
331.738
 21
336.2179999999998
 31
0.0
  0
LINE
  5
1AA5
330
1E
100
AcDbEntity
  8
0
100
AcDbLine
 10
320.949
 20
338.6809999999999
 30
0.0
 11
325.1829999999999
 21
336.6149999999998
 31
0.0
  0
LINE
  5
1AA6
330
1E
100
AcDbEntity
  8
0
100
AcDbLine
 10
324.357664609054
 20
338.4489999999999
 30
0.0
 11
326.788
 21
337.2929999999998
 31
0.0
  0
LINE
  5
1AA7
330
1E
100
AcDbEntity
  8
0
100
AcDbLine
 10
331.293795020266
 20
335.6009999999999
 30
0.0
 11
331.3869999999999
 21
335.5659999999999
 31
0.0
  0
LINE
  5
1AA8
330
1E
100
AcDbEntity
  8
0
100
AcDbLine
 10
330.278
 20
335.6009999999999
 30
0.0
 11
330.278
 21
336.2179999999998
 31
0.0
  0
LINE
  5
1AA9
330
1E
100
AcDbEntity
  8
0
100
AcDbLine
 10
330.278
 20
335.6009999999999
 30
0.0
 11
330.278
 21
335.9824477060228
 31
0.0
  0
LINE
  5
1AAA
330
1E
100
AcDbEntity
  8
0
100
AcDbLine
 10
330.278
 20
336.2179999999998
 30
0.0
 11
330.278
 21
337.8369274994229
 31
0.0
  0
LINE
  5
1AAB
330
1E
100
AcDbEntity
  8
0
100
AcDbLine
 10
330.278
 20
336.2179999999998
 30
0.0
 11
330.278
 21
335.6009999999999
 31
0.0
  0
LINE
  5
1AAC
330
1E
100
AcDbEntity
  8
0
100
AcDbLine
 10
330.278
 20
337.8369274994229
 30
0.0
 11
330.278
 21
336.2179999999998
 31
0.0
  0
LINE
  5
1AAD
330
1E
100
AcDbEntity
  8
0
100
AcDbLine
 10
330.278
 20
335.9824477060228
 30
0.0
 11
330.278
 21
335.6009999999999
 31
0.0
  0
LINE
  5
1AAE
330
1E
100
AcDbEntity
  8
0
100
AcDbLine
 10
325.1829999999999
 20
336.6149999999998
 30
0.0
 11
330.0730000000001
 21
334.8249999999998
 31
0.0
  0
LINE
  5
1AAF
330
1E
100
AcDbEntity
  8
0
100
AcDbLine
 10
326.788
 20
337.2929999999998
 30
0.0
 11
330.278
 21
335.9824477060228
 31
0.0
  0
LINE
  5
1AB0
330
1E
100
AcDbEntity
  8
0
100
AcDbLine
 10
316.7149999999999
 20
362.7549999999998
 30
0.0
 11
320.365
 21
365.0679999999998
 31
0.0
  0
LINE
  5
1AB1
330
1E
100
AcDbEntity
  8
0
100
AcDbLine
 10
317.2989999999999
 20
361.6939999999999
 30
0.0
 11
320.949
 21
363.9769999999999
 31
0.0
  0
LINE
  5
1AB2
330
1E
100
AcDbEntity
  8
0
100
AcDbLine
 10
316.5689999999999
 20
358.9179999999998
 30
0.0
 11
319.1969999999999
 21
361.2309999999999
 31
0.0
  0
LINE
  5
1AB3
330
1E
100
AcDbEntity
  8
0
100
AcDbLine
 10
316.5689999999999
 20
343.7409999999998
 30
0.0
 11
319.1969999999999
 21
341.427
 31
0.0
  0
LINE
  5
1AB4
330
1E
100
AcDbEntity
  8
0
100
AcDbLine
 10
317.2989999999999
 20
340.9639999999999
 30
0.0
 11
320.949
 21
338.6809999999999
 31
0.0
  0
LINE
  5
1AB5
330
1E
100
AcDbEntity
  8
0
100
AcDbLine
 10
310.0
 20
352.2359999999999
 30
0.0
 11
310.5109999999999
 21
354.9499999999998
 31
0.0
  0
LINE
  5
1AB6
330
1E
100
AcDbEntity
  8
0
100
AcDbLine
 10
310.73
 20
351.3289999999999
 30
0.0
 11
311.241
 21
354.0129999999999
 31
0.0
  0
LINE
  5
1AB7
330
1E
100
AcDbEntity
  8
0
100
AcDbLine
 10
312.92
 20
351.3289999999999
 30
0.0
 11
313.3579999999999
 21
353.9509999999999
 31
0.0
  0
LINE
  5
1AB8
330
1E
100
AcDbEntity
  8
0
100
AcDbLine
 10
310.5109999999999
 20
349.5209999999999
 30
0.0
 11
311.825
 21
346.7759999999999
 31
0.0
  0
LINE
  5
1AB9
330
1E
100
AcDbEntity
  8
0
100
AcDbLine
 10
310.73
 20
351.3289999999999
 30
0.0
 11
311.241
 21
348.6449999999998
 31
0.0
  0
LINE
  5
1ABA
330
1E
100
AcDbEntity
  8
0
100
AcDbLine
 10
310.0
 20
352.2359999999999
 30
0.0
 11
310.5109999999999
 21
349.5209999999999
 31
0.0
  0
LINE
  5
1ABB
330
1E
100
AcDbEntity
  8
0
100
AcDbLine
 10
311.825
 20
346.7759999999999
 30
0.0
 11
313.869
 21
344.1539999999998
 31
0.0
  0
LINE
  5
1ABC
330
1E
100
AcDbEntity
  8
0
100
AcDbLine
 10
311.241
 20
348.6449999999998
 30
0.0
 11
312.4819999999999
 21
346.0849999999997
 31
0.0
  0
LINE
  5
1ABD
330
1E
100
AcDbEntity
  8
0
100
AcDbLine
 10
312.92
 20
351.3289999999999
 30
0.0
 11
313.3579999999999
 21
348.707
 31
0.0
  0
LINE
  5
1ABE
330
1E
100
AcDbEntity
  8
0
100
AcDbLine
 10
313.3579999999999
 20
348.707
 30
0.0
 11
314.5989999999999
 21
346.5169999999999
 31
0.0
  0
LINE
  5
1ABF
330
1E
100
AcDbEntity
  8
0
100
AcDbLine
 10
314.38
 20
350.1149999999999
 30
0.0
 11
315.8389999999999
 21
350.1149999999999
 31
0.0
  0
LINE
  5
1AC0
330
1E
100
AcDbEntity
  8
0
100
AcDbLine
 10
314.38
 20
350.1149999999999
 30
0.0
 11
314.38
 21
350.7319999999999
 31
0.0
  0
LINE
  5
1AC1
330
1E
100
AcDbEntity
  8
0
100
AcDbLine
 10
314.38
 20
350.1149999999999
 30
0.0
 11
314.38
 21
351.0492683903598
 31
0.0
  0
LINE
  5
1AC2
330
1E
100
AcDbEntity
  8
0
100
AcDbLine
 10
315.8389999999999
 20
351.5164493079458
 30
0.0
 11
315.8389999999999
 21
350.7319999999999
 31
0.0
  0
LINE
  5
1AC3
330
1E
100
AcDbEntity
  8
0
100
AcDbLine
 10
315.8389999999999
 20
350.1149999999999
 30
0.0
 11
315.8389999999999
 21
350.7319999999999
 31
0.0
  0
LINE
  5
1AC4
330
1E
100
AcDbEntity
  8
0
100
AcDbLine
 10
315.8389999999999
 20
350.7319999999999
 30
0.0
 11
315.8389999999999
 21
350.1149999999999
 31
0.0
  0
LINE
  5
1AC5
330
1E
100
AcDbEntity
  8
0
100
AcDbLine
 10
315.8389999999999
 20
350.7319999999999
 30
0.0
 11
315.8389999999999
 21
351.5164493079458
 31
0.0
  0
LINE
  5
1AC6
330
1E
100
AcDbEntity
  8
0
100
AcDbLine
 10
314.38
 20
350.7319999999999
 30
0.0
 11
315.8389999999999
 21
350.7319999999999
 31
0.0
  0
LINE
  5
1AC7
330
1E
100
AcDbEntity
  8
0
100
AcDbLine
 10
314.38
 20
350.7319999999999
 30
0.0
 11
314.38
 21
351.4227567624528
 31
0.0
  0
LINE
  5
1AC8
330
1E
100
AcDbEntity
  8
0
100
AcDbLine
 10
314.38
 20
350.7319999999999
 30
0.0
 11
314.38
 21
350.1149999999999
 31
0.0
  0
LINE
  5
1AC9
330
1E
100
AcDbEntity
  8
0
100
AcDbLine
 10
314.38
 20
351.4227567624528
 30
0.0
 11
314.38
 21
350.7319999999999
 31
0.0
  0
LINE
  5
1ACA
330
1E
100
AcDbEntity
  8
0
100
AcDbLine
 10
314.38
 20
351.0492683903598
 30
0.0
 11
314.38
 21
350.1149999999999
 31
0.0
  0
LINE
  5
1ACB
330
1E
100
AcDbEntity
  8
0
100
AcDbLine
 10
313.869
 20
344.1539999999998
 30
0.0
 11
314.5989999999999
 21
343.3709999999998
 31
0.0
  0
LINE
  5
1ACC
330
1E
100
AcDbEntity
  8
0
100
AcDbLine
 10
313.869
 20
344.1539999999998
 30
0.0
 11
314.2283694134299
 21
343.8461494624239
 31
0.0
  0
LINE
  5
1ACD
330
1E
100
AcDbEntity
  8
0
100
AcDbLine
 10
314.5989999999999
 20
343.3709999999998
 30
0.0
 11
317.2989999999999
 21
340.9639999999999
 31
0.0
  0
LINE
  5
1ACE
330
1E
100
AcDbEntity
  8
0
100
AcDbLine
 10
314.5989999999999
 20
346.5169999999999
 30
0.0
 11
316.5689999999999
 21
343.7409999999998
 31
0.0
  0
LINE
  5
1ACF
330
1E
100
AcDbEntity
  8
0
100
AcDbLine
 10
315.758
 20
345.9629999999998
 30
0.0
 11
317.218
 21
345.9629999999998
 31
0.0
  0
LINE
  5
1AD0
330
1E
100
AcDbEntity
  8
0
100
AcDbLine
 10
315.758
 20
345.9629999999998
 30
0.0
 11
315.758
 21
346.5799999999997
 31
0.0
  0
LINE
  5
1AD1
330
1E
100
AcDbEntity
  8
0
100
AcDbLine
 10
315.758
 20
345.9629999999998
 30
0.0
 11
315.758
 21
346.5427709815079
 31
0.0
  0
LINE
  5
1AD2
330
1E
100
AcDbEntity
  8
0
100
AcDbLine
 10
317.218
 20
345.9629999999998
 30
0.0
 11
317.218
 21
346.5799999999997
 31
0.0
  0
LINE
  5
1AD3
330
1E
100
AcDbEntity
  8
0
100
AcDbLine
 10
317.218
 20
346.5799999999997
 30
0.0
 11
317.218
 21
345.9629999999998
 31
0.0
  0
LINE
  5
1AD4
330
1E
100
AcDbEntity
  8
0
100
AcDbLine
 10
315.758
 20
346.5799999999997
 30
0.0
 11
317.218
 21
346.5799999999997
 31
0.0
  0
LINE
  5
1AD5
330
1E
100
AcDbEntity
  8
0
100
AcDbLine
 10
315.758
 20
346.5799999999997
 30
0.0
 11
315.758
 21
345.9629999999998
 31
0.0
  0
LINE
  5
1AD6
330
1E
100
AcDbEntity
  8
0
100
AcDbLine
 10
315.758
 20
346.5427709815079
 30
0.0
 11
315.758
 21
345.9629999999998
 31
0.0
  0
LINE
  5
1AD7
330
1E
100
AcDbEntity
  8
0
100
AcDbLine
 10
312.4819999999999
 20
346.0849999999997
 30
0.0
 11
314.5989999999999
 21
343.3709999999998
 31
0.0
  0
LINE
  5
1AD8
330
1E
100
AcDbEntity
  8
0
100
AcDbLine
 10
310.5109999999999
 20
354.9499999999998
 30
0.0
 11
311.825
 21
357.6949999999998
 31
0.0
  0
LINE
  5
1AD9
330
1E
100
AcDbEntity
  8
0
100
AcDbLine
 10
311.825
 20
357.6949999999998
 30
0.0
 11
313.869
 21
360.3179999999998
 31
0.0
  0
LINE
  5
1ADA
330
1E
100
AcDbEntity
  8
0
100
AcDbLine
 10
313.869
 20
360.3179999999998
 30
0.0
 11
316.7149999999999
 21
362.7549999999998
 31
0.0
  0
LINE
  5
1ADB
330
1E
100
AcDbEntity
  8
0
100
AcDbLine
 10
312.4819999999999
 20
356.5729999999998
 30
0.0
 11
314.5989999999999
 21
359.2879999999999
 31
0.0
  0
LINE
  5
1ADC
330
1E
100
AcDbEntity
  8
0
100
AcDbLine
 10
314.5989999999999
 20
359.2879999999999
 30
0.0
 11
317.2989999999999
 21
361.6939999999999
 31
0.0
  0
LINE
  5
1ADD
330
1E
100
AcDbEntity
  8
0
100
AcDbLine
 10
314.5989999999999
 20
356.1409999999999
 30
0.0
 11
316.5689999999999
 21
358.9179999999998
 31
0.0
  0
LINE
  5
1ADE
330
1E
100
AcDbEntity
  8
0
100
AcDbLine
 10
315.758
 20
355.9579999999998
 30
0.0
 11
315.758
 21
354.8829999999999
 31
0.0
  0
LINE
  5
1ADF
330
1E
100
AcDbEntity
  8
0
100
AcDbLine
 10
315.758
 20
355.9579999999998
 30
0.0
 11
315.758
 21
354.2659999999999
 31
0.0
  0
LINE
  5
1AE0
330
1E
100
AcDbEntity
  8
0
100
AcDbLine
 10
317.218
 20
355.7274736842098
 30
0.0
 11
317.218
 21
354.8829999999999
 31
0.0
  0
LINE
  5
1AE1
330
1E
100
AcDbEntity
  8
0
100
AcDbLine
 10
311.241
 20
354.0129999999999
 30
0.0
 11
312.4819999999999
 21
356.5729999999998
 31
0.0
  0
LINE
  5
1AE2
330
1E
100
AcDbEntity
  8
0
100
AcDbLine
 10
313.3579999999999
 20
353.9509999999999
 30
0.0
 11
314.5989999999999
 21
356.1409999999999
 31
0.0
  0
LINE
  5
1AE3
330
1E
100
AcDbEntity
  8
0
100
AcDbLine
 10
315.758
 20
354.2659999999999
 30
0.0
 11
317.218
 21
354.2659999999999
 31
0.0
  0
LINE
  5
1AE4
330
1E
100
AcDbEntity
  8
0
100
AcDbLine
 10
315.758
 20
354.2659999999999
 30
0.0
 11
315.758
 21
355.9579999999998
 31
0.0
  0
LINE
  5
1AE5
330
1E
100
AcDbEntity
  8
0
100
AcDbLine
 10
315.758
 20
354.2659999999999
 30
0.0
 11
315.758
 21
354.8829999999999
 31
0.0
  0
LINE
  5
1AE6
330
1E
100
AcDbEntity
  8
0
100
AcDbLine
 10
317.218
 20
354.8829999999999
 30
0.0
 11
317.218
 21
355.7274736842098
 31
0.0
  0
LINE
  5
1AE7
330
1E
100
AcDbEntity
  8
0
100
AcDbLine
 10
317.218
 20
354.8829999999999
 30
0.0
 11
317.218
 21
354.2659999999999
 31
0.0
  0
LINE
  5
1AE8
330
1E
100
AcDbEntity
  8
0
100
AcDbLine
 10
317.218
 20
354.2659999999999
 30
0.0
 11
317.218
 21
354.8829999999999
 31
0.0
  0
LINE
  5
1AE9
330
1E
100
AcDbEntity
  8
0
100
AcDbLine
 10
315.758
 20
354.8829999999999
 30
0.0
 11
317.218
 21
354.8829999999999
 31
0.0
  0
LINE
  5
1AEA
330
1E
100
AcDbEntity
  8
0
100
AcDbLine
 10
315.758
 20
354.8829999999999
 30
0.0
 11
315.758
 21
354.2659999999999
 31
0.0
  0
LINE
  5
1AEB
330
1E
100
AcDbEntity
  8
0
100
AcDbLine
 10
315.758
 20
354.8829999999999
 30
0.0
 11
315.758
 21
355.9579999999998
 31
0.0
  0
LINE
  5
1AEC
330
1E
100
AcDbEntity
  8
0
100
AcDbLine
 10
324.68
 20
346.1949999999998
 30
0.0
 11
326.14
 21
346.1949999999998
 31
0.0
  0
LINE
  5
1AED
330
1E
100
AcDbEntity
  8
0
100
AcDbLine
 10
324.68
 20
345.5779999999998
 30
0.0
 11
326.14
 21
345.5779999999998
 31
0.0
  0
LINE
  5
1AEE
330
1E
100
AcDbEntity
  8
0
100
AcDbLine
 10
323.87
 20
339.0659999999999
 30
0.0
 11
325.3299999999999
 21
339.0659999999999
 31
0.0
  0
LINE
  5
1AEF
330
1E
100
AcDbEntity
  8
0
100
AcDbLine
 10
323.87
 20
338.4489999999999
 30
0.0
 11
325.3299999999999
 21
338.4489999999999
 31
0.0
  0
LINE
  5
1AF0
330
1E
100
AcDbEntity
  8
0
100
AcDbLine
 10
323.139
 20
349.6619999999999
 30
0.0
 11
324.5989999999999
 21
349.6619999999999
 31
0.0
  0
LINE
  5
1AF1
330
1E
100
AcDbEntity
  8
0
100
AcDbLine
 10
323.139
 20
349.6619999999999
 30
0.0
 11
323.139
 21
350.2789999999998
 31
0.0
  0
LINE
  5
1AF2
330
1E
100
AcDbEntity
  8
0
100
AcDbLine
 10
323.139
 20
349.6619999999999
 30
0.0
 11
323.139
 21
350.6613901067209
 31
0.0
  0
LINE
  5
1AF3
330
1E
100
AcDbEntity
  8
0
100
AcDbLine
 10
323.139
 20
350.2789999999998
 30
0.0
 11
324.5989999999999
 21
350.2789999999998
 31
0.0
  0
LINE
  5
1AF4
330
1E
100
AcDbEntity
  8
0
100
AcDbLine
 10
323.139
 20
350.2789999999998
 30
0.0
 11
323.139
 21
350.6613901067209
 31
0.0
  0
LINE
  5
1AF5
330
1E
100
AcDbEntity
  8
0
100
AcDbLine
 10
323.139
 20
350.2789999999998
 30
0.0
 11
323.139
 21
349.6619999999999
 31
0.0
  0
LINE
  5
1AF6
330
1E
100
AcDbEntity
  8
0
100
AcDbLine
 10
324.5989999999999
 20
350.5660079319298
 30
0.0
 11
324.5989999999999
 21
350.2789999999998
 31
0.0
  0
LINE
  5
1AF7
330
1E
100
AcDbEntity
  8
0
100
AcDbLine
 10
324.5989999999999
 20
350.2789999999998
 30
0.0
 11
324.5989999999999
 21
349.6619999999999
 31
0.0
  0
LINE
  5
1AF8
330
1E
100
AcDbEntity
  8
0
100
AcDbLine
 10
324.5989999999999
 20
350.2789999999998
 30
0.0
 11
324.5989999999999
 21
350.5660079319298
 31
0.0
  0
LINE
  5
1AF9
330
1E
100
AcDbEntity
  8
0
100
AcDbLine
 10
323.139
 20
350.6613901067209
 30
0.0
 11
323.139
 21
349.6619999999999
 31
0.0
  0
LINE
  5
1AFA
330
1E
100
AcDbEntity
  8
0
100
AcDbLine
 10
323.139
 20
350.6613901067209
 30
0.0
 11
323.139
 21
350.2789999999998
 31
0.0
  0
LINE
  5
1AFB
330
1E
100
AcDbEntity
  8
0
100
AcDbLine
 10
324.5989999999999
 20
349.6619999999999
 30
0.0
 11
324.5989999999999
 21
350.2789999999998
 31
0.0
  0
LINE
  5
1AFC
330
1E
100
AcDbEntity
  8
0
100
AcDbLine
 10
324.68
 20
346.1949999999998
 30
0.0
 11
324.68
 21
346.7411563973949
 31
0.0
  0
LINE
  5
1AFD
330
1E
100
AcDbEntity
  8
0
100
AcDbLine
 10
324.68
 20
346.1949999999998
 30
0.0
 11
324.68
 21
345.5779999999998
 31
0.0
  0
LINE
  5
1AFE
330
1E
100
AcDbEntity
  8
0
100
AcDbLine
 10
324.68
 20
346.7411563973949
 30
0.0
 11
324.68
 21
345.5779999999998
 31
0.0
  0
LINE
  5
1AFF
330
1E
100
AcDbEntity
  8
0
100
AcDbLine
 10
324.68
 20
346.7411563973949
 30
0.0
 11
324.68
 21
346.1949999999998
 31
0.0
  0
LINE
  5
1B00
330
1E
100
AcDbEntity
  8
0
100
AcDbLine
 10
324.68
 20
345.5779999999998
 30
0.0
 11
324.68
 21
346.1949999999998
 31
0.0
  0
LINE
  5
1B01
330
1E
100
AcDbEntity
  8
0
100
AcDbLine
 10
324.68
 20
345.5779999999998
 30
0.0
 11
324.68
 21
346.7411563973949
 31
0.0
  0
LINE
  5
1B02
330
1E
100
AcDbEntity
  8
0
100
AcDbLine
 10
319.084
 20
343.6859758042528
 30
0.0
 11
319.084
 21
342.4969999999999
 31
0.0
  0
LINE
  5
1B03
330
1E
100
AcDbEntity
  8
0
100
AcDbLine
 10
320.5440000000001
 20
343.6540333287898
 30
0.0
 11
320.5440000000001
 21
342.4969999999999
 31
0.0
  0
LINE
  5
1B04
330
1E
100
AcDbEntity
  8
0
100
AcDbLine
 10
319.1969999999999
 20
341.427
 30
0.0
 11
322.701
 21
339.2369999999999
 31
0.0
  0
LINE
  5
1B05
330
1E
100
AcDbEntity
  8
0
100
AcDbLine
 10
322.701
 20
339.2369999999999
 30
0.0
 11
323.87
 21
338.6809598727669
 31
0.0
  0
LINE
  5
1B06
330
1E
100
AcDbEntity
  8
0
100
AcDbLine
 10
320.5440000000001
 20
341.8799999999998
 30
0.0
 11
320.5440000000001
 21
342.4969999999999
 31
0.0
  0
LINE
  5
1B07
330
1E
100
AcDbEntity
  8
0
100
AcDbLine
 10
323.87
 20
339.5171060606057
 30
0.0
 11
323.87
 21
339.0659999999999
 31
0.0
  0
LINE
  5
1B08
330
1E
100
AcDbEntity
  8
0
100
AcDbLine
 10
323.87
 20
339.3451502019039
 30
0.0
 11
323.87
 21
338.4489999999999
 31
0.0
  0
LINE
  5
1B09
330
1E
100
AcDbEntity
  8
0
100
AcDbLine
 10
320.5440000000001
 20
342.4969999999999
 30
0.0
 11
320.5440000000001
 21
341.8799999999998
 31
0.0
  0
LINE
  5
1B0A
330
1E
100
AcDbEntity
  8
0
100
AcDbLine
 10
320.5440000000001
 20
342.4969999999999
 30
0.0
 11
320.5440000000001
 21
343.6540333287898
 31
0.0
  0
LINE
  5
1B0B
330
1E
100
AcDbEntity
  8
0
100
AcDbLine
 10
323.87
 20
339.0659999999999
 30
0.0
 11
323.87
 21
339.5171060606057
 31
0.0
  0
LINE
  5
1B0C
330
1E
100
AcDbEntity
  8
0
100
AcDbLine
 10
323.87
 20
339.0659999999999
 30
0.0
 11
323.87
 21
338.4489999999999
 31
0.0
  0
LINE
  5
1B0D
330
1E
100
AcDbEntity
  8
0
100
AcDbLine
 10
319.084
 20
342.4969999999999
 30
0.0
 11
320.5440000000001
 21
342.4969999999999
 31
0.0
  0
LINE
  5
1B0E
330
1E
100
AcDbEntity
  8
0
100
AcDbLine
 10
319.084
 20
342.4969999999999
 30
0.0
 11
319.084
 21
343.6859758042528
 31
0.0
  0
LINE
  5
1B0F
330
1E
100
AcDbEntity
  8
0
100
AcDbLine
 10
319.084
 20
342.4969999999999
 30
0.0
 11
319.084
 21
341.8799999999998
 31
0.0
  0
LINE
  5
1B10
330
1E
100
AcDbEntity
  8
0
100
AcDbLine
 10
319.084
 20
341.8799999999998
 30
0.0
 11
320.5440000000001
 21
341.8799999999998
 31
0.0
  0
LINE
  5
1B11
330
1E
100
AcDbEntity
  8
0
100
AcDbLine
 10
319.084
 20
341.8799999999998
 30
0.0
 11
319.084
 21
342.4969999999999
 31
0.0
  0
LINE
  5
1B12
330
1E
100
AcDbEntity
  8
0
100
AcDbLine
 10
323.87
 20
338.4489999999999
 30
0.0
 11
323.87
 21
339.0659999999999
 31
0.0
  0
LINE
  5
1B13
330
1E
100
AcDbEntity
  8
0
100
AcDbLine
 10
323.87
 20
338.4489999999999
 30
0.0
 11
323.87
 21
339.3451502019039
 31
0.0
  0
LINE
  5
1B14
330
1E
100
AcDbEntity
  8
0
100
AcDbLine
 10
330.601
 20
343.3140949850547
 30
0.0
 11
330.601
 21
342.1129999999998
 31
0.0
  0
LINE
  5
1B15
330
1E
100
AcDbEntity
  8
0
100
AcDbLine
 10
330.601
 20
341.4959999999998
 30
0.0
 11
330.601
 21
342.1129999999998
 31
0.0
  0
LINE
  5
1B16
330
1E
100
AcDbEntity
  8
0
100
AcDbLine
 10
330.601
 20
342.1129999999998
 30
0.0
 11
330.601
 21
341.4959999999998
 31
0.0
  0
LINE
  5
1B17
330
1E
100
AcDbEntity
  8
0
100
AcDbLine
 10
330.601
 20
342.1129999999998
 30
0.0
 11
330.601
 21
343.3140949850547
 31
0.0
  0
LINE
  5
1B18
330
1E
100
AcDbEntity
  8
0
100
AcDbLine
 10
329.1409999999999
 20
341.4959999999998
 30
0.0
 11
330.601
 21
341.4959999999998
 31
0.0
  0
LINE
  5
1B19
330
1E
100
AcDbEntity
  8
0
100
AcDbLine
 10
329.1409999999999
 20
341.4959999999998
 30
0.0
 11
329.1409999999999
 21
342.1129999999998
 31
0.0
  0
LINE
  5
1B1A
330
1E
100
AcDbEntity
  8
0
100
AcDbLine
 10
329.1409999999999
 20
341.4959999999998
 30
0.0
 11
329.1409999999999
 21
341.7357390885309
 31
0.0
  0
LINE
  5
1B1B
330
1E
100
AcDbEntity
  8
0
100
AcDbLine
 10
329.1409999999999
 20
342.1129999999998
 30
0.0
 11
330.601
 21
342.1129999999998
 31
0.0
  0
LINE
  5
1B1C
330
1E
100
AcDbEntity
  8
0
100
AcDbLine
 10
329.1409999999999
 20
342.1129999999998
 30
0.0
 11
329.1409999999999
 21
343.0724991697108
 31
0.0
  0
LINE
  5
1B1D
330
1E
100
AcDbEntity
  8
0
100
AcDbLine
 10
329.1409999999999
 20
342.1129999999998
 30
0.0
 11
329.1409999999999
 21
341.4959999999998
 31
0.0
  0
LINE
  5
1B1E
330
1E
100
AcDbEntity
  8
0
100
AcDbLine
 10
329.1409999999999
 20
343.0724991697108
 30
0.0
 11
329.1409999999999
 21
342.1129999999998
 31
0.0
  0
LINE
  5
1B1F
330
1E
100
AcDbEntity
  8
0
100
AcDbLine
 10
329.1409999999999
 20
341.7357390885309
 30
0.0
 11
329.1409999999999
 21
341.4959999999998
 31
0.0
  0
LINE
  5
1B20
330
1E
100
AcDbEntity
  8
0
100
AcDbLine
 10
326.14
 20
346.7736202740138
 30
0.0
 11
326.14
 21
346.1949999999998
 31
0.0
  0
LINE
  5
1B21
330
1E
100
AcDbEntity
  8
0
100
AcDbLine
 10
326.14
 20
346.1949999999998
 30
0.0
 11
326.14
 21
345.5779999999998
 31
0.0
  0
LINE
  5
1B22
330
1E
100
AcDbEntity
  8
0
100
AcDbLine
 10
326.14
 20
346.1949999999998
 30
0.0
 11
326.14
 21
346.7736202740138
 31
0.0
  0
LINE
  5
1B23
330
1E
100
AcDbEntity
  8
0
100
AcDbLine
 10
326.14
 20
345.5779999999998
 30
0.0
 11
326.14
 21
346.1949999999998
 31
0.0
  0
LINE
  5
1B24
330
1E
100
AcDbEntity
  8
0
100
AcDbLine
 10
325.3299999999999
 20
339.866939121757
 30
0.0
 11
325.3299999999999
 21
339.0659999999999
 31
0.0
  0
LINE
  5
1B25
330
1E
100
AcDbEntity
  8
0
100
AcDbLine
 10
325.3299999999999
 20
339.0659999999999
 30
0.0
 11
325.3299999999999
 21
338.4489999999999
 31
0.0
  0
LINE
  5
1B26
330
1E
100
AcDbEntity
  8
0
100
AcDbLine
 10
325.3299999999999
 20
339.0659999999999
 30
0.0
 11
325.3299999999999
 21
339.866939121757
 31
0.0
  0
LINE
  5
1B27
330
1E
100
AcDbEntity
  8
0
100
AcDbLine
 10
325.3299999999999
 20
338.4489999999999
 30
0.0
 11
325.3299999999999
 21
339.0659999999999
 31
0.0
  0
LINE
  5
1B28
330
1E
100
AcDbEntity
  8
0
100
AcDbLine
 10
322.701
 20
363.4209999999999
 30
0.0
 11
326.788
 21
365.3649999999998
 31
0.0
  0
LINE
  5
1B29
330
1E
100
AcDbEntity
  8
0
100
AcDbLine
 10
323.87
 20
361.7799999999998
 30
0.0
 11
325.3299999999999
 21
361.7799999999998
 31
0.0
  0
LINE
  5
1B2A
330
1E
100
AcDbEntity
  8
0
100
AcDbLine
 10
323.87
 20
362.3969999999999
 30
0.0
 11
325.3299999999999
 21
362.3969999999999
 31
0.0
  0
LINE
  5
1B2B
330
1E
100
AcDbEntity
  8
0
100
AcDbLine
 10
320.949
 20
363.9769999999999
 30
0.0
 11
325.1829999999999
 21
366.0429999999998
 31
0.0
  0
LINE
  5
1B2C
330
1E
100
AcDbEntity
  8
0
100
AcDbLine
 10
324.68
 20
354.3609999999998
 30
0.0
 11
326.14
 21
354.3609999999998
 31
0.0
  0
LINE
  5
1B2D
330
1E
100
AcDbEntity
  8
0
100
AcDbLine
 10
324.68
 20
353.7439999999999
 30
0.0
 11
326.14
 21
353.7439999999999
 31
0.0
  0
LINE
  5
1B2E
330
1E
100
AcDbEntity
  8
0
100
AcDbLine
 10
323.87
 20
361.7799999999998
 30
0.0
 11
323.87
 21
362.9487121212118
 31
0.0
  0
LINE
  5
1B2F
330
1E
100
AcDbEntity
  8
0
100
AcDbLine
 10
323.87
 20
361.7799999999998
 30
0.0
 11
323.87
 21
362.3969999999999
 31
0.0
  0
LINE
  5
1B30
330
1E
100
AcDbEntity
  8
0
100
AcDbLine
 10
323.87
 20
362.9487121212118
 30
0.0
 11
323.87
 21
361.7799999999998
 31
0.0
  0
LINE
  5
1B31
330
1E
100
AcDbEntity
  8
0
100
AcDbLine
 10
323.87
 20
363.1600233631378
 30
0.0
 11
323.87
 21
362.3969999999999
 31
0.0
  0
LINE
  5
1B32
330
1E
100
AcDbEntity
  8
0
100
AcDbLine
 10
323.87
 20
362.3969999999999
 30
0.0
 11
323.87
 21
361.7799999999998
 31
0.0
  0
LINE
  5
1B33
330
1E
100
AcDbEntity
  8
0
100
AcDbLine
 10
323.87
 20
362.3969999999999
 30
0.0
 11
323.87
 21
363.1600233631378
 31
0.0
  0
LINE
  5
1B34
330
1E
100
AcDbEntity
  8
0
100
AcDbLine
 10
320.365
 20
365.0679999999998
 30
0.0
 11
324.672
 21
367.1659999999999
 31
0.0
  0
LINE
  5
1B35
330
1E
100
AcDbEntity
  8
0
100
AcDbLine
 10
319.1969999999999
 20
361.2309999999999
 30
0.0
 11
322.701
 21
363.4209999999999
 31
0.0
  0
LINE
  5
1B36
330
1E
100
AcDbEntity
  8
0
100
AcDbLine
 10
320.5440000000001
 20
358.9659999999998
 30
0.0
 11
320.5440000000001
 21
358.3489999999999
 31
0.0
  0
LINE
  5
1B37
330
1E
100
AcDbEntity
  8
0
100
AcDbLine
 10
319.084
 20
358.9659999999998
 30
0.0
 11
320.5440000000001
 21
358.9659999999998
 31
0.0
  0
LINE
  5
1B38
330
1E
100
AcDbEntity
  8
0
100
AcDbLine
 10
319.084
 20
358.9659999999998
 30
0.0
 11
319.084
 21
358.3489999999999
 31
0.0
  0
LINE
  5
1B39
330
1E
100
AcDbEntity
  8
0
100
AcDbLine
 10
319.084
 20
358.3489999999999
 30
0.0
 11
320.5440000000001
 21
358.3489999999999
 31
0.0
  0
LINE
  5
1B3A
330
1E
100
AcDbEntity
  8
0
100
AcDbLine
 10
319.084
 20
358.3489999999999
 30
0.0
 11
319.084
 21
358.6620774945469
 31
0.0
  0
LINE
  5
1B3B
330
1E
100
AcDbEntity
  8
0
100
AcDbLine
 10
319.084
 20
358.3489999999999
 30
0.0
 11
319.084
 21
358.9659999999998
 31
0.0
  0
LINE
  5
1B3C
330
1E
100
AcDbEntity
  8
0
100
AcDbLine
 10
320.5440000000001
 20
358.3489999999999
 30
0.0
 11
320.5440000000001
 21
358.9659999999998
 31
0.0
  0
LINE
  5
1B3D
330
1E
100
AcDbEntity
  8
0
100
AcDbLine
 10
319.084
 20
358.6620774945469
 30
0.0
 11
319.084
 21
358.3489999999999
 31
0.0
  0
LINE
  5
1B3E
330
1E
100
AcDbEntity
  8
0
100
AcDbLine
 10
324.68
 20
354.5492631578949
 30
0.0
 11
324.68
 21
354.3609999999998
 31
0.0
  0
LINE
  5
1B3F
330
1E
100
AcDbEntity
  8
0
100
AcDbLine
 10
324.68
 20
354.5492631578949
 30
0.0
 11
324.68
 21
353.7439999999999
 31
0.0
  0
LINE
  5
1B40
330
1E
100
AcDbEntity
  8
0
100
AcDbLine
 10
324.68
 20
354.3609999999998
 30
0.0
 11
324.68
 21
353.7439999999999
 31
0.0
  0
LINE
  5
1B41
330
1E
100
AcDbEntity
  8
0
100
AcDbLine
 10
324.68
 20
354.3609999999998
 30
0.0
 11
324.68
 21
354.5492631578949
 31
0.0
  0
LINE
  5
1B42
330
1E
100
AcDbEntity
  8
0
100
AcDbLine
 10
324.68
 20
353.7439999999999
 30
0.0
 11
324.68
 21
354.5492631578949
 31
0.0
  0
LINE
  5
1B43
330
1E
100
AcDbEntity
  8
0
100
AcDbLine
 10
324.68
 20
353.7439999999999
 30
0.0
 11
324.68
 21
354.3609999999998
 31
0.0
  0
LINE
  5
1B44
330
1E
100
AcDbEntity
  8
0
100
AcDbLine
 10
330.278
 20
364.6269999999999
 30
0.0
 11
330.278
 21
365.2439999999999
 31
0.0
  0
LINE
  5
1B45
330
1E
100
AcDbEntity
  8
0
100
AcDbLine
 10
330.278
 20
365.2439999999999
 30
0.0
 11
330.278
 21
364.6269999999999
 31
0.0
  0
LINE
  5
1B46
330
1E
100
AcDbEntity
  8
0
100
AcDbLine
 10
330.278
 20
365.2439999999999
 30
0.0
 11
330.278
 21
366.6755522939769
 31
0.0
  0
LINE
  5
1B47
330
1E
100
AcDbEntity
  8
0
100
AcDbLine
 10
330.278
 20
366.6755522939769
 30
0.0
 11
330.278
 21
365.2439999999999
 31
0.0
  0
LINE
  5
1B48
330
1E
100
AcDbEntity
  8
0
100
AcDbLine
 10
325.1829999999999
 20
366.0429999999998
 30
0.0
 11
330.0730000000001
 21
367.8329999999998
 31
0.0
  0
LINE
  5
1B49
330
1E
100
AcDbEntity
  8
0
100
AcDbLine
 10
326.788
 20
365.3649999999998
 30
0.0
 11
331.3869999999999
 21
367.0919999999999
 31
0.0
  0
LINE
  5
1B4A
330
1E
100
AcDbEntity
  8
0
100
AcDbLine
 10
325.3299999999999
 20
362.3969999999999
 30
0.0
 11
325.3299999999999
 21
362.8340816267668
 31
0.0
  0
LINE
  5
1B4B
330
1E
100
AcDbEntity
  8
0
100
AcDbLine
 10
325.3299999999999
 20
362.3969999999999
 30
0.0
 11
325.3299999999999
 21
361.7799999999998
 31
0.0
  0
LINE
  5
1B4C
330
1E
100
AcDbEntity
  8
0
100
AcDbLine
 10
325.3299999999999
 20
362.8340816267668
 30
0.0
 11
325.3299999999999
 21
362.3969999999999
 31
0.0
  0
LINE
  5
1B4D
330
1E
100
AcDbEntity
  8
0
100
AcDbLine
 10
325.3299999999999
 20
361.7799999999998
 30
0.0
 11
325.3299999999999
 21
362.3969999999999
 31
0.0
  0
LINE
  5
1B4E
330
1E
100
AcDbEntity
  8
0
100
AcDbLine
 10
329.1409999999999
 20
357.8259999999999
 30
0.0
 11
330.601
 21
357.8259999999999
 31
0.0
  0
LINE
  5
1B4F
330
1E
100
AcDbEntity
  8
0
100
AcDbLine
 10
329.1409999999999
 20
357.8259999999999
 30
0.0
 11
329.1409999999999
 21
358.0886167386249
 31
0.0
  0
LINE
  5
1B50
330
1E
100
AcDbEntity
  8
0
100
AcDbLine
 10
329.1409999999999
 20
357.8259999999999
 30
0.0
 11
329.1409999999999
 21
358.4429999999998
 31
0.0
  0
LINE
  5
1B51
330
1E
100
AcDbEntity
  8
0
100
AcDbLine
 10
329.1409999999999
 20
358.0886167386249
 30
0.0
 11
329.1409999999999
 21
357.8259999999999
 31
0.0
  0
LINE
  5
1B52
330
1E
100
AcDbEntity
  8
0
100
AcDbLine
 10
330.601
 20
358.4429999999998
 30
0.0
 11
330.601
 21
359.4543751893159
 31
0.0
  0
LINE
  5
1B53
330
1E
100
AcDbEntity
  8
0
100
AcDbLine
 10
330.601
 20
358.4429999999998
 30
0.0
 11
330.601
 21
357.8259999999999
 31
0.0
  0
LINE
  5
1B54
330
1E
100
AcDbEntity
  8
0
100
AcDbLine
 10
330.601
 20
359.4543751893159
 30
0.0
 11
330.601
 21
358.4429999999998
 31
0.0
  0
LINE
  5
1B55
330
1E
100
AcDbEntity
  8
0
100
AcDbLine
 10
329.1409999999999
 20
358.4429999999998
 30
0.0
 11
330.601
 21
358.4429999999998
 31
0.0
  0
LINE
  5
1B56
330
1E
100
AcDbEntity
  8
0
100
AcDbLine
 10
329.1409999999999
 20
358.4429999999998
 30
0.0
 11
329.1409999999999
 21
357.8259999999999
 31
0.0
  0
LINE
  5
1B57
330
1E
100
AcDbEntity
  8
0
100
AcDbLine
 10
329.1409999999999
 20
358.4429999999998
 30
0.0
 11
329.1409999999999
 21
359.6818280324929
 31
0.0
  0
LINE
  5
1B58
330
1E
100
AcDbEntity
  8
0
100
AcDbLine
 10
329.1409999999999
 20
359.6818280324929
 30
0.0
 11
329.1409999999999
 21
358.4429999999998
 31
0.0
  0
LINE
  5
1B59
330
1E
100
AcDbEntity
  8
0
100
AcDbLine
 10
330.601
 20
357.8259999999999
 30
0.0
 11
330.601
 21
358.4429999999998
 31
0.0
  0
LINE
  5
1B5A
330
1E
100
AcDbEntity
  8
0
100
AcDbLine
 10
326.14
 20
354.3609999999998
 30
0.0
 11
326.14
 21
353.7439999999999
 31
0.0
  0
LINE
  5
1B5B
330
1E
100
AcDbEntity
  8
0
100
AcDbLine
 10
326.14
 20
353.7439999999999
 30
0.0
 11
326.14
 21
354.3609999999998
 31
0.0
  0
LINE
  5
1B5C
330
1E
100
AcDbEntity
  8
0
100
AcDbLine
 10
341.6669999999999
 20
337.8731105944869
 30
0.0
 11
341.6669999999999
 21
337.1669999999999
 31
0.0
  0
LINE
  5
1B5D
330
1E
100
AcDbEntity
  8
0
100
AcDbLine
 10
342.931
 20
337.9641326143979
 30
0.0
 11
342.931
 21
336.8589999999999
 31
0.0
  0
LINE
  5
1B5E
330
1E
100
AcDbEntity
  8
0
100
AcDbLine
 10
341.6669999999999
 20
337.1669999999999
 30
0.0
 11
341.6669999999999
 21
337.8731105944869
 31
0.0
  0
LINE
  5
1B5F
330
1E
100
AcDbEntity
  8
0
100
AcDbLine
 10
342.931
 20
336.8589999999999
 30
0.0
 11
342.931
 21
337.9641326143979
 31
0.0
  0
LINE
  5
1B60
330
1E
100
AcDbEntity
  8
0
100
AcDbLine
 10
341.168
 20
332.1419999999999
 30
0.0
 11
347.591
 21
331.2469999999999
 31
0.0
  0
LINE
  5
1B61
330
1E
100
AcDbEntity
  8
0
100
AcDbLine
 10
345.023
 20
332.9769999999999
 30
0.0
 11
345.753
 21
332.4419999999999
 31
0.0
  0
LINE
  5
1B62
330
1E
100
AcDbEntity
  8
0
100
AcDbLine
 10
344.489
 20
332.1339999999999
 30
0.0
 11
345.753
 21
332.4419999999999
 31
0.0
  0
LINE
  5
1B63
330
1E
100
AcDbEntity
  8
0
100
AcDbLine
 10
338.099193548387
 20
333.7747689792308
 30
0.0
 11
342.0440000000001
 21
332.9749999999997
 31
0.0
  0
LINE
  5
1B64
330
1E
100
AcDbEntity
  8
0
100
AcDbLine
 10
335.475
 20
333.2829999999999
 30
0.0
 11
341.168
 21
332.1419999999999
 31
0.0
  0
LINE
  5
1B65
330
1E
100
AcDbEntity
  8
0
100
AcDbLine
 10
337.288
 20
334.5233993004949
 30
0.0
 11
337.288
 21
334.4139999999999
 31
0.0
  0
LINE
  5
1B66
330
1E
100
AcDbEntity
  8
0
100
AcDbLine
 10
338.5519999999999
 20
334.7098390493939
 30
0.0
 11
338.5519999999999
 21
334.1059999999998
 31
0.0
  0
LINE
  5
1B67
330
1E
100
AcDbEntity
  8
0
100
AcDbLine
 10
337.288
 20
334.4139999999999
 30
0.0
 11
337.288
 21
334.5233993004949
 31
0.0
  0
LINE
  5
1B68
330
1E
100
AcDbEntity
  8
0
100
AcDbLine
 10
337.288
 20
334.4139999999999
 30
0.0
 11
338.5519999999999
 21
334.1059999999998
 31
0.0
  0
LINE
  5
1B69
330
1E
100
AcDbEntity
  8
0
100
AcDbLine
 10
338.5519999999999
 20
334.1059999999998
 30
0.0
 11
338.5519999999999
 21
334.7098390493939
 31
0.0
  0
LINE
  5
1B6A
330
1E
100
AcDbEntity
  8
0
100
AcDbLine
 10
337.8219999999998
 20
333.572
 30
0.0
 11
338.5519999999999
 21
334.1059999999998
 31
0.0
  0
LINE
  5
1B6B
330
1E
100
AcDbEntity
  8
0
100
AcDbLine
 10
331.738
 20
335.6009999999999
 30
0.0
 11
331.738
 21
336.2179999999998
 31
0.0
  0
LINE
  5
1B6C
330
1E
100
AcDbEntity
  8
0
100
AcDbLine
 10
331.738
 20
336.2179999999998
 30
0.0
 11
331.738
 21
335.6009999999999
 31
0.0
  0
LINE
  5
1B6D
330
1E
100
AcDbEntity
  8
0
100
AcDbLine
 10
336.558
 20
333.8799999999999
 30
0.0
 11
337.288
 21
334.4139999999999
 31
0.0
  0
LINE
  5
1B6E
330
1E
100
AcDbEntity
  8
0
100
AcDbLine
 10
336.558
 20
333.8799999999999
 30
0.0
 11
336.558
 21
334.0881437668849
 31
0.0
  0
LINE
  5
1B6F
330
1E
100
AcDbEntity
  8
0
100
AcDbLine
 10
336.558
 20
333.8799999999999
 30
0.0
 11
337.8219999999998
 21
333.572
 31
0.0
  0
LINE
  5
1B70
330
1E
100
AcDbEntity
  8
0
100
AcDbLine
 10
336.558
 20
334.0881437668849
 30
0.0
 11
336.558
 21
333.8799999999999
 31
0.0
  0
LINE
  5
1B71
330
1E
100
AcDbEntity
  8
0
100
AcDbLine
 10
342.0440000000001
 20
332.9749999999997
 30
0.0
 11
343.759
 21
332.7575247374028
 31
0.0
  0
LINE
  5
1B72
330
1E
100
AcDbEntity
  8
0
100
AcDbLine
 10
345.023
 20
332.9769999999999
 30
0.0
 11
345.023
 21
334.2107661427359
 31
0.0
  0
LINE
  5
1B73
330
1E
100
AcDbEntity
  8
0
100
AcDbLine
 10
345.023
 20
334.2107661427359
 30
0.0
 11
345.023
 21
332.9769999999999
 31
0.0
  0
LINE
  5
1B74
330
1E
100
AcDbEntity
  8
0
100
AcDbLine
 10
343.759
 20
333.6864262956668
 30
0.0
 11
343.759
 21
332.6679999999999
 31
0.0
  0
LINE
  5
1B75
330
1E
100
AcDbEntity
  8
0
100
AcDbLine
 10
341.6669999999999
 20
337.1669999999999
 30
0.0
 11
342.931
 21
336.8589999999999
 31
0.0
  0
LINE
  5
1B76
330
1E
100
AcDbEntity
  8
0
100
AcDbLine
 10
342.2019999999999
 20
336.3239999999999
 30
0.0
 11
342.931
 21
336.8589999999999
 31
0.0
  0
LINE
  5
1B77
330
1E
100
AcDbEntity
  8
0
100
AcDbLine
 10
343.759
 20
332.6679999999999
 30
0.0
 11
343.759
 21
333.6864262956668
 31
0.0
  0
LINE
  5
1B78
330
1E
100
AcDbEntity
  8
0
100
AcDbLine
 10
343.759
 20
332.6679999999999
 30
0.0
 11
344.489
 21
332.1339999999999
 31
0.0
  0
LINE
  5
1B79
330
1E
100
AcDbEntity
  8
0
100
AcDbLine
 10
343.759
 20
332.6679999999999
 30
0.0
 11
345.023
 21
332.9769999999999
 31
0.0
  0
LINE
  5
1B7A
330
1E
100
AcDbEntity
  8
0
100
AcDbLine
 10
340.9369999999999
 20
336.6329999999999
 30
0.0
 11
341.6669999999999
 21
337.1669999999999
 31
0.0
  0
LINE
  5
1B7B
330
1E
100
AcDbEntity
  8
0
100
AcDbLine
 10
340.9369999999999
 20
336.6329999999999
 30
0.0
 11
340.9369999999999
 21
337.7092788110259
 31
0.0
  0
LINE
  5
1B7C
330
1E
100
AcDbEntity
  8
0
100
AcDbLine
 10
340.9369999999999
 20
336.6329999999999
 30
0.0
 11
342.2019999999999
 21
336.3239999999999
 31
0.0
  0
LINE
  5
1B7D
330
1E
100
AcDbEntity
  8
0
100
AcDbLine
 10
340.9369999999999
 20
337.7092788110259
 30
0.0
 11
340.9369999999999
 21
336.6329999999999
 31
0.0
  0
LINE
  5
1B7E
330
1E
100
AcDbEntity
  8
0
100
AcDbLine
 10
351.36
 20
324.1469999999999
 30
0.0
 11
351.648
 21
321.9399999999998
 31
0.0
  0
LINE
  5
1B7F
330
1E
100
AcDbEntity
  8
0
100
AcDbLine
 10
348.0
 20
324.1469999999999
 30
0.0
 11
348.384
 21
321.0579999999998
 31
0.0
  0
LINE
  5
1B80
330
1E
100
AcDbEntity
  8
0
100
AcDbLine
 10
351.648
 20
321.9399999999998
 30
0.0
 11
352.5119999999999
 21
319.822
 31
0.0
  0
LINE
  5
1B81
330
1E
100
AcDbEntity
  8
0
100
AcDbLine
 10
351.5519999999999
 20
315.5859999999999
 30
0.0
 11
354.048
 21
313.6437999999999
 31
0.0
  0
LINE
  5
1B82
330
1E
100
AcDbEntity
  8
0
100
AcDbLine
 10
349.6319999999999
 20
318.1449999999998
 30
0.0
 11
351.5519999999999
 21
315.5859999999999
 31
0.0
  0
LINE
  5
1B83
330
1E
100
AcDbEntity
  8
0
100
AcDbLine
 10
348.384
 20
321.0579999999998
 30
0.0
 11
349.6319999999999
 21
318.1449999999998
 31
0.0
  0
LINE
  5
1B84
330
1E
100
AcDbEntity
  8
0
100
AcDbLine
 10
352.5119999999999
 20
319.822
 30
0.0
 11
353.8559999999999
 21
317.9679999999998
 31
0.0
  0
LINE
  5
1B85
330
1E
100
AcDbEntity
  8
0
100
AcDbLine
 10
353.8559999999999
 20
317.9679999999998
 30
0.0
 11
355.68
 21
316.5559999999999
 31
0.0
  0
LINE
  5
1B86
330
1E
100
AcDbEntity
  8
0
100
AcDbLine
 10
355.68
 20
316.5559999999999
 30
0.0
 11
357.7919999999999
 21
315.7619999999999
 31
0.0
  0
LINE
  5
1B87
330
1E
100
AcDbEntity
  8
0
100
AcDbLine
 10
354.048
 20
313.6437999999999
 30
0.0
 11
356.9280000000001
 21
312.4077999999999
 31
0.0
  0
LINE
  5
1B88
330
1E
100
AcDbEntity
  8
0
100
AcDbLine
 10
347.591
 20
331.2469999999999
 30
0.0
 11
353.6499999999999
 21
330.7229999999998
 31
0.0
  0
LINE
  5
1B89
330
1E
100
AcDbEntity
  8
0
100
AcDbLine
 10
348.613
 20
332.1419999999999
 30
0.0
 11
352.84493401558
 21
331.7133360296779
 31
0.0
  0
LINE
  5
1B8A
330
1E
100
AcDbEntity
  8
0
100
AcDbLine
 10
351.36
 20
330.9210458821588
 30
0.0
 11
351.36
 21
324.1469999999999
 31
0.0
  0
LINE
  5
1B8B
330
1E
100
AcDbEntity
  8
0
100
AcDbLine
 10
349.6219999999999
 20
334.9909999999998
 30
0.0
 11
350.8869999999999
 21
335.2989999999999
 31
0.0
  0
LINE
  5
1B8C
330
1E
100
AcDbEntity
  8
0
100
AcDbLine
 10
350.8869999999999
 20
335.9272075869329
 30
0.0
 11
350.8869999999999
 21
335.2989999999999
 31
0.0
  0
LINE
  5
1B8D
330
1E
100
AcDbEntity
  8
0
100
AcDbLine
 10
350.8869999999999
 20
335.2989999999999
 30
0.0
 11
350.8869999999999
 21
335.9272075869329
 31
0.0
  0
LINE
  5
1B8E
330
1E
100
AcDbEntity
  8
0
100
AcDbLine
 10
350.1569999999999
 20
335.8339999999999
 30
0.0
 11
350.1569999999999
 21
336.3404819456238
 31
0.0
  0
LINE
  5
1B8F
330
1E
100
AcDbEntity
  8
0
100
AcDbLine
 10
350.1569999999999
 20
335.8339999999999
 30
0.0
 11
350.8869999999999
 21
335.2989999999999
 31
0.0
  0
LINE
  5
1B90
330
1E
100
AcDbEntity
  8
0
100
AcDbLine
 10
350.1569999999999
 20
336.3404819456238
 30
0.0
 11
350.1569999999999
 21
335.8339999999999
 31
0.0
  0
LINE
  5
1B91
330
1E
100
AcDbEntity
  8
0
100
AcDbLine
 10
345.753
 20
332.5046701172168
 30
0.0
 11
345.753
 21
332.4419999999999
 31
0.0
  0
LINE
  5
1B92
330
1E
100
AcDbEntity
  8
0
100
AcDbLine
 10
345.753
 20
332.5046701172168
 30
0.0
 11
348.613
 21
332.1419999999999
 31
0.0
  0
LINE
  5
1B93
330
1E
100
AcDbEntity
  8
0
100
AcDbLine
 10
348.892
 20
335.5249999999998
 30
0.0
 11
348.892
 21
335.8157272727269
 31
0.0
  0
LINE
  5
1B94
330
1E
100
AcDbEntity
  8
0
100
AcDbLine
 10
348.892
 20
335.5249999999998
 30
0.0
 11
349.6219999999999
 21
334.9909999999998
 31
0.0
  0
LINE
  5
1B95
330
1E
100
AcDbEntity
  8
0
100
AcDbLine
 10
348.892
 20
335.5249999999998
 30
0.0
 11
350.1569999999999
 21
335.8339999999999
 31
0.0
  0
LINE
  5
1B96
330
1E
100
AcDbEntity
  8
0
100
AcDbLine
 10
348.892
 20
335.8157272727269
 30
0.0
 11
348.892
 21
335.5249999999998
 31
0.0
  0
LINE
  5
1B97
330
1E
100
AcDbEntity
  8
0
100
AcDbLine
 10
345.753
 20
332.4419999999999
 30
0.0
 11
345.753
 21
332.5046701172168
 31
0.0
  0
LINE
  5
1B98
330
1E
100
AcDbEntity
  8
0
100
AcDbLine
 10
351.36
 20
324.1469999999999
 30
0.0
 11
351.36
 21
330.9210458821588
 31
0.0
  0
LINE
  5
1B99
330
1E
100
AcDbEntity
  8
0
100
AcDbLine
 10
349.6319999999999
 20
330.2359999999998
 30
0.0
 11
350.219743916615
 21
331.019658555487
 31
0.0
  0
LINE
  5
1B9A
330
1E
100
AcDbEntity
  8
0
100
AcDbLine
 10
348.384
 20
327.3239999999999
 30
0.0
 11
349.6319999999999
 21
330.2359999999998
 31
0.0
  0
LINE
  5
1B9B
330
1E
100
AcDbEntity
  8
0
100
AcDbLine
 10
348.0
 20
324.1469999999999
 30
0.0
 11
348.384
 21
327.3239999999999
 31
0.0
  0
LINE
  5
1B9C
330
1E
100
AcDbEntity
  8
0
100
AcDbLine
 10
358.599
 20
336.4370938007889
 30
0.0
 11
358.599
 21
335.2809999999999
 31
0.0
  0
LINE
  5
1B9D
330
1E
100
AcDbEntity
  8
0
100
AcDbLine
 10
358.599
 20
335.2809999999999
 30
0.0
 11
358.599
 21
336.4370938007889
 31
0.0
  0
LINE
  5
1B9E
330
1E
100
AcDbEntity
  8
0
100
AcDbLine
 10
357.334
 20
334.9729999999998
 30
0.0
 11
358.0639999999999
 21
334.4379999999998
 31
0.0
  0
LINE
  5
1B9F
330
1E
100
AcDbEntity
  8
0
100
AcDbLine
 10
357.334
 20
334.9729999999998
 30
0.0
 11
358.599
 21
335.2809999999999
 31
0.0
  0
LINE
  5
1BA0
330
1E
100
AcDbEntity
  8
0
100
AcDbLine
 10
353.5289999999999
 20
331.212
 30
0.0
 11
354.793
 21
331.5209999999999
 31
0.0
  0
LINE
  5
1BA1
330
1E
100
AcDbEntity
  8
0
100
AcDbLine
 10
354.793
 20
332.3835522243709
 30
0.0
 11
354.793
 21
331.5209999999999
 31
0.0
  0
LINE
  5
1BA2
330
1E
100
AcDbEntity
  8
0
100
AcDbLine
 10
354.793
 20
331.5209999999999
 30
0.0
 11
354.793
 21
332.3835522243709
 31
0.0
  0
LINE
  5
1BA3
330
1E
100
AcDbEntity
  8
0
100
AcDbLine
 10
354.0630000000001
 20
332.0549999999998
 30
0.0
 11
354.0630000000001
 21
332.3100458618869
 31
0.0
  0
LINE
  5
1BA4
330
1E
100
AcDbEntity
  8
0
100
AcDbLine
 10
354.0630000000001
 20
332.0549999999998
 30
0.0
 11
354.793
 21
331.5209999999999
 31
0.0
  0
LINE
  5
1BA5
330
1E
100
AcDbEntity
  8
0
100
AcDbLine
 10
354.0630000000001
 20
332.3100458618869
 30
0.0
 11
354.0630000000001
 21
332.0549999999998
 31
0.0
  0
LINE
  5
1BA6
330
1E
100
AcDbEntity
  8
0
100
AcDbLine
 10
352.7989999999999
 20
331.7469999999999
 30
0.0
 11
353.5289999999999
 21
331.212
 31
0.0
  0
LINE
  5
1BA7
330
1E
100
AcDbEntity
  8
0
100
AcDbLine
 10
352.7989999999999
 20
331.7469999999999
 30
0.0
 11
354.0630000000001
 21
332.0549999999998
 31
0.0
  0
LINE
  5
1BA8
330
1E
100
AcDbEntity
  8
0
100
AcDbLine
 10
345.023
 20
367.8689999999999
 30
0.0
 11
345.753
 21
368.4029999999999
 31
0.0
  0
LINE
  5
1BA9
330
1E
100
AcDbEntity
  8
0
100
AcDbLine
 10
345.317
 20
359.6479999999999
 30
0.0
 11
346.047
 21
359.1139999999999
 31
0.0
  0
LINE
  5
1BAA
330
1E
100
AcDbEntity
  8
0
100
AcDbLine
 10
345.317
 20
359.6479999999999
 30
0.0
 11
346.5809999999998
 21
359.9559999999998
 31
0.0
  0
LINE
  5
1BAB
330
1E
100
AcDbEntity
  8
0
100
AcDbLine
 10
345.317
 20
339.3849999999998
 30
0.0
 11
346.047
 21
339.9199999999998
 31
0.0
  0
LINE
  5
1BAC
330
1E
100
AcDbEntity
  8
0
100
AcDbLine
 10
345.317
 20
339.3849999999998
 30
0.0
 11
346.5809999999998
 21
339.0759999999999
 31
0.0
  0
LINE
  5
1BAD
330
1E
100
AcDbEntity
  8
0
100
AcDbLine
 10
343.8199999999999
 20
352.7689999999998
 30
0.0
 11
343.8199999999999
 21
353.704851902174
 31
0.0
  0
LINE
  5
1BAE
330
1E
100
AcDbEntity
  8
0
100
AcDbLine
 10
343.8199999999999
 20
352.7689999999998
 30
0.0
 11
343.8199999999999
 21
353.3859999999998
 31
0.0
  0
LINE
  5
1BAF
330
1E
100
AcDbEntity
  8
0
100
AcDbLine
 10
345.2799999999999
 20
353.3859999999998
 30
0.0
 11
345.2799999999999
 21
352.7689999999998
 31
0.0
  0
LINE
  5
1BB0
330
1E
100
AcDbEntity
  8
0
100
AcDbLine
 10
345.2799999999999
 20
352.7689999999998
 30
0.0
 11
345.2799999999999
 21
353.3859999999998
 31
0.0
  0
LINE
  5
1BB1
330
1E
100
AcDbEntity
  8
0
100
AcDbLine
 10
343.8199999999999
 20
353.704851902174
 30
0.0
 11
343.8199999999999
 21
352.7689999999998
 31
0.0
  0
LINE
  5
1BB2
330
1E
100
AcDbEntity
  8
0
100
AcDbLine
 10
343.8199999999999
 20
353.3859999999998
 30
0.0
 11
343.8199999999999
 21
352.7689999999998
 31
0.0
  0
LINE
  5
1BB3
330
1E
100
AcDbEntity
  8
0
100
AcDbLine
 10
334.0879999999999
 20
352.9819999999999
 30
0.0
 11
334.0879999999999
 21
353.2919414547599
 31
0.0
  0
LINE
  5
1BB4
330
1E
100
AcDbEntity
  8
0
100
AcDbLine
 10
334.0879999999999
 20
352.9819999999999
 30
0.0
 11
334.0879999999999
 21
353.5989999999999
 31
0.0
  0
LINE
  5
1BB5
330
1E
100
AcDbEntity
  8
0
100
AcDbLine
 10
334.0879999999999
 20
353.2919414547599
 30
0.0
 11
334.0879999999999
 21
352.9819999999999
 31
0.0
  0
LINE
  5
1BB6
330
1E
100
AcDbEntity
  8
0
100
AcDbLine
 10
335.548
 20
353.5989999999999
 30
0.0
 11
335.548
 21
352.9819999999999
 31
0.0
  0
LINE
  5
1BB7
330
1E
100
AcDbEntity
  8
0
100
AcDbLine
 10
334.0879999999999
 20
353.5989999999999
 30
0.0
 11
334.0879999999999
 21
352.9819999999999
 31
0.0
  0
LINE
  5
1BB8
330
1E
100
AcDbEntity
  8
0
100
AcDbLine
 10
335.548
 20
352.9819999999999
 30
0.0
 11
335.548
 21
353.5989999999999
 31
0.0
  0
LINE
  5
1BB9
330
1E
100
AcDbEntity
  8
0
100
AcDbLine
 10
334.0879999999999
 20
352.9819999999999
 30
0.0
 11
335.548
 21
352.9819999999999
 31
0.0
  0
LINE
  5
1BBA
330
1E
100
AcDbEntity
  8
0
100
AcDbLine
 10
331.898
 20
349.2079999999998
 30
0.0
 11
333.3579999999999
 21
349.2079999999998
 31
0.0
  0
LINE
  5
1BBB
330
1E
100
AcDbEntity
  8
0
100
AcDbLine
 10
331.898
 20
349.2079999999998
 30
0.0
 11
331.898
 21
349.8249999999998
 31
0.0
  0
LINE
  5
1BBC
330
1E
100
AcDbEntity
  8
0
100
AcDbLine
 10
331.898
 20
349.2079999999998
 30
0.0
 11
331.898
 21
350.0218262728328
 31
0.0
  0
LINE
  5
1BBD
330
1E
100
AcDbEntity
  8
0
100
AcDbLine
 10
331.898
 20
349.8249999999998
 30
0.0
 11
333.3579999999999
 21
349.8249999999998
 31
0.0
  0
LINE
  5
1BBE
330
1E
100
AcDbEntity
  8
0
100
AcDbLine
 10
331.898
 20
349.8249999999998
 30
0.0
 11
331.898
 21
350.3740945394478
 31
0.0
  0
LINE
  5
1BBF
330
1E
100
AcDbEntity
  8
0
100
AcDbLine
 10
331.898
 20
349.8249999999998
 30
0.0
 11
331.898
 21
349.2079999999998
 31
0.0
  0
LINE
  5
1BC0
330
1E
100
AcDbEntity
  8
0
100
AcDbLine
 10
333.3579999999999
 20
350.3601215507188
 30
0.0
 11
333.3579999999999
 21
349.8249999999998
 31
0.0
  0
LINE
  5
1BC1
330
1E
100
AcDbEntity
  8
0
100
AcDbLine
 10
333.3579999999999
 20
349.8249999999998
 30
0.0
 11
333.3579999999999
 21
349.2079999999998
 31
0.0
  0
LINE
  5
1BC2
330
1E
100
AcDbEntity
  8
0
100
AcDbLine
 10
333.3579999999999
 20
349.8249999999998
 30
0.0
 11
333.3579999999999
 21
350.3601215507188
 31
0.0
  0
LINE
  5
1BC3
330
1E
100
AcDbEntity
  8
0
100
AcDbLine
 10
331.898
 20
350.3740945394478
 30
0.0
 11
331.898
 21
349.8249999999998
 31
0.0
  0
LINE
  5
1BC4
330
1E
100
AcDbEntity
  8
0
100
AcDbLine
 10
331.898
 20
350.0218262728328
 30
0.0
 11
331.898
 21
349.2079999999998
 31
0.0
  0
LINE
  5
1BC5
330
1E
100
AcDbEntity
  8
0
100
AcDbLine
 10
333.3579999999999
 20
349.2079999999998
 30
0.0
 11
333.3579999999999
 21
349.8249999999998
 31
0.0
  0
LINE
  5
1BC6
330
1E
100
AcDbEntity
  8
0
100
AcDbLine
 10
334.0879999999999
 20
345.4339999999999
 30
0.0
 11
335.548
 21
345.4339999999999
 31
0.0
  0
LINE
  5
1BC7
330
1E
100
AcDbEntity
  8
0
100
AcDbLine
 10
334.0879999999999
 20
345.4339999999999
 30
0.0
 11
334.0879999999999
 21
346.0499999999998
 31
0.0
  0
LINE
  5
1BC8
330
1E
100
AcDbEntity
  8
0
100
AcDbLine
 10
334.0879999999999
 20
345.4339999999999
 30
0.0
 11
334.0879999999999
 21
345.6558743718588
 31
0.0
  0
LINE
  5
1BC9
330
1E
100
AcDbEntity
  8
0
100
AcDbLine
 10
334.0879999999999
 20
346.0499999999998
 30
0.0
 11
335.548
 21
346.0499999999998
 31
0.0
  0
LINE
  5
1BCA
330
1E
100
AcDbEntity
  8
0
100
AcDbLine
 10
334.0879999999999
 20
346.0499999999998
 30
0.0
 11
334.0879999999999
 21
347.0058894145479
 31
0.0
  0
LINE
  5
1BCB
330
1E
100
AcDbEntity
  8
0
100
AcDbLine
 10
334.0879999999999
 20
346.0499999999998
 30
0.0
 11
334.0879999999999
 21
345.4339999999999
 31
0.0
  0
LINE
  5
1BCC
330
1E
100
AcDbEntity
  8
0
100
AcDbLine
 10
335.548
 20
347.0515773703918
 30
0.0
 11
335.548
 21
346.0499999999998
 31
0.0
  0
LINE
  5
1BCD
330
1E
100
AcDbEntity
  8
0
100
AcDbLine
 10
335.548
 20
346.0499999999998
 30
0.0
 11
335.548
 21
345.4339999999999
 31
0.0
  0
LINE
  5
1BCE
330
1E
100
AcDbEntity
  8
0
100
AcDbLine
 10
335.548
 20
346.0499999999998
 30
0.0
 11
335.548
 21
347.0515773703918
 31
0.0
  0
LINE
  5
1BCF
330
1E
100
AcDbEntity
  8
0
100
AcDbLine
 10
334.0879999999999
 20
347.0058894145479
 30
0.0
 11
334.0879999999999
 21
346.0499999999998
 31
0.0
  0
LINE
  5
1BD0
330
1E
100
AcDbEntity
  8
0
100
AcDbLine
 10
334.0879999999999
 20
345.6558743718588
 30
0.0
 11
334.0879999999999
 21
345.4339999999999
 31
0.0
  0
LINE
  5
1BD1
330
1E
100
AcDbEntity
  8
0
100
AcDbLine
 10
335.548
 20
345.4339999999999
 30
0.0
 11
335.548
 21
346.0499999999998
 31
0.0
  0
LINE
  5
1BD2
330
1E
100
AcDbEntity
  8
0
100
AcDbLine
 10
335.9549999999999
 20
340.3174258255798
 30
0.0
 11
335.9549999999999
 21
339.2989999999999
 31
0.0
  0
LINE
  5
1BD3
330
1E
100
AcDbEntity
  8
0
100
AcDbLine
 10
335.9549999999999
 20
338.682
 30
0.0
 11
335.9549999999999
 21
339.2989999999999
 31
0.0
  0
LINE
  5
1BD4
330
1E
100
AcDbEntity
  8
0
100
AcDbLine
 10
335.9549999999999
 20
339.2989999999999
 30
0.0
 11
335.9549999999999
 21
338.682
 31
0.0
  0
LINE
  5
1BD5
330
1E
100
AcDbEntity
  8
0
100
AcDbLine
 10
335.9549999999999
 20
339.2989999999999
 30
0.0
 11
335.9549999999999
 21
340.3174258255798
 31
0.0
  0
LINE
  5
1BD6
330
1E
100
AcDbEntity
  8
0
100
AcDbLine
 10
334.495
 20
338.682
 30
0.0
 11
335.9549999999999
 21
338.682
 31
0.0
  0
LINE
  5
1BD7
330
1E
100
AcDbEntity
  8
0
100
AcDbLine
 10
334.495
 20
338.682
 30
0.0
 11
334.495
 21
339.2989999999999
 31
0.0
  0
LINE
  5
1BD8
330
1E
100
AcDbEntity
  8
0
100
AcDbLine
 10
334.495
 20
338.682
 30
0.0
 11
334.495
 21
339.8357347919438
 31
0.0
  0
LINE
  5
1BD9
330
1E
100
AcDbEntity
  8
0
100
AcDbLine
 10
334.495
 20
339.2989999999999
 30
0.0
 11
335.9549999999999
 21
339.2989999999999
 31
0.0
  0
LINE
  5
1BDA
330
1E
100
AcDbEntity
  8
0
100
AcDbLine
 10
334.495
 20
339.2989999999999
 30
0.0
 11
334.495
 21
339.8357347919438
 31
0.0
  0
LINE
  5
1BDB
330
1E
100
AcDbEntity
  8
0
100
AcDbLine
 10
334.495
 20
339.2989999999999
 30
0.0
 11
334.495
 21
338.682
 31
0.0
  0
LINE
  5
1BDC
330
1E
100
AcDbEntity
  8
0
100
AcDbLine
 10
334.495
 20
339.8357347919438
 30
0.0
 11
334.495
 21
338.682
 31
0.0
  0
LINE
  5
1BDD
330
1E
100
AcDbEntity
  8
0
100
AcDbLine
 10
334.495
 20
339.8357347919438
 30
0.0
 11
334.495
 21
339.2989999999999
 31
0.0
  0
LINE
  5
1BDE
330
1E
100
AcDbEntity
  8
0
100
AcDbLine
 10
343.8199999999999
 20
352.7689999999998
 30
0.0
 11
345.2799999999999
 21
352.7689999999998
 31
0.0
  0
LINE
  5
1BDF
330
1E
100
AcDbEntity
  8
0
100
AcDbLine
 10
345.2799999999999
 20
346.1317905344198
 30
0.0
 11
345.2799999999999
 21
345.3569999999999
 31
0.0
  0
LINE
  5
1BE0
330
1E
100
AcDbEntity
  8
0
100
AcDbLine
 10
345.2799999999999
 20
344.7399999999999
 30
0.0
 11
345.2799999999999
 21
345.3569999999999
 31
0.0
  0
LINE
  5
1BE1
330
1E
100
AcDbEntity
  8
0
100
AcDbLine
 10
345.317
 20
339.3849999999998
 30
0.0
 11
345.317
 21
339.4793325178588
 31
0.0
  0
LINE
  5
1BE2
330
1E
100
AcDbEntity
  8
0
100
AcDbLine
 10
345.317
 20
339.4793325178588
 30
0.0
 11
345.317
 21
339.3849999999998
 31
0.0
  0
LINE
  5
1BE3
330
1E
100
AcDbEntity
  8
0
100
AcDbLine
 10
345.2799999999999
 20
345.3569999999999
 30
0.0
 11
345.2799999999999
 21
344.7399999999999
 31
0.0
  0
LINE
  5
1BE4
330
1E
100
AcDbEntity
  8
0
100
AcDbLine
 10
345.2799999999999
 20
345.3569999999999
 30
0.0
 11
345.2799999999999
 21
346.1317905344198
 31
0.0
  0
LINE
  5
1BE5
330
1E
100
AcDbEntity
  8
0
100
AcDbLine
 10
343.8199999999999
 20
344.7399999999999
 30
0.0
 11
345.2799999999999
 21
344.7399999999999
 31
0.0
  0
LINE
  5
1BE6
330
1E
100
AcDbEntity
  8
0
100
AcDbLine
 10
343.8199999999999
 20
344.7399999999999
 30
0.0
 11
343.8199999999999
 21
345.3569999999999
 31
0.0
  0
LINE
  5
1BE7
330
1E
100
AcDbEntity
  8
0
100
AcDbLine
 10
343.8199999999999
 20
344.7399999999999
 30
0.0
 11
343.8199999999999
 21
345.3305374200829
 31
0.0
  0
LINE
  5
1BE8
330
1E
100
AcDbEntity
  8
0
100
AcDbLine
 10
343.8199999999999
 20
345.3569999999999
 30
0.0
 11
345.2799999999999
 21
345.3569999999999
 31
0.0
  0
LINE
  5
1BE9
330
1E
100
AcDbEntity
  8
0
100
AcDbLine
 10
343.8199999999999
 20
345.3569999999999
 30
0.0
 11
343.8199999999999
 21
346.3700817401079
 31
0.0
  0
LINE
  5
1BEA
330
1E
100
AcDbEntity
  8
0
100
AcDbLine
 10
343.8199999999999
 20
345.3569999999999
 30
0.0
 11
343.8199999999999
 21
344.7399999999999
 31
0.0
  0
LINE
  5
1BEB
330
1E
100
AcDbEntity
  8
0
100
AcDbLine
 10
343.8199999999999
 20
346.3700817401079
 30
0.0
 11
343.8199999999999
 21
345.3569999999999
 31
0.0
  0
LINE
  5
1BEC
330
1E
100
AcDbEntity
  8
0
100
AcDbLine
 10
342.1169999999999
 20
350.2762931888848
 30
0.0
 11
342.1169999999999
 21
349.3709999999998
 31
0.0
  0
LINE
  5
1BED
330
1E
100
AcDbEntity
  8
0
100
AcDbLine
 10
342.1169999999999
 20
348.7549999999998
 30
0.0
 11
342.1169999999999
 21
349.3709999999998
 31
0.0
  0
LINE
  5
1BEE
330
1E
100
AcDbEntity
  8
0
100
AcDbLine
 10
342.1169999999999
 20
349.3709999999998
 30
0.0
 11
342.1169999999999
 21
348.7549999999998
 31
0.0
  0
LINE
  5
1BEF
330
1E
100
AcDbEntity
  8
0
100
AcDbLine
 10
342.1169999999999
 20
349.3709999999998
 30
0.0
 11
342.1169999999999
 21
350.2762931888848
 31
0.0
  0
LINE
  5
1BF0
330
1E
100
AcDbEntity
  8
0
100
AcDbLine
 10
343.8199999999999
 20
345.3305374200829
 30
0.0
 11
343.8199999999999
 21
344.7399999999999
 31
0.0
  0
LINE
  5
1BF1
330
1E
100
AcDbEntity
  8
0
100
AcDbLine
 10
340.6569999999999
 20
348.7549999999998
 30
0.0
 11
342.1169999999999
 21
348.7549999999998
 31
0.0
  0
LINE
  5
1BF2
330
1E
100
AcDbEntity
  8
0
100
AcDbLine
 10
340.6569999999999
 20
348.7549999999998
 30
0.0
 11
340.6569999999999
 21
349.3709999999998
 31
0.0
  0
LINE
  5
1BF3
330
1E
100
AcDbEntity
  8
0
100
AcDbLine
 10
340.6569999999999
 20
348.7549999999998
 30
0.0
 11
340.6569999999999
 21
349.3341783909828
 31
0.0
  0
LINE
  5
1BF4
330
1E
100
AcDbEntity
  8
0
100
AcDbLine
 10
340.8199999999999
 20
343.4489312086378
 30
0.0
 11
340.8199999999999
 21
342.2429999999998
 31
0.0
  0
LINE
  5
1BF5
330
1E
100
AcDbEntity
  8
0
100
AcDbLine
 10
340.8199999999999
 20
341.6259999999998
 30
0.0
 11
340.8199999999999
 21
342.2429999999998
 31
0.0
  0
LINE
  5
1BF6
330
1E
100
AcDbEntity
  8
0
100
AcDbLine
 10
340.8199999999999
 20
342.2429999999998
 30
0.0
 11
340.8199999999999
 21
341.6259999999998
 31
0.0
  0
LINE
  5
1BF7
330
1E
100
AcDbEntity
  8
0
100
AcDbLine
 10
340.8199999999999
 20
342.2429999999998
 30
0.0
 11
340.8199999999999
 21
343.4489312086378
 31
0.0
  0
LINE
  5
1BF8
330
1E
100
AcDbEntity
  8
0
100
AcDbLine
 10
340.6569999999999
 20
349.3709999999998
 30
0.0
 11
342.1169999999999
 21
349.3709999999998
 31
0.0
  0
LINE
  5
1BF9
330
1E
100
AcDbEntity
  8
0
100
AcDbLine
 10
340.6569999999999
 20
349.3709999999998
 30
0.0
 11
340.6569999999999
 21
350.2902661776139
 31
0.0
  0
LINE
  5
1BFA
330
1E
100
AcDbEntity
  8
0
100
AcDbLine
 10
340.6569999999999
 20
349.3709999999998
 30
0.0
 11
340.6569999999999
 21
348.7549999999998
 31
0.0
  0
LINE
  5
1BFB
330
1E
100
AcDbEntity
  8
0
100
AcDbLine
 10
340.6569999999999
 20
350.2902661776139
 30
0.0
 11
340.6569999999999
 21
349.3709999999998
 31
0.0
  0
LINE
  5
1BFC
330
1E
100
AcDbEntity
  8
0
100
AcDbLine
 10
340.6569999999999
 20
349.3341783909828
 30
0.0
 11
340.6569999999999
 21
348.7549999999998
 31
0.0
  0
LINE
  5
1BFD
330
1E
100
AcDbEntity
  8
0
100
AcDbLine
 10
339.36
 20
342.2429999999998
 30
0.0
 11
340.8199999999999
 21
342.2429999999998
 31
0.0
  0
LINE
  5
1BFE
330
1E
100
AcDbEntity
  8
0
100
AcDbLine
 10
339.36
 20
342.2429999999998
 30
0.0
 11
339.36
 21
343.1257580982239
 31
0.0
  0
LINE
  5
1BFF
330
1E
100
AcDbEntity
  8
0
100
AcDbLine
 10
339.36
 20
342.2429999999998
 30
0.0
 11
339.36
 21
341.6259999999998
 31
0.0
  0
LINE
  5
1C00
330
1E
100
AcDbEntity
  8
0
100
AcDbLine
 10
339.36
 20
343.1257580982239
 30
0.0
 11
339.36
 21
342.2429999999998
 31
0.0
  0
LINE
  5
1C01
330
1E
100
AcDbEntity
  8
0
100
AcDbLine
 10
339.36
 20
341.6259999999998
 30
0.0
 11
340.8199999999999
 21
341.6259999999998
 31
0.0
  0
LINE
  5
1C02
330
1E
100
AcDbEntity
  8
0
100
AcDbLine
 10
339.36
 20
341.6259999999998
 30
0.0
 11
339.36
 21
342.2429999999998
 31
0.0
  0
LINE
  5
1C03
330
1E
100
AcDbEntity
  8
0
100
AcDbLine
 10
337.8219999999998
 20
367.2739999999998
 30
0.0
 11
338.5519999999999
 21
366.7399999999998
 31
0.0
  0
LINE
  5
1C04
330
1E
100
AcDbEntity
  8
0
100
AcDbLine
 10
337.8219999999998
 20
367.2739999999998
 30
0.0
 11
337.8219999999998
 21
367.9664685927309
 31
0.0
  0
LINE
  5
1C05
330
1E
100
AcDbEntity
  8
0
100
AcDbLine
 10
338.5519999999999
 20
367.6131023299158
 30
0.0
 11
338.5519999999999
 21
366.7399999999998
 31
0.0
  0
LINE
  5
1C06
330
1E
100
AcDbEntity
  8
0
100
AcDbLine
 10
337.8219999999998
 20
367.9664685927309
 30
0.0
 11
337.8219999999998
 21
367.2739999999998
 31
0.0
  0
LINE
  5
1C07
330
1E
100
AcDbEntity
  8
0
100
AcDbLine
 10
336.558
 20
366.9649999999998
 30
0.0
 11
337.288
 21
366.4309999999999
 31
0.0
  0
LINE
  5
1C08
330
1E
100
AcDbEntity
  8
0
100
AcDbLine
 10
336.558
 20
366.9649999999998
 30
0.0
 11
337.8219999999998
 21
367.2739999999998
 31
0.0
  0
LINE
  5
1C09
330
1E
100
AcDbEntity
  8
0
100
AcDbLine
 10
337.288
 20
366.4309999999999
 30
0.0
 11
338.5519999999999
 21
366.7399999999998
 31
0.0
  0
LINE
  5
1C0A
330
1E
100
AcDbEntity
  8
0
100
AcDbLine
 10
338.5519999999999
 20
366.7399999999998
 30
0.0
 11
338.5519999999999
 21
367.6131023299158
 31
0.0
  0
LINE
  5
1C0B
330
1E
100
AcDbEntity
  8
0
100
AcDbLine
 10
331.738
 20
365.2439999999999
 30
0.0
 11
331.738
 21
366.8593380986418
 31
0.0
  0
LINE
  5
1C0C
330
1E
100
AcDbEntity
  8
0
100
AcDbLine
 10
331.738
 20
365.2439999999999
 30
0.0
 11
331.738
 21
364.6269999999999
 31
0.0
  0
LINE
  5
1C0D
330
1E
100
AcDbEntity
  8
0
100
AcDbLine
 10
331.738
 20
366.8593380986418
 30
0.0
 11
331.738
 21
365.2439999999999
 31
0.0
  0
LINE
  5
1C0E
330
1E
100
AcDbEntity
  8
0
100
AcDbLine
 10
331.738
 20
364.6269999999999
 30
0.0
 11
331.738
 21
365.2439999999999
 31
0.0
  0
LINE
  5
1C0F
330
1E
100
AcDbEntity
  8
0
100
AcDbLine
 10
335.9549999999999
 20
362.6578670053098
 30
0.0
 11
335.9549999999999
 21
361.2569999999999
 31
0.0
  0
LINE
  5
1C10
330
1E
100
AcDbEntity
  8
0
100
AcDbLine
 10
334.495
 20
360.6399999999998
 30
0.0
 11
335.9549999999999
 21
360.6399999999998
 31
0.0
  0
LINE
  5
1C11
330
1E
100
AcDbEntity
  8
0
100
AcDbLine
 10
334.495
 20
360.6399999999998
 30
0.0
 11
334.495
 21
361.393700541867
 31
0.0
  0
LINE
  5
1C12
330
1E
100
AcDbEntity
  8
0
100
AcDbLine
 10
334.495
 20
360.6399999999998
 30
0.0
 11
334.495
 21
361.2569999999999
 31
0.0
  0
LINE
  5
1C13
330
1E
100
AcDbEntity
  8
0
100
AcDbLine
 10
334.495
 20
361.393700541867
 30
0.0
 11
334.495
 21
361.2569999999999
 31
0.0
  0
LINE
  5
1C14
330
1E
100
AcDbEntity
  8
0
100
AcDbLine
 10
334.495
 20
361.393700541867
 30
0.0
 11
334.495
 21
360.6399999999998
 31
0.0
  0
LINE
  5
1C15
330
1E
100
AcDbEntity
  8
0
100
AcDbLine
 10
335.9549999999999
 20
361.2569999999999
 30
0.0
 11
335.9549999999999
 21
362.6578670053098
 31
0.0
  0
LINE
  5
1C16
330
1E
100
AcDbEntity
  8
0
100
AcDbLine
 10
335.9549999999999
 20
361.2569999999999
 30
0.0
 11
335.9549999999999
 21
360.6399999999998
 31
0.0
  0
LINE
  5
1C17
330
1E
100
AcDbEntity
  8
0
100
AcDbLine
 10
334.495
 20
361.2569999999999
 30
0.0
 11
335.9549999999999
 21
361.2569999999999
 31
0.0
  0
LINE
  5
1C18
330
1E
100
AcDbEntity
  8
0
100
AcDbLine
 10
334.495
 20
361.2569999999999
 30
0.0
 11
334.495
 21
360.6399999999998
 31
0.0
  0
LINE
  5
1C19
330
1E
100
AcDbEntity
  8
0
100
AcDbLine
 10
334.495
 20
361.2569999999999
 30
0.0
 11
334.495
 21
361.393700541867
 31
0.0
  0
LINE
  5
1C1A
330
1E
100
AcDbEntity
  8
0
100
AcDbLine
 10
335.9549999999999
 20
360.6399999999998
 30
0.0
 11
335.9549999999999
 21
361.2569999999999
 31
0.0
  0
LINE
  5
1C1B
330
1E
100
AcDbEntity
  8
0
100
AcDbLine
 10
335.548
 20
354.4091782597199
 30
0.0
 11
335.548
 21
353.5989999999999
 31
0.0
  0
LINE
  5
1C1C
330
1E
100
AcDbEntity
  8
0
100
AcDbLine
 10
334.0879999999999
 20
354.734077492727
 30
0.0
 11
334.0879999999999
 21
353.5989999999999
 31
0.0
  0
LINE
  5
1C1D
330
1E
100
AcDbEntity
  8
0
100
AcDbLine
 10
335.548
 20
353.5989999999999
 30
0.0
 11
335.548
 21
354.4091782597199
 31
0.0
  0
LINE
  5
1C1E
330
1E
100
AcDbEntity
  8
0
100
AcDbLine
 10
334.0879999999999
 20
353.5989999999999
 30
0.0
 11
335.548
 21
353.5989999999999
 31
0.0
  0
LINE
  5
1C1F
330
1E
100
AcDbEntity
  8
0
100
AcDbLine
 10
334.0879999999999
 20
353.5989999999999
 30
0.0
 11
334.0879999999999
 21
354.734077492727
 31
0.0
  0
LINE
  5
1C20
330
1E
100
AcDbEntity
  8
0
100
AcDbLine
 10
342.2019999999999
 20
363.6149999999998
 30
0.0
 11
342.931
 21
363.0799999999998
 31
0.0
  0
LINE
  5
1C21
330
1E
100
AcDbEntity
  8
0
100
AcDbLine
 10
343.759
 20
368.177
 30
0.0
 11
345.023
 21
367.8689999999999
 31
0.0
  0
LINE
  5
1C22
330
1E
100
AcDbEntity
  8
0
100
AcDbLine
 10
340.9369999999999
 20
363.5119393889069
 30
0.0
 11
340.9369999999999
 21
363.307
 31
0.0
  0
LINE
  5
1C23
330
1E
100
AcDbEntity
  8
0
100
AcDbLine
 10
340.9369999999999
 20
363.307
 30
0.0
 11
340.9369999999999
 21
363.5119393889069
 31
0.0
  0
LINE
  5
1C24
330
1E
100
AcDbEntity
  8
0
100
AcDbLine
 10
340.9369999999999
 20
363.307
 30
0.0
 11
341.6669999999999
 21
362.7719999999999
 31
0.0
  0
LINE
  5
1C25
330
1E
100
AcDbEntity
  8
0
100
AcDbLine
 10
340.9369999999999
 20
363.307
 30
0.0
 11
342.2019999999999
 21
363.6149999999998
 31
0.0
  0
LINE
  5
1C26
330
1E
100
AcDbEntity
  8
0
100
AcDbLine
 10
341.6669999999999
 20
362.7719999999999
 30
0.0
 11
342.931
 21
363.0799999999998
 31
0.0
  0
LINE
  5
1C27
330
1E
100
AcDbEntity
  8
0
100
AcDbLine
 10
345.317
 20
361.0318789509739
 30
0.0
 11
345.317
 21
359.6479999999999
 31
0.0
  0
LINE
  5
1C28
330
1E
100
AcDbEntity
  8
0
100
AcDbLine
 10
339.36
 20
356.7899999999998
 30
0.0
 11
340.8199999999999
 21
356.7899999999998
 31
0.0
  0
LINE
  5
1C29
330
1E
100
AcDbEntity
  8
0
100
AcDbLine
 10
339.36
 20
356.7899999999998
 30
0.0
 11
339.36
 21
357.1269595959599
 31
0.0
  0
LINE
  5
1C2A
330
1E
100
AcDbEntity
  8
0
100
AcDbLine
 10
339.36
 20
356.7899999999998
 30
0.0
 11
339.36
 21
357.4069999999999
 31
0.0
  0
LINE
  5
1C2B
330
1E
100
AcDbEntity
  8
0
100
AcDbLine
 10
339.36
 20
357.1269595959599
 30
0.0
 11
339.36
 21
356.7899999999998
 31
0.0
  0
LINE
  5
1C2C
330
1E
100
AcDbEntity
  8
0
100
AcDbLine
 10
340.8199999999999
 20
357.4069999999999
 30
0.0
 11
340.8199999999999
 21
358.2606931154377
 31
0.0
  0
LINE
  5
1C2D
330
1E
100
AcDbEntity
  8
0
100
AcDbLine
 10
340.8199999999999
 20
357.4069999999999
 30
0.0
 11
340.8199999999999
 21
356.7899999999998
 31
0.0
  0
LINE
  5
1C2E
330
1E
100
AcDbEntity
  8
0
100
AcDbLine
 10
340.8199999999999
 20
358.2606931154377
 30
0.0
 11
340.8199999999999
 21
357.4069999999999
 31
0.0
  0
LINE
  5
1C2F
330
1E
100
AcDbEntity
  8
0
100
AcDbLine
 10
345.317
 20
359.6479999999999
 30
0.0
 11
345.317
 21
361.0318789509739
 31
0.0
  0
LINE
  5
1C30
330
1E
100
AcDbEntity
  8
0
100
AcDbLine
 10
339.36
 20
357.4069999999999
 30
0.0
 11
340.8199999999999
 21
357.4069999999999
 31
0.0
  0
LINE
  5
1C31
330
1E
100
AcDbEntity
  8
0
100
AcDbLine
 10
339.36
 20
357.4069999999999
 30
0.0
 11
339.36
 21
356.7899999999998
 31
0.0
  0
LINE
  5
1C32
330
1E
100
AcDbEntity
  8
0
100
AcDbLine
 10
340.8199999999999
 20
356.7899999999998
 30
0.0
 11
340.8199999999999
 21
357.4069999999999
 31
0.0
  0
LINE
  5
1C33
330
1E
100
AcDbEntity
  8
0
100
AcDbLine
 10
345.2799999999999
 20
353.3859999999998
 30
0.0
 11
345.2799999999999
 21
353.9259981733199
 31
0.0
  0
LINE
  5
1C34
330
1E
100
AcDbEntity
  8
0
100
AcDbLine
 10
345.2799999999999
 20
353.9259981733199
 30
0.0
 11
345.2799999999999
 21
353.3859999999998
 31
0.0
  0
LINE
  5
1C35
330
1E
100
AcDbEntity
  8
0
100
AcDbLine
 10
343.8199999999999
 20
354.289880406168
 30
0.0
 11
343.8199999999999
 21
353.3859999999998
 31
0.0
  0
LINE
  5
1C36
330
1E
100
AcDbEntity
  8
0
100
AcDbLine
 10
343.8199999999999
 20
353.3859999999998
 30
0.0
 11
345.2799999999999
 21
353.3859999999998
 31
0.0
  0
LINE
  5
1C37
330
1E
100
AcDbEntity
  8
0
100
AcDbLine
 10
343.8199999999999
 20
353.3859999999998
 30
0.0
 11
343.8199999999999
 21
354.289880406168
 31
0.0
  0
LINE
  5
1C38
330
1E
100
AcDbEntity
  8
0
100
AcDbLine
 10
355.3399999999999
 20
352.6379999999999
 30
0.0
 11
355.3399999999999
 21
354.2484577795949
 31
0.0
  0
LINE
  5
1C39
330
1E
100
AcDbEntity
  8
0
100
AcDbLine
 10
356.0699999999999
 20
353.5072637497449
 30
0.0
 11
356.0699999999999
 21
352.1039999999999
 31
0.0
  0
LINE
  5
1C3A
330
1E
100
AcDbEntity
  8
0
100
AcDbLine
 10
356.0699999999999
 20
352.1039999999999
 30
0.0
 11
356.0699999999999
 21
353.5072637497449
 31
0.0
  0
LINE
  5
1C3B
330
1E
100
AcDbEntity
  8
0
100
AcDbLine
 10
355.3399999999999
 20
354.2484577795949
 30
0.0
 11
355.3399999999999
 21
352.6379999999999
 31
0.0
  0
LINE
  5
1C3C
330
1E
100
AcDbEntity
  8
0
100
AcDbLine
 10
351.691
 20
342.7116323000508
 30
0.0
 11
351.691
 21
342.3629999999998
 31
0.0
  0
LINE
  5
1C3D
330
1E
100
AcDbEntity
  8
0
100
AcDbLine
 10
350.961
 20
341.8289999999999
 30
0.0
 11
351.691
 21
342.3629999999998
 31
0.0
  0
LINE
  5
1C3E
330
1E
100
AcDbEntity
  8
0
100
AcDbLine
 10
351.691
 20
342.3629999999998
 30
0.0
 11
351.691
 21
342.7116323000508
 31
0.0
  0
LINE
  5
1C3F
330
1E
100
AcDbEntity
  8
0
100
AcDbLine
 10
350.4259999999999
 20
343.5463729901219
 30
0.0
 11
350.4259999999999
 21
342.6719999999999
 31
0.0
  0
LINE
  5
1C40
330
1E
100
AcDbEntity
  8
0
100
AcDbLine
 10
350.8759999999999
 20
350.0292676591699
 30
0.0
 11
350.8759999999999
 21
348.9179999999998
 31
0.0
  0
LINE
  5
1C41
330
1E
100
AcDbEntity
  8
0
100
AcDbLine
 10
350.8759999999999
 20
348.302
 30
0.0
 11
350.8759999999999
 21
348.9179999999998
 31
0.0
  0
LINE
  5
1C42
330
1E
100
AcDbEntity
  8
0
100
AcDbLine
 10
350.8759999999999
 20
348.9179999999998
 30
0.0
 11
350.8759999999999
 21
348.302
 31
0.0
  0
LINE
  5
1C43
330
1E
100
AcDbEntity
  8
0
100
AcDbLine
 10
350.8759999999999
 20
348.9179999999998
 30
0.0
 11
350.8759999999999
 21
350.0292676591699
 31
0.0
  0
LINE
  5
1C44
330
1E
100
AcDbEntity
  8
0
100
AcDbLine
 10
350.4259999999999
 20
342.6719999999999
 30
0.0
 11
350.4259999999999
 21
343.5463729901219
 31
0.0
  0
LINE
  5
1C45
330
1E
100
AcDbEntity
  8
0
100
AcDbLine
 10
350.4259999999999
 20
342.6719999999999
 30
0.0
 11
351.691
 21
342.3629999999998
 31
0.0
  0
LINE
  5
1C46
330
1E
100
AcDbEntity
  8
0
100
AcDbLine
 10
349.6959999999999
 20
342.1379999999999
 30
0.0
 11
350.4259999999999
 21
342.6719999999999
 31
0.0
  0
LINE
  5
1C47
330
1E
100
AcDbEntity
  8
0
100
AcDbLine
 10
349.6959999999999
 20
342.1379999999999
 30
0.0
 11
349.6959999999999
 21
343.2564047155528
 31
0.0
  0
LINE
  5
1C48
330
1E
100
AcDbEntity
  8
0
100
AcDbLine
 10
349.6959999999999
 20
342.1379999999999
 30
0.0
 11
350.961
 21
341.8289999999999
 31
0.0
  0
LINE
  5
1C49
330
1E
100
AcDbEntity
  8
0
100
AcDbLine
 10
349.6959999999999
 20
343.2564047155528
 30
0.0
 11
349.6959999999999
 21
342.1379999999999
 31
0.0
  0
LINE
  5
1C4A
330
1E
100
AcDbEntity
  8
0
100
AcDbLine
 10
349.4159999999999
 20
348.302
 30
0.0
 11
350.8759999999999
 21
348.302
 31
0.0
  0
LINE
  5
1C4B
330
1E
100
AcDbEntity
  8
0
100
AcDbLine
 10
349.4159999999999
 20
348.302
 30
0.0
 11
349.4159999999999
 21
348.9179999999998
 31
0.0
  0
LINE
  5
1C4C
330
1E
100
AcDbEntity
  8
0
100
AcDbLine
 10
349.4159999999999
 20
348.302
 30
0.0
 11
349.4159999999999
 21
349.5169999999999
 31
0.0
  0
LINE
  5
1C4D
330
1E
100
AcDbEntity
  8
0
100
AcDbLine
 10
349.4159999999999
 20
348.9179999999998
 30
0.0
 11
350.8759999999999
 21
348.9179999999998
 31
0.0
  0
LINE
  5
1C4E
330
1E
100
AcDbEntity
  8
0
100
AcDbLine
 10
349.4159999999999
 20
348.9179999999998
 30
0.0
 11
349.4159999999999
 21
350.1112394678489
 31
0.0
  0
LINE
  5
1C4F
330
1E
100
AcDbEntity
  8
0
100
AcDbLine
 10
349.4159999999999
 20
348.9179999999998
 30
0.0
 11
349.4159999999999
 21
348.302
 31
0.0
  0
LINE
  5
1C50
330
1E
100
AcDbEntity
  8
0
100
AcDbLine
 10
349.4159999999999
 20
350.1112394678489
 30
0.0
 11
349.4159999999999
 21
348.9179999999998
 31
0.0
  0
LINE
  5
1C51
330
1E
100
AcDbEntity
  8
0
100
AcDbLine
 10
349.4159999999999
 20
349.5169999999999
 30
0.0
 11
349.4159999999999
 21
348.302
 31
0.0
  0
LINE
  5
1C52
330
1E
100
AcDbEntity
  8
0
100
AcDbLine
 10
347.3109999999999
 20
340.3558539133409
 30
0.0
 11
347.3109999999999
 21
339.6119999999999
 31
0.0
  0
LINE
  5
1C53
330
1E
100
AcDbEntity
  8
0
100
AcDbLine
 10
346.047
 20
339.9199999999998
 30
0.0
 11
347.3109999999999
 21
339.6119999999999
 31
0.0
  0
LINE
  5
1C54
330
1E
100
AcDbEntity
  8
0
100
AcDbLine
 10
346.5809999999998
 20
339.0759999999999
 30
0.0
 11
347.3109999999999
 21
339.6119999999999
 31
0.0
  0
LINE
  5
1C55
330
1E
100
AcDbEntity
  8
0
100
AcDbLine
 10
347.3109999999999
 20
339.6119999999999
 30
0.0
 11
347.3109999999999
 21
340.3558539133409
 31
0.0
  0
LINE
  5
1C56
330
1E
100
AcDbEntity
  8
0
100
AcDbLine
 10
355.3399999999999
 20
352.6379999999999
 30
0.0
 11
356.0699999999999
 21
352.1039999999999
 31
0.0
  0
LINE
  5
1C57
330
1E
100
AcDbEntity
  8
0
100
AcDbLine
 10
354.806
 20
351.7949999999998
 30
0.0
 11
356.0699999999999
 21
352.1039999999999
 31
0.0
  0
LINE
  5
1C58
330
1E
100
AcDbEntity
  8
0
100
AcDbLine
 10
357.4159999999999
 20
350.6089999999999
 30
0.0
 11
358.19
 21
350.8559999999998
 31
0.0
  0
LINE
  5
1C59
330
1E
100
AcDbEntity
  8
0
100
AcDbLine
 10
356.8319999999999
 20
350.2819999999999
 30
0.0
 11
357.4159999999999
 21
350.6089999999999
 31
0.0
  0
LINE
  5
1C5A
330
1E
100
AcDbEntity
  8
0
100
AcDbLine
 10
357.4159999999999
 20
347.5189999999999
 30
0.0
 11
358.19
 21
347.2719999999999
 31
0.0
  0
LINE
  5
1C5B
330
1E
100
AcDbEntity
  8
0
100
AcDbLine
 10
356.8319999999999
 20
347.8449999999998
 30
0.0
 11
357.4159999999999
 21
347.5189999999999
 31
0.0
  0
LINE
  5
1C5C
330
1E
100
AcDbEntity
  8
0
100
AcDbLine
 10
357.4159999999999
 20
349.702
 30
0.0
 11
358.19
 21
349.9489999999999
 31
0.0
  0
LINE
  5
1C5D
330
1E
100
AcDbEntity
  8
0
100
AcDbLine
 10
356.4819999999999
 20
348.2149999999998
 30
0.0
 11
356.8319999999999
 21
347.8449999999998
 31
0.0
  0
LINE
  5
1C5E
330
1E
100
AcDbEntity
  8
0
100
AcDbLine
 10
356.35
 20
348.6109999999998
 30
0.0
 11
356.35
 21
349.5169999999999
 31
0.0
  0
LINE
  5
1C5F
330
1E
100
AcDbEntity
  8
0
100
AcDbLine
 10
356.35
 20
348.6109999999998
 30
0.0
 11
356.4819999999999
 21
349.0049999999998
 31
0.0
  0
LINE
  5
1C60
330
1E
100
AcDbEntity
  8
0
100
AcDbLine
 10
356.35
 20
348.6109999999998
 30
0.0
 11
356.4819999999999
 21
348.2149999999998
 31
0.0
  0
LINE
  5
1C61
330
1E
100
AcDbEntity
  8
0
100
AcDbLine
 10
356.8319999999999
 20
349.3759999999998
 30
0.0
 11
357.4159999999999
 21
349.702
 31
0.0
  0
LINE
  5
1C62
330
1E
100
AcDbEntity
  8
0
100
AcDbLine
 10
356.4819999999999
 20
349.9119999999999
 30
0.0
 11
356.8319999999999
 21
350.2819999999999
 31
0.0
  0
LINE
  5
1C63
330
1E
100
AcDbEntity
  8
0
100
AcDbLine
 10
356.4819999999999
 20
349.0049999999998
 30
0.0
 11
356.8319999999999
 21
349.3759999999998
 31
0.0
  0
LINE
  5
1C64
330
1E
100
AcDbEntity
  8
0
100
AcDbLine
 10
356.35
 20
349.5169999999999
 30
0.0
 11
356.4819999999999
 21
349.9119999999999
 31
0.0
  0
LINE
  5
1C65
330
1E
100
AcDbEntity
  8
0
100
AcDbLine
 10
356.35
 20
349.5169999999999
 30
0.0
 11
356.35
 21
348.6109999999998
 31
0.0
  0
LINE
  5
1C66
330
1E
100
AcDbEntity
  8
0
100
AcDbLine
 10
354.806
 20
346.6383814139849
 30
0.0
 11
354.806
 21
345.4249999999998
 31
0.0
  0
LINE
  5
1C67
330
1E
100
AcDbEntity
  8
0
100
AcDbLine
 10
356.0699999999999
 20
346.6143700787399
 30
0.0
 11
356.0699999999999
 21
345.1159999999998
 31
0.0
  0
LINE
  5
1C68
330
1E
100
AcDbEntity
  8
0
100
AcDbLine
 10
355.3399999999999
 20
344.5819999999999
 30
0.0
 11
356.0699999999999
 21
345.1159999999998
 31
0.0
  0
LINE
  5
1C69
330
1E
100
AcDbEntity
  8
0
100
AcDbLine
 10
356.0699999999999
 20
345.1159999999998
 30
0.0
 11
356.0699999999999
 21
346.6143700787399
 31
0.0
  0
LINE
  5
1C6A
330
1E
100
AcDbEntity
  8
0
100
AcDbLine
 10
354.806
 20
345.4249999999998
 30
0.0
 11
354.806
 21
346.6383814139849
 31
0.0
  0
LINE
  5
1C6B
330
1E
100
AcDbEntity
  8
0
100
AcDbLine
 10
354.806
 20
345.4249999999998
 30
0.0
 11
356.0699999999999
 21
345.1159999999998
 31
0.0
  0
LINE
  5
1C6C
330
1E
100
AcDbEntity
  8
0
100
AcDbLine
 10
354.076
 20
352.3299999999998
 30
0.0
 11
354.076
 21
352.8001991728058
 31
0.0
  0
LINE
  5
1C6D
330
1E
100
AcDbEntity
  8
0
100
AcDbLine
 10
354.076
 20
352.3299999999998
 30
0.0
 11
354.806
 21
351.7949999999998
 31
0.0
  0
LINE
  5
1C6E
330
1E
100
AcDbEntity
  8
0
100
AcDbLine
 10
354.076
 20
352.3299999999998
 30
0.0
 11
355.3399999999999
 21
352.6379999999999
 31
0.0
  0
LINE
  5
1C6F
330
1E
100
AcDbEntity
  8
0
100
AcDbLine
 10
354.076
 20
352.8001991728058
 30
0.0
 11
354.076
 21
352.3299999999998
 31
0.0
  0
LINE
  5
1C70
330
1E
100
AcDbEntity
  8
0
100
AcDbLine
 10
354.1499999999999
 20
338.0169999999999
 30
0.0
 11
355.4139999999999
 21
338.3249999999998
 31
0.0
  0
LINE
  5
1C71
330
1E
100
AcDbEntity
  8
0
100
AcDbLine
 10
354.6839999999999
 20
338.8599999999998
 30
0.0
 11
355.4139999999999
 21
338.3249999999998
 31
0.0
  0
LINE
  5
1C72
330
1E
100
AcDbEntity
  8
0
100
AcDbLine
 10
354.076
 20
344.8909999999999
 30
0.0
 11
354.806
 21
345.4249999999998
 31
0.0
  0
LINE
  5
1C73
330
1E
100
AcDbEntity
  8
0
100
AcDbLine
 10
354.076
 20
344.8909999999999
 30
0.0
 11
354.076
 21
346.2338008271939
 31
0.0
  0
LINE
  5
1C74
330
1E
100
AcDbEntity
  8
0
100
AcDbLine
 10
354.076
 20
344.8909999999999
 30
0.0
 11
355.3399999999999
 21
344.5819999999999
 31
0.0
  0
LINE
  5
1C75
330
1E
100
AcDbEntity
  8
0
100
AcDbLine
 10
354.076
 20
346.2338008271939
 30
0.0
 11
354.076
 21
344.8909999999999
 31
0.0
  0
LINE
  5
1C76
330
1E
100
AcDbEntity
  8
0
100
AcDbLine
 10
353.42
 20
338.552
 30
0.0
 11
353.42
 21
338.9661246174028
 31
0.0
  0
LINE
  5
1C77
330
1E
100
AcDbEntity
  8
0
100
AcDbLine
 10
353.42
 20
338.552
 30
0.0
 11
354.1499999999999
 21
338.0169999999999
 31
0.0
  0
LINE
  5
1C78
330
1E
100
AcDbEntity
  8
0
100
AcDbLine
 10
353.42
 20
338.552
 30
0.0
 11
354.6839999999999
 21
338.8599999999998
 31
0.0
  0
LINE
  5
1C79
330
1E
100
AcDbEntity
  8
0
100
AcDbLine
 10
353.42
 20
338.9661246174028
 30
0.0
 11
353.42
 21
338.552
 31
0.0
  0
LINE
  5
1C7A
330
1E
100
AcDbEntity
  8
0
100
AcDbLine
 10
348.892
 20
365.5247272727269
 30
0.0
 11
348.892
 21
364.414
 31
0.0
  0
LINE
  5
1C7B
330
1E
100
AcDbEntity
  8
0
100
AcDbLine
 10
350.8869999999999
 20
365.2834836670178
 30
0.0
 11
350.8869999999999
 21
364.6399999999998
 31
0.0
  0
LINE
  5
1C7C
330
1E
100
AcDbEntity
  8
0
100
AcDbLine
 10
349.6219999999999
 20
365.0813468564148
 30
0.0
 11
349.6219999999999
 21
364.9479999999998
 31
0.0
  0
LINE
  5
1C7D
330
1E
100
AcDbEntity
  8
0
100
AcDbLine
 10
349.6219999999999
 20
364.9479999999998
 30
0.0
 11
349.6219999999999
 21
365.0813468564148
 31
0.0
  0
LINE
  5
1C7E
330
1E
100
AcDbEntity
  8
0
100
AcDbLine
 10
349.6219999999999
 20
364.9479999999998
 30
0.0
 11
350.8869999999999
 21
364.6399999999998
 31
0.0
  0
LINE
  5
1C7F
330
1E
100
AcDbEntity
  8
0
100
AcDbLine
 10
350.1569999999999
 20
364.1059999999999
 30
0.0
 11
350.8869999999999
 21
364.6399999999998
 31
0.0
  0
LINE
  5
1C80
330
1E
100
AcDbEntity
  8
0
100
AcDbLine
 10
350.8869999999999
 20
364.6399999999998
 30
0.0
 11
350.8869999999999
 21
365.2834836670178
 31
0.0
  0
LINE
  5
1C81
330
1E
100
AcDbEntity
  8
0
100
AcDbLine
 10
348.892
 20
364.414
 30
0.0
 11
348.892
 21
365.5247272727269
 31
0.0
  0
LINE
  5
1C82
330
1E
100
AcDbEntity
  8
0
100
AcDbLine
 10
348.892
 20
364.414
 30
0.0
 11
349.6219999999999
 21
364.9479999999998
 31
0.0
  0
LINE
  5
1C83
330
1E
100
AcDbEntity
  8
0
100
AcDbLine
 10
348.892
 20
364.414
 30
0.0
 11
350.1569999999999
 21
364.1059999999999
 31
0.0
  0
LINE
  5
1C84
330
1E
100
AcDbEntity
  8
0
100
AcDbLine
 10
346.5809999999998
 20
359.9559999999998
 30
0.0
 11
347.3109999999999
 21
359.4219999999999
 31
0.0
  0
LINE
  5
1C85
330
1E
100
AcDbEntity
  8
0
100
AcDbLine
 10
346.5809999999998
 20
359.9559999999998
 30
0.0
 11
346.5809999999998
 21
360.3937408802878
 31
0.0
  0
LINE
  5
1C86
330
1E
100
AcDbEntity
  8
0
100
AcDbLine
 10
346.5809999999998
 20
360.3937408802878
 30
0.0
 11
346.5809999999998
 21
359.9559999999998
 31
0.0
  0
LINE
  5
1C87
330
1E
100
AcDbEntity
  8
0
100
AcDbLine
 10
346.047
 20
359.1139999999999
 30
0.0
 11
347.3109999999999
 21
359.4219999999999
 31
0.0
  0
LINE
  5
1C88
330
1E
100
AcDbEntity
  8
0
100
AcDbLine
 10
347.3109999999999
 20
359.8877792430208
 30
0.0
 11
347.3109999999999
 21
359.4219999999999
 31
0.0
  0
LINE
  5
1C89
330
1E
100
AcDbEntity
  8
0
100
AcDbLine
 10
347.3109999999999
 20
359.4219999999999
 30
0.0
 11
347.3109999999999
 21
359.8877792430208
 31
0.0
  0
LINE
  5
1C8A
330
1E
100
AcDbEntity
  8
0
100
AcDbLine
 10
351.691
 20
356.8520094194208
 30
0.0
 11
351.691
 21
355.7629999999999
 31
0.0
  0
LINE
  5
1C8B
330
1E
100
AcDbEntity
  8
0
100
AcDbLine
 10
350.961
 20
357.3579710566878
 30
0.0
 11
350.961
 21
356.2969999999999
 31
0.0
  0
LINE
  5
1C8C
330
1E
100
AcDbEntity
  8
0
100
AcDbLine
 10
349.6959999999999
 20
355.9889999999999
 30
0.0
 11
349.6959999999999
 21
356.2927598961708
 31
0.0
  0
LINE
  5
1C8D
330
1E
100
AcDbEntity
  8
0
100
AcDbLine
 10
349.6959999999999
 20
355.9889999999999
 30
0.0
 11
350.4259999999999
 21
355.4549999999998
 31
0.0
  0
LINE
  5
1C8E
330
1E
100
AcDbEntity
  8
0
100
AcDbLine
 10
349.6959999999999
 20
355.9889999999999
 30
0.0
 11
350.961
 21
356.2969999999999
 31
0.0
  0
LINE
  5
1C8F
330
1E
100
AcDbEntity
  8
0
100
AcDbLine
 10
349.6959999999999
 20
356.2927598961708
 30
0.0
 11
349.6959999999999
 21
355.9889999999999
 31
0.0
  0
LINE
  5
1C90
330
1E
100
AcDbEntity
  8
0
100
AcDbLine
 10
350.961
 20
356.2969999999999
 30
0.0
 11
351.691
 21
355.7629999999999
 31
0.0
  0
LINE
  5
1C91
330
1E
100
AcDbEntity
  8
0
100
AcDbLine
 10
350.961
 20
356.2969999999999
 30
0.0
 11
350.961
 21
357.3579710566878
 31
0.0
  0
LINE
  5
1C92
330
1E
100
AcDbEntity
  8
0
100
AcDbLine
 10
351.691
 20
355.7629999999999
 30
0.0
 11
351.691
 21
356.8520094194208
 31
0.0
  0
LINE
  5
1C93
330
1E
100
AcDbEntity
  8
0
100
AcDbLine
 10
350.4259999999999
 20
355.4549999999998
 30
0.0
 11
351.691
 21
355.7629999999999
 31
0.0
  0
LINE
  5
1C94
330
1E
100
AcDbEntity
  8
0
100
AcDbLine
 10
358.0639999999999
 20
365.5009999999998
 30
0.0
 11
358.0639999999999
 21
366.5122695035459
 31
0.0
  0
LINE
  5
1C95
330
1E
100
AcDbEntity
  8
0
100
AcDbLine
 10
358.0639999999999
 20
366.5122695035459
 30
0.0
 11
358.0639999999999
 21
365.5009999999998
 31
0.0
  0
LINE
  5
1C96
330
1E
100
AcDbEntity
  8
0
100
AcDbLine
 10
357.334
 20
364.9669999999999
 30
0.0
 11
358.0639999999999
 21
365.5009999999998
 31
0.0
  0
LINE
  5
1C97
330
1E
100
AcDbEntity
  8
0
100
AcDbLine
 10
357.334
 20
364.9669999999999
 30
0.0
 11
358.599
 21
364.6589999999999
 31
0.0
  0
LINE
  5
1C98
330
1E
100
AcDbEntity
  8
0
100
AcDbLine
 10
353.42
 20
361.3619508817959
 30
0.0
 11
353.42
 21
360.4819999999999
 31
0.0
  0
LINE
  5
1C99
330
1E
100
AcDbEntity
  8
0
100
AcDbLine
 10
354.1499999999999
 20
361.0159999999999
 30
0.0
 11
355.4139999999999
 21
360.7079999999998
 31
0.0
  0
LINE
  5
1C9A
330
1E
100
AcDbEntity
  8
0
100
AcDbLine
 10
354.6839999999999
 20
360.1739999999999
 30
0.0
 11
355.4139999999999
 21
360.7079999999998
 31
0.0
  0
LINE
  5
1C9B
330
1E
100
AcDbEntity
  8
0
100
AcDbLine
 10
353.42
 20
360.4819999999999
 30
0.0
 11
353.42
 21
361.3619508817959
 31
0.0
  0
LINE
  5
1C9C
330
1E
100
AcDbEntity
  8
0
100
AcDbLine
 10
353.42
 20
360.4819999999999
 30
0.0
 11
354.1499999999999
 21
361.0159999999999
 31
0.0
  0
LINE
  5
1C9D
330
1E
100
AcDbEntity
  8
0
100
AcDbLine
 10
353.42
 20
360.4819999999999
 30
0.0
 11
354.6839999999999
 21
360.1739999999999
 31
0.0
  0
LINE
  5
1C9E
330
1E
100
AcDbEntity
  8
0
100
AcDbLine
 10
372.0
 20
324.1469999999999
 30
0.0
 11
372.0
 21
252.1114999999999
 31
0.0
  0
LINE
  5
1C9F
330
1E
100
AcDbEntity
  8
0
100
AcDbLine
 10
372.0
 20
252.1114999999999
 30
0.0
 11
372.0
 21
324.1469999999999
 31
0.0
  0
LINE
  5
1CA0
330
1E
100
AcDbEntity
  8
0
100
AcDbLine
 10
371.7567652279129
 20
250.8473126090299
 30
0.0
 11
371.7859999999999
 21
250.9805999999998
 31
0.0
  0
LINE
  5
1CA1
330
1E
100
AcDbEntity
  8
0
100
AcDbLine
 10
371.8198500162999
 20
251.1751892253409
 30
0.0
 11
372.0
 21
250.3422999999999
 31
0.0
  0
LINE
  5
1CA2
330
1E
100
AcDbEntity
  8
0
100
AcDbLine
 10
371.6159999999999
 20
250.1156999999999
 30
0.0
 11
372.0
 21
252.1114999999999
 31
0.0
  0
LINE
  5
1CA3
330
1E
100
AcDbEntity
  8
0
100
AcDbLine
 10
371.3569999999999
 20
249.0246999999999
 30
0.0
 11
371.5863590273589
 21
250.0703953883709
 31
0.0
  0
LINE
  5
1CA4
330
1E
100
AcDbEntity
  8
0
100
AcDbLine
 10
370.368
 20
248.2081999999999
 30
0.0
 11
371.6159999999999
 21
250.1156999999999
 31
0.0
  0
LINE
  5
1CA5
330
1E
100
AcDbEntity
  8
0
100
AcDbLine
 10
370.2
 20
247.2064999999999
 30
0.0
 11
371.3569999999999
 21
249.0246999999999
 31
0.0
  0
LINE
  5
1CA6
330
1E
100
AcDbEntity
  8
0
100
AcDbLine
 10
368.4479999999999
 20
246.6551999999999
 30
0.0
 11
370.368
 21
248.2081999999999
 31
0.0
  0
LINE
  5
1CA7
330
1E
100
AcDbEntity
  8
0
100
AcDbLine
 10
367.7759999999999
 20
246.3113999999999
 30
0.0
 11
368.4479999999999
 21
246.6551999999999
 31
0.0
  0
LINE
  5
1CA8
330
1E
100
AcDbEntity
  8
0
100
AcDbLine
 10
367.6761103396869
 20
246.2595085354039
 30
0.0
 11
367.7759999999999
 21
246.3113999999999
 31
0.0
  0
LINE
  5
1CA9
330
1E
100
AcDbEntity
  8
0
100
AcDbLine
 10
384.525
 20
333.2829999999999
 30
0.0
 11
389.927
 21
334.8249999999998
 31
0.0
  0
LINE
  5
1CAA
330
1E
100
AcDbEntity
  8
0
100
AcDbLine
 10
383.442
 20
334.0881437668849
 30
0.0
 11
388.613
 21
335.5659999999999
 31
0.0
  0
LINE
  5
1CAB
330
1E
100
AcDbEntity
  8
0
100
AcDbLine
 10
378.333
 20
337.1669999999999
 30
0.0
 11
378.333
 21
337.8731105944869
 31
0.0
  0
LINE
  5
1CAC
330
1E
100
AcDbEntity
  8
0
100
AcDbLine
 10
378.333
 20
337.8731105944869
 30
0.0
 11
378.333
 21
337.1669999999999
 31
0.0
  0
LINE
  5
1CAD
330
1E
100
AcDbEntity
  8
0
100
AcDbLine
 10
377.0689999999999
 20
336.8589999999999
 30
0.0
 11
377.0689999999999
 21
337.9641326143979
 31
0.0
  0
LINE
  5
1CAE
330
1E
100
AcDbEntity
  8
0
100
AcDbLine
 10
377.0689999999999
 20
337.9641326143979
 30
0.0
 11
377.0689999999999
 21
336.8589999999999
 31
0.0
  0
LINE
  5
1CAF
330
1E
100
AcDbEntity
  8
0
100
AcDbLine
 10
372.4089999999999
 20
331.2469999999999
 30
0.0
 11
378.832
 21
332.1419999999999
 31
0.0
  0
LINE
  5
1CB0
330
1E
100
AcDbEntity
  8
0
100
AcDbLine
 10
372.2509999999999
 20
332.5349999999998
 30
0.0
 11
372.9819999999999
 21
332.0009999999998
 31
0.0
  0
LINE
  5
1CB1
330
1E
100
AcDbEntity
  8
0
100
AcDbLine
 10
372.2509999999999
 20
332.5349999999998
 30
0.0
 11
373.5159999999999
 21
332.8429999999998
 31
0.0
  0
LINE
  5
1CB2
330
1E
100
AcDbEntity
  8
0
100
AcDbLine
 10
371.6159999999999
 20
321.0579999999998
 30
0.0
 11
372.0
 21
324.1469999999999
 31
0.0
  0
LINE
  5
1CB3
330
1E
100
AcDbEntity
  8
0
100
AcDbLine
 10
368.3519999999999
 20
321.9399999999998
 30
0.0
 11
368.6399999999999
 21
324.1469999999999
 31
0.0
  0
LINE
  5
1CB4
330
1E
100
AcDbEntity
  8
0
100
AcDbLine
 10
364.32
 20
316.5559999999999
 30
0.0
 11
366.144
 21
317.9679999999998
 31
0.0
  0
LINE
  5
1CB5
330
1E
100
AcDbEntity
  8
0
100
AcDbLine
 10
363.072
 20
312.4077999999999
 30
0.0
 11
365.952
 21
313.6437999999999
 31
0.0
  0
LINE
  5
1CB6
330
1E
100
AcDbEntity
  8
0
100
AcDbLine
 10
362.208
 20
315.7619999999999
 30
0.0
 11
364.32
 21
316.5559999999999
 31
0.0
  0
LINE
  5
1CB7
330
1E
100
AcDbEntity
  8
0
100
AcDbLine
 10
360.0
 20
315.409
 30
0.0
 11
362.208
 21
315.7619999999999
 31
0.0
  0
LINE
  5
1CB8
330
1E
100
AcDbEntity
  8
0
100
AcDbLine
 10
360.0
 20
311.9667999999999
 30
0.0
 11
363.072
 21
312.4077999999999
 31
0.0
  0
LINE
  5
1CB9
330
1E
100
AcDbEntity
  8
0
100
AcDbLine
 10
370.368
 20
318.1449999999998
 30
0.0
 11
371.6159999999999
 21
321.0579999999998
 31
0.0
  0
LINE
  5
1CBA
330
1E
100
AcDbEntity
  8
0
100
AcDbLine
 10
368.4479999999999
 20
315.5859999999999
 30
0.0
 11
370.368
 21
318.1449999999998
 31
0.0
  0
LINE
  5
1CBB
330
1E
100
AcDbEntity
  8
0
100
AcDbLine
 10
367.488
 20
319.822
 30
0.0
 11
368.3519999999999
 21
321.9399999999998
 31
0.0
  0
LINE
  5
1CBC
330
1E
100
AcDbEntity
  8
0
100
AcDbLine
 10
366.144
 20
317.9679999999998
 30
0.0
 11
367.488
 21
319.822
 31
0.0
  0
LINE
  5
1CBD
330
1E
100
AcDbEntity
  8
0
100
AcDbLine
 10
365.952
 20
313.6437999999999
 30
0.0
 11
368.4479999999999
 21
315.5859999999999
 31
0.0
  0
LINE
  5
1CBE
330
1E
100
AcDbEntity
  8
0
100
AcDbLine
 10
364.216
 20
331.557718891038
 30
0.0
 11
366.204
 21
331.6169999999999
 31
0.0
  0
LINE
  5
1CBF
330
1E
100
AcDbEntity
  8
0
100
AcDbLine
 10
360.0
 20
330.5069999999999
 30
0.0
 11
366.35
 21
330.7229999999998
 31
0.0
  0
LINE
  5
1CC0
330
1E
100
AcDbEntity
  8
0
100
AcDbLine
 10
364.216
 20
331.557718891038
 30
0.0
 11
364.216
 21
331.4849999999998
 31
0.0
  0
LINE
  5
1CC1
330
1E
100
AcDbEntity
  8
0
100
AcDbLine
 10
363.4859999999999
 20
332.0189999999998
 30
0.0
 11
364.216
 21
331.4849999999998
 31
0.0
  0
LINE
  5
1CC2
330
1E
100
AcDbEntity
  8
0
100
AcDbLine
 10
362.2219999999999
 20
331.7109999999999
 30
0.0
 11
362.9519999999999
 21
331.1759999999999
 31
0.0
  0
LINE
  5
1CC3
330
1E
100
AcDbEntity
  8
0
100
AcDbLine
 10
362.2219999999999
 20
331.7109999999999
 30
0.0
 11
363.4859999999999
 21
332.0189999999998
 31
0.0
  0
LINE
  5
1CC4
330
1E
100
AcDbEntity
  8
0
100
AcDbLine
 10
362.9519999999999
 20
331.1759999999999
 30
0.0
 11
364.216
 21
331.4849999999998
 31
0.0
  0
LINE
  5
1CC5
330
1E
100
AcDbEntity
  8
0
100
AcDbLine
 10
364.216
 20
331.4849999999998
 30
0.0
 11
364.216
 21
331.557718891038
 31
0.0
  0
LINE
  5
1CC6
330
1E
100
AcDbEntity
  8
0
100
AcDbLine
 10
360.0
 20
331.432
 30
0.0
 11
362.500933000211
 21
331.5065764998448
 31
0.0
  0
LINE
  5
1CC7
330
1E
100
AcDbEntity
  8
0
100
AcDbLine
 10
359.329
 20
335.8710957446808
 30
0.0
 11
359.329
 21
334.7469999999999
 31
0.0
  0
LINE
  5
1CC8
330
1E
100
AcDbEntity
  8
0
100
AcDbLine
 10
359.329
 20
334.7469999999999
 30
0.0
 11
359.329
 21
335.8710957446808
 31
0.0
  0
LINE
  5
1CC9
330
1E
100
AcDbEntity
  8
0
100
AcDbLine
 10
371.6159999999999
 20
327.3239999999999
 30
0.0
 11
372.0
 21
324.1469999999999
 31
0.0
  0
LINE
  5
1CCA
330
1E
100
AcDbEntity
  8
0
100
AcDbLine
 10
371.3869999999999
 20
332.1419999999999
 30
0.0
 11
372.5816118353979
 21
332.2934860190118
 31
0.0
  0
LINE
  5
1CCB
330
1E
100
AcDbEntity
  8
0
100
AcDbLine
 10
368.6399999999999
 20
330.9210458821588
 30
0.0
 11
368.6399999999999
 21
324.1469999999999
 31
0.0
  0
LINE
  5
1CCC
330
1E
100
AcDbEntity
  8
0
100
AcDbLine
 10
369.7802560833849
 20
331.019658555487
 30
0.0
 11
370.368
 21
330.2359999999998
 31
0.0
  0
LINE
  5
1CCD
330
1E
100
AcDbEntity
  8
0
100
AcDbLine
 10
369.9259999999999
 20
336.306051401869
 30
0.0
 11
369.9259999999999
 21
335.1549999999998
 31
0.0
  0
LINE
  5
1CCE
330
1E
100
AcDbEntity
  8
0
100
AcDbLine
 10
369.9259999999999
 20
335.1549999999998
 30
0.0
 11
369.9259999999999
 21
336.306051401869
 31
0.0
  0
LINE
  5
1CCF
330
1E
100
AcDbEntity
  8
0
100
AcDbLine
 10
368.6609999999999
 20
334.8469999999999
 30
0.0
 11
369.9259999999999
 21
335.1549999999998
 31
0.0
  0
LINE
  5
1CD0
330
1E
100
AcDbEntity
  8
0
100
AcDbLine
 10
369.196
 20
335.6899999999998
 30
0.0
 11
369.196
 21
336.6088742565839
 31
0.0
  0
LINE
  5
1CD1
330
1E
100
AcDbEntity
  8
0
100
AcDbLine
 10
369.196
 20
335.6899999999998
 30
0.0
 11
369.9259999999999
 21
335.1549999999998
 31
0.0
  0
LINE
  5
1CD2
330
1E
100
AcDbEntity
  8
0
100
AcDbLine
 10
369.196
 20
336.6088742565839
 30
0.0
 11
369.196
 21
335.6899999999998
 31
0.0
  0
LINE
  5
1CD3
330
1E
100
AcDbEntity
  8
0
100
AcDbLine
 10
367.932
 20
335.3809999999998
 30
0.0
 11
368.6609999999999
 21
334.8469999999999
 31
0.0
  0
LINE
  5
1CD4
330
1E
100
AcDbEntity
  8
0
100
AcDbLine
 10
367.932
 20
335.3809999999998
 30
0.0
 11
369.196
 21
335.6899999999998
 31
0.0
  0
LINE
  5
1CD5
330
1E
100
AcDbEntity
  8
0
100
AcDbLine
 10
368.6399999999999
 20
324.1469999999999
 30
0.0
 11
368.6399999999999
 21
330.9210458821588
 31
0.0
  0
LINE
  5
1CD6
330
1E
100
AcDbEntity
  8
0
100
AcDbLine
 10
370.368
 20
330.2359999999998
 30
0.0
 11
371.6159999999999
 21
327.3239999999999
 31
0.0
  0
LINE
  5
1CD7
330
1E
100
AcDbEntity
  8
0
100
AcDbLine
 10
366.35
 20
330.7229999999998
 30
0.0
 11
372.4089999999999
 21
331.2469999999999
 31
0.0
  0
LINE
  5
1CD8
330
1E
100
AcDbEntity
  8
0
100
AcDbLine
 10
366.204
 20
331.6169999999999
 30
0.0
 11
371.3869999999999
 21
332.1419999999999
 31
0.0
  0
LINE
  5
1CD9
330
1E
100
AcDbEntity
  8
0
100
AcDbLine
 10
378.832
 20
332.1419999999999
 30
0.0
 11
384.525
 21
333.2829999999999
 31
0.0
  0
LINE
  5
1CDA
330
1E
100
AcDbEntity
  8
0
100
AcDbLine
 10
377.956
 20
332.9749999999997
 30
0.0
 11
381.9008064516129
 21
333.7747689792308
 31
0.0
  0
LINE
  5
1CDB
330
1E
100
AcDbEntity
  8
0
100
AcDbLine
 10
379.063
 20
337.7092788110259
 30
0.0
 11
379.063
 21
336.6329999999999
 31
0.0
  0
LINE
  5
1CDC
330
1E
100
AcDbEntity
  8
0
100
AcDbLine
 10
379.063
 20
336.6329999999999
 30
0.0
 11
379.063
 21
337.7092788110259
 31
0.0
  0
LINE
  5
1CDD
330
1E
100
AcDbEntity
  8
0
100
AcDbLine
 10
378.333
 20
337.1669999999999
 30
0.0
 11
379.063
 21
336.6329999999999
 31
0.0
  0
LINE
  5
1CDE
330
1E
100
AcDbEntity
  8
0
100
AcDbLine
 10
377.7979999999999
 20
336.3239999999999
 30
0.0
 11
379.063
 21
336.6329999999999
 31
0.0
  0
LINE
  5
1CDF
330
1E
100
AcDbEntity
  8
0
100
AcDbLine
 10
377.0689999999999
 20
336.8589999999999
 30
0.0
 11
377.7979999999999
 21
336.3239999999999
 31
0.0
  0
LINE
  5
1CE0
330
1E
100
AcDbEntity
  8
0
100
AcDbLine
 10
377.0689999999999
 20
336.8589999999999
 30
0.0
 11
378.333
 21
337.1669999999999
 31
0.0
  0
LINE
  5
1CE1
330
1E
100
AcDbEntity
  8
0
100
AcDbLine
 10
374.2459999999999
 20
332.5045433094838
 30
0.0
 11
374.2459999999999
 21
332.3089999999999
 31
0.0
  0
LINE
  5
1CE2
330
1E
100
AcDbEntity
  8
0
100
AcDbLine
 10
374.2459999999999
 20
332.5045433094838
 30
0.0
 11
377.956
 21
332.9749999999997
 31
0.0
  0
LINE
  5
1CE3
330
1E
100
AcDbEntity
  8
0
100
AcDbLine
 10
372.9819999999999
 20
332.0009999999998
 30
0.0
 11
374.2459999999999
 21
332.3089999999999
 31
0.0
  0
LINE
  5
1CE4
330
1E
100
AcDbEntity
  8
0
100
AcDbLine
 10
374.2459999999999
 20
332.3089999999999
 30
0.0
 11
374.2459999999999
 21
332.5045433094838
 31
0.0
  0
LINE
  5
1CE5
330
1E
100
AcDbEntity
  8
0
100
AcDbLine
 10
373.5159999999999
 20
332.8429999999998
 30
0.0
 11
374.2459999999999
 21
332.3089999999999
 31
0.0
  0
LINE
  5
1CE6
330
1E
100
AcDbEntity
  8
0
100
AcDbLine
 10
383.442
 20
334.0881437668849
 30
0.0
 11
383.442
 21
333.8799999999999
 31
0.0
  0
LINE
  5
1CE7
330
1E
100
AcDbEntity
  8
0
100
AcDbLine
 10
383.442
 20
333.8799999999999
 30
0.0
 11
383.442
 21
334.0881437668849
 31
0.0
  0
LINE
  5
1CE8
330
1E
100
AcDbEntity
  8
0
100
AcDbLine
 10
382.178
 20
333.572
 30
0.0
 11
383.442
 21
333.8799999999999
 31
0.0
  0
LINE
  5
1CE9
330
1E
100
AcDbEntity
  8
0
100
AcDbLine
 10
382.7119999999999
 20
334.4139999999999
 30
0.0
 11
382.7119999999999
 21
334.5233993004949
 31
0.0
  0
LINE
  5
1CEA
330
1E
100
AcDbEntity
  8
0
100
AcDbLine
 10
382.7119999999999
 20
334.4139999999999
 30
0.0
 11
383.442
 21
333.8799999999999
 31
0.0
  0
LINE
  5
1CEB
330
1E
100
AcDbEntity
  8
0
100
AcDbLine
 10
382.7119999999999
 20
334.5233993004949
 30
0.0
 11
382.7119999999999
 21
334.4139999999999
 31
0.0
  0
LINE
  5
1CEC
330
1E
100
AcDbEntity
  8
0
100
AcDbLine
 10
381.4479999999999
 20
334.7098390493939
 30
0.0
 11
381.4479999999999
 21
334.1059999999998
 31
0.0
  0
LINE
  5
1CED
330
1E
100
AcDbEntity
  8
0
100
AcDbLine
 10
381.4479999999999
 20
334.1059999999998
 30
0.0
 11
381.4479999999999
 21
334.7098390493939
 31
0.0
  0
LINE
  5
1CEE
330
1E
100
AcDbEntity
  8
0
100
AcDbLine
 10
381.4479999999999
 20
334.1059999999998
 30
0.0
 11
382.178
 21
333.572
 31
0.0
  0
LINE
  5
1CEF
330
1E
100
AcDbEntity
  8
0
100
AcDbLine
 10
381.4479999999999
 20
334.1059999999998
 30
0.0
 11
382.7119999999999
 21
334.4139999999999
 31
0.0
  0
LINE
  5
1CF0
330
1E
100
AcDbEntity
  8
0
100
AcDbLine
 10
372.6889999999999
 20
339.6119999999999
 30
0.0
 11
373.4189999999999
 21
339.0759999999999
 31
0.0
  0
LINE
  5
1CF1
330
1E
100
AcDbEntity
  8
0
100
AcDbLine
 10
372.6889999999999
 20
339.6119999999999
 30
0.0
 11
373.9529999999999
 21
339.9199999999998
 31
0.0
  0
LINE
  5
1CF2
330
1E
100
AcDbEntity
  8
0
100
AcDbLine
 10
372.6889999999999
 20
359.4219999999999
 30
0.0
 11
373.4189999999999
 21
359.9559999999998
 31
0.0
  0
LINE
  5
1CF3
330
1E
100
AcDbEntity
  8
0
100
AcDbLine
 10
372.6889999999999
 20
359.4219999999999
 30
0.0
 11
373.9529999999999
 21
359.1139999999999
 31
0.0
  0
LINE
  5
1CF4
330
1E
100
AcDbEntity
  8
0
100
AcDbLine
 10
372.2509999999999
 20
368.3109999999999
 30
0.0
 11
373.5159999999999
 21
368.0019999999999
 31
0.0
  0
LINE
  5
1CF5
330
1E
100
AcDbEntity
  8
0
100
AcDbLine
 10
364.6599999999999
 20
352.6379999999999
 30
0.0
 11
364.6599999999999
 21
354.2484577795949
 31
0.0
  0
LINE
  5
1CF6
330
1E
100
AcDbEntity
  8
0
100
AcDbLine
 10
363.9299999999999
 20
352.1039999999999
 30
0.0
 11
363.9299999999999
 21
353.5072637497438
 31
0.0
  0
LINE
  5
1CF7
330
1E
100
AcDbEntity
  8
0
100
AcDbLine
 10
363.9299999999999
 20
353.5072637497438
 30
0.0
 11
363.9299999999999
 21
352.1039999999999
 31
0.0
  0
LINE
  5
1CF8
330
1E
100
AcDbEntity
  8
0
100
AcDbLine
 10
364.6599999999999
 20
354.2484577795949
 30
0.0
 11
364.6599999999999
 21
352.6379999999999
 31
0.0
  0
LINE
  5
1CF9
330
1E
100
AcDbEntity
  8
0
100
AcDbLine
 10
364.6599999999999
 20
352.6379999999999
 30
0.0
 11
365.924
 21
352.3299999999998
 31
0.0
  0
LINE
  5
1CFA
330
1E
100
AcDbEntity
  8
0
100
AcDbLine
 10
365.1939999999999
 20
351.7949999999998
 30
0.0
 11
365.924
 21
352.3299999999998
 31
0.0
  0
LINE
  5
1CFB
330
1E
100
AcDbEntity
  8
0
100
AcDbLine
 10
364.6599999999999
 20
344.5819999999999
 30
0.0
 11
365.924
 21
344.8909999999999
 31
0.0
  0
LINE
  5
1CFC
330
1E
100
AcDbEntity
  8
0
100
AcDbLine
 10
365.1939999999999
 20
345.4249999999998
 30
0.0
 11
365.924
 21
344.8909999999999
 31
0.0
  0
LINE
  5
1CFD
330
1E
100
AcDbEntity
  8
0
100
AcDbLine
 10
360.9339999999999
 20
350.0969999999999
 30
0.0
 11
361.8099999999999
 21
349.9489999999999
 31
0.0
  0
LINE
  5
1CFE
330
1E
100
AcDbEntity
  8
0
100
AcDbLine
 10
360.9339999999999
 20
351.0039999999999
 30
0.0
 11
361.8099999999999
 21
350.8559999999998
 31
0.0
  0
LINE
  5
1CFF
330
1E
100
AcDbEntity
  8
0
100
AcDbLine
 10
361.8099999999999
 20
350.8559999999998
 30
0.0
 11
362.584
 21
350.6089999999999
 31
0.0
  0
LINE
  5
1D00
330
1E
100
AcDbEntity
  8
0
100
AcDbLine
 10
363.9299999999999
 20
352.1039999999999
 30
0.0
 11
364.6599999999999
 21
352.6379999999999
 31
0.0
  0
LINE
  5
1D01
330
1E
100
AcDbEntity
  8
0
100
AcDbLine
 10
363.9299999999999
 20
352.1039999999999
 30
0.0
 11
365.1939999999999
 21
351.7949999999998
 31
0.0
  0
LINE
  5
1D02
330
1E
100
AcDbEntity
  8
0
100
AcDbLine
 10
362.584
 20
350.6089999999999
 30
0.0
 11
363.168
 21
350.2819999999999
 31
0.0
  0
LINE
  5
1D03
330
1E
100
AcDbEntity
  8
0
100
AcDbLine
 10
363.168
 20
350.2819999999999
 30
0.0
 11
363.518
 21
349.9119999999999
 31
0.0
  0
LINE
  5
1D04
330
1E
100
AcDbEntity
  8
0
100
AcDbLine
 10
361.8099999999999
 20
349.9489999999999
 30
0.0
 11
362.584
 21
349.702
 31
0.0
  0
LINE
  5
1D05
330
1E
100
AcDbEntity
  8
0
100
AcDbLine
 10
362.584
 20
349.702
 30
0.0
 11
363.168
 21
349.3759999999998
 31
0.0
  0
LINE
  5
1D06
330
1E
100
AcDbEntity
  8
0
100
AcDbLine
 10
363.518
 20
349.9119999999999
 30
0.0
 11
363.6499999999999
 21
349.5169999999999
 31
0.0
  0
LINE
  5
1D07
330
1E
100
AcDbEntity
  8
0
100
AcDbLine
 10
363.168
 20
349.3759999999998
 30
0.0
 11
363.518
 21
349.0049999999998
 31
0.0
  0
LINE
  5
1D08
330
1E
100
AcDbEntity
  8
0
100
AcDbLine
 10
363.518
 20
349.0049999999998
 30
0.0
 11
363.6499999999999
 21
348.6109999999998
 31
0.0
  0
LINE
  5
1D09
330
1E
100
AcDbEntity
  8
0
100
AcDbLine
 10
363.6499999999999
 20
349.5169999999999
 30
0.0
 11
363.6499999999999
 21
348.6109999999998
 31
0.0
  0
LINE
  5
1D0A
330
1E
100
AcDbEntity
  8
0
100
AcDbLine
 10
363.518
 20
348.2149999999998
 30
0.0
 11
363.6499999999999
 21
348.6109999999998
 31
0.0
  0
LINE
  5
1D0B
330
1E
100
AcDbEntity
  8
0
100
AcDbLine
 10
363.6499999999999
 20
348.6109999999998
 30
0.0
 11
363.6499999999999
 21
349.5169999999999
 31
0.0
  0
LINE
  5
1D0C
330
1E
100
AcDbEntity
  8
0
100
AcDbLine
 10
365.1939999999999
 20
345.4249999999998
 30
0.0
 11
365.1939999999999
 21
346.6383814139849
 31
0.0
  0
LINE
  5
1D0D
330
1E
100
AcDbEntity
  8
0
100
AcDbLine
 10
365.1939999999999
 20
346.6383814139849
 30
0.0
 11
365.1939999999999
 21
345.4249999999998
 31
0.0
  0
LINE
  5
1D0E
330
1E
100
AcDbEntity
  8
0
100
AcDbLine
 10
365.124
 20
338.8339999999999
 30
0.0
 11
365.854
 21
338.2999999999998
 31
0.0
  0
LINE
  5
1D0F
330
1E
100
AcDbEntity
  8
0
100
AcDbLine
 10
363.9299999999999
 20
345.1159999999998
 30
0.0
 11
363.9299999999999
 21
346.6143700787399
 31
0.0
  0
LINE
  5
1D10
330
1E
100
AcDbEntity
  8
0
100
AcDbLine
 10
363.9299999999999
 20
345.1159999999998
 30
0.0
 11
364.6599999999999
 21
344.5819999999999
 31
0.0
  0
LINE
  5
1D11
330
1E
100
AcDbEntity
  8
0
100
AcDbLine
 10
363.9299999999999
 20
345.1159999999998
 30
0.0
 11
365.1939999999999
 21
345.4249999999998
 31
0.0
  0
LINE
  5
1D12
330
1E
100
AcDbEntity
  8
0
100
AcDbLine
 10
363.9299999999999
 20
346.6143700787399
 30
0.0
 11
363.9299999999999
 21
345.1159999999998
 31
0.0
  0
LINE
  5
1D13
330
1E
100
AcDbEntity
  8
0
100
AcDbLine
 10
364.59
 20
337.9909999999998
 30
0.0
 11
365.854
 21
338.2999999999998
 31
0.0
  0
LINE
  5
1D14
330
1E
100
AcDbEntity
  8
0
100
AcDbLine
 10
363.86
 20
338.5249999999998
 30
0.0
 11
364.59
 21
337.9909999999998
 31
0.0
  0
LINE
  5
1D15
330
1E
100
AcDbEntity
  8
0
100
AcDbLine
 10
363.86
 20
338.5249999999998
 30
0.0
 11
365.124
 21
338.8339999999999
 31
0.0
  0
LINE
  5
1D16
330
1E
100
AcDbEntity
  8
0
100
AcDbLine
 10
362.584
 20
347.5189999999999
 30
0.0
 11
363.168
 21
347.8449999999998
 31
0.0
  0
LINE
  5
1D17
330
1E
100
AcDbEntity
  8
0
100
AcDbLine
 10
363.168
 20
347.8449999999998
 30
0.0
 11
363.518
 21
348.2149999999998
 31
0.0
  0
LINE
  5
1D18
330
1E
100
AcDbEntity
  8
0
100
AcDbLine
 10
360.9339999999999
 20
347.1229999999999
 30
0.0
 11
361.8099999999999
 21
347.2719999999999
 31
0.0
  0
LINE
  5
1D19
330
1E
100
AcDbEntity
  8
0
100
AcDbLine
 10
361.8099999999999
 20
347.2719999999999
 30
0.0
 11
362.584
 21
347.5189999999999
 31
0.0
  0
LINE
  5
1D1A
330
1E
100
AcDbEntity
  8
0
100
AcDbLine
 10
360.0
 20
350.1519999999999
 30
0.0
 11
360.9339999999999
 21
350.0969999999999
 31
0.0
  0
LINE
  5
1D1B
330
1E
100
AcDbEntity
  8
0
100
AcDbLine
 10
360.0
 20
351.0589999999999
 30
0.0
 11
360.9339999999999
 21
351.0039999999999
 31
0.0
  0
LINE
  5
1D1C
330
1E
100
AcDbEntity
  8
0
100
AcDbLine
 10
359.066
 20
351.0039999999999
 30
0.0
 11
360.0
 21
351.0589999999999
 31
0.0
  0
LINE
  5
1D1D
330
1E
100
AcDbEntity
  8
0
100
AcDbLine
 10
360.0
 20
347.0679999999998
 30
0.0
 11
360.9339999999999
 21
347.1229999999999
 31
0.0
  0
LINE
  5
1D1E
330
1E
100
AcDbEntity
  8
0
100
AcDbLine
 10
359.066
 20
347.1229999999999
 30
0.0
 11
360.0
 21
347.0679999999998
 31
0.0
  0
LINE
  5
1D1F
330
1E
100
AcDbEntity
  8
0
100
AcDbLine
 10
359.066
 20
350.0969999999999
 30
0.0
 11
360.0
 21
350.1519999999999
 31
0.0
  0
LINE
  5
1D20
330
1E
100
AcDbEntity
  8
0
100
AcDbLine
 10
359.2319999999999
 20
340.9799999999999
 30
0.0
 11
360.4959999999999
 21
341.2879999999999
 31
0.0
  0
LINE
  5
1D21
330
1E
100
AcDbEntity
  8
0
100
AcDbLine
 10
359.7659999999999
 20
341.8229999999998
 30
0.0
 11
360.4959999999999
 21
341.2879999999999
 31
0.0
  0
LINE
  5
1D22
330
1E
100
AcDbEntity
  8
0
100
AcDbLine
 10
372.6889999999999
 20
339.6119999999999
 30
0.0
 11
372.6889999999999
 21
340.3558539133409
 31
0.0
  0
LINE
  5
1D23
330
1E
100
AcDbEntity
  8
0
100
AcDbLine
 10
372.6889999999999
 20
340.3558539133409
 30
0.0
 11
372.6889999999999
 21
339.6119999999999
 31
0.0
  0
LINE
  5
1D24
330
1E
100
AcDbEntity
  8
0
100
AcDbLine
 10
370.3039999999999
 20
343.2564047155528
 30
0.0
 11
370.3039999999999
 21
342.1379999999999
 31
0.0
  0
LINE
  5
1D25
330
1E
100
AcDbEntity
  8
0
100
AcDbLine
 10
370.584
 20
348.9179999999998
 30
0.0
 11
370.584
 21
350.1112394678489
 31
0.0
  0
LINE
  5
1D26
330
1E
100
AcDbEntity
  8
0
100
AcDbLine
 10
370.584
 20
348.9179999999998
 30
0.0
 11
370.584
 21
348.302
 31
0.0
  0
LINE
  5
1D27
330
1E
100
AcDbEntity
  8
0
100
AcDbLine
 10
370.584
 20
350.1112394678489
 30
0.0
 11
370.584
 21
348.9179999999998
 31
0.0
  0
LINE
  5
1D28
330
1E
100
AcDbEntity
  8
0
100
AcDbLine
 10
370.584
 20
348.302
 30
0.0
 11
370.584
 21
348.9179999999998
 31
0.0
  0
LINE
  5
1D29
330
1E
100
AcDbEntity
  8
0
100
AcDbLine
 10
370.3039999999999
 20
342.1379999999999
 30
0.0
 11
370.3039999999999
 21
343.2564047155528
 31
0.0
  0
LINE
  5
1D2A
330
1E
100
AcDbEntity
  8
0
100
AcDbLine
 10
369.0389999999999
 20
341.8289999999999
 30
0.0
 11
370.3039999999999
 21
342.1379999999999
 31
0.0
  0
LINE
  5
1D2B
330
1E
100
AcDbEntity
  8
0
100
AcDbLine
 10
369.574
 20
342.6719999999999
 30
0.0
 11
369.574
 21
343.5463729901219
 31
0.0
  0
LINE
  5
1D2C
330
1E
100
AcDbEntity
  8
0
100
AcDbLine
 10
369.574
 20
342.6719999999999
 30
0.0
 11
370.3039999999999
 21
342.1379999999999
 31
0.0
  0
LINE
  5
1D2D
330
1E
100
AcDbEntity
  8
0
100
AcDbLine
 10
369.574
 20
343.5463729901219
 30
0.0
 11
369.574
 21
342.6719999999999
 31
0.0
  0
LINE
  5
1D2E
330
1E
100
AcDbEntity
  8
0
100
AcDbLine
 10
369.124
 20
348.9179999999998
 30
0.0
 11
369.124
 21
348.302
 31
0.0
  0
LINE
  5
1D2F
330
1E
100
AcDbEntity
  8
0
100
AcDbLine
 10
369.124
 20
348.9179999999998
 30
0.0
 11
369.124
 21
350.0292676591699
 31
0.0
  0
LINE
  5
1D30
330
1E
100
AcDbEntity
  8
0
100
AcDbLine
 10
369.124
 20
348.9179999999998
 30
0.0
 11
370.584
 21
348.9179999999998
 31
0.0
  0
LINE
  5
1D31
330
1E
100
AcDbEntity
  8
0
100
AcDbLine
 10
369.124
 20
350.0292676591699
 30
0.0
 11
369.124
 21
348.9179999999998
 31
0.0
  0
LINE
  5
1D32
330
1E
100
AcDbEntity
  8
0
100
AcDbLine
 10
369.124
 20
348.302
 30
0.0
 11
369.124
 21
349.5169999999999
 31
0.0
  0
LINE
  5
1D33
330
1E
100
AcDbEntity
  8
0
100
AcDbLine
 10
369.124
 20
348.302
 30
0.0
 11
370.584
 21
348.302
 31
0.0
  0
LINE
  5
1D34
330
1E
100
AcDbEntity
  8
0
100
AcDbLine
 10
369.124
 20
348.302
 30
0.0
 11
369.124
 21
348.9179999999998
 31
0.0
  0
LINE
  5
1D35
330
1E
100
AcDbEntity
  8
0
100
AcDbLine
 10
369.124
 20
349.5169999999999
 30
0.0
 11
369.124
 21
348.302
 31
0.0
  0
LINE
  5
1D36
330
1E
100
AcDbEntity
  8
0
100
AcDbLine
 10
368.3089999999999
 20
342.3629999999998
 30
0.0
 11
368.3089999999999
 21
342.7116323000508
 31
0.0
  0
LINE
  5
1D37
330
1E
100
AcDbEntity
  8
0
100
AcDbLine
 10
368.3089999999999
 20
342.3629999999998
 30
0.0
 11
369.0389999999999
 21
341.8289999999999
 31
0.0
  0
LINE
  5
1D38
330
1E
100
AcDbEntity
  8
0
100
AcDbLine
 10
368.3089999999999
 20
342.3629999999998
 30
0.0
 11
369.574
 21
342.6719999999999
 31
0.0
  0
LINE
  5
1D39
330
1E
100
AcDbEntity
  8
0
100
AcDbLine
 10
368.3089999999999
 20
342.7116323000508
 30
0.0
 11
368.3089999999999
 21
342.3629999999998
 31
0.0
  0
LINE
  5
1D3A
330
1E
100
AcDbEntity
  8
0
100
AcDbLine
 10
365.924
 20
346.2338008271939
 30
0.0
 11
365.924
 21
344.8909999999999
 31
0.0
  0
LINE
  5
1D3B
330
1E
100
AcDbEntity
  8
0
100
AcDbLine
 10
365.924
 20
352.8001991728058
 30
0.0
 11
365.924
 21
352.3299999999998
 31
0.0
  0
LINE
  5
1D3C
330
1E
100
AcDbEntity
  8
0
100
AcDbLine
 10
365.924
 20
352.3299999999998
 30
0.0
 11
365.924
 21
352.8001991728058
 31
0.0
  0
LINE
  5
1D3D
330
1E
100
AcDbEntity
  8
0
100
AcDbLine
 10
365.924
 20
344.8909999999999
 30
0.0
 11
365.924
 21
346.2338008271939
 31
0.0
  0
LINE
  5
1D3E
330
1E
100
AcDbEntity
  8
0
100
AcDbLine
 10
365.124
 20
360.1989999999999
 30
0.0
 11
365.854
 21
360.7329999999998
 31
0.0
  0
LINE
  5
1D3F
330
1E
100
AcDbEntity
  8
0
100
AcDbLine
 10
364.59
 20
361.0419999999999
 30
0.0
 11
365.854
 21
360.7329999999998
 31
0.0
  0
LINE
  5
1D40
330
1E
100
AcDbEntity
  8
0
100
AcDbLine
 10
363.86
 20
360.5079999999999
 30
0.0
 11
364.59
 21
361.0419999999999
 31
0.0
  0
LINE
  5
1D41
330
1E
100
AcDbEntity
  8
0
100
AcDbLine
 10
363.86
 20
360.5079999999999
 30
0.0
 11
365.124
 21
360.1989999999999
 31
0.0
  0
LINE
  5
1D42
330
1E
100
AcDbEntity
  8
0
100
AcDbLine
 10
359.2319999999999
 20
357.1469999999999
 30
0.0
 11
360.4959999999999
 21
356.8379999999998
 31
0.0
  0
LINE
  5
1D43
330
1E
100
AcDbEntity
  8
0
100
AcDbLine
 10
359.7659999999999
 20
356.3029999999999
 30
0.0
 11
360.4959999999999
 21
356.8379999999998
 31
0.0
  0
LINE
  5
1D44
330
1E
100
AcDbEntity
  8
0
100
AcDbLine
 10
372.6889999999999
 20
359.4219999999999
 30
0.0
 11
372.6889999999999
 21
359.8877792430208
 31
0.0
  0
LINE
  5
1D45
330
1E
100
AcDbEntity
  8
0
100
AcDbLine
 10
372.6889999999999
 20
359.8877792430208
 30
0.0
 11
372.6889999999999
 21
359.4219999999999
 31
0.0
  0
LINE
  5
1D46
330
1E
100
AcDbEntity
  8
0
100
AcDbLine
 10
369.0389999999999
 20
356.2969999999999
 30
0.0
 11
369.0389999999999
 21
357.3579710566878
 31
0.0
  0
LINE
  5
1D47
330
1E
100
AcDbEntity
  8
0
100
AcDbLine
 10
369.0389999999999
 20
356.2969999999999
 30
0.0
 11
370.3039999999999
 21
355.9889999999999
 31
0.0
  0
LINE
  5
1D48
330
1E
100
AcDbEntity
  8
0
100
AcDbLine
 10
370.3039999999999
 20
356.2927598961708
 30
0.0
 11
370.3039999999999
 21
355.9889999999999
 31
0.0
  0
LINE
  5
1D49
330
1E
100
AcDbEntity
  8
0
100
AcDbLine
 10
369.196
 20
364.2489999999999
 30
0.0
 11
369.9259999999999
 21
364.7839999999999
 31
0.0
  0
LINE
  5
1D4A
330
1E
100
AcDbEntity
  8
0
100
AcDbLine
 10
369.574
 20
355.4549999999998
 30
0.0
 11
370.3039999999999
 21
355.9889999999999
 31
0.0
  0
LINE
  5
1D4B
330
1E
100
AcDbEntity
  8
0
100
AcDbLine
 10
370.3039999999999
 20
355.9889999999999
 30
0.0
 11
370.3039999999999
 21
356.2927598961708
 31
0.0
  0
LINE
  5
1D4C
330
1E
100
AcDbEntity
  8
0
100
AcDbLine
 10
368.3089999999999
 20
355.7629999999999
 30
0.0
 11
368.3089999999999
 21
356.8520094194208
 31
0.0
  0
LINE
  5
1D4D
330
1E
100
AcDbEntity
  8
0
100
AcDbLine
 10
368.3089999999999
 20
355.7629999999999
 30
0.0
 11
369.0389999999999
 21
356.2969999999999
 31
0.0
  0
LINE
  5
1D4E
330
1E
100
AcDbEntity
  8
0
100
AcDbLine
 10
368.3089999999999
 20
355.7629999999999
 30
0.0
 11
369.574
 21
355.4549999999998
 31
0.0
  0
LINE
  5
1D4F
330
1E
100
AcDbEntity
  8
0
100
AcDbLine
 10
368.3089999999999
 20
356.8520094194208
 30
0.0
 11
368.3089999999999
 21
355.7629999999999
 31
0.0
  0
LINE
  5
1D50
330
1E
100
AcDbEntity
  8
0
100
AcDbLine
 10
369.0389999999999
 20
357.3579710566878
 30
0.0
 11
369.0389999999999
 21
356.2969999999999
 31
0.0
  0
LINE
  5
1D51
330
1E
100
AcDbEntity
  8
0
100
AcDbLine
 10
368.6609999999999
 20
365.0919999999999
 30
0.0
 11
369.9259999999999
 21
364.7839999999999
 31
0.0
  0
LINE
  5
1D52
330
1E
100
AcDbEntity
  8
0
100
AcDbLine
 10
367.932
 20
364.5579999999998
 30
0.0
 11
368.6609999999999
 21
365.0919999999999
 31
0.0
  0
LINE
  5
1D53
330
1E
100
AcDbEntity
  8
0
100
AcDbLine
 10
367.932
 20
364.5579999999998
 30
0.0
 11
369.196
 21
364.2489999999999
 31
0.0
  0
LINE
  5
1D54
330
1E
100
AcDbEntity
  8
0
100
AcDbLine
 10
385.9119999999999
 20
352.9819999999999
 30
0.0
 11
385.9119999999999
 21
353.5989999999999
 31
0.0
  0
LINE
  5
1D55
330
1E
100
AcDbEntity
  8
0
100
AcDbLine
 10
385.9119999999999
 20
353.5989999999999
 30
0.0
 11
385.9119999999999
 21
352.9819999999999
 31
0.0
  0
LINE
  5
1D56
330
1E
100
AcDbEntity
  8
0
100
AcDbLine
 10
384.452
 20
352.9819999999999
 30
0.0
 11
384.452
 21
353.5989999999999
 31
0.0
  0
LINE
  5
1D57
330
1E
100
AcDbEntity
  8
0
100
AcDbLine
 10
384.452
 20
353.5989999999999
 30
0.0
 11
384.452
 21
352.9819999999999
 31
0.0
  0
LINE
  5
1D58
330
1E
100
AcDbEntity
  8
0
100
AcDbLine
 10
376.1799999999999
 20
352.7689999999998
 30
0.0
 11
376.1799999999999
 21
353.3859999999998
 31
0.0
  0
LINE
  5
1D59
330
1E
100
AcDbEntity
  8
0
100
AcDbLine
 10
376.1799999999999
 20
353.3859999999998
 30
0.0
 11
376.1799999999999
 21
352.7689999999998
 31
0.0
  0
LINE
  5
1D5A
330
1E
100
AcDbEntity
  8
0
100
AcDbLine
 10
374.72
 20
352.7689999999998
 30
0.0
 11
374.72
 21
353.3859999999998
 31
0.0
  0
LINE
  5
1D5B
330
1E
100
AcDbEntity
  8
0
100
AcDbLine
 10
374.72
 20
352.7689999999998
 30
0.0
 11
374.72
 21
353.2730674818839
 31
0.0
  0
LINE
  5
1D5C
330
1E
100
AcDbEntity
  8
0
100
AcDbLine
 10
374.72
 20
353.2730674818839
 30
0.0
 11
374.72
 21
352.7689999999998
 31
0.0
  0
LINE
  5
1D5D
330
1E
100
AcDbEntity
  8
0
100
AcDbLine
 10
374.72
 20
353.3859999999998
 30
0.0
 11
374.72
 21
352.7689999999998
 31
0.0
  0
LINE
  5
1D5E
330
1E
100
AcDbEntity
  8
0
100
AcDbLine
 10
379.1799999999999
 20
342.2429999999998
 30
0.0
 11
380.64
 21
342.2429999999998
 31
0.0
  0
LINE
  5
1D5F
330
1E
100
AcDbEntity
  8
0
100
AcDbLine
 10
379.1799999999999
 20
341.6259999999998
 30
0.0
 11
380.64
 21
341.6259999999998
 31
0.0
  0
LINE
  5
1D60
330
1E
100
AcDbEntity
  8
0
100
AcDbLine
 10
379.343
 20
349.3709999999998
 30
0.0
 11
379.343
 21
350.2902661776139
 31
0.0
  0
LINE
  5
1D61
330
1E
100
AcDbEntity
  8
0
100
AcDbLine
 10
379.343
 20
349.3709999999998
 30
0.0
 11
379.343
 21
348.7549999999998
 31
0.0
  0
LINE
  5
1D62
330
1E
100
AcDbEntity
  8
0
100
AcDbLine
 10
379.343
 20
350.2902661776139
 30
0.0
 11
379.343
 21
349.3709999999998
 31
0.0
  0
LINE
  5
1D63
330
1E
100
AcDbEntity
  8
0
100
AcDbLine
 10
379.343
 20
348.7549999999998
 30
0.0
 11
379.343
 21
349.3709999999998
 31
0.0
  0
LINE
  5
1D64
330
1E
100
AcDbEntity
  8
0
100
AcDbLine
 10
379.1799999999999
 20
342.2429999999998
 30
0.0
 11
379.1799999999999
 21
341.6259999999998
 31
0.0
  0
LINE
  5
1D65
330
1E
100
AcDbEntity
  8
0
100
AcDbLine
 10
379.1799999999999
 20
342.2429999999998
 30
0.0
 11
379.1799999999999
 21
343.4489312086378
 31
0.0
  0
LINE
  5
1D66
330
1E
100
AcDbEntity
  8
0
100
AcDbLine
 10
379.1799999999999
 20
343.4489312086378
 30
0.0
 11
379.1799999999999
 21
342.2429999999998
 31
0.0
  0
LINE
  5
1D67
330
1E
100
AcDbEntity
  8
0
100
AcDbLine
 10
379.1799999999999
 20
341.6259999999998
 30
0.0
 11
379.1799999999999
 21
342.048645410292
 31
0.0
  0
LINE
  5
1D68
330
1E
100
AcDbEntity
  8
0
100
AcDbLine
 10
379.1799999999999
 20
341.6259999999998
 30
0.0
 11
379.1799999999999
 21
342.2429999999998
 31
0.0
  0
LINE
  5
1D69
330
1E
100
AcDbEntity
  8
0
100
AcDbLine
 10
379.1799999999999
 20
342.048645410292
 30
0.0
 11
379.1799999999999
 21
341.6259999999998
 31
0.0
  0
LINE
  5
1D6A
330
1E
100
AcDbEntity
  8
0
100
AcDbLine
 10
377.883
 20
349.3709999999998
 30
0.0
 11
377.883
 21
348.7549999999998
 31
0.0
  0
LINE
  5
1D6B
330
1E
100
AcDbEntity
  8
0
100
AcDbLine
 10
377.883
 20
349.3709999999998
 30
0.0
 11
377.883
 21
350.2762931888848
 31
0.0
  0
LINE
  5
1D6C
330
1E
100
AcDbEntity
  8
0
100
AcDbLine
 10
377.883
 20
349.3709999999998
 30
0.0
 11
379.343
 21
349.3709999999998
 31
0.0
  0
LINE
  5
1D6D
330
1E
100
AcDbEntity
  8
0
100
AcDbLine
 10
377.883
 20
350.2762931888848
 30
0.0
 11
377.883
 21
349.3709999999998
 31
0.0
  0
LINE
  5
1D6E
330
1E
100
AcDbEntity
  8
0
100
AcDbLine
 10
377.883
 20
349.7434778354048
 30
0.0
 11
377.883
 21
348.7549999999998
 31
0.0
  0
LINE
  5
1D6F
330
1E
100
AcDbEntity
  8
0
100
AcDbLine
 10
377.883
 20
348.7549999999998
 30
0.0
 11
377.883
 21
349.7434778354048
 31
0.0
  0
LINE
  5
1D70
330
1E
100
AcDbEntity
  8
0
100
AcDbLine
 10
377.883
 20
348.7549999999998
 30
0.0
 11
379.343
 21
348.7549999999998
 31
0.0
  0
LINE
  5
1D71
330
1E
100
AcDbEntity
  8
0
100
AcDbLine
 10
377.883
 20
348.7549999999998
 30
0.0
 11
377.883
 21
349.3709999999998
 31
0.0
  0
LINE
  5
1D72
330
1E
100
AcDbEntity
  8
0
100
AcDbLine
 10
374.72
 20
352.7689999999998
 30
0.0
 11
376.1799999999999
 21
352.7689999999998
 31
0.0
  0
LINE
  5
1D73
330
1E
100
AcDbEntity
  8
0
100
AcDbLine
 10
374.683
 20
339.4793325178588
 30
0.0
 11
374.683
 21
339.3849999999998
 31
0.0
  0
LINE
  5
1D74
330
1E
100
AcDbEntity
  8
0
100
AcDbLine
 10
376.1799999999999
 20
345.3569999999999
 30
0.0
 11
376.1799999999999
 21
346.3700817401079
 31
0.0
  0
LINE
  5
1D75
330
1E
100
AcDbEntity
  8
0
100
AcDbLine
 10
376.1799999999999
 20
345.3569999999999
 30
0.0
 11
376.1799999999999
 21
344.7399999999999
 31
0.0
  0
LINE
  5
1D76
330
1E
100
AcDbEntity
  8
0
100
AcDbLine
 10
376.1799999999999
 20
346.3700817401079
 30
0.0
 11
376.1799999999999
 21
345.3569999999999
 31
0.0
  0
LINE
  5
1D77
330
1E
100
AcDbEntity
  8
0
100
AcDbLine
 10
374.72
 20
345.3569999999999
 30
0.0
 11
374.72
 21
344.7399999999999
 31
0.0
  0
LINE
  5
1D78
330
1E
100
AcDbEntity
  8
0
100
AcDbLine
 10
374.72
 20
345.3569999999999
 30
0.0
 11
374.72
 21
346.1317905344198
 31
0.0
  0
LINE
  5
1D79
330
1E
100
AcDbEntity
  8
0
100
AcDbLine
 10
374.72
 20
345.3569999999999
 30
0.0
 11
376.1799999999999
 21
345.3569999999999
 31
0.0
  0
LINE
  5
1D7A
330
1E
100
AcDbEntity
  8
0
100
AcDbLine
 10
376.1799999999999
 20
344.7399999999999
 30
0.0
 11
376.1799999999999
 21
345.3569999999999
 31
0.0
  0
LINE
  5
1D7B
330
1E
100
AcDbEntity
  8
0
100
AcDbLine
 10
374.72
 20
346.1317905344198
 30
0.0
 11
374.72
 21
345.3569999999999
 31
0.0
  0
LINE
  5
1D7C
330
1E
100
AcDbEntity
  8
0
100
AcDbLine
 10
374.72
 20
344.7399999999999
 30
0.0
 11
374.72
 21
345.5522867350779
 31
0.0
  0
LINE
  5
1D7D
330
1E
100
AcDbEntity
  8
0
100
AcDbLine
 10
374.72
 20
344.7399999999999
 30
0.0
 11
376.1799999999999
 21
344.7399999999999
 31
0.0
  0
LINE
  5
1D7E
330
1E
100
AcDbEntity
  8
0
100
AcDbLine
 10
374.72
 20
344.7399999999999
 30
0.0
 11
374.72
 21
345.3569999999999
 31
0.0
  0
LINE
  5
1D7F
330
1E
100
AcDbEntity
  8
0
100
AcDbLine
 10
374.72
 20
345.5522867350779
 30
0.0
 11
374.72
 21
344.7399999999999
 31
0.0
  0
LINE
  5
1D80
330
1E
100
AcDbEntity
  8
0
100
AcDbLine
 10
374.683
 20
339.3849999999998
 30
0.0
 11
374.683
 21
339.4793325178588
 31
0.0
  0
LINE
  5
1D81
330
1E
100
AcDbEntity
  8
0
100
AcDbLine
 10
373.4189999999999
 20
339.0759999999999
 30
0.0
 11
374.683
 21
339.3849999999998
 31
0.0
  0
LINE
  5
1D82
330
1E
100
AcDbEntity
  8
0
100
AcDbLine
 10
373.9529999999999
 20
339.9199999999998
 30
0.0
 11
374.683
 21
339.3849999999998
 31
0.0
  0
LINE
  5
1D83
330
1E
100
AcDbEntity
  8
0
100
AcDbLine
 10
385.5049999999999
 20
339.2989999999999
 30
0.0
 11
385.5049999999999
 21
339.8357347919438
 31
0.0
  0
LINE
  5
1D84
330
1E
100
AcDbEntity
  8
0
100
AcDbLine
 10
385.5049999999999
 20
339.2989999999999
 30
0.0
 11
385.5049999999999
 21
338.682
 31
0.0
  0
LINE
  5
1D85
330
1E
100
AcDbEntity
  8
0
100
AcDbLine
 10
385.5049999999999
 20
339.8357347919438
 30
0.0
 11
385.5049999999999
 21
339.2989999999999
 31
0.0
  0
LINE
  5
1D86
330
1E
100
AcDbEntity
  8
0
100
AcDbLine
 10
385.9119999999999
 20
346.0499999999998
 30
0.0
 11
385.9119999999999
 21
347.0058894145479
 31
0.0
  0
LINE
  5
1D87
330
1E
100
AcDbEntity
  8
0
100
AcDbLine
 10
385.9119999999999
 20
346.0499999999998
 30
0.0
 11
385.9119999999999
 21
345.4339999999999
 31
0.0
  0
LINE
  5
1D88
330
1E
100
AcDbEntity
  8
0
100
AcDbLine
 10
385.9119999999999
 20
347.0058894145479
 30
0.0
 11
385.9119999999999
 21
346.0499999999998
 31
0.0
  0
LINE
  5
1D89
330
1E
100
AcDbEntity
  8
0
100
AcDbLine
 10
385.9119999999999
 20
345.4339999999999
 30
0.0
 11
385.9119999999999
 21
346.0499999999998
 31
0.0
  0
LINE
  5
1D8A
330
1E
100
AcDbEntity
  8
0
100
AcDbLine
 10
385.5049999999999
 20
338.682
 30
0.0
 11
385.5049999999999
 21
339.2989999999999
 31
0.0
  0
LINE
  5
1D8B
330
1E
100
AcDbEntity
  8
0
100
AcDbLine
 10
384.452
 20
352.9819999999999
 30
0.0
 11
384.452
 21
353.1157370392269
 31
0.0
  0
LINE
  5
1D8C
330
1E
100
AcDbEntity
  8
0
100
AcDbLine
 10
384.452
 20
352.9819999999999
 30
0.0
 11
385.9119999999999
 21
352.9819999999999
 31
0.0
  0
LINE
  5
1D8D
330
1E
100
AcDbEntity
  8
0
100
AcDbLine
 10
384.452
 20
353.1157370392269
 30
0.0
 11
384.452
 21
352.9819999999999
 31
0.0
  0
LINE
  5
1D8E
330
1E
100
AcDbEntity
  8
0
100
AcDbLine
 10
384.0449999999999
 20
339.2989999999999
 30
0.0
 11
384.0449999999999
 21
338.682
 31
0.0
  0
LINE
  5
1D8F
330
1E
100
AcDbEntity
  8
0
100
AcDbLine
 10
384.0449999999999
 20
339.2989999999999
 30
0.0
 11
384.0449999999999
 21
340.3174258255798
 31
0.0
  0
LINE
  5
1D90
330
1E
100
AcDbEntity
  8
0
100
AcDbLine
 10
384.0449999999999
 20
339.2989999999999
 30
0.0
 11
385.5049999999999
 21
339.2989999999999
 31
0.0
  0
LINE
  5
1D91
330
1E
100
AcDbEntity
  8
0
100
AcDbLine
 10
384.452
 20
346.0499999999998
 30
0.0
 11
384.452
 21
345.4339999999999
 31
0.0
  0
LINE
  5
1D92
330
1E
100
AcDbEntity
  8
0
100
AcDbLine
 10
384.452
 20
346.0499999999998
 30
0.0
 11
384.452
 21
347.0515773703918
 31
0.0
  0
LINE
  5
1D93
330
1E
100
AcDbEntity
  8
0
100
AcDbLine
 10
384.452
 20
346.0499999999998
 30
0.0
 11
385.9119999999999
 21
346.0499999999998
 31
0.0
  0
LINE
  5
1D94
330
1E
100
AcDbEntity
  8
0
100
AcDbLine
 10
384.452
 20
347.0515773703918
 30
0.0
 11
384.452
 21
346.0499999999998
 31
0.0
  0
LINE
  5
1D95
330
1E
100
AcDbEntity
  8
0
100
AcDbLine
 10
384.452
 20
345.4339999999999
 30
0.0
 11
384.452
 21
345.8407587939699
 31
0.0
  0
LINE
  5
1D96
330
1E
100
AcDbEntity
  8
0
100
AcDbLine
 10
384.452
 20
345.4339999999999
 30
0.0
 11
385.9119999999999
 21
345.4339999999999
 31
0.0
  0
LINE
  5
1D97
330
1E
100
AcDbEntity
  8
0
100
AcDbLine
 10
384.452
 20
345.4339999999999
 30
0.0
 11
384.452
 21
346.0499999999998
 31
0.0
  0
LINE
  5
1D98
330
1E
100
AcDbEntity
  8
0
100
AcDbLine
 10
384.452
 20
345.8407587939699
 30
0.0
 11
384.452
 21
345.4339999999999
 31
0.0
  0
LINE
  5
1D99
330
1E
100
AcDbEntity
  8
0
100
AcDbLine
 10
384.0449999999999
 20
340.3174258255798
 30
0.0
 11
384.0449999999999
 21
339.2989999999999
 31
0.0
  0
LINE
  5
1D9A
330
1E
100
AcDbEntity
  8
0
100
AcDbLine
 10
384.0449999999999
 20
338.682
 30
0.0
 11
385.5049999999999
 21
338.682
 31
0.0
  0
LINE
  5
1D9B
330
1E
100
AcDbEntity
  8
0
100
AcDbLine
 10
384.0449999999999
 20
338.682
 30
0.0
 11
384.0449999999999
 21
339.2989999999999
 31
0.0
  0
LINE
  5
1D9C
330
1E
100
AcDbEntity
  8
0
100
AcDbLine
 10
380.64
 20
342.2429999999998
 30
0.0
 11
380.64
 21
343.1257580982239
 31
0.0
  0
LINE
  5
1D9D
330
1E
100
AcDbEntity
  8
0
100
AcDbLine
 10
380.64
 20
342.2429999999998
 30
0.0
 11
380.64
 21
341.6259999999998
 31
0.0
  0
LINE
  5
1D9E
330
1E
100
AcDbEntity
  8
0
100
AcDbLine
 10
380.64
 20
343.1257580982239
 30
0.0
 11
380.64
 21
342.2429999999998
 31
0.0
  0
LINE
  5
1D9F
330
1E
100
AcDbEntity
  8
0
100
AcDbLine
 10
380.64
 20
341.6259999999998
 30
0.0
 11
380.64
 21
342.2429999999998
 31
0.0
  0
LINE
  5
1DA0
330
1E
100
AcDbEntity
  8
0
100
AcDbLine
 10
379.1799999999999
 20
357.4069999999999
 30
0.0
 11
380.64
 21
357.4069999999999
 31
0.0
  0
LINE
  5
1DA1
330
1E
100
AcDbEntity
  8
0
100
AcDbLine
 10
379.1799999999999
 20
356.7899999999998
 30
0.0
 11
380.64
 21
356.7899999999998
 31
0.0
  0
LINE
  5
1DA2
330
1E
100
AcDbEntity
  8
0
100
AcDbLine
 10
379.063
 20
363.5119393889069
 30
0.0
 11
379.063
 21
363.307
 31
0.0
  0
LINE
  5
1DA3
330
1E
100
AcDbEntity
  8
0
100
AcDbLine
 10
379.1799999999999
 20
357.4069999999999
 30
0.0
 11
379.1799999999999
 21
358.2606931154377
 31
0.0
  0
LINE
  5
1DA4
330
1E
100
AcDbEntity
  8
0
100
AcDbLine
 10
379.1799999999999
 20
357.4069999999999
 30
0.0
 11
379.1799999999999
 21
356.7899999999998
 31
0.0
  0
LINE
  5
1DA5
330
1E
100
AcDbEntity
  8
0
100
AcDbLine
 10
379.1799999999999
 20
358.2606931154377
 30
0.0
 11
379.1799999999999
 21
357.4069999999999
 31
0.0
  0
LINE
  5
1DA6
330
1E
100
AcDbEntity
  8
0
100
AcDbLine
 10
379.1799999999999
 20
356.7899999999998
 30
0.0
 11
379.1799999999999
 21
357.4069999999999
 31
0.0
  0
LINE
  5
1DA7
330
1E
100
AcDbEntity
  8
0
100
AcDbLine
 10
379.063
 20
363.307
 30
0.0
 11
379.063
 21
363.5119393889069
 31
0.0
  0
LINE
  5
1DA8
330
1E
100
AcDbEntity
  8
0
100
AcDbLine
 10
378.333
 20
362.7719999999999
 30
0.0
 11
379.063
 21
363.307
 31
0.0
  0
LINE
  5
1DA9
330
1E
100
AcDbEntity
  8
0
100
AcDbLine
 10
377.7979999999999
 20
363.6149999999998
 30
0.0
 11
379.063
 21
363.307
 31
0.0
  0
LINE
  5
1DAA
330
1E
100
AcDbEntity
  8
0
100
AcDbLine
 10
377.0689999999999
 20
363.0799999999998
 30
0.0
 11
377.7979999999999
 21
363.6149999999998
 31
0.0
  0
LINE
  5
1DAB
330
1E
100
AcDbEntity
  8
0
100
AcDbLine
 10
377.0689999999999
 20
363.0799999999998
 30
0.0
 11
378.333
 21
362.7719999999999
 31
0.0
  0
LINE
  5
1DAC
330
1E
100
AcDbEntity
  8
0
100
AcDbLine
 10
373.4189999999999
 20
359.9559999999998
 30
0.0
 11
373.4189999999999
 21
360.3937408802878
 31
0.0
  0
LINE
  5
1DAD
330
1E
100
AcDbEntity
  8
0
100
AcDbLine
 10
373.4189999999999
 20
359.9559999999998
 30
0.0
 11
374.683
 21
359.6479999999999
 31
0.0
  0
LINE
  5
1DAE
330
1E
100
AcDbEntity
  8
0
100
AcDbLine
 10
374.683
 20
361.0318789509739
 30
0.0
 11
374.683
 21
359.6479999999999
 31
0.0
  0
LINE
  5
1DAF
330
1E
100
AcDbEntity
  8
0
100
AcDbLine
 10
373.9529999999999
 20
359.1139999999999
 30
0.0
 11
374.683
 21
359.6479999999999
 31
0.0
  0
LINE
  5
1DB0
330
1E
100
AcDbEntity
  8
0
100
AcDbLine
 10
374.683
 20
359.6479999999999
 30
0.0
 11
374.683
 21
361.0318789509739
 31
0.0
  0
LINE
  5
1DB1
330
1E
100
AcDbEntity
  8
0
100
AcDbLine
 10
376.1799999999999
 20
353.3859999999998
 30
0.0
 11
376.1799999999999
 21
354.289880406168
 31
0.0
  0
LINE
  5
1DB2
330
1E
100
AcDbEntity
  8
0
100
AcDbLine
 10
376.1799999999999
 20
354.289880406168
 30
0.0
 11
376.1799999999999
 21
353.3859999999998
 31
0.0
  0
LINE
  5
1DB3
330
1E
100
AcDbEntity
  8
0
100
AcDbLine
 10
374.72
 20
353.9259981733199
 30
0.0
 11
374.72
 21
353.3859999999998
 31
0.0
  0
LINE
  5
1DB4
330
1E
100
AcDbEntity
  8
0
100
AcDbLine
 10
374.72
 20
353.3859999999998
 30
0.0
 11
374.72
 21
353.9259981733199
 31
0.0
  0
LINE
  5
1DB5
330
1E
100
AcDbEntity
  8
0
100
AcDbLine
 10
374.72
 20
353.3859999999998
 30
0.0
 11
376.1799999999999
 21
353.3859999999998
 31
0.0
  0
LINE
  5
1DB6
330
1E
100
AcDbEntity
  8
0
100
AcDbLine
 10
373.4189999999999
 20
360.3937408802878
 30
0.0
 11
373.4189999999999
 21
359.9559999999998
 31
0.0
  0
LINE
  5
1DB7
330
1E
100
AcDbEntity
  8
0
100
AcDbLine
 10
385.9119999999999
 20
353.5989999999999
 30
0.0
 11
385.9119999999999
 21
354.734077492727
 31
0.0
  0
LINE
  5
1DB8
330
1E
100
AcDbEntity
  8
0
100
AcDbLine
 10
385.9119999999999
 20
354.734077492727
 30
0.0
 11
385.9119999999999
 21
353.5989999999999
 31
0.0
  0
LINE
  5
1DB9
330
1E
100
AcDbEntity
  8
0
100
AcDbLine
 10
385.5049999999999
 20
360.6399999999998
 30
0.0
 11
385.5049999999999
 21
361.2569999999999
 31
0.0
  0
LINE
  5
1DBA
330
1E
100
AcDbEntity
  8
0
100
AcDbLine
 10
385.5049999999999
 20
361.2569999999999
 30
0.0
 11
385.5049999999999
 21
360.6399999999998
 31
0.0
  0
LINE
  5
1DBB
330
1E
100
AcDbEntity
  8
0
100
AcDbLine
 10
385.5049999999999
 20
361.2569999999999
 30
0.0
 11
385.5049999999999
 21
361.393700541867
 31
0.0
  0
LINE
  5
1DBC
330
1E
100
AcDbEntity
  8
0
100
AcDbLine
 10
385.5049999999999
 20
361.393700541867
 30
0.0
 11
385.5049999999999
 21
361.2569999999999
 31
0.0
  0
LINE
  5
1DBD
330
1E
100
AcDbEntity
  8
0
100
AcDbLine
 10
384.452
 20
353.5989999999999
 30
0.0
 11
384.452
 21
354.4091782597199
 31
0.0
  0
LINE
  5
1DBE
330
1E
100
AcDbEntity
  8
0
100
AcDbLine
 10
384.452
 20
353.5989999999999
 30
0.0
 11
385.9119999999999
 21
353.5989999999999
 31
0.0
  0
LINE
  5
1DBF
330
1E
100
AcDbEntity
  8
0
100
AcDbLine
 10
384.452
 20
354.4091782597199
 30
0.0
 11
384.452
 21
353.5989999999999
 31
0.0
  0
LINE
  5
1DC0
330
1E
100
AcDbEntity
  8
0
100
AcDbLine
 10
384.0449999999999
 20
360.6399999999998
 30
0.0
 11
384.0449999999999
 21
361.2569999999999
 31
0.0
  0
LINE
  5
1DC1
330
1E
100
AcDbEntity
  8
0
100
AcDbLine
 10
384.0449999999999
 20
360.6399999999998
 30
0.0
 11
385.5049999999999
 21
360.6399999999998
 31
0.0
  0
LINE
  5
1DC2
330
1E
100
AcDbEntity
  8
0
100
AcDbLine
 10
384.0449999999999
 20
361.2569999999999
 30
0.0
 11
384.0449999999999
 21
362.6578670053098
 31
0.0
  0
LINE
  5
1DC3
330
1E
100
AcDbEntity
  8
0
100
AcDbLine
 10
384.0449999999999
 20
361.2569999999999
 30
0.0
 11
385.5049999999999
 21
361.2569999999999
 31
0.0
  0
LINE
  5
1DC4
330
1E
100
AcDbEntity
  8
0
100
AcDbLine
 10
384.0449999999999
 20
361.2569999999999
 30
0.0
 11
384.0449999999999
 21
360.6399999999998
 31
0.0
  0
LINE
  5
1DC5
330
1E
100
AcDbEntity
  8
0
100
AcDbLine
 10
384.0449999999999
 20
362.6578670053098
 30
0.0
 11
384.0449999999999
 21
361.2569999999999
 31
0.0
  0
LINE
  5
1DC6
330
1E
100
AcDbEntity
  8
0
100
AcDbLine
 10
382.178
 20
367.2739999999998
 30
0.0
 11
382.178
 21
367.9664685927309
 31
0.0
  0
LINE
  5
1DC7
330
1E
100
AcDbEntity
  8
0
100
AcDbLine
 10
382.178
 20
367.2739999999998
 30
0.0
 11
383.442
 21
366.9649999999998
 31
0.0
  0
LINE
  5
1DC8
330
1E
100
AcDbEntity
  8
0
100
AcDbLine
 10
382.7119999999999
 20
366.4309999999999
 30
0.0
 11
383.442
 21
366.9649999999998
 31
0.0
  0
LINE
  5
1DC9
330
1E
100
AcDbEntity
  8
0
100
AcDbLine
 10
381.4479999999999
 20
366.7399999999998
 30
0.0
 11
381.4479999999999
 21
367.6131023299158
 31
0.0
  0
LINE
  5
1DCA
330
1E
100
AcDbEntity
  8
0
100
AcDbLine
 10
381.4479999999999
 20
366.7399999999998
 30
0.0
 11
382.178
 21
367.2739999999998
 31
0.0
  0
LINE
  5
1DCB
330
1E
100
AcDbEntity
  8
0
100
AcDbLine
 10
381.4479999999999
 20
366.7399999999998
 30
0.0
 11
382.7119999999999
 21
366.4309999999999
 31
0.0
  0
LINE
  5
1DCC
330
1E
100
AcDbEntity
  8
0
100
AcDbLine
 10
381.4479999999999
 20
367.6131023299158
 30
0.0
 11
381.4479999999999
 21
366.7399999999998
 31
0.0
  0
LINE
  5
1DCD
330
1E
100
AcDbEntity
  8
0
100
AcDbLine
 10
382.178
 20
367.9664685927309
 30
0.0
 11
382.178
 21
367.2739999999998
 31
0.0
  0
LINE
  5
1DCE
330
1E
100
AcDbEntity
  8
0
100
AcDbLine
 10
380.64
 20
356.7899999999998
 30
0.0
 11
380.64
 21
357.4069999999999
 31
0.0
  0
LINE
  5
1DCF
330
1E
100
AcDbEntity
  8
0
100
AcDbLine
 10
380.64
 20
357.4069999999999
 30
0.0
 11
380.64
 21
356.7899999999998
 31
0.0
  0
LINE
  5
1DD0
330
1E
100
AcDbEntity
  8
0
100
AcDbLine
 10
394.8179999999999
 20
336.6149999999998
 30
0.0
 11
399.0509999999999
 21
338.6809999999999
 31
0.0
  0
LINE
  5
1DD1
330
1E
100
AcDbEntity
  8
0
100
AcDbLine
 10
393.2119999999999
 20
337.2929999999998
 30
0.0
 11
395.6423353909459
 21
338.4489999999999
 31
0.0
  0
LINE
  5
1DD2
330
1E
100
AcDbEntity
  8
0
100
AcDbLine
 10
389.927
 20
334.8249999999998
 30
0.0
 11
394.8179999999999
 21
336.6149999999998
 31
0.0
  0
LINE
  5
1DD3
330
1E
100
AcDbEntity
  8
0
100
AcDbLine
 10
389.7219999999999
 20
335.9824477060228
 30
0.0
 11
393.2119999999999
 21
337.2929999999998
 31
0.0
  0
LINE
  5
1DD4
330
1E
100
AcDbEntity
  8
0
100
AcDbLine
 10
389.7219999999999
 20
336.2179999999998
 30
0.0
 11
389.7219999999999
 21
337.8369274994229
 31
0.0
  0
LINE
  5
1DD5
330
1E
100
AcDbEntity
  8
0
100
AcDbLine
 10
389.7219999999999
 20
336.2179999999998
 30
0.0
 11
389.7219999999999
 21
335.6009999999999
 31
0.0
  0
LINE
  5
1DD6
330
1E
100
AcDbEntity
  8
0
100
AcDbLine
 10
389.7219999999999
 20
337.8369274994229
 30
0.0
 11
389.7219999999999
 21
336.2179999999998
 31
0.0
  0
LINE
  5
1DD7
330
1E
100
AcDbEntity
  8
0
100
AcDbLine
 10
389.7219999999999
 20
335.6009999999999
 30
0.0
 11
389.7219999999999
 21
336.2179999999998
 31
0.0
  0
LINE
  5
1DD8
330
1E
100
AcDbEntity
  8
0
100
AcDbLine
 10
388.613
 20
335.5659999999999
 30
0.0
 11
388.7062049797339
 21
335.6009999999999
 31
0.0
  0
LINE
  5
1DD9
330
1E
100
AcDbEntity
  8
0
100
AcDbLine
 10
388.2619999999999
 20
336.2179999999998
 30
0.0
 11
388.2619999999999
 21
335.6009999999999
 31
0.0
  0
LINE
  5
1DDA
330
1E
100
AcDbEntity
  8
0
100
AcDbLine
 10
388.2619999999999
 20
336.2179999999998
 30
0.0
 11
389.7219999999999
 21
336.2179999999998
 31
0.0
  0
LINE
  5
1DDB
330
1E
100
AcDbEntity
  8
0
100
AcDbLine
 10
388.2619999999999
 20
335.6009999999999
 30
0.0
 11
388.2619999999999
 21
335.7228920657608
 31
0.0
  0
LINE
  5
1DDC
330
1E
100
AcDbEntity
  8
0
100
AcDbLine
 10
388.2619999999999
 20
335.6009999999999
 30
0.0
 11
389.7219999999999
 21
335.6009999999999
 31
0.0
  0
LINE
  5
1DDD
330
1E
100
AcDbEntity
  8
0
100
AcDbLine
 10
388.2619999999999
 20
335.6009999999999
 30
0.0
 11
388.2619999999999
 21
336.2179999999998
 31
0.0
  0
LINE
  5
1DDE
330
1E
100
AcDbEntity
  8
0
100
AcDbLine
 10
388.2619999999999
 20
335.7228920657608
 30
0.0
 11
388.2619999999999
 21
335.6009999999999
 31
0.0
  0
LINE
  5
1DDF
330
1E
100
AcDbEntity
  8
0
100
AcDbLine
 10
399.6349999999999
 20
365.0679999999998
 30
0.0
 11
403.2849999999999
 21
362.7549999999998
 31
0.0
  0
LINE
  5
1DE0
330
1E
100
AcDbEntity
  8
0
100
AcDbLine
 10
399.0509999999999
 20
363.9769999999999
 30
0.0
 11
402.701
 21
361.6939999999999
 31
0.0
  0
LINE
  5
1DE1
330
1E
100
AcDbEntity
  8
0
100
AcDbLine
 10
397.2989999999999
 20
363.4209999999999
 30
0.0
 11
400.8029999999999
 21
361.2309999999999
 31
0.0
  0
LINE
  5
1DE2
330
1E
100
AcDbEntity
  8
0
100
AcDbLine
 10
399.456
 20
358.3489999999999
 30
0.0
 11
400.9159999999999
 21
358.3489999999999
 31
0.0
  0
LINE
  5
1DE3
330
1E
100
AcDbEntity
  8
0
100
AcDbLine
 10
399.456
 20
358.9659999999998
 30
0.0
 11
400.9159999999999
 21
358.9659999999998
 31
0.0
  0
LINE
  5
1DE4
330
1E
100
AcDbEntity
  8
0
100
AcDbLine
 10
399.456
 20
342.4969999999999
 30
0.0
 11
400.9159999999999
 21
342.4969999999999
 31
0.0
  0
LINE
  5
1DE5
330
1E
100
AcDbEntity
  8
0
100
AcDbLine
 10
399.456
 20
341.8799999999998
 30
0.0
 11
400.9159999999999
 21
341.8799999999998
 31
0.0
  0
LINE
  5
1DE6
330
1E
100
AcDbEntity
  8
0
100
AcDbLine
 10
399.0509999999999
 20
338.6809999999999
 30
0.0
 11
402.701
 21
340.9639999999999
 31
0.0
  0
LINE
  5
1DE7
330
1E
100
AcDbEntity
  8
0
100
AcDbLine
 10
397.2989999999999
 20
339.2369999999999
 30
0.0
 11
400.8029999999999
 21
341.427
 31
0.0
  0
LINE
  5
1DE8
330
1E
100
AcDbEntity
  8
0
100
AcDbLine
 10
390.859
 20
342.1129999999998
 30
0.0
 11
390.859
 21
343.0724991697108
 31
0.0
  0
LINE
  5
1DE9
330
1E
100
AcDbEntity
  8
0
100
AcDbLine
 10
390.859
 20
342.1129999999998
 30
0.0
 11
390.859
 21
341.4959999999998
 31
0.0
  0
LINE
  5
1DEA
330
1E
100
AcDbEntity
  8
0
100
AcDbLine
 10
390.859
 20
343.0724991697108
 30
0.0
 11
390.859
 21
342.1129999999998
 31
0.0
  0
LINE
  5
1DEB
330
1E
100
AcDbEntity
  8
0
100
AcDbLine
 10
390.859
 20
341.4959999999998
 30
0.0
 11
390.859
 21
342.1129999999998
 31
0.0
  0
LINE
  5
1DEC
330
1E
100
AcDbEntity
  8
0
100
AcDbLine
 10
389.399
 20
342.1129999999998
 30
0.0
 11
389.399
 21
341.4959999999998
 31
0.0
  0
LINE
  5
1DED
330
1E
100
AcDbEntity
  8
0
100
AcDbLine
 10
389.399
 20
342.1129999999998
 30
0.0
 11
389.399
 21
343.3140949850547
 31
0.0
  0
LINE
  5
1DEE
330
1E
100
AcDbEntity
  8
0
100
AcDbLine
 10
389.399
 20
342.1129999999998
 30
0.0
 11
390.859
 21
342.1129999999998
 31
0.0
  0
LINE
  5
1DEF
330
1E
100
AcDbEntity
  8
0
100
AcDbLine
 10
389.399
 20
343.3140949850547
 30
0.0
 11
389.399
 21
342.1129999999998
 31
0.0
  0
LINE
  5
1DF0
330
1E
100
AcDbEntity
  8
0
100
AcDbLine
 10
389.399
 20
341.4959999999998
 30
0.0
 11
389.399
 21
341.7810688420759
 31
0.0
  0
LINE
  5
1DF1
330
1E
100
AcDbEntity
  8
0
100
AcDbLine
 10
389.399
 20
341.4959999999998
 30
0.0
 11
390.859
 21
341.4959999999998
 31
0.0
  0
LINE
  5
1DF2
330
1E
100
AcDbEntity
  8
0
100
AcDbLine
 10
389.399
 20
341.4959999999998
 30
0.0
 11
389.399
 21
342.1129999999998
 31
0.0
  0
LINE
  5
1DF3
330
1E
100
AcDbEntity
  8
0
100
AcDbLine
 10
389.399
 20
341.7810688420759
 30
0.0
 11
389.399
 21
341.4959999999998
 31
0.0
  0
LINE
  5
1DF4
330
1E
100
AcDbEntity
  8
0
100
AcDbLine
 10
388.1019999999999
 20
349.8249999999998
 30
0.0
 11
388.1019999999999
 21
350.3740945394478
 31
0.0
  0
LINE
  5
1DF5
330
1E
100
AcDbEntity
  8
0
100
AcDbLine
 10
388.1019999999999
 20
349.8249999999998
 30
0.0
 11
388.1019999999999
 21
349.2079999999998
 31
0.0
  0
LINE
  5
1DF6
330
1E
100
AcDbEntity
  8
0
100
AcDbLine
 10
388.1019999999999
 20
350.3740945394478
 30
0.0
 11
388.1019999999999
 21
349.8249999999998
 31
0.0
  0
LINE
  5
1DF7
330
1E
100
AcDbEntity
  8
0
100
AcDbLine
 10
388.1019999999999
 20
349.2079999999998
 30
0.0
 11
388.1019999999999
 21
349.8249999999998
 31
0.0
  0
LINE
  5
1DF8
330
1E
100
AcDbEntity
  8
0
100
AcDbLine
 10
386.6419999999999
 20
349.8249999999998
 30
0.0
 11
386.6419999999999
 21
349.2079999999998
 31
0.0
  0
LINE
  5
1DF9
330
1E
100
AcDbEntity
  8
0
100
AcDbLine
 10
386.6419999999999
 20
349.8249999999998
 30
0.0
 11
386.6419999999999
 21
350.3601215507188
 31
0.0
  0
LINE
  5
1DFA
330
1E
100
AcDbEntity
  8
0
100
AcDbLine
 10
386.6419999999999
 20
349.8249999999998
 30
0.0
 11
388.1019999999999
 21
349.8249999999998
 31
0.0
  0
LINE
  5
1DFB
330
1E
100
AcDbEntity
  8
0
100
AcDbLine
 10
386.6419999999999
 20
350.3601215507188
 30
0.0
 11
386.6419999999999
 21
349.8249999999998
 31
0.0
  0
LINE
  5
1DFC
330
1E
100
AcDbEntity
  8
0
100
AcDbLine
 10
386.6419999999999
 20
349.9072052079288
 30
0.0
 11
386.6419999999999
 21
349.2079999999998
 31
0.0
  0
LINE
  5
1DFD
330
1E
100
AcDbEntity
  8
0
100
AcDbLine
 10
386.6419999999999
 20
349.2079999999998
 30
0.0
 11
386.6419999999999
 21
349.9072052079288
 31
0.0
  0
LINE
  5
1DFE
330
1E
100
AcDbEntity
  8
0
100
AcDbLine
 10
386.6419999999999
 20
349.2079999999998
 30
0.0
 11
388.1019999999999
 21
349.2079999999998
 31
0.0
  0
LINE
  5
1DFF
330
1E
100
AcDbEntity
  8
0
100
AcDbLine
 10
386.6419999999999
 20
349.2079999999998
 30
0.0
 11
386.6419999999999
 21
349.8249999999998
 31
0.0
  0
LINE
  5
1E00
330
1E
100
AcDbEntity
  8
0
100
AcDbLine
 10
396.8609999999999
 20
350.2789999999998
 30
0.0
 11
396.8609999999999
 21
350.6613901067209
 31
0.0
  0
LINE
  5
1E01
330
1E
100
AcDbEntity
  8
0
100
AcDbLine
 10
396.8609999999999
 20
350.2789999999998
 30
0.0
 11
396.8609999999999
 21
349.6619999999999
 31
0.0
  0
LINE
  5
1E02
330
1E
100
AcDbEntity
  8
0
100
AcDbLine
 10
396.8609999999999
 20
350.6613901067209
 30
0.0
 11
396.8609999999999
 21
350.2789999999998
 31
0.0
  0
LINE
  5
1E03
330
1E
100
AcDbEntity
  8
0
100
AcDbLine
 10
395.4019999999999
 20
350.5660732621858
 30
0.0
 11
395.4019999999999
 21
349.6619999999999
 31
0.0
  0
LINE
  5
1E04
330
1E
100
AcDbEntity
  8
0
100
AcDbLine
 10
395.4019999999999
 20
350.5660732621858
 30
0.0
 11
395.4019999999999
 21
350.2789999999998
 31
0.0
  0
LINE
  5
1E05
330
1E
100
AcDbEntity
  8
0
100
AcDbLine
 10
395.4019999999999
 20
350.2789999999998
 30
0.0
 11
395.4019999999999
 21
349.6619999999999
 31
0.0
  0
LINE
  5
1E06
330
1E
100
AcDbEntity
  8
0
100
AcDbLine
 10
395.4019999999999
 20
350.2789999999998
 30
0.0
 11
395.4019999999999
 21
350.5660732621858
 31
0.0
  0
LINE
  5
1E07
330
1E
100
AcDbEntity
  8
0
100
AcDbLine
 10
395.4019999999999
 20
350.2789999999998
 30
0.0
 11
396.8609999999999
 21
350.2789999999998
 31
0.0
  0
LINE
  5
1E08
330
1E
100
AcDbEntity
  8
0
100
AcDbLine
 10
396.8609999999999
 20
349.6619999999999
 30
0.0
 11
396.8609999999999
 21
350.2789999999998
 31
0.0
  0
LINE
  5
1E09
330
1E
100
AcDbEntity
  8
0
100
AcDbLine
 10
395.4019999999999
 20
349.6619999999999
 30
0.0
 11
395.4019999999999
 21
350.5660732621858
 31
0.0
  0
LINE
  5
1E0A
330
1E
100
AcDbEntity
  8
0
100
AcDbLine
 10
395.4019999999999
 20
349.6619999999999
 30
0.0
 11
396.8609999999999
 21
349.6619999999999
 31
0.0
  0
LINE
  5
1E0B
330
1E
100
AcDbEntity
  8
0
100
AcDbLine
 10
395.4019999999999
 20
349.6619999999999
 30
0.0
 11
395.4019999999999
 21
350.2789999999998
 31
0.0
  0
LINE
  5
1E0C
330
1E
100
AcDbEntity
  8
0
100
AcDbLine
 10
395.32
 20
346.1949999999998
 30
0.0
 11
395.32
 21
346.7411563973949
 31
0.0
  0
LINE
  5
1E0D
330
1E
100
AcDbEntity
  8
0
100
AcDbLine
 10
395.32
 20
346.1949999999998
 30
0.0
 11
395.32
 21
345.5779999999998
 31
0.0
  0
LINE
  5
1E0E
330
1E
100
AcDbEntity
  8
0
100
AcDbLine
 10
395.32
 20
346.7411563973949
 30
0.0
 11
395.32
 21
346.1949999999998
 31
0.0
  0
LINE
  5
1E0F
330
1E
100
AcDbEntity
  8
0
100
AcDbLine
 10
393.86
 20
346.7736202740138
 30
0.0
 11
393.86
 21
345.5779999999998
 31
0.0
  0
LINE
  5
1E10
330
1E
100
AcDbEntity
  8
0
100
AcDbLine
 10
393.86
 20
346.7736202740138
 30
0.0
 11
393.86
 21
346.1949999999998
 31
0.0
  0
LINE
  5
1E11
330
1E
100
AcDbEntity
  8
0
100
AcDbLine
 10
393.86
 20
346.1949999999998
 30
0.0
 11
393.86
 21
345.5779999999998
 31
0.0
  0
LINE
  5
1E12
330
1E
100
AcDbEntity
  8
0
100
AcDbLine
 10
393.86
 20
346.1949999999998
 30
0.0
 11
393.86
 21
346.7736202740138
 31
0.0
  0
LINE
  5
1E13
330
1E
100
AcDbEntity
  8
0
100
AcDbLine
 10
393.86
 20
346.1949999999998
 30
0.0
 11
395.32
 21
346.1949999999998
 31
0.0
  0
LINE
  5
1E14
330
1E
100
AcDbEntity
  8
0
100
AcDbLine
 10
395.32
 20
345.5779999999998
 30
0.0
 11
395.32
 21
346.1949999999998
 31
0.0
  0
LINE
  5
1E15
330
1E
100
AcDbEntity
  8
0
100
AcDbLine
 10
393.86
 20
345.5779999999998
 30
0.0
 11
393.86
 21
346.7736202740138
 31
0.0
  0
LINE
  5
1E16
330
1E
100
AcDbEntity
  8
0
100
AcDbLine
 10
393.86
 20
345.5779999999998
 30
0.0
 11
395.32
 21
345.5779999999998
 31
0.0
  0
LINE
  5
1E17
330
1E
100
AcDbEntity
  8
0
100
AcDbLine
 10
393.86
 20
345.5779999999998
 30
0.0
 11
393.86
 21
346.1949999999998
 31
0.0
  0
LINE
  5
1E18
330
1E
100
AcDbEntity
  8
0
100
AcDbLine
 10
399.456
 20
342.4969999999999
 30
0.0
 11
399.456
 21
341.8799999999998
 31
0.0
  0
LINE
  5
1E19
330
1E
100
AcDbEntity
  8
0
100
AcDbLine
 10
399.456
 20
342.4969999999999
 30
0.0
 11
399.456
 21
343.6540333287898
 31
0.0
  0
LINE
  5
1E1A
330
1E
100
AcDbEntity
  8
0
100
AcDbLine
 10
399.456
 20
343.6540333287898
 30
0.0
 11
399.456
 21
342.4969999999999
 31
0.0
  0
LINE
  5
1E1B
330
1E
100
AcDbEntity
  8
0
100
AcDbLine
 10
399.456
 20
341.8799999999998
 30
0.0
 11
399.456
 21
342.4969999999999
 31
0.0
  0
LINE
  5
1E1C
330
1E
100
AcDbEntity
  8
0
100
AcDbLine
 10
396.1299999999999
 20
338.6809598727669
 30
0.0
 11
397.2989999999999
 21
339.2369999999999
 31
0.0
  0
LINE
  5
1E1D
330
1E
100
AcDbEntity
  8
0
100
AcDbLine
 10
396.1299999999999
 20
339.0659999999999
 30
0.0
 11
396.1299999999999
 21
339.5171060606057
 31
0.0
  0
LINE
  5
1E1E
330
1E
100
AcDbEntity
  8
0
100
AcDbLine
 10
396.1299999999999
 20
339.0659999999999
 30
0.0
 11
396.1299999999999
 21
338.4489999999999
 31
0.0
  0
LINE
  5
1E1F
330
1E
100
AcDbEntity
  8
0
100
AcDbLine
 10
396.1299999999999
 20
339.5171060606057
 30
0.0
 11
396.1299999999999
 21
339.0659999999999
 31
0.0
  0
LINE
  5
1E20
330
1E
100
AcDbEntity
  8
0
100
AcDbLine
 10
394.6699999999999
 20
339.866939121757
 30
0.0
 11
394.6699999999999
 21
339.0659999999999
 31
0.0
  0
LINE
  5
1E21
330
1E
100
AcDbEntity
  8
0
100
AcDbLine
 10
394.6699999999999
 20
339.0659999999999
 30
0.0
 11
394.6699999999999
 21
338.4489999999999
 31
0.0
  0
LINE
  5
1E22
330
1E
100
AcDbEntity
  8
0
100
AcDbLine
 10
394.6699999999999
 20
339.0659999999999
 30
0.0
 11
394.6699999999999
 21
339.866939121757
 31
0.0
  0
LINE
  5
1E23
330
1E
100
AcDbEntity
  8
0
100
AcDbLine
 10
394.6699999999999
 20
339.0659999999999
 30
0.0
 11
396.1299999999999
 21
339.0659999999999
 31
0.0
  0
LINE
  5
1E24
330
1E
100
AcDbEntity
  8
0
100
AcDbLine
 10
394.6699999999999
 20
339.4802223103549
 30
0.0
 11
394.6699999999999
 21
338.4489999999999
 31
0.0
  0
LINE
  5
1E25
330
1E
100
AcDbEntity
  8
0
100
AcDbLine
 10
394.6699999999999
 20
338.4489999999999
 30
0.0
 11
394.6699999999999
 21
339.4802223103549
 31
0.0
  0
LINE
  5
1E26
330
1E
100
AcDbEntity
  8
0
100
AcDbLine
 10
394.6699999999999
 20
338.4489999999999
 30
0.0
 11
396.1299999999999
 21
338.4489999999999
 31
0.0
  0
LINE
  5
1E27
330
1E
100
AcDbEntity
  8
0
100
AcDbLine
 10
394.6699999999999
 20
338.4489999999999
 30
0.0
 11
394.6699999999999
 21
339.0659999999999
 31
0.0
  0
LINE
  5
1E28
330
1E
100
AcDbEntity
  8
0
100
AcDbLine
 10
396.1299999999999
 20
338.4489999999999
 30
0.0
 11
396.1299999999999
 21
339.0659999999999
 31
0.0
  0
LINE
  5
1E29
330
1E
100
AcDbEntity
  8
0
100
AcDbLine
 10
393.2119999999999
 20
365.3649999999998
 30
0.0
 11
397.2989999999999
 21
363.4209999999999
 31
0.0
  0
LINE
  5
1E2A
330
1E
100
AcDbEntity
  8
0
100
AcDbLine
 10
389.927
 20
367.8329999999998
 30
0.0
 11
394.8179999999999
 21
366.0429999999998
 31
0.0
  0
LINE
  5
1E2B
330
1E
100
AcDbEntity
  8
0
100
AcDbLine
 10
390.859
 20
359.6818280324929
 30
0.0
 11
390.859
 21
358.4429999999998
 31
0.0
  0
LINE
  5
1E2C
330
1E
100
AcDbEntity
  8
0
100
AcDbLine
 10
390.859
 20
358.4429999999998
 30
0.0
 11
390.859
 21
357.8259999999999
 31
0.0
  0
LINE
  5
1E2D
330
1E
100
AcDbEntity
  8
0
100
AcDbLine
 10
390.859
 20
358.4429999999998
 30
0.0
 11
390.859
 21
359.6818280324929
 31
0.0
  0
LINE
  5
1E2E
330
1E
100
AcDbEntity
  8
0
100
AcDbLine
 10
390.859
 20
357.8259999999999
 30
0.0
 11
390.859
 21
358.4429999999998
 31
0.0
  0
LINE
  5
1E2F
330
1E
100
AcDbEntity
  8
0
100
AcDbLine
 10
388.613
 20
367.0919999999999
 30
0.0
 11
393.2119999999999
 21
365.3649999999998
 31
0.0
  0
LINE
  5
1E30
330
1E
100
AcDbEntity
  8
0
100
AcDbLine
 10
389.399
 20
357.8259999999999
 30
0.0
 11
389.399
 21
358.4429999999998
 31
0.0
  0
LINE
  5
1E31
330
1E
100
AcDbEntity
  8
0
100
AcDbLine
 10
389.399
 20
357.8259999999999
 30
0.0
 11
390.859
 21
357.8259999999999
 31
0.0
  0
LINE
  5
1E32
330
1E
100
AcDbEntity
  8
0
100
AcDbLine
 10
389.7219999999999
 20
364.6269999999999
 30
0.0
 11
389.7219999999999
 21
365.2439999999999
 31
0.0
  0
LINE
  5
1E33
330
1E
100
AcDbEntity
  8
0
100
AcDbLine
 10
389.7219999999999
 20
365.2439999999999
 30
0.0
 11
389.7219999999999
 21
364.6269999999999
 31
0.0
  0
LINE
  5
1E34
330
1E
100
AcDbEntity
  8
0
100
AcDbLine
 10
389.7219999999999
 20
365.2439999999999
 30
0.0
 11
389.7219999999999
 21
366.6755522939769
 31
0.0
  0
LINE
  5
1E35
330
1E
100
AcDbEntity
  8
0
100
AcDbLine
 10
389.7219999999999
 20
366.6755522939769
 30
0.0
 11
389.7219999999999
 21
365.2439999999999
 31
0.0
  0
LINE
  5
1E36
330
1E
100
AcDbEntity
  8
0
100
AcDbLine
 10
389.399
 20
358.4429999999998
 30
0.0
 11
389.399
 21
359.4543751893159
 31
0.0
  0
LINE
  5
1E37
330
1E
100
AcDbEntity
  8
0
100
AcDbLine
 10
389.399
 20
358.4429999999998
 30
0.0
 11
390.859
 21
358.4429999999998
 31
0.0
  0
LINE
  5
1E38
330
1E
100
AcDbEntity
  8
0
100
AcDbLine
 10
389.399
 20
358.4429999999998
 30
0.0
 11
389.399
 21
357.8259999999999
 31
0.0
  0
LINE
  5
1E39
330
1E
100
AcDbEntity
  8
0
100
AcDbLine
 10
389.399
 20
359.4543751893159
 30
0.0
 11
389.399
 21
358.4429999999998
 31
0.0
  0
LINE
  5
1E3A
330
1E
100
AcDbEntity
  8
0
100
AcDbLine
 10
388.2619999999999
 20
366.8593380986418
 30
0.0
 11
388.2619999999999
 21
365.2439999999999
 31
0.0
  0
LINE
  5
1E3B
330
1E
100
AcDbEntity
  8
0
100
AcDbLine
 10
388.2619999999999
 20
364.6269999999999
 30
0.0
 11
388.2619999999999
 21
365.2439999999999
 31
0.0
  0
LINE
  5
1E3C
330
1E
100
AcDbEntity
  8
0
100
AcDbLine
 10
388.2619999999999
 20
364.6269999999999
 30
0.0
 11
389.7219999999999
 21
364.6269999999999
 31
0.0
  0
LINE
  5
1E3D
330
1E
100
AcDbEntity
  8
0
100
AcDbLine
 10
388.2619999999999
 20
365.2439999999999
 30
0.0
 11
388.2619999999999
 21
366.8593380986418
 31
0.0
  0
LINE
  5
1E3E
330
1E
100
AcDbEntity
  8
0
100
AcDbLine
 10
388.2619999999999
 20
365.2439999999999
 30
0.0
 11
389.7219999999999
 21
365.2439999999999
 31
0.0
  0
LINE
  5
1E3F
330
1E
100
AcDbEntity
  8
0
100
AcDbLine
 10
388.2619999999999
 20
365.2439999999999
 30
0.0
 11
388.2619999999999
 21
364.6269999999999
 31
0.0
  0
LINE
  5
1E40
330
1E
100
AcDbEntity
  8
0
100
AcDbLine
 10
395.329
 20
367.1659999999999
 30
0.0
 11
399.6349999999999
 21
365.0679999999998
 31
0.0
  0
LINE
  5
1E41
330
1E
100
AcDbEntity
  8
0
100
AcDbLine
 10
394.8179999999999
 20
366.0429999999998
 30
0.0
 11
399.0509999999999
 21
363.9769999999999
 31
0.0
  0
LINE
  5
1E42
330
1E
100
AcDbEntity
  8
0
100
AcDbLine
 10
394.6699999999999
 20
362.8340816267668
 30
0.0
 11
394.6699999999999
 21
362.3969999999999
 31
0.0
  0
LINE
  5
1E43
330
1E
100
AcDbEntity
  8
0
100
AcDbLine
 10
396.1299999999999
 20
363.1600233631378
 30
0.0
 11
396.1299999999999
 21
362.3969999999999
 31
0.0
  0
LINE
  5
1E44
330
1E
100
AcDbEntity
  8
0
100
AcDbLine
 10
396.1299999999999
 20
361.7799999999998
 30
0.0
 11
396.1299999999999
 21
362.3969999999999
 31
0.0
  0
LINE
  5
1E45
330
1E
100
AcDbEntity
  8
0
100
AcDbLine
 10
396.1299999999999
 20
362.3969999999999
 30
0.0
 11
396.1299999999999
 21
361.7799999999998
 31
0.0
  0
LINE
  5
1E46
330
1E
100
AcDbEntity
  8
0
100
AcDbLine
 10
396.1299999999999
 20
362.3969999999999
 30
0.0
 11
396.1299999999999
 21
363.1600233631378
 31
0.0
  0
LINE
  5
1E47
330
1E
100
AcDbEntity
  8
0
100
AcDbLine
 10
394.6699999999999
 20
361.7799999999998
 30
0.0
 11
394.6699999999999
 21
362.3969999999999
 31
0.0
  0
LINE
  5
1E48
330
1E
100
AcDbEntity
  8
0
100
AcDbLine
 10
394.6699999999999
 20
361.7799999999998
 30
0.0
 11
394.6699999999999
 21
362.3588572854288
 31
0.0
  0
LINE
  5
1E49
330
1E
100
AcDbEntity
  8
0
100
AcDbLine
 10
394.6699999999999
 20
361.7799999999998
 30
0.0
 11
396.1299999999999
 21
361.7799999999998
 31
0.0
  0
LINE
  5
1E4A
330
1E
100
AcDbEntity
  8
0
100
AcDbLine
 10
394.6699999999999
 20
362.3588572854288
 30
0.0
 11
394.6699999999999
 21
361.7799999999998
 31
0.0
  0
LINE
  5
1E4B
330
1E
100
AcDbEntity
  8
0
100
AcDbLine
 10
394.6699999999999
 20
362.3969999999999
 30
0.0
 11
394.6699999999999
 21
362.8340816267668
 31
0.0
  0
LINE
  5
1E4C
330
1E
100
AcDbEntity
  8
0
100
AcDbLine
 10
394.6699999999999
 20
362.3969999999999
 30
0.0
 11
396.1299999999999
 21
362.3969999999999
 31
0.0
  0
LINE
  5
1E4D
330
1E
100
AcDbEntity
  8
0
100
AcDbLine
 10
394.6699999999999
 20
362.3969999999999
 30
0.0
 11
394.6699999999999
 21
361.7799999999998
 31
0.0
  0
LINE
  5
1E4E
330
1E
100
AcDbEntity
  8
0
100
AcDbLine
 10
399.456
 20
358.3489999999999
 30
0.0
 11
399.456
 21
358.9659999999998
 31
0.0
  0
LINE
  5
1E4F
330
1E
100
AcDbEntity
  8
0
100
AcDbLine
 10
399.456
 20
358.3489999999999
 30
0.0
 11
399.456
 21
358.5135101553978
 31
0.0
  0
LINE
  5
1E50
330
1E
100
AcDbEntity
  8
0
100
AcDbLine
 10
399.456
 20
358.5135101553978
 30
0.0
 11
399.456
 21
358.3489999999999
 31
0.0
  0
LINE
  5
1E51
330
1E
100
AcDbEntity
  8
0
100
AcDbLine
 10
399.456
 20
358.9659999999998
 30
0.0
 11
399.456
 21
358.3489999999999
 31
0.0
  0
LINE
  5
1E52
330
1E
100
AcDbEntity
  8
0
100
AcDbLine
 10
395.32
 20
353.7439999999999
 30
0.0
 11
395.32
 21
354.3609999999998
 31
0.0
  0
LINE
  5
1E53
330
1E
100
AcDbEntity
  8
0
100
AcDbLine
 10
395.32
 20
354.3609999999998
 30
0.0
 11
395.32
 21
353.7439999999999
 31
0.0
  0
LINE
  5
1E54
330
1E
100
AcDbEntity
  8
0
100
AcDbLine
 10
395.32
 20
354.3609999999998
 30
0.0
 11
395.32
 21
354.5492631578949
 31
0.0
  0
LINE
  5
1E55
330
1E
100
AcDbEntity
  8
0
100
AcDbLine
 10
393.86
 20
354.3187368421048
 30
0.0
 11
393.86
 21
353.7439999999999
 31
0.0
  0
LINE
  5
1E56
330
1E
100
AcDbEntity
  8
0
100
AcDbLine
 10
393.86
 20
354.3609999999998
 30
0.0
 11
395.32
 21
354.3609999999998
 31
0.0
  0
LINE
  5
1E57
330
1E
100
AcDbEntity
  8
0
100
AcDbLine
 10
393.86
 20
354.3609999999998
 30
0.0
 11
393.86
 21
353.7439999999999
 31
0.0
  0
LINE
  5
1E58
330
1E
100
AcDbEntity
  8
0
100
AcDbLine
 10
395.32
 20
354.5492631578949
 30
0.0
 11
395.32
 21
354.3609999999998
 31
0.0
  0
LINE
  5
1E59
330
1E
100
AcDbEntity
  8
0
100
AcDbLine
 10
393.86
 20
353.7439999999999
 30
0.0
 11
393.86
 21
354.3609999999998
 31
0.0
  0
LINE
  5
1E5A
330
1E
100
AcDbEntity
  8
0
100
AcDbLine
 10
393.86
 20
353.7439999999999
 30
0.0
 11
393.86
 21
354.3187368421048
 31
0.0
  0
LINE
  5
1E5B
330
1E
100
AcDbEntity
  8
0
100
AcDbLine
 10
393.86
 20
353.7439999999999
 30
0.0
 11
395.32
 21
353.7439999999999
 31
0.0
  0
LINE
  5
1E5C
330
1E
100
AcDbEntity
  8
0
100
AcDbLine
 10
409.489
 20
354.9499999999998
 30
0.0
 11
410.0
 21
352.2359999999999
 31
0.0
  0
LINE
  5
1E5D
330
1E
100
AcDbEntity
  8
0
100
AcDbLine
 10
408.759
 20
354.0129999999999
 30
0.0
 11
409.2699999999999
 21
351.3289999999999
 31
0.0
  0
LINE
  5
1E5E
330
1E
100
AcDbEntity
  8
0
100
AcDbLine
 10
406.6419999999999
 20
353.9509999999999
 30
0.0
 11
407.08
 21
351.3289999999999
 31
0.0
  0
LINE
  5
1E5F
330
1E
100
AcDbEntity
  8
0
100
AcDbLine
 10
406.1309999999999
 20
344.1539999999998
 30
0.0
 11
408.1749999999999
 21
346.7759999999999
 31
0.0
  0
LINE
  5
1E60
330
1E
100
AcDbEntity
  8
0
100
AcDbLine
 10
406.6419999999999
 20
348.707
 30
0.0
 11
407.08
 21
351.3289999999999
 31
0.0
  0
LINE
  5
1E61
330
1E
100
AcDbEntity
  8
0
100
AcDbLine
 10
405.4009999999999
 20
343.3709999999998
 30
0.0
 11
407.518
 21
346.0849999999997
 31
0.0
  0
LINE
  5
1E62
330
1E
100
AcDbEntity
  8
0
100
AcDbLine
 10
405.77163058657
 20
343.8461494624228
 30
0.0
 11
406.1309999999999
 21
344.1539999999998
 31
0.0
  0
LINE
  5
1E63
330
1E
100
AcDbEntity
  8
0
100
AcDbLine
 10
405.4009999999999
 20
346.5169999999999
 30
0.0
 11
406.6419999999999
 21
348.707
 31
0.0
  0
LINE
  5
1E64
330
1E
100
AcDbEntity
  8
0
100
AcDbLine
 10
405.62
 20
350.7319999999999
 30
0.0
 11
405.62
 21
351.4227567624528
 31
0.0
  0
LINE
  5
1E65
330
1E
100
AcDbEntity
  8
0
100
AcDbLine
 10
405.62
 20
350.7319999999999
 30
0.0
 11
405.62
 21
350.1149999999999
 31
0.0
  0
LINE
  5
1E66
330
1E
100
AcDbEntity
  8
0
100
AcDbLine
 10
405.62
 20
351.4227567624528
 30
0.0
 11
405.62
 21
350.7319999999999
 31
0.0
  0
LINE
  5
1E67
330
1E
100
AcDbEntity
  8
0
100
AcDbLine
 10
405.62
 20
350.1149999999999
 30
0.0
 11
405.62
 21
350.7319999999999
 31
0.0
  0
LINE
  5
1E68
330
1E
100
AcDbEntity
  8
0
100
AcDbLine
 10
404.1609999999999
 20
350.7319999999999
 30
0.0
 11
404.1609999999999
 21
350.1149999999999
 31
0.0
  0
LINE
  5
1E69
330
1E
100
AcDbEntity
  8
0
100
AcDbLine
 10
404.1609999999999
 20
350.7319999999999
 30
0.0
 11
404.1609999999999
 21
351.5164493079458
 31
0.0
  0
LINE
  5
1E6A
330
1E
100
AcDbEntity
  8
0
100
AcDbLine
 10
404.1609999999999
 20
350.7319999999999
 30
0.0
 11
405.62
 21
350.7319999999999
 31
0.0
  0
LINE
  5
1E6B
330
1E
100
AcDbEntity
  8
0
100
AcDbLine
 10
404.1609999999999
 20
351.5164493079458
 30
0.0
 11
404.1609999999999
 21
350.7319999999999
 31
0.0
  0
LINE
  5
1E6C
330
1E
100
AcDbEntity
  8
0
100
AcDbLine
 10
404.1609999999999
 20
350.7697283777138
 30
0.0
 11
404.1609999999999
 21
350.1149999999999
 31
0.0
  0
LINE
  5
1E6D
330
1E
100
AcDbEntity
  8
0
100
AcDbLine
 10
404.1609999999999
 20
350.1149999999999
 30
0.0
 11
404.1609999999999
 21
350.7697283777138
 31
0.0
  0
LINE
  5
1E6E
330
1E
100
AcDbEntity
  8
0
100
AcDbLine
 10
404.1609999999999
 20
350.1149999999999
 30
0.0
 11
405.62
 21
350.1149999999999
 31
0.0
  0
LINE
  5
1E6F
330
1E
100
AcDbEntity
  8
0
100
AcDbLine
 10
404.1609999999999
 20
350.1149999999999
 30
0.0
 11
404.1609999999999
 21
350.7319999999999
 31
0.0
  0
LINE
  5
1E70
330
1E
100
AcDbEntity
  8
0
100
AcDbLine
 10
404.241
 20
346.5799999999997
 30
0.0
 11
404.241
 21
345.9629999999998
 31
0.0
  0
LINE
  5
1E71
330
1E
100
AcDbEntity
  8
0
100
AcDbLine
 10
404.241
 20
345.9629999999998
 30
0.0
 11
404.241
 21
346.5799999999997
 31
0.0
  0
LINE
  5
1E72
330
1E
100
AcDbEntity
  8
0
100
AcDbLine
 10
402.7819999999999
 20
346.5799999999997
 30
0.0
 11
402.7819999999999
 21
345.9629999999998
 31
0.0
  0
LINE
  5
1E73
330
1E
100
AcDbEntity
  8
0
100
AcDbLine
 10
402.7819999999999
 20
346.5799999999997
 30
0.0
 11
404.241
 21
346.5799999999997
 31
0.0
  0
LINE
  5
1E74
330
1E
100
AcDbEntity
  8
0
100
AcDbLine
 10
402.7819999999999
 20
345.9629999999998
 30
0.0
 11
402.7819999999999
 21
346.5752348581269
 31
0.0
  0
LINE
  5
1E75
330
1E
100
AcDbEntity
  8
0
100
AcDbLine
 10
402.7819999999999
 20
345.9629999999998
 30
0.0
 11
404.241
 21
345.9629999999998
 31
0.0
  0
LINE
  5
1E76
330
1E
100
AcDbEntity
  8
0
100
AcDbLine
 10
402.7819999999999
 20
345.9629999999998
 30
0.0
 11
402.7819999999999
 21
346.5799999999997
 31
0.0
  0
LINE
  5
1E77
330
1E
100
AcDbEntity
  8
0
100
AcDbLine
 10
402.7819999999999
 20
346.5752348581269
 30
0.0
 11
402.7819999999999
 21
345.9629999999998
 31
0.0
  0
LINE
  5
1E78
330
1E
100
AcDbEntity
  8
0
100
AcDbLine
 10
405.4009999999999
 20
343.3709999999998
 30
0.0
 11
406.1309999999999
 21
344.1539999999998
 31
0.0
  0
LINE
  5
1E79
330
1E
100
AcDbEntity
  8
0
100
AcDbLine
 10
402.701
 20
340.9639999999999
 30
0.0
 11
405.4009999999999
 21
343.3709999999998
 31
0.0
  0
LINE
  5
1E7A
330
1E
100
AcDbEntity
  8
0
100
AcDbLine
 10
403.431
 20
343.7409999999998
 30
0.0
 11
405.4009999999999
 21
346.5169999999999
 31
0.0
  0
LINE
  5
1E7B
330
1E
100
AcDbEntity
  8
0
100
AcDbLine
 10
400.8029999999999
 20
341.427
 30
0.0
 11
403.431
 21
343.7409999999998
 31
0.0
  0
LINE
  5
1E7C
330
1E
100
AcDbEntity
  8
0
100
AcDbLine
 10
400.9159999999999
 20
342.4969999999999
 30
0.0
 11
400.9159999999999
 21
343.6859758042528
 31
0.0
  0
LINE
  5
1E7D
330
1E
100
AcDbEntity
  8
0
100
AcDbLine
 10
400.9159999999999
 20
342.4969999999999
 30
0.0
 11
400.9159999999999
 21
341.8799999999998
 31
0.0
  0
LINE
  5
1E7E
330
1E
100
AcDbEntity
  8
0
100
AcDbLine
 10
400.9159999999999
 20
343.6859758042528
 30
0.0
 11
400.9159999999999
 21
342.4969999999999
 31
0.0
  0
LINE
  5
1E7F
330
1E
100
AcDbEntity
  8
0
100
AcDbLine
 10
400.9159999999999
 20
341.8799999999998
 30
0.0
 11
400.9159999999999
 21
342.4969999999999
 31
0.0
  0
LINE
  5
1E80
330
1E
100
AcDbEntity
  8
0
100
AcDbLine
 10
409.489
 20
349.5209999999999
 30
0.0
 11
410.0
 21
352.2359999999999
 31
0.0
  0
LINE
  5
1E81
330
1E
100
AcDbEntity
  8
0
100
AcDbLine
 10
408.1749999999999
 20
346.7759999999999
 30
0.0
 11
409.489
 21
349.5209999999999
 31
0.0
  0
LINE
  5
1E82
330
1E
100
AcDbEntity
  8
0
100
AcDbLine
 10
408.759
 20
348.6449999999998
 30
0.0
 11
409.2699999999999
 21
351.3289999999999
 31
0.0
  0
LINE
  5
1E83
330
1E
100
AcDbEntity
  8
0
100
AcDbLine
 10
407.518
 20
346.0849999999997
 30
0.0
 11
408.759
 21
348.6449999999998
 31
0.0
  0
LINE
  5
1E84
330
1E
100
AcDbEntity
  8
0
100
AcDbLine
 10
406.1309999999999
 20
360.3179999999998
 30
0.0
 11
408.1749999999999
 21
357.6949999999998
 31
0.0
  0
LINE
  5
1E85
330
1E
100
AcDbEntity
  8
0
100
AcDbLine
 10
405.4009999999999
 20
359.2879999999999
 30
0.0
 11
407.518
 21
356.5729999999998
 31
0.0
  0
LINE
  5
1E86
330
1E
100
AcDbEntity
  8
0
100
AcDbLine
 10
403.2849999999999
 20
362.7549999999998
 30
0.0
 11
406.1309999999999
 21
360.3179999999998
 31
0.0
  0
LINE
  5
1E87
330
1E
100
AcDbEntity
  8
0
100
AcDbLine
 10
402.701
 20
361.6939999999999
 30
0.0
 11
405.4009999999999
 21
359.2879999999999
 31
0.0
  0
LINE
  5
1E88
330
1E
100
AcDbEntity
  8
0
100
AcDbLine
 10
403.431
 20
358.9179999999998
 30
0.0
 11
405.4009999999999
 21
356.1409999999999
 31
0.0
  0
LINE
  5
1E89
330
1E
100
AcDbEntity
  8
0
100
AcDbLine
 10
400.8029999999999
 20
361.2309999999999
 30
0.0
 11
403.431
 21
358.9179999999998
 31
0.0
  0
LINE
  5
1E8A
330
1E
100
AcDbEntity
  8
0
100
AcDbLine
 10
400.9159999999999
 20
358.3489999999999
 30
0.0
 11
400.9159999999999
 21
358.9659999999998
 31
0.0
  0
LINE
  5
1E8B
330
1E
100
AcDbEntity
  8
0
100
AcDbLine
 10
400.9159999999999
 20
358.9659999999998
 30
0.0
 11
400.9159999999999
 21
358.3489999999999
 31
0.0
  0
LINE
  5
1E8C
330
1E
100
AcDbEntity
  8
0
100
AcDbLine
 10
405.4009999999999
 20
356.1409999999999
 30
0.0
 11
406.6419999999999
 21
353.9509999999999
 31
0.0
  0
LINE
  5
1E8D
330
1E
100
AcDbEntity
  8
0
100
AcDbLine
 10
404.241
 20
354.2659999999999
 30
0.0
 11
404.241
 21
354.8829999999999
 31
0.0
  0
LINE
  5
1E8E
330
1E
100
AcDbEntity
  8
0
100
AcDbLine
 10
404.241
 20
354.8829999999999
 30
0.0
 11
404.241
 21
354.2659999999999
 31
0.0
  0
LINE
  5
1E8F
330
1E
100
AcDbEntity
  8
0
100
AcDbLine
 10
404.241
 20
354.8829999999999
 30
0.0
 11
404.241
 21
355.957842105263
 31
0.0
  0
LINE
  5
1E90
330
1E
100
AcDbEntity
  8
0
100
AcDbLine
 10
404.241
 20
355.957842105263
 30
0.0
 11
404.241
 21
354.8829999999999
 31
0.0
  0
LINE
  5
1E91
330
1E
100
AcDbEntity
  8
0
100
AcDbLine
 10
402.7819999999999
 20
354.2659999999999
 30
0.0
 11
402.7819999999999
 21
354.8829999999999
 31
0.0
  0
LINE
  5
1E92
330
1E
100
AcDbEntity
  8
0
100
AcDbLine
 10
402.7819999999999
 20
354.2659999999999
 30
0.0
 11
402.7819999999999
 21
355.7274736842098
 31
0.0
  0
LINE
  5
1E93
330
1E
100
AcDbEntity
  8
0
100
AcDbLine
 10
402.7819999999999
 20
354.2659999999999
 30
0.0
 11
404.241
 21
354.2659999999999
 31
0.0
  0
LINE
  5
1E94
330
1E
100
AcDbEntity
  8
0
100
AcDbLine
 10
402.7819999999999
 20
355.7274736842098
 30
0.0
 11
402.7819999999999
 21
354.8829999999999
 31
0.0
  0
LINE
  5
1E95
330
1E
100
AcDbEntity
  8
0
100
AcDbLine
 10
402.7819999999999
 20
355.7274736842098
 30
0.0
 11
402.7819999999999
 21
354.2659999999999
 31
0.0
  0
LINE
  5
1E96
330
1E
100
AcDbEntity
  8
0
100
AcDbLine
 10
402.7819999999999
 20
354.8829999999999
 30
0.0
 11
402.7819999999999
 21
355.7274736842098
 31
0.0
  0
LINE
  5
1E97
330
1E
100
AcDbEntity
  8
0
100
AcDbLine
 10
402.7819999999999
 20
354.8829999999999
 30
0.0
 11
404.241
 21
354.8829999999999
 31
0.0
  0
LINE
  5
1E98
330
1E
100
AcDbEntity
  8
0
100
AcDbLine
 10
402.7819999999999
 20
354.8829999999999
 30
0.0
 11
402.7819999999999
 21
354.2659999999999
 31
0.0
  0
LINE
  5
1E99
330
1E
100
AcDbEntity
  8
0
100
AcDbLine
 10
408.1749999999999
 20
357.6949999999998
 30
0.0
 11
409.489
 21
354.9499999999998
 31
0.0
  0
LINE
  5
1E9A
330
1E
100
AcDbEntity
  8
0
100
AcDbLine
 10
407.518
 20
356.5729999999998
 30
0.0
 11
408.759
 21
354.0129999999999
 31
0.0
  0
LINE
  5
1E9B
330
1E
100
AcDbEntity
  8
0
100
AcDbLine
 10
353.6499999999999
 20
392.7809999999999
 30
0.0
 11
360.0
 21
392.9959999999998
 31
0.0
  0
LINE
  5
1E9C
330
1E
100
AcDbEntity
  8
0
100
AcDbLine
 10
353.5769999999999
 20
392.1829999999999
 30
0.0
 11
360.0
 21
392.3989999999998
 31
0.0
  0
LINE
  5
1E9D
330
1E
100
AcDbEntity
  8
0
100
AcDbLine
 10
353.5769999999999
 20
373.1499999999998
 30
0.0
 11
360.0
 21
373.3669999999999
 31
0.0
  0
LINE
  5
1E9E
330
1E
100
AcDbEntity
  8
0
100
AcDbLine
 10
353.6499999999999
 20
371.9349999999998
 30
0.0
 11
360.0
 21
372.1519999999999
 31
0.0
  0
LINE
  5
1E9F
330
1E
100
AcDbEntity
  8
0
100
AcDbLine
 10
353.796
 20
371.0409999999999
 30
0.0
 11
360.0
 21
371.2259999999998
 31
0.0
  0
LINE
  5
1EA0
330
1E
100
AcDbEntity
  8
0
100
AcDbLine
 10
330.0730000000001
 20
388.6779999999999
 30
0.0
 11
335.475
 21
390.2209999999998
 31
0.0
  0
LINE
  5
1EA1
330
1E
100
AcDbEntity
  8
0
100
AcDbLine
 10
329.6349999999999
 20
388.0189999999998
 30
0.0
 11
335.109
 21
389.5609999999999
 31
0.0
  0
LINE
  5
1EA2
330
1E
100
AcDbEntity
  8
0
100
AcDbLine
 10
329.6349999999999
 20
368.9859999999999
 30
0.0
 11
335.109
 21
370.5279999999999
 31
0.0
  0
LINE
  5
1EA3
330
1E
100
AcDbEntity
  8
0
100
AcDbLine
 10
317.2989999999999
 20
382.539
 30
0.0
 11
320.949
 21
384.8219999999999
 31
0.0
  0
LINE
  5
1EA4
330
1E
100
AcDbEntity
  8
0
100
AcDbLine
 10
316.7149999999999
 20
381.7869999999999
 30
0.0
 11
320.365
 21
384.1009999999998
 31
0.0
  0
LINE
  5
1EA5
330
1E
100
AcDbEntity
  8
0
100
AcDbLine
 10
310.5109999999999
 20
373.9829999999998
 30
0.0
 11
311.825
 21
376.7279999999998
 31
0.0
  0
LINE
  5
1EA6
330
1E
100
AcDbEntity
  8
0
100
AcDbLine
 10
310.0
 20
371.2679999999999
 30
0.0
 11
310.5109999999999
 21
373.9829999999998
 31
0.0
  0
LINE
  5
1EA7
330
1E
100
AcDbEntity
  8
0
100
AcDbLine
 10
314.302940276171
 20
379.7534505949588
 30
0.0
 11
314.5989999999999
 21
380.1329999999999
 31
0.0
  0
LINE
  5
1EA8
330
1E
100
AcDbEntity
  8
0
100
AcDbLine
 10
314.5989999999999
 20
380.1329999999999
 30
0.0
 11
317.2989999999999
 21
382.539
 31
0.0
  0
LINE
  5
1EA9
330
1E
100
AcDbEntity
  8
0
100
AcDbLine
 10
311.825
 20
376.7279999999998
 30
0.0
 11
313.869
 21
379.3499999999998
 31
0.0
  0
LINE
  5
1EAA
330
1E
100
AcDbEntity
  8
0
100
AcDbLine
 10
313.869
 20
379.3499999999998
 30
0.0
 11
316.7149999999999
 21
381.7869999999999
 31
0.0
  0
LINE
  5
1EAB
330
1E
100
AcDbEntity
  8
0
100
AcDbLine
 10
313.869
 20
379.3499999999998
 30
0.0
 11
314.5989999999999
 21
380.1329999999999
 31
0.0
  0
LINE
  5
1EAC
330
1E
100
AcDbEntity
  8
0
100
AcDbLine
 10
320.949
 20
384.8219999999999
 30
0.0
 11
325.1829999999999
 21
386.8889999999998
 31
0.0
  0
LINE
  5
1EAD
330
1E
100
AcDbEntity
  8
0
100
AcDbLine
 10
324.672
 20
386.1979999999998
 30
0.0
 11
329.6349999999999
 21
388.0189999999998
 31
0.0
  0
LINE
  5
1EAE
330
1E
100
AcDbEntity
  8
0
100
AcDbLine
 10
320.365
 20
384.1009999999998
 30
0.0
 11
324.672
 21
386.1979999999998
 31
0.0
  0
LINE
  5
1EAF
330
1E
100
AcDbEntity
  8
0
100
AcDbLine
 10
325.1829999999999
 20
386.8889999999998
 30
0.0
 11
330.0730000000001
 21
388.6779999999999
 31
0.0
  0
LINE
  5
1EB0
330
1E
100
AcDbEntity
  8
0
100
AcDbLine
 10
341.168
 20
391.3619999999999
 30
0.0
 11
347.591
 21
392.2559999999998
 31
0.0
  0
LINE
  5
1EB1
330
1E
100
AcDbEntity
  8
0
100
AcDbLine
 10
340.876
 20
390.7639999999998
 30
0.0
 11
347.0799999999999
 21
391.6279999999999
 31
0.0
  0
LINE
  5
1EB2
330
1E
100
AcDbEntity
  8
0
100
AcDbLine
 10
340.876
 20
371.7309999999999
 30
0.0
 11
347.0799999999999
 21
372.5949999999997
 31
0.0
  0
LINE
  5
1EB3
330
1E
100
AcDbEntity
  8
0
100
AcDbLine
 10
341.168
 20
370.5159999999999
 30
0.0
 11
347.591
 21
371.4109999999999
 31
0.0
  0
LINE
  5
1EB4
330
1E
100
AcDbEntity
  8
0
100
AcDbLine
 10
342.0440000000001
 20
369.6839999999999
 30
0.0
 11
348.613
 21
370.5159999999999
 31
0.0
  0
LINE
  5
1EB5
330
1E
100
AcDbEntity
  8
0
100
AcDbLine
 10
335.109
 20
370.5279999999999
 30
0.0
 11
340.876
 21
371.7309999999999
 31
0.0
  0
LINE
  5
1EB6
330
1E
100
AcDbEntity
  8
0
100
AcDbLine
 10
335.475
 20
369.3749999999998
 30
0.0
 11
341.168
 21
370.5159999999999
 31
0.0
  0
LINE
  5
1EB7
330
1E
100
AcDbEntity
  8
0
100
AcDbLine
 10
336.5689999999999
 20
368.5729999999998
 30
0.0
 11
342.0440000000001
 21
369.6839999999999
 31
0.0
  0
LINE
  5
1EB8
330
1E
100
AcDbEntity
  8
0
100
AcDbLine
 10
344.489
 20
368.712
 30
0.0
 11
344.489
 21
369.9936727051299
 31
0.0
  0
LINE
  5
1EB9
330
1E
100
AcDbEntity
  8
0
100
AcDbLine
 10
344.489
 20
369.9936727051299
 30
0.0
 11
344.489
 21
368.712
 31
0.0
  0
LINE
  5
1EBA
330
1E
100
AcDbEntity
  8
0
100
AcDbLine
 10
335.475
 20
390.2209999999998
 30
0.0
 11
341.168
 21
391.3619999999999
 31
0.0
  0
LINE
  5
1EBB
330
1E
100
AcDbEntity
  8
0
100
AcDbLine
 10
335.109
 20
389.5609999999999
 30
0.0
 11
340.876
 21
390.7639999999998
 31
0.0
  0
LINE
  5
1EBC
330
1E
100
AcDbEntity
  8
0
100
AcDbLine
 10
347.0799999999999
 20
372.5949999999997
 30
0.0
 11
353.5769999999999
 21
373.1499999999998
 31
0.0
  0
LINE
  5
1EBD
330
1E
100
AcDbEntity
  8
0
100
AcDbLine
 10
347.591
 20
371.4109999999999
 30
0.0
 11
353.6499999999999
 21
371.9349999999998
 31
0.0
  0
LINE
  5
1EBE
330
1E
100
AcDbEntity
  8
0
100
AcDbLine
 10
348.613
 20
370.5159999999999
 30
0.0
 11
353.796
 21
371.0409999999999
 31
0.0
  0
LINE
  5
1EBF
330
1E
100
AcDbEntity
  8
0
100
AcDbLine
 10
353.5289999999999
 20
369.6329999999999
 30
0.0
 11
353.5289999999999
 21
371.0139548524019
 31
0.0
  0
LINE
  5
1EC0
330
1E
100
AcDbEntity
  8
0
100
AcDbLine
 10
353.5289999999999
 20
369.6329999999999
 30
0.0
 11
354.793
 21
369.3239999999999
 31
0.0
  0
LINE
  5
1EC1
330
1E
100
AcDbEntity
  8
0
100
AcDbLine
 10
354.793
 20
369.983093649259
 30
0.0
 11
354.793
 21
369.3239999999999
 31
0.0
  0
LINE
  5
1EC2
330
1E
100
AcDbEntity
  8
0
100
AcDbLine
 10
353.5289999999999
 20
371.0139548524019
 30
0.0
 11
353.5289999999999
 21
369.6329999999999
 31
0.0
  0
LINE
  5
1EC3
330
1E
100
AcDbEntity
  8
0
100
AcDbLine
 10
354.0630000000001
 20
368.7899999999998
 30
0.0
 11
354.793
 21
369.3239999999999
 31
0.0
  0
LINE
  5
1EC4
330
1E
100
AcDbEntity
  8
0
100
AcDbLine
 10
354.793
 20
369.3239999999999
 30
0.0
 11
354.793
 21
369.983093649259
 31
0.0
  0
LINE
  5
1EC5
330
1E
100
AcDbEntity
  8
0
100
AcDbLine
 10
352.7989999999999
 20
369.0989999999999
 30
0.0
 11
353.5289999999999
 21
369.6329999999999
 31
0.0
  0
LINE
  5
1EC6
330
1E
100
AcDbEntity
  8
0
100
AcDbLine
 10
352.7989999999999
 20
369.0989999999999
 30
0.0
 11
354.0630000000001
 21
368.7899999999998
 31
0.0
  0
LINE
  5
1EC7
330
1E
100
AcDbEntity
  8
0
100
AcDbLine
 10
347.591
 20
392.2559999999998
 30
0.0
 11
353.6499999999999
 21
392.7809999999999
 31
0.0
  0
LINE
  5
1EC8
330
1E
100
AcDbEntity
  8
0
100
AcDbLine
 10
347.0799999999999
 20
391.6279999999999
 30
0.0
 11
353.5769999999999
 21
392.1829999999999
 31
0.0
  0
LINE
  5
1EC9
330
1E
100
AcDbEntity
  8
0
100
AcDbLine
 10
384.525
 20
390.2209999999998
 30
0.0
 11
389.927
 21
388.6779999999999
 31
0.0
  0
LINE
  5
1ECA
330
1E
100
AcDbEntity
  8
0
100
AcDbLine
 10
384.8909999999999
 20
389.5609999999999
 30
0.0
 11
390.365
 21
388.0189999999998
 31
0.0
  0
LINE
  5
1ECB
330
1E
100
AcDbEntity
  8
0
100
AcDbLine
 10
384.8909999999999
 20
370.5279999999999
 30
0.0
 11
390.365
 21
368.9859999999999
 31
0.0
  0
LINE
  5
1ECC
330
1E
100
AcDbEntity
  8
0
100
AcDbLine
 10
372.4089999999999
 20
392.2559999999998
 30
0.0
 11
378.832
 21
391.3619999999999
 31
0.0
  0
LINE
  5
1ECD
330
1E
100
AcDbEntity
  8
0
100
AcDbLine
 10
366.4229999999999
 20
392.1829999999999
 30
0.0
 11
372.9199999999999
 21
391.6279999999999
 31
0.0
  0
LINE
  5
1ECE
330
1E
100
AcDbEntity
  8
0
100
AcDbLine
 10
366.4229999999999
 20
373.1499999999998
 30
0.0
 11
372.9199999999999
 21
372.5949999999997
 31
0.0
  0
LINE
  5
1ECF
330
1E
100
AcDbEntity
  8
0
100
AcDbLine
 10
372.4089999999999
 20
371.4109999999999
 30
0.0
 11
378.832
 21
370.5159999999999
 31
0.0
  0
LINE
  5
1ED0
330
1E
100
AcDbEntity
  8
0
100
AcDbLine
 10
371.3869999999999
 20
370.5159999999999
 30
0.0
 11
377.956
 21
369.6839999999999
 31
0.0
  0
LINE
  5
1ED1
330
1E
100
AcDbEntity
  8
0
100
AcDbLine
 10
360.0
 20
373.3669999999999
 30
0.0
 11
366.4229999999999
 21
373.1499999999998
 31
0.0
  0
LINE
  5
1ED2
330
1E
100
AcDbEntity
  8
0
100
AcDbLine
 10
360.0
 20
372.1519999999999
 30
0.0
 11
366.35
 21
371.9349999999998
 31
0.0
  0
LINE
  5
1ED3
330
1E
100
AcDbEntity
  8
0
100
AcDbLine
 10
360.0
 20
371.2259999999998
 30
0.0
 11
366.204
 21
371.0409999999999
 31
0.0
  0
LINE
  5
1ED4
330
1E
100
AcDbEntity
  8
0
100
AcDbLine
 10
362.9519999999999
 20
369.6689999999999
 30
0.0
 11
362.9519999999999
 21
371.1379729206959
 31
0.0
  0
LINE
  5
1ED5
330
1E
100
AcDbEntity
  8
0
100
AcDbLine
 10
362.9519999999999
 20
369.6689999999999
 30
0.0
 11
364.216
 21
369.3609999999998
 31
0.0
  0
LINE
  5
1ED6
330
1E
100
AcDbEntity
  8
0
100
AcDbLine
 10
362.9519999999999
 20
371.1379729206959
 30
0.0
 11
362.9519999999999
 21
369.6689999999999
 31
0.0
  0
LINE
  5
1ED7
330
1E
100
AcDbEntity
  8
0
100
AcDbLine
 10
363.4859999999999
 20
368.8259999999999
 30
0.0
 11
364.216
 21
369.3609999999998
 31
0.0
  0
LINE
  5
1ED8
330
1E
100
AcDbEntity
  8
0
100
AcDbLine
 10
362.2219999999999
 20
369.1349999999999
 30
0.0
 11
362.9519999999999
 21
369.6689999999999
 31
0.0
  0
LINE
  5
1ED9
330
1E
100
AcDbEntity
  8
0
100
AcDbLine
 10
362.2219999999999
 20
369.1349999999999
 30
0.0
 11
363.4859999999999
 21
368.8259999999999
 31
0.0
  0
LINE
  5
1EDA
330
1E
100
AcDbEntity
  8
0
100
AcDbLine
 10
366.35
 20
371.9349999999998
 30
0.0
 11
372.4089999999999
 21
371.4109999999999
 31
0.0
  0
LINE
  5
1EDB
330
1E
100
AcDbEntity
  8
0
100
AcDbLine
 10
366.204
 20
371.0409999999999
 30
0.0
 11
371.3869999999999
 21
370.5159999999999
 31
0.0
  0
LINE
  5
1EDC
330
1E
100
AcDbEntity
  8
0
100
AcDbLine
 10
360.0
 20
392.9959999999998
 30
0.0
 11
366.35
 21
392.7809999999999
 31
0.0
  0
LINE
  5
1EDD
330
1E
100
AcDbEntity
  8
0
100
AcDbLine
 10
360.0
 20
392.3989999999998
 30
0.0
 11
366.4229999999999
 21
392.1829999999999
 31
0.0
  0
LINE
  5
1EDE
330
1E
100
AcDbEntity
  8
0
100
AcDbLine
 10
366.35
 20
392.7809999999999
 30
0.0
 11
372.4089999999999
 21
392.2559999999998
 31
0.0
  0
LINE
  5
1EDF
330
1E
100
AcDbEntity
  8
0
100
AcDbLine
 10
379.124
 20
371.7309999999999
 30
0.0
 11
384.8909999999999
 21
370.5279999999999
 31
0.0
  0
LINE
  5
1EE0
330
1E
100
AcDbEntity
  8
0
100
AcDbLine
 10
378.832
 20
370.5159999999999
 30
0.0
 11
384.525
 21
369.3749999999998
 31
0.0
  0
LINE
  5
1EE1
330
1E
100
AcDbEntity
  8
0
100
AcDbLine
 10
377.956
 20
369.6839999999999
 30
0.0
 11
383.431
 21
368.5729999999998
 31
0.0
  0
LINE
  5
1EE2
330
1E
100
AcDbEntity
  8
0
100
AcDbLine
 10
372.9199999999999
 20
372.5949999999997
 30
0.0
 11
379.124
 21
371.7309999999999
 31
0.0
  0
LINE
  5
1EE3
330
1E
100
AcDbEntity
  8
0
100
AcDbLine
 10
374.2459999999999
 20
370.153891916578
 30
0.0
 11
374.2459999999999
 21
368.5369999999999
 31
0.0
  0
LINE
  5
1EE4
330
1E
100
AcDbEntity
  8
0
100
AcDbLine
 10
372.9819999999999
 20
370.3139844725218
 30
0.0
 11
372.9819999999999
 21
368.8449999999998
 31
0.0
  0
LINE
  5
1EE5
330
1E
100
AcDbEntity
  8
0
100
AcDbLine
 10
374.2459999999999
 20
368.5369999999999
 30
0.0
 11
374.2459999999999
 21
370.153891916578
 31
0.0
  0
LINE
  5
1EE6
330
1E
100
AcDbEntity
  8
0
100
AcDbLine
 10
372.9819999999999
 20
368.8449999999998
 30
0.0
 11
372.9819999999999
 21
370.3139844725218
 31
0.0
  0
LINE
  5
1EE7
330
1E
100
AcDbEntity
  8
0
100
AcDbLine
 10
372.9819999999999
 20
368.8449999999998
 30
0.0
 11
374.2459999999999
 21
368.5369999999999
 31
0.0
  0
LINE
  5
1EE8
330
1E
100
AcDbEntity
  8
0
100
AcDbLine
 10
378.832
 20
391.3619999999999
 30
0.0
 11
384.525
 21
390.2209999999998
 31
0.0
  0
LINE
  5
1EE9
330
1E
100
AcDbEntity
  8
0
100
AcDbLine
 10
379.124
 20
390.7639999999998
 30
0.0
 11
384.8909999999999
 21
389.5609999999999
 31
0.0
  0
LINE
  5
1EEA
330
1E
100
AcDbEntity
  8
0
100
AcDbLine
 10
372.9199999999999
 20
391.6279999999999
 30
0.0
 11
379.124
 21
390.7639999999998
 31
0.0
  0
LINE
  5
1EEB
330
1E
100
AcDbEntity
  8
0
100
AcDbLine
 10
399.0509999999999
 20
384.8219999999999
 30
0.0
 11
402.701
 21
382.539
 31
0.0
  0
LINE
  5
1EEC
330
1E
100
AcDbEntity
  8
0
100
AcDbLine
 10
399.6349999999999
 20
384.1009999999998
 30
0.0
 11
403.2849999999999
 21
381.7869999999999
 31
0.0
  0
LINE
  5
1EED
330
1E
100
AcDbEntity
  8
0
100
AcDbLine
 10
389.927
 20
388.6779999999999
 30
0.0
 11
394.8179999999999
 21
386.8889999999998
 31
0.0
  0
LINE
  5
1EEE
330
1E
100
AcDbEntity
  8
0
100
AcDbLine
 10
390.365
 20
388.0189999999998
 30
0.0
 11
395.329
 21
386.1979999999998
 31
0.0
  0
LINE
  5
1EEF
330
1E
100
AcDbEntity
  8
0
100
AcDbLine
 10
394.8179999999999
 20
386.8889999999998
 30
0.0
 11
399.0509999999999
 21
384.8219999999999
 31
0.0
  0
LINE
  5
1EF0
330
1E
100
AcDbEntity
  8
0
100
AcDbLine
 10
395.329
 20
386.1979999999998
 30
0.0
 11
399.6349999999999
 21
384.1009999999998
 31
0.0
  0
LINE
  5
1EF1
330
1E
100
AcDbEntity
  8
0
100
AcDbLine
 10
406.1309999999999
 20
379.3499999999998
 30
0.0
 11
408.1749999999999
 21
376.7279999999998
 31
0.0
  0
LINE
  5
1EF2
330
1E
100
AcDbEntity
  8
0
100
AcDbLine
 10
405.4009999999999
 20
380.1329999999999
 30
0.0
 11
406.1309999999999
 21
379.3499999999998
 31
0.0
  0
LINE
  5
1EF3
330
1E
100
AcDbEntity
  8
0
100
AcDbLine
 10
405.4009999999999
 20
380.1329999999999
 30
0.0
 11
405.6970597238279
 21
379.7534505949599
 31
0.0
  0
LINE
  5
1EF4
330
1E
100
AcDbEntity
  8
0
100
AcDbLine
 10
402.701
 20
382.539
 30
0.0
 11
405.4009999999999
 21
380.1329999999999
 31
0.0
  0
LINE
  5
1EF5
330
1E
100
AcDbEntity
  8
0
100
AcDbLine
 10
403.2849999999999
 20
381.7869999999999
 30
0.0
 11
406.1309999999999
 21
379.3499999999998
 31
0.0
  0
LINE
  5
1EF6
330
1E
100
AcDbEntity
  8
0
100
AcDbLine
 10
409.489
 20
373.9829999999998
 30
0.0
 11
410.0
 21
371.2679999999999
 31
0.0
  0
LINE
  5
1EF7
330
1E
100
AcDbEntity
  8
0
100
AcDbLine
 10
408.1749999999999
 20
376.7279999999998
 30
0.0
 11
409.489
 21
373.9829999999998
 31
0.0
  0
ENDSEC
  0
SECTION
  2
OBJECTS
  0
DICTIONARY
  5
C
330
0
100
AcDbDictionary
281
     1
  3
ACAD_GROUP
350
D
  3
ACAD_LAYOUT
350
19
  3
ACAD_MLINESTYLE
350
16
  3
ACAD_PLOTSETTINGS
350
18
  3
ACAD_PLOTSTYLENAME
350
E
  3
AcDbVariableDictionary
350
2010
  0
DICTIONARY
  5
D
102
{ACAD_REACTORS
330
C
102
}
330
C
100
AcDbDictionary
281
     1
  0
DICTIONARY
  5
19
102
{ACAD_REACTORS
330
C
102
}
330
C
100
AcDbDictionary
281
     1
  3
Layout1
350
1D
  3
Model
350
21
  0
DICTIONARY
  5
16
102
{ACAD_REACTORS
330
C
102
}
330
C
100
AcDbDictionary
281
     1
  3
Standard
350
17
  0
DICTIONARY
  5
18
102
{ACAD_REACTORS
330
C
102
}
330
C
100
AcDbDictionary
281
     1
  0
ACDBDICTIONARYWDFLT
  5
E
102
{ACAD_REACTORS
330
C
102
}
330
C
100
AcDbDictionary
281
     1
  3
Normal
350
F
100
AcDbDictionaryWithDefault
340
F
  0
DICTIONARY
  5
2010
102
{ACAD_REACTORS
330
C
102
}
330
C
100
AcDbDictionary
281
     1
  3
DIMASSOC
350
2011
  0
LAYOUT
  5
1D
102
{ACAD_REACTORS
330
19
102
}
330
19
100
AcDbPlotSettings
  1

  2
C:\Programme\AutoCAD LT 2002 Deu\plotters\DWF ePlot (optimized for plotting).pc3
  4

  6

 40
0.0
 41
0.0
 42
0.0
 43
0.0
 44
0.0
 45
0.0
 46
0.0
 47
0.0
 48
0.0
 49
0.0
140
0.0
141
0.0
142
1.0
143
1.0
 70
   688
 72
     0
 73
     0
 74
     5
  7

 75
    16
147
1.0
148
0.0
149
0.0
100
AcDbLayout
  1
Layout1
 70
     1
 71
     1
 10
0.0
 20
0.0
 11
12.0
 21
9.0
 12
0.0
 22
0.0
 32
0.0
 14
1.000000000000000E+20
 24
1.000000000000000E+20
 34
1.000000000000000E+20
 15
-1.000000000000000E+20
 25
-1.000000000000000E+20
 35
-1.000000000000000E+20
146
0.0
 13
0.0
 23
0.0
 33
0.0
 16
1.0
 26
0.0
 36
0.0
 17
0.0
 27
1.0
 37
0.0
 76
     0
330
1A
  0
LAYOUT
  5
21
102
{ACAD_REACTORS
330
19
102
}
330
19
100
AcDbPlotSettings
  1

  2
C:\Programme\AutoCAD LT 2002 Deu\plotters\DWF ePlot (optimized for plotting).pc3
  4

  6

 40
0.0
 41
0.0
 42
0.0
 43
0.0
 44
0.0
 45
0.0
 46
0.0
 47
0.0
 48
0.0
 49
0.0
140
0.0
141
0.0
142
1.0
143
1.0
 70
  1712
 72
     0
 73
     0
 74
     0
  7

 75
     0
147
1.0
148
0.0
149
0.0
100
AcDbLayout
  1
Model
 70
     1
 71
     0
 10
0.0
 20
0.0
 11
12.0
 21
9.0
 12
0.0
 22
0.0
 32
0.0
 14
0.0
 24
0.0
 34
0.0
 15
0.0
 25
0.0
 35
0.0
146
0.0
 13
0.0
 23
0.0
 33
0.0
 16
1.0
 26
0.0
 36
0.0
 17
0.0
 27
1.0
 37
0.0
 76
     0
330
1E
  0
MLINESTYLE
  5
17
102
{ACAD_REACTORS
330
16
102
}
330
16
100
AcDbMlineStyle
  2
STANDARD
 70
     0
  3

 62
   256
 51
90.0
 52
90.0
 71
     2
 49
0.5
 62
   256
  6
BYLAYER
 49
-0.5
 62
   256
  6
BYLAYER
  0
ACDBPLACEHOLDER
  5
F
102
{ACAD_REACTORS
330
E
102
}
330
E
  0
DICTIONARYVAR
  5
2011
102
{ACAD_REACTORS
330
2010
102
}
330
2010
100
DictionaryVariables
280
     0
  1
1
  0
ENDSEC
  0
EOF
