  0
SECTION
  2
HEADER
  9
$ACADVER
  1
AC1015
  9
$ACADMAINTVER
 70
    13
  9
$DWGCODEPAGE
  3
ANSI_1252
  9
$INSBASE
 10
0.0
 20
0.0
 30
0.0
  9
$EXTMIN
 10
0.0
 20
0.250000000000002
 30
0.0
  9
$EXTMAX
 10
168.0
 20
183.2499999999999
 30
0.0
  9
$LIMMIN
 10
0.0
 20
0.0
  9
$LIMMAX
 10
12.0
 20
9.0
  9
$ORTHOMODE
 70
     0
  9
$REGENMODE
 70
     1
  9
$FILLMODE
 70
     1
  9
$QTEXTMODE
 70
     0
  9
$MIRRTEXT
 70
     1
  9
$LTSCALE
 40
1.0
  9
$ATTMODE
 70
     1
  9
$TEXTSIZE
 40
0.2
  9
$TRACEWID
 40
0.05
  9
$TEXTSTYLE
  7
Standard
  9
$CLAYER
  8
0
  9
$CELTYPE
  6
Continuous
  9
$CECOLOR
 62
   256
  9
$CELTSCALE
 40
1.0
  9
$DISPSILH
 70
     0
  9
$DIMSCALE
 40
1.0
  9
$DIMASZ
 40
0.18
  9
$DIMEXO
 40
0.0625
  9
$DIMDLI
 40
0.38
  9
$DIMRND
 40
0.0
  9
$DIMDLE
 40
0.0
  9
$DIMEXE
 40
0.18
  9
$DIMTP
 40
0.0
  9
$DIMTM
 40
0.0
  9
$DIMTXT
 40
0.18
  9
$DIMCEN
 40
0.09
  9
$DIMTSZ
 40
0.0
  9
$DIMTOL
 70
     0
  9
$DIMLIM
 70
     0
  9
$DIMTIH
 70
     1
  9
$DIMTOH
 70
     1
  9
$DIMSE1
 70
     0
  9
$DIMSE2
 70
     0
  9
$DIMTAD
 70
     0
  9
$DIMZIN
 70
     0
  9
$DIMBLK
  1

  9
$DIMASO
 70
     1
  9
$DIMSHO
 70
     1
  9
$DIMPOST
  1

  9
$DIMAPOST
  1

  9
$DIMALT
 70
     0
  9
$DIMALTD
 70
     2
  9
$DIMALTF
 40
25.4
  9
$DIMLFAC
 40
1.0
  9
$DIMTOFL
 70
     0
  9
$DIMTVP
 40
0.0
  9
$DIMTIX
 70
     0
  9
$DIMSOXD
 70
     0
  9
$DIMSAH
 70
     0
  9
$DIMBLK1
  1

  9
$DIMBLK2
  1

  9
$DIMSTYLE
  2
Standard
  9
$DIMCLRD
 70
     0
  9
$DIMCLRE
 70
     0
  9
$DIMCLRT
 70
     0
  9
$DIMTFAC
 40
1.0
  9
$DIMGAP
 40
0.09
  9
$DIMJUST
 70
     0
  9
$DIMSD1
 70
     0
  9
$DIMSD2
 70
     0
  9
$DIMTOLJ
 70
     1
  9
$DIMTZIN
 70
     0
  9
$DIMALTZ
 70
     0
  9
$DIMALTTZ
 70
     0
  9
$DIMUPT
 70
     0
  9
$DIMDEC
 70
     4
  9
$DIMTDEC
 70
     4
  9
$DIMALTU
 70
     2
  9
$DIMALTTD
 70
     2
  9
$DIMTXSTY
  7
Standard
  9
$DIMAUNIT
 70
     0
  9
$DIMADEC
 70
     0
  9
$DIMALTRND
 40
0.0
  9
$DIMAZIN
 70
     0
  9
$DIMDSEP
 70
    46
  9
$DIMATFIT
 70
     3
  9
$DIMFRAC
 70
     0
  9
$DIMLDRBLK
  1

  9
$DIMLUNIT
 70
     2
  9
$DIMLWD
 70
    -2
  9
$DIMLWE
 70
    -2
  9
$DIMTMOVE
 70
     0
  9
$LUNITS
 70
     2
  9
$LUPREC
 70
     4
  9
$SKETCHINC
 40
0.1
  9
$FILLETRAD
 40
0.0
  9
$AUNITS
 70
     0
  9
$AUPREC
 70
     0
  9
$MENU
  1
.
  9
$ELEVATION
 40
0.0
  9
$PELEVATION
 40
0.0
  9
$THICKNESS
 40
0.0
  9
$LIMCHECK
 70
     0
  9
$CHAMFERA
 40
0.0
  9
$CHAMFERB
 40
0.0
  9
$CHAMFERC
 40
0.0
  9
$CHAMFERD
 40
0.0
  9
$SKPOLY
 70
     0
  9
$TDCREATE
 40
2455655.852500000
  9
$TDUCREATE
 40
2455655.769166666
  9
$TDUPDATE
 40
2455655.860614328
  9
$TDUUPDATE
 40
2455655.777280995
  9
$TDINDWG
 40
0.0081143287
  9
$TDUSRTIMER
 40
0.0081143287
  9
$USRTIMER
 70
     1
  9
$ANGBASE
 50
0.0
  9
$ANGDIR
 70
     0
  9
$PDMODE
 70
     0
  9
$PDSIZE
 40
0.0
  9
$PLINEWID
 40
0.0
  9
$SPLFRAME
 70
     0
  9
$SPLINETYPE
 70
     6
  9
$SPLINESEGS
 70
     8
  9
$HANDSEED
  5
295
  9
$SURFTAB1
 70
     6
  9
$SURFTAB2
 70
     6
  9
$SURFTYPE
 70
     6
  9
$SURFU
 70
     6
  9
$SURFV
 70
     6
  9
$UCSBASE
  2

  9
$UCSNAME
  2

  9
$UCSORG
 10
0.0
 20
0.0
 30
0.0
  9
$UCSXDIR
 10
1.0
 20
0.0
 30
0.0
  9
$UCSYDIR
 10
0.0
 20
1.0
 30
0.0
  9
$UCSORTHOREF
  2

  9
$UCSORTHOVIEW
 70
     1
  9
$UCSORGTOP
 10
0.0
 20
0.0
 30
0.0
  9
$UCSORGBOTTOM
 10
0.0
 20
0.0
 30
0.0
  9
$UCSORGLEFT
 10
0.0
 20
0.0
 30
0.0
  9
$UCSORGRIGHT
 10
0.0
 20
0.0
 30
0.0
  9
$UCSORGFRONT
 10
0.0
 20
0.0
 30
0.0
  9
$UCSORGBACK
 10
0.0
 20
0.0
 30
0.0
  9
$PUCSBASE
  2

  9
$PUCSNAME
  2

  9
$PUCSORG
 10
0.0
 20
0.0
 30
0.0
  9
$PUCSXDIR
 10
1.0
 20
0.0
 30
0.0
  9
$PUCSYDIR
 10
0.0
 20
1.0
 30
0.0
  9
$PUCSORTHOREF
  2

  9
$PUCSORTHOVIEW
 70
     0
  9
$PUCSORGTOP
 10
0.0
 20
0.0
 30
0.0
  9
$PUCSORGBOTTOM
 10
0.0
 20
0.0
 30
0.0
  9
$PUCSORGLEFT
 10
0.0
 20
0.0
 30
0.0
  9
$PUCSORGRIGHT
 10
0.0
 20
0.0
 30
0.0
  9
$PUCSORGFRONT
 10
0.0
 20
0.0
 30
0.0
  9
$PUCSORGBACK
 10
0.0
 20
0.0
 30
0.0
  9
$USERI1
 70
     0
  9
$USERI2
 70
     0
  9
$USERI3
 70
     0
  9
$USERI4
 70
     0
  9
$USERI5
 70
     0
  9
$USERR1
 40
0.0
  9
$USERR2
 40
0.0
  9
$USERR3
 40
0.0
  9
$USERR4
 40
0.0
  9
$USERR5
 40
0.0
  9
$WORLDVIEW
 70
     1
  9
$SHADEDGE
 70
     3
  9
$SHADEDIF
 70
    70
  9
$TILEMODE
 70
     1
  9
$MAXACTVP
 70
    64
  9
$PINSBASE
 10
0.0
 20
0.0
 30
0.0
  9
$PLIMCHECK
 70
     0
  9
$PEXTMIN
 10
1.000000000000000E+20
 20
1.000000000000000E+20
 30
1.000000000000000E+20
  9
$PEXTMAX
 10
-1.000000000000000E+20
 20
-1.000000000000000E+20
 30
-1.000000000000000E+20
  9
$PLIMMIN
 10
0.0
 20
0.0
  9
$PLIMMAX
 10
12.0
 20
9.0
  9
$UNITMODE
 70
     0
  9
$VISRETAIN
 70
     1
  9
$PLINEGEN
 70
     0
  9
$PSLTSCALE
 70
     1
  9
$TREEDEPTH
 70
  3020
  9
$CMLSTYLE
  2
Standard
  9
$CMLJUST
 70
     0
  9
$CMLSCALE
 40
1.0
  9
$PROXYGRAPHICS
 70
     1
  9
$MEASUREMENT
 70
     0
  9
$CELWEIGHT
370
    -1
  9
$ENDCAPS
280
     0
  9
$JOINSTYLE
280
     0
  9
$LWDISPLAY
290
     0
  9
$INSUNITS
 70
     0
  9
$HYPERLINKBASE
  1

  9
$STYLESHEET
  1

  9
$XEDIT
290
     1
  9
$CEPSNTYPE
380
     0
  9
$PSTYLEMODE
290
     1
  9
$FINGERPRINTGUID
  2
{6B930306-A812-4FAF-B41A-915A88CB9419}
  9
$VERSIONGUID
  2
{36DB361F-5549-464E-B354-D7D64E3FB44F}
  9
$EXTNAMES
290
     1
  9
$PSVPSCALE
 40
0.0
  9
$OLESTARTUP
290
     0
  0
ENDSEC
  0
SECTION
  2
CLASSES
  0
CLASS
  1
ACDBDICTIONARYWDFLT
  2
AcDbDictionaryWithDefault
  3
AutoCAD 2000
 90
        0
280
     0
281
     0
  0
CLASS
  1
ACDBPLACEHOLDER
  2
AcDbPlaceHolder
  3
AutoCAD 2000
 90
        0
280
     0
281
     0
  0
CLASS
  1
LAYOUT
  2
AcDbLayout
  3
AutoCAD 2000
 90
        0
280
     0
281
     0
  0
CLASS
  1
DICTIONARYVAR
  2
AcDbDictionaryVar
  3
AutoCAD 2000
 90
        0
280
     0
281
     0
  0
ENDSEC
  0
SECTION
  2
TABLES
  0
TABLE
  2
VPORT
  5
8
330
0
100
AcDbSymbolTable
 70
     5
  0
VPORT
  5
294
330
8
100
AcDbSymbolTableRecord
100
AcDbViewportTableRecord
  2
*Active
 70
     0
 10
0.0
 20
0.0
 11
1.0
 21
1.0
 12
84.0
 22
91.75
 13
0.0
 23
0.0
 14
1.0
 24
1.0
 15
0.0
 25
0.0
 16
0.0
 26
0.0
 36
1.0
 17
0.0
 27
0.0
 37
0.0
 40
184.2378804960541
 41
2.073363431151241
 42
50.0
 43
0.0
 44
0.0
 50
0.0
 51
0.0
 71
     0
 72
   100
 73
     1
 74
     3
 75
     0
 76
     0
 77
     0
 78
     0
281
     0
 65
     1
110
0.0
120
0.0
130
0.0
111
1.0
121
0.0
131
0.0
112
0.0
122
1.0
132
0.0
 79
     1
146
0.0
  0
ENDTAB
  0
TABLE
  2
LTYPE
  5
5
330
0
100
AcDbSymbolTable
 70
     1
  0
LTYPE
  5
13
330
5
100
AcDbSymbolTableRecord
100
AcDbLinetypeTableRecord
  2
ByBlock
 70
     0
  3

 72
    65
 73
     0
 40
0.0
  0
LTYPE
  5
14
330
5
100
AcDbSymbolTableRecord
100
AcDbLinetypeTableRecord
  2
ByLayer
 70
     0
  3

 72
    65
 73
     0
 40
0.0
  0
LTYPE
  5
15
330
5
100
AcDbSymbolTableRecord
100
AcDbLinetypeTableRecord
  2
Continuous
 70
     0
  3
Solid line
 72
    65
 73
     0
 40
0.0
  0
ENDTAB
  0
TABLE
  2
LAYER
  5
2
330
0
100
AcDbSymbolTable
 70
     1
  0
LAYER
  5
10
330
2
100
AcDbSymbolTableRecord
100
AcDbLayerTableRecord
  2
0
 70
     0
 62
     7
  6
Continuous
370
    -3
390
F
  0
ENDTAB
  0
TABLE
  2
STYLE
  5
3
330
0
100
AcDbSymbolTable
 70
     1
  0
STYLE
  5
11
330
3
100
AcDbSymbolTableRecord
100
AcDbTextStyleTableRecord
  2
Standard
 70
     0
 40
0.0
 41
1.0
 50
0.0
 71
     0
 42
0.2
  3
txt
  4

  0
ENDTAB
  0
TABLE
  2
VIEW
  5
6
330
0
100
AcDbSymbolTable
 70
     0
  0
ENDTAB
  0
TABLE
  2
UCS
  5
7
330
0
100
AcDbSymbolTable
 70
     0
  0
ENDTAB
  0
TABLE
  2
APPID
  5
9
330
0
100
AcDbSymbolTable
 70
     1
  0
APPID
  5
12
330
9
100
AcDbSymbolTableRecord
100
AcDbRegAppTableRecord
  2
ACAD
 70
     0
  0
ENDTAB
  0
TABLE
  2
DIMSTYLE
  5
A
330
0
100
AcDbSymbolTable
 70
     1
100
AcDbDimStyleTable
 71
     0
  0
DIMSTYLE
105
272
330
A
100
AcDbSymbolTableRecord
100
AcDbDimStyleTableRecord
  2
Standard
 70
     0
340
11
  0
ENDTAB
  0
TABLE
  2
BLOCK_RECORD
  5
1
330
0
100
AcDbSymbolTable
 70
     0
  0
BLOCK_RECORD
  5
1E
330
1
100
AcDbSymbolTableRecord
100
AcDbBlockTableRecord
  2
*Model_Space
340
21
  0
BLOCK_RECORD
  5
1A
330
1
100
AcDbSymbolTableRecord
100
AcDbBlockTableRecord
  2
*Paper_Space
340
1D
  0
ENDTAB
  0
ENDSEC
  0
SECTION
  2
BLOCKS
  0
BLOCK
  5
1F
330
1E
100
AcDbEntity
  8
0
100
AcDbBlockBegin
  2
*Model_Space
 70
     0
 10
0.0
 20
0.0
 30
0.0
  3
*Model_Space
  1

  0
ENDBLK
  5
20
330
1E
100
AcDbEntity
  8
0
100
AcDbBlockEnd
  0
BLOCK
  5
1B
330
1A
100
AcDbEntity
 67
     1
  8
0
100
AcDbBlockBegin
  2
*Paper_Space
 70
     0
 10
0.0
 20
0.0
 30
0.0
  3
*Paper_Space
  1

  0
ENDBLK
  5
1C
330
1A
100
AcDbEntity
 67
     1
  8
0
100
AcDbBlockEnd
  0
ENDSEC
  0
SECTION
  2
ENTITIES
  0
LINE
  5
22
330
1E
100
AcDbEntity
  8
0
100
AcDbLine
 10
28.4052316560874
 20
1.226808929647489
 30
0.0
 11
28.6359
 21
1.12796
 31
0.0
  0
LINE
  5
23
330
1E
100
AcDbEntity
  8
0
100
AcDbLine
 10
31.2829
 20
0.470980000000002
 30
0.0
 11
34.0
 21
0.250000000000002
 31
0.0
  0
LINE
  5
24
330
1E
100
AcDbEntity
  8
0
100
AcDbLine
 10
28.6359
 20
1.12796
 30
0.0
 11
30.2728377665357
 21
0.721675385773105
 31
0.0
  0
LINE
  5
25
330
1E
100
AcDbEntity
  8
0
100
AcDbLine
 10
28.6359
 20
1.12796
 30
0.0
 11
30.2728377665357
 21
0.721675385773105
 31
0.0
  0
LINE
  5
26
330
1E
100
AcDbEntity
  8
0
100
AcDbLine
 10
31.1571662207069
 20
0.5021868675179381
 30
0.0
 11
31.2829
 21
0.470980000000002
 31
0.0
  0
LINE
  5
27
330
1E
100
AcDbEntity
  8
0
100
AcDbLine
 10
28.4052316560874
 20
1.226808929647489
 30
0.0
 11
28.6359
 21
1.12796
 31
0.0
  0
LINE
  5
28
330
1E
100
AcDbEntity
  8
0
100
AcDbLine
 10
34.0
 20
0.250000000000002
 30
0.0
 11
36.7171
 21
0.470980000000002
 31
0.0
  0
LINE
  5
29
330
1E
100
AcDbEntity
  8
0
100
AcDbLine
 10
37.7271622334643
 20
0.721675385773086
 30
0.0
 11
39.3641
 21
1.12796
 31
0.0
  0
LINE
  5
2A
330
1E
100
AcDbEntity
  8
0
100
AcDbLine
 10
37.7271622334643
 20
0.721675385773086
 30
0.0
 11
39.3641
 21
1.12796
 31
0.0
  0
LINE
  5
2B
330
1E
100
AcDbEntity
  8
0
100
AcDbLine
 10
36.7171
 20
0.470980000000002
 30
0.0
 11
36.8428337792931
 21
0.502186867517939
 31
0.0
  0
LINE
  5
2C
330
1E
100
AcDbEntity
  8
0
100
AcDbLine
 10
36.7171
 20
0.470980000000002
 30
0.0
 11
36.8428337792931
 21
0.502186867517939
 31
0.0
  0
LINE
  5
2D
330
1E
100
AcDbEntity
  8
0
100
AcDbLine
 10
43.2062338677546
 20
3.050647665194339
 30
0.0
 11
44.181
 21
3.67028
 31
0.0
  0
LINE
  5
2E
330
1E
100
AcDbEntity
  8
0
100
AcDbLine
 10
45.435220672861
 20
4.7802278730992
 30
0.0
 11
46.1584
 21
5.420219999999999
 31
0.0
  0
LINE
  5
2F
330
1E
100
AcDbEntity
  8
0
100
AcDbLine
 10
20.1556
 20
7.45786
 30
0.0
 11
20.97739999999999
 21
6.383799999999999
 31
0.0
  0
LINE
  5
30
330
1E
100
AcDbEntity
  8
0
100
AcDbLine
 10
20.97739999999999
 20
6.383799999999999
 30
0.0
 11
21.84159999999999
 21
5.420219999999999
 31
0.0
  0
LINE
  5
31
330
1E
100
AcDbEntity
  8
0
100
AcDbLine
 10
46.1584
 20
5.420219999999999
 30
0.0
 11
47.02259999999999
 21
6.383799999999999
 31
0.0
  0
LINE
  5
32
330
1E
100
AcDbEntity
  8
0
100
AcDbLine
 10
47.02259999999999
 20
6.383799999999999
 30
0.0
 11
47.84429999999999
 21
7.45786
 31
0.0
  0
LINE
  5
33
330
1E
100
AcDbEntity
  8
0
100
AcDbLine
 10
18.80049999999999
 20
9.7324
 30
0.0
 11
19.2776
 21
8.83652
 31
0.0
  0
LINE
  5
34
330
1E
100
AcDbEntity
  8
0
100
AcDbLine
 10
19.2776
 20
8.83652
 30
0.0
 11
20.1556
 21
7.45786
 31
0.0
  0
LINE
  5
35
330
1E
100
AcDbEntity
  8
0
100
AcDbLine
 10
17.20439999999999
 20
14.7742
 30
0.0
 11
17.2432661518103
 21
14.6077807408568
 31
0.0
  0
LINE
  5
36
330
1E
100
AcDbEntity
  8
0
100
AcDbLine
 10
47.84429999999999
 20
7.45786
 30
0.0
 11
48.7224
 21
8.83652
 31
0.0
  0
LINE
  5
37
330
1E
100
AcDbEntity
  8
0
100
AcDbLine
 10
48.7224
 20
8.83652
 30
0.0
 11
49.1995
 21
9.7324
 31
0.0
  0
LINE
  5
38
330
1E
100
AcDbEntity
  8
0
100
AcDbLine
 10
45.435220672861
 20
4.7802278730992
 30
0.0
 11
46.1584
 21
5.420219999999999
 31
0.0
  0
LINE
  5
39
330
1E
100
AcDbEntity
  8
0
100
AcDbLine
 10
40.63011900553219
 20
1.670490550519189
 30
0.0
 11
41.8728
 21
2.203019999999999
 31
0.0
  0
LINE
  5
3A
330
1E
100
AcDbEntity
  8
0
100
AcDbLine
 10
50.7567338481897
 20
14.6077807408568
 30
0.0
 11
50.7956
 21
14.7742
 31
0.0
  0
LINE
  5
3B
330
1E
100
AcDbEntity
  8
0
100
AcDbLine
 10
17.0
 20
17.4211
 30
0.0
 11
17.0
 21
173.7712840208629
 31
0.0
  0
LINE
  5
3C
330
1E
100
AcDbEntity
  8
0
100
AcDbLine
 10
17.0
 20
17.4211
 30
0.0
 11
17.20439999999999
 21
14.7742
 31
0.0
  0
LINE
  5
3D
330
1E
100
AcDbEntity
  8
0
100
AcDbLine
 10
50.7956
 20
14.7742
 30
0.0
 11
51.0
 21
17.4211
 31
0.0
  0
LINE
  5
3E
330
1E
100
AcDbEntity
  8
0
100
AcDbLine
 10
111.1289999999999
 20
100.111
 30
0.0
 11
111.482
 21
99.745
 31
0.0
  0
LINE
  5
3F
330
1E
100
AcDbEntity
  8
0
100
AcDbLine
 10
111.0
 20
139.1889999999999
 30
0.0
 11
111.0
 21
115.154
 31
0.0
  0
LINE
  5
40
330
1E
100
AcDbEntity
  8
0
100
AcDbLine
 10
111.0
 20
139.1889999999999
 30
0.0
 11
111.067
 21
139.439
 31
0.0
  0
LINE
  5
41
330
1E
100
AcDbEntity
  8
0
100
AcDbLine
 10
111.25
 20
139.6229999999999
 30
0.0
 11
111.4999999999999
 21
139.69
 31
0.0
  0
LINE
  5
42
330
1E
100
AcDbEntity
  8
0
100
AcDbLine
 10
111.067
 20
139.439
 30
0.0
 11
111.25
 21
139.6229999999999
 31
0.0
  0
LINE
  5
43
330
1E
100
AcDbEntity
  8
0
100
AcDbLine
 10
111.0
 20
115.154
 30
0.0
 11
111.0
 21
100.602
 31
0.0
  0
LINE
  5
44
330
1E
100
AcDbEntity
  8
0
100
AcDbLine
 10
111.0
 20
115.154
 30
0.0
 11
111.0
 21
139.1889999999999
 31
0.0
  0
LINE
  5
45
330
1E
100
AcDbEntity
  8
0
100
AcDbLine
 10
111.0
 20
100.602
 30
0.0
 11
111.0
 21
115.154
 31
0.0
  0
LINE
  5
46
330
1E
100
AcDbEntity
  8
0
100
AcDbLine
 10
111.0
 20
100.602
 30
0.0
 11
111.1289999999999
 21
100.111
 31
0.0
  0
LINE
  5
47
330
1E
100
AcDbEntity
  8
0
100
AcDbLine
 10
51.0
 20
17.4211
 30
0.0
 11
51.0
 21
173.5840794207989
 31
0.0
  0
LINE
  5
48
330
1E
100
AcDbEntity
  8
0
100
AcDbLine
 10
56.394
 20
173.484
 30
0.0
 11
56.68199999999999
 21
173.479
 31
0.0
  0
LINE
  5
49
330
1E
100
AcDbEntity
  8
0
100
AcDbLine
 10
55.845
 20
173.4959999999999
 30
0.0
 11
56.394
 21
173.484
 31
0.0
  0
LINE
  5
4A
330
1E
100
AcDbEntity
  8
0
100
AcDbLine
 10
17.0
 20
173.7712840208629
 30
0.0
 11
17.0
 21
17.4211
 31
0.0
  0
LINE
  5
4B
330
1E
100
AcDbEntity
  8
0
100
AcDbLine
 10
51.0
 20
173.5840794207989
 30
0.0
 11
51.0
 21
17.4211
 31
0.0
  0
LINE
  5
4C
330
1E
100
AcDbEntity
  8
0
100
AcDbLine
 10
49.773
 20
173.604
 30
0.0
 11
52.052
 21
173.567
 31
0.0
  0
LINE
  5
4D
330
1E
100
AcDbEntity
  8
0
100
AcDbLine
 10
38.75
 20
173.7179999999999
 30
0.0
 11
41.701
 21
173.696
 31
0.0
  0
LINE
  5
4E
330
1E
100
AcDbEntity
  8
0
100
AcDbLine
 10
35.71199999999999
 20
173.734
 30
0.0
 11
38.75
 21
173.7179999999999
 31
0.0
  0
LINE
  5
4F
330
1E
100
AcDbEntity
  8
0
100
AcDbLine
 10
32.644
 20
173.745
 30
0.0
 11
35.71199999999999
 21
173.734
 31
0.0
  0
LINE
  5
50
330
1E
100
AcDbEntity
  8
0
100
AcDbLine
 10
26.646
 20
173.757
 30
0.0
 11
29.60399999999999
 21
173.752
 31
0.0
  0
LINE
  5
51
330
1E
100
AcDbEntity
  8
0
100
AcDbLine
 10
29.60399999999999
 20
173.752
 30
0.0
 11
32.644
 21
173.745
 31
0.0
  0
LINE
  5
52
330
1E
100
AcDbEntity
  8
0
100
AcDbLine
 10
23.82699999999999
 20
173.761
 30
0.0
 11
26.646
 21
173.757
 31
0.0
  0
LINE
  5
53
330
1E
100
AcDbEntity
  8
0
100
AcDbLine
 10
21.19699999999999
 20
173.764
 30
0.0
 11
23.82699999999999
 21
173.761
 31
0.0
  0
LINE
  5
54
330
1E
100
AcDbEntity
  8
0
100
AcDbLine
 10
44.513
 20
173.6699999999999
 30
0.0
 11
47.133
 21
173.6399999999999
 31
0.0
  0
LINE
  5
55
330
1E
100
AcDbEntity
  8
0
100
AcDbLine
 10
41.701
 20
173.696
 30
0.0
 11
44.513
 21
173.6699999999999
 31
0.0
  0
LINE
  5
56
330
1E
100
AcDbEntity
  8
0
100
AcDbLine
 10
47.133
 20
173.6399999999999
 30
0.0
 11
49.773
 21
173.604
 31
0.0
  0
LINE
  5
57
330
1E
100
AcDbEntity
  8
0
100
AcDbLine
 10
18.807
 20
173.767
 30
0.0
 11
21.19699999999999
 21
173.764
 31
0.0
  0
LINE
  5
58
330
1E
100
AcDbEntity
  8
0
100
AcDbLine
 10
52.052
 20
173.567
 30
0.0
 11
53.91799999999999
 21
173.5349999999999
 31
0.0
  0
LINE
  5
59
330
1E
100
AcDbEntity
  8
0
100
AcDbLine
 10
16.698
 20
173.772
 30
0.0
 11
17.0
 21
173.7712840208629
 31
0.0
  0
LINE
  5
5A
330
1E
100
AcDbEntity
  8
0
100
AcDbLine
 10
16.698
 20
173.772
 30
0.0
 11
18.807
 21
173.767
 31
0.0
  0
LINE
  5
5B
330
1E
100
AcDbEntity
  8
0
100
AcDbLine
 10
14.911
 20
173.7779999999999
 30
0.0
 11
16.698
 21
173.772
 31
0.0
  0
LINE
  5
5C
330
1E
100
AcDbEntity
  8
0
100
AcDbLine
 10
13.478
 20
173.7829999999999
 30
0.0
 11
14.911
 21
173.7779999999999
 31
0.0
  0
LINE
  5
5D
330
1E
100
AcDbEntity
  8
0
100
AcDbLine
 10
12.42799999999999
 20
173.7879999999999
 30
0.0
 11
13.478
 21
173.7829999999999
 31
0.0
  0
LINE
  5
5E
330
1E
100
AcDbEntity
  8
0
100
AcDbLine
 10
11.777
 20
173.792
 30
0.0
 11
12.42799999999999
 21
173.7879999999999
 31
0.0
  0
LINE
  5
5F
330
1E
100
AcDbEntity
  8
0
100
AcDbLine
 10
0.012
 20
183.2499999999999
 30
0.0
 11
0.084
 21
183.2499999999999
 31
0.0
  0
LINE
  5
60
330
1E
100
AcDbEntity
  8
0
100
AcDbLine
 10
0.4070000000000001
 20
183.2499999999999
 30
0.0
 11
0.759
 21
183.2499999999999
 31
0.0
  0
LINE
  5
61
330
1E
100
AcDbEntity
  8
0
100
AcDbLine
 10
2.068999999999999
 20
183.2499999999999
 30
0.0
 11
2.801999999999999
 21
183.2499999999999
 31
0.0
  0
LINE
  5
62
330
1E
100
AcDbEntity
  8
0
100
AcDbLine
 10
1.79
 20
183.2499999999999
 30
0.0
 11
2.068999999999999
 21
183.2499999999999
 31
0.0
  0
LINE
  5
63
330
1E
100
AcDbEntity
  8
0
100
AcDbLine
 10
1.104999999999999
 20
183.2499999999999
 30
0.0
 11
1.79
 21
183.2499999999999
 31
0.0
  0
LINE
  5
64
330
1E
100
AcDbEntity
  8
0
100
AcDbLine
 10
3.766999999999999
 20
183.2499999999999
 30
0.0
 11
4.966999999999999
 21
183.2499999999999
 31
0.0
  0
LINE
  5
65
330
1E
100
AcDbEntity
  8
0
100
AcDbLine
 10
0.759
 20
183.2499999999999
 30
0.0
 11
1.104999999999999
 21
183.2499999999999
 31
0.0
  0
LINE
  5
66
330
1E
100
AcDbEntity
  8
0
100
AcDbLine
 10
2.801999999999999
 20
183.2499999999999
 30
0.0
 11
3.766999999999999
 21
183.2499999999999
 31
0.0
  0
LINE
  5
67
330
1E
100
AcDbEntity
  8
0
100
AcDbLine
 10
6.171
 20
183.2499999999999
 30
0.0
 11
84.0
 21
183.2499999999999
 31
0.0
  0
LINE
  5
68
330
1E
100
AcDbEntity
  8
0
100
AcDbLine
 10
4.966999999999999
 20
183.2499999999999
 30
0.0
 11
6.171
 21
183.2499999999999
 31
0.0
  0
LINE
  5
69
330
1E
100
AcDbEntity
  8
0
100
AcDbLine
 10
0.178
 20
183.2499999999999
 30
0.0
 11
0.4070000000000001
 21
183.2499999999999
 31
0.0
  0
LINE
  5
6A
330
1E
100
AcDbEntity
  8
0
100
AcDbLine
 10
0.084
 20
183.2499999999999
 30
0.0
 11
0.178
 21
183.2499999999999
 31
0.0
  0
LINE
  5
B3
330
1E
100
AcDbEntity
  8
0
100
AcDbLine
 10
6.171
 20
183.2499999999999
 30
0.0
 11
84.0
 21
183.2499999999999
 31
0.0
  0
LINE
  5
B4
330
1E
100
AcDbEntity
  8
0
100
AcDbLine
 10
0.012
 20
183.2499999999999
 30
0.0
 11
0.084
 21
183.2499999999999
 31
0.0
  0
LINE
  5
B5
330
1E
100
AcDbEntity
  8
0
100
AcDbLine
 10
0.0
 20
183.2499999999999
 30
0.0
 11
0.156
 21
175.349
 31
0.0
  0
LINE
  5
B6
330
1E
100
AcDbEntity
  8
0
100
AcDbLine
 10
0.0
 20
183.2499999999999
 30
0.0
 11
0.156
 21
175.3459999999999
 31
0.0
  0
LINE
  5
103
330
1E
100
AcDbEntity
  8
0
100
AcDbLine
 10
11.539
 20
173.793
 30
0.0
 11
11.777
 21
173.792
 31
0.0
  0
LINE
  5
108
330
1E
100
AcDbEntity
  8
0
100
AcDbLine
 10
53.91799999999999
 20
173.5349999999999
 30
0.0
 11
55.016
 21
173.513
 31
0.0
  0
LINE
  5
109
330
1E
100
AcDbEntity
  8
0
100
AcDbLine
 10
55.016
 20
173.513
 30
0.0
 11
55.845
 21
173.4959999999999
 31
0.0
  0
LINE
  5
112
330
1E
100
AcDbEntity
  8
0
100
AcDbLine
 10
84.0
 20
183.2499999999999
 30
0.0
 11
161.829
 21
183.2499999999999
 31
0.0
  0
LINE
  5
113
330
1E
100
AcDbEntity
  8
0
100
AcDbLine
 10
56.702
 20
173.479
 30
0.0
 11
84.0
 21
173.4259999999999
 31
0.0
  0
LINE
  5
114
330
1E
100
AcDbEntity
  8
0
100
AcDbLine
 10
84.0
 20
173.4259999999999
 30
0.0
 11
111.338
 21
173.479
 31
0.0
  0
LINE
  5
115
330
1E
100
AcDbEntity
  8
0
100
AcDbLine
 10
111.969
 20
99.601
 30
0.0
 11
112.075
 21
99.601
 31
0.0
  0
LINE
  5
116
330
1E
100
AcDbEntity
  8
0
100
AcDbLine
 10
111.62
 20
137.8379999999999
 30
0.0
 11
112.2139999999999
 21
137.016
 31
0.0
  0
LINE
  5
117
330
1E
100
AcDbEntity
  8
0
100
AcDbLine
 10
111.4999999999999
 20
139.69
 30
0.0
 11
111.621
 21
139.69
 31
0.0
  0
LINE
  5
118
330
1E
100
AcDbEntity
  8
0
100
AcDbLine
 10
111.621
 20
139.69
 30
0.0
 11
111.722
 21
139.69
 31
0.0
  0
LINE
  5
119
330
1E
100
AcDbEntity
  8
0
100
AcDbLine
 10
111.901
 20
139.6419999999999
 30
0.0
 11
112.186
 21
138.992
 31
0.0
  0
LINE
  5
11A
330
1E
100
AcDbEntity
  8
0
100
AcDbLine
 10
112.124
 20
139.69
 30
0.0
 11
112.472
 21
139.69
 31
0.0
  0
LINE
  5
11B
330
1E
100
AcDbEntity
  8
0
100
AcDbLine
 10
111.996
 20
139.69
 30
0.0
 11
112.124
 21
139.69
 31
0.0
  0
LINE
  5
11C
330
1E
100
AcDbEntity
  8
0
100
AcDbLine
 10
111.836
 20
139.69
 30
0.0
 11
111.996
 21
139.69
 31
0.0
  0
LINE
  5
11D
330
1E
100
AcDbEntity
  8
0
100
AcDbLine
 10
112.001
 20
149.2489999999999
 30
0.0
 11
112.141
 21
145.912
 31
0.0
  0
LINE
  5
11E
330
1E
100
AcDbEntity
  8
0
100
AcDbLine
 10
111.76
 20
139.69
 30
0.0
 11
111.836
 21
139.69
 31
0.0
  0
LINE
  5
11F
330
1E
100
AcDbEntity
  8
0
100
AcDbLine
 10
111.76
 20
139.69
 30
0.0
 11
111.901
 21
139.6419999999999
 31
0.0
  0
LINE
  5
120
330
1E
100
AcDbEntity
  8
0
100
AcDbLine
 10
111.482
 20
99.745
 30
0.0
 11
111.969
 21
99.601
 31
0.0
  0
LINE
  5
125
330
1E
100
AcDbEntity
  8
0
100
AcDbLine
 10
112.141
 20
145.912
 30
0.0
 11
112.5629999999999
 21
142.597
 31
0.0
  0
LINE
  5
126
330
1E
100
AcDbEntity
  8
0
100
AcDbLine
 10
112.597
 20
138.026
 30
0.0
 11
113.266
 21
137.146
 31
0.0
  0
LINE
  5
127
330
1E
100
AcDbEntity
  8
0
100
AcDbLine
 10
112.2139999999999
 20
137.016
 30
0.0
 11
113.122
 21
136.149
 31
0.0
  0
LINE
  5
128
330
1E
100
AcDbEntity
  8
0
100
AcDbLine
 10
113.122
 20
136.149
 30
0.0
 11
114.2989999999999
 21
135.322
 31
0.0
  0
LINE
  5
129
330
1E
100
AcDbEntity
  8
0
100
AcDbLine
 10
116.853
 20
134.733
 30
0.0
 11
118.537
 21
134.041
 31
0.0
  0
LINE
  5
12A
330
1E
100
AcDbEntity
  8
0
100
AcDbLine
 10
117.4139999999999
 20
133.8239999999999
 30
0.0
 11
119.323
 21
133.174
 31
0.0
  0
LINE
  5
12B
330
1E
100
AcDbEntity
  8
0
100
AcDbLine
 10
115.734
 20
134.5439999999999
 30
0.0
 11
117.4139999999999
 21
133.8239999999999
 31
0.0
  0
LINE
  5
12C
330
1E
100
AcDbEntity
  8
0
100
AcDbLine
 10
114.2039999999999
 20
136.297
 30
0.0
 11
115.4039999999999
 21
135.49
 31
0.0
  0
LINE
  5
12D
330
1E
100
AcDbEntity
  8
0
100
AcDbLine
 10
113.264
 20
139.329
 30
0.0
 11
114.181140545969
 21
136.317690486644
 31
0.0
  0
LINE
  5
12E
330
1E
100
AcDbEntity
  8
0
100
AcDbLine
 10
113.266
 20
137.146
 30
0.0
 11
114.2039999999999
 21
136.297
 31
0.0
  0
LINE
  5
12F
330
1E
100
AcDbEntity
  8
0
100
AcDbLine
 10
115.4039999999999
 20
135.49
 30
0.0
 11
116.853
 21
134.733
 31
0.0
  0
LINE
  5
130
330
1E
100
AcDbEntity
  8
0
100
AcDbLine
 10
114.2989999999999
 20
135.322
 30
0.0
 11
115.734
 21
134.5439999999999
 31
0.0
  0
LINE
  5
131
330
1E
100
AcDbEntity
  8
0
100
AcDbLine
 10
112.5629999999999
 20
142.597
 30
0.0
 11
113.264
 21
139.329
 31
0.0
  0
LINE
  5
132
330
1E
100
AcDbEntity
  8
0
100
AcDbLine
 10
112.472
 20
139.69
 30
0.0
 11
113.1579999999999
 21
139.69
 31
0.0
  0
LINE
  5
133
330
1E
100
AcDbEntity
  8
0
100
AcDbLine
 10
112.186
 20
138.992
 30
0.0
 11
112.597
 21
138.026
 31
0.0
  0
LINE
  5
136
330
1E
100
AcDbEntity
  8
0
100
AcDbLine
 10
112.0001342184959
 20
173.491747893834
 30
0.0
 11
112.001
 21
149.2489999999999
 31
0.0
  0
LINE
  5
137
330
1E
100
AcDbEntity
  8
0
100
AcDbLine
 10
113.767
 20
173.5279999999999
 30
0.0
 11
115.4529999999999
 21
173.557
 31
0.0
  0
LINE
  5
138
330
1E
100
AcDbEntity
  8
0
100
AcDbLine
 10
115.4529999999999
 20
173.557
 30
0.0
 11
117.531
 21
173.592
 31
0.0
  0
LINE
  5
139
330
1E
100
AcDbEntity
  8
0
100
AcDbLine
 10
112.8779999999999
 20
173.5099999999999
 30
0.0
 11
113.767
 21
173.5279999999999
 31
0.0
  0
LINE
  5
13A
330
1E
100
AcDbEntity
  8
0
100
AcDbLine
 10
112.1879999999999
 20
173.4959999999999
 30
0.0
 11
112.8779999999999
 21
173.5099999999999
 31
0.0
  0
LINE
  5
13B
330
1E
100
AcDbEntity
  8
0
100
AcDbLine
 10
111.702
 20
173.485
 30
0.0
 11
112.1879999999999
 21
173.4959999999999
 31
0.0
  0
LINE
  5
13C
330
1E
100
AcDbEntity
  8
0
100
AcDbLine
 10
111.427
 20
173.4799999999999
 30
0.0
 11
111.702
 21
173.485
 31
0.0
  0
LINE
  5
13D
330
1E
100
AcDbEntity
  8
0
100
AcDbLine
 10
126.655
 20
99.29200000000001
 30
0.0
 11
134.0
 21
99.25
 31
0.0
  0
LINE
  5
13E
330
1E
100
AcDbEntity
  8
0
100
AcDbLine
 10
118.9888900886159
 20
99.45329837686351
 30
0.0
 11
122.0
 21
99.371
 31
0.0
  0
LINE
  5
140
330
1E
100
AcDbEntity
  8
0
100
AcDbLine
 10
122.0
 20
99.371
 30
0.0
 11
126.655
 21
99.29200000000001
 31
0.0
  0
LINE
  5
143
330
1E
100
AcDbEntity
  8
0
100
AcDbLine
 10
141.345
 20
99.29200000000001
 30
0.0
 11
146.0
 21
99.371
 31
0.0
  0
LINE
  5
146
330
1E
100
AcDbEntity
  8
0
100
AcDbLine
 10
146.0
 20
99.371
 30
0.0
 11
149.0111099113839
 21
99.45329837686351
 31
0.0
  0
LINE
  5
147
330
1E
100
AcDbEntity
  8
0
100
AcDbLine
 10
134.0
 20
99.25
 30
0.0
 11
141.345
 21
99.29200000000001
 31
0.0
  0
LINE
  5
149
330
1E
100
AcDbEntity
  8
0
100
AcDbLine
 10
129.799
 20
131.3849999999999
 30
0.0
 11
132.143
 21
131.271
 31
0.0
  0
LINE
  5
14A
330
1E
100
AcDbEntity
  8
0
100
AcDbLine
 10
127.881
 20
131.5459999999999
 30
0.0
 11
129.799
 21
131.3849999999999
 31
0.0
  0
LINE
  5
14B
330
1E
100
AcDbEntity
  8
0
100
AcDbLine
 10
132.143
 20
131.271
 30
0.0
 11
134.0
 21
131.251
 31
0.0
  0
LINE
  5
14F
330
1E
100
AcDbEntity
  8
0
100
AcDbLine
 10
134.0
 20
131.251
 30
0.0
 11
135.857
 21
131.271
 31
0.0
  0
LINE
  5
150
330
1E
100
AcDbEntity
  8
0
100
AcDbLine
 10
135.857
 20
131.271
 30
0.0
 11
138.2009999999999
 21
131.3849999999999
 31
0.0
  0
LINE
  5
151
330
1E
100
AcDbEntity
  8
0
100
AcDbLine
 10
131.3209999999999
 20
131.749
 30
0.0
 11
134.0
 21
131.6879999999999
 31
0.0
  0
LINE
  5
154
330
1E
100
AcDbEntity
  8
0
100
AcDbLine
 10
128.687
 20
131.929
 30
0.0
 11
131.3209999999999
 21
131.749
 31
0.0
  0
LINE
  5
155
330
1E
100
AcDbEntity
  8
0
100
AcDbLine
 10
126.0129999999999
 20
131.7649999999999
 30
0.0
 11
127.881
 21
131.5459999999999
 31
0.0
  0
LINE
  5
156
330
1E
100
AcDbEntity
  8
0
100
AcDbLine
 10
134.0
 20
131.6879999999999
 30
0.0
 11
136.6789999999999
 21
131.749
 31
0.0
  0
LINE
  5
159
330
1E
100
AcDbEntity
  8
0
100
AcDbLine
 10
138.2009999999999
 20
131.3849999999999
 30
0.0
 11
140.1189999999999
 21
131.5459999999999
 31
0.0
  0
LINE
  5
15B
330
1E
100
AcDbEntity
  8
0
100
AcDbLine
 10
140.1189999999999
 20
131.5459999999999
 30
0.0
 11
141.9869999999999
 21
131.7649999999999
 31
0.0
  0
LINE
  5
15C
330
1E
100
AcDbEntity
  8
0
100
AcDbLine
 10
136.6789999999999
 20
131.749
 30
0.0
 11
139.3129999999999
 21
131.929
 31
0.0
  0
LINE
  5
15D
330
1E
100
AcDbEntity
  8
0
100
AcDbLine
 10
121.676
 20
132.549
 30
0.0
 11
122.919
 21
132.281
 31
0.0
  0
LINE
  5
15E
330
1E
100
AcDbEntity
  8
0
100
AcDbLine
 10
126.139
 20
132.2259999999999
 30
0.0
 11
128.687
 21
131.929
 31
0.0
  0
LINE
  5
15F
330
1E
100
AcDbEntity
  8
0
100
AcDbLine
 10
124.211
 20
132.04
 30
0.0
 11
126.0129999999999
 21
131.7649999999999
 31
0.0
  0
LINE
  5
160
330
1E
100
AcDbEntity
  8
0
100
AcDbLine
 10
124.041
 20
132.5699999999999
 30
0.0
 11
126.139
 21
132.2259999999999
 31
0.0
  0
LINE
  5
161
330
1E
100
AcDbEntity
  8
0
100
AcDbLine
 10
122.919
 20
132.281
 30
0.0
 11
124.211
 21
132.04
 31
0.0
  0
LINE
  5
162
330
1E
100
AcDbEntity
  8
0
100
AcDbLine
 10
139.3129999999999
 20
131.929
 30
0.0
 11
141.8609999999999
 21
132.2259999999999
 31
0.0
  0
LINE
  5
163
330
1E
100
AcDbEntity
  8
0
100
AcDbLine
 10
143.7889999999999
 20
132.04
 30
0.0
 11
145.081
 21
132.281
 31
0.0
  0
LINE
  5
164
330
1E
100
AcDbEntity
  8
0
100
AcDbLine
 10
145.081
 20
132.281
 30
0.0
 11
146.3239999999999
 21
132.549
 31
0.0
  0
LINE
  5
165
330
1E
100
AcDbEntity
  8
0
100
AcDbLine
 10
141.9869999999999
 20
131.7649999999999
 30
0.0
 11
143.7889999999999
 21
132.04
 31
0.0
  0
LINE
  5
166
330
1E
100
AcDbEntity
  8
0
100
AcDbLine
 10
141.8609999999999
 20
132.2259999999999
 30
0.0
 11
143.959
 21
132.5699999999999
 31
0.0
  0
LINE
  5
167
330
1E
100
AcDbEntity
  8
0
100
AcDbLine
 10
122.062
 20
132.992
 30
0.0
 11
124.041
 21
132.5699999999999
 31
0.0
  0
LINE
  5
168
330
1E
100
AcDbEntity
  8
0
100
AcDbLine
 10
120.221
 20
133.484
 30
0.0
 11
122.062
 21
132.992
 31
0.0
  0
LINE
  5
169
330
1E
100
AcDbEntity
  8
0
100
AcDbLine
 10
120.47
 20
132.8479999999999
 30
0.0
 11
121.676
 21
132.549
 31
0.0
  0
LINE
  5
16A
330
1E
100
AcDbEntity
  8
0
100
AcDbLine
 10
119.323
 20
133.174
 30
0.0
 11
120.47
 21
132.8479999999999
 31
0.0
  0
LINE
  5
16B
330
1E
100
AcDbEntity
  8
0
100
AcDbLine
 10
143.959
 20
132.5699999999999
 30
0.0
 11
145.9379999999999
 21
132.992
 31
0.0
  0
LINE
  5
16C
330
1E
100
AcDbEntity
  8
0
100
AcDbLine
 10
146.3239999999999
 20
132.549
 30
0.0
 11
147.53
 21
132.8479999999999
 31
0.0
  0
LINE
  5
16D
330
1E
100
AcDbEntity
  8
0
100
AcDbLine
 10
148.677
 20
133.174
 30
0.0
 11
150.586
 21
133.8239999999999
 31
0.0
  0
LINE
  5
16E
330
1E
100
AcDbEntity
  8
0
100
AcDbLine
 10
147.53
 20
132.8479999999999
 30
0.0
 11
148.677
 21
133.174
 31
0.0
  0
LINE
  5
16F
330
1E
100
AcDbEntity
  8
0
100
AcDbLine
 10
145.9379999999999
 20
132.992
 30
0.0
 11
147.7789999999999
 21
133.484
 31
0.0
  0
LINE
  5
170
330
1E
100
AcDbEntity
  8
0
100
AcDbLine
 10
118.537
 20
134.041
 30
0.0
 11
120.221
 21
133.484
 31
0.0
  0
LINE
  5
171
330
1E
100
AcDbEntity
  8
0
100
AcDbLine
 10
147.7789999999999
 20
133.484
 30
0.0
 11
149.4629999999999
 21
134.041
 31
0.0
  0
LINE
  5
172
330
1E
100
AcDbEntity
  8
0
100
AcDbLine
 10
152.2659999999999
 20
134.5439999999999
 30
0.0
 11
153.7009999999999
 21
135.322
 31
0.0
  0
LINE
  5
173
330
1E
100
AcDbEntity
  8
0
100
AcDbLine
 10
150.586
 20
133.8239999999999
 30
0.0
 11
152.2659999999999
 21
134.5439999999999
 31
0.0
  0
LINE
  5
174
330
1E
100
AcDbEntity
  8
0
100
AcDbLine
 10
149.4629999999999
 20
134.041
 30
0.0
 11
151.147
 21
134.733
 31
0.0
  0
LINE
  5
175
330
1E
100
AcDbEntity
  8
0
100
AcDbLine
 10
151.147
 20
134.733
 30
0.0
 11
152.5959999999999
 21
135.49
 31
0.0
  0
LINE
  5
176
330
1E
100
AcDbEntity
  8
0
100
AcDbLine
 10
154.8779999999999
 20
136.149
 30
0.0
 11
155.7859999999999
 21
137.016
 31
0.0
  0
LINE
  5
177
330
1E
100
AcDbEntity
  8
0
100
AcDbLine
 10
153.7009999999999
 20
135.322
 30
0.0
 11
154.8779999999999
 21
136.149
 31
0.0
  0
LINE
  5
178
330
1E
100
AcDbEntity
  8
0
100
AcDbLine
 10
153.818859454031
 20
136.317690486644
 30
0.0
 11
154.7359999999999
 21
139.329
 31
0.0
  0
LINE
  5
179
330
1E
100
AcDbEntity
  8
0
100
AcDbLine
 10
154.7359999999999
 20
139.329
 30
0.0
 11
155.437
 21
142.597
 31
0.0
  0
LINE
  5
17A
330
1E
100
AcDbEntity
  8
0
100
AcDbLine
 10
154.842
 20
139.69
 30
0.0
 11
155.5279999999999
 21
139.69
 31
0.0
  0
LINE
  5
17B
330
1E
100
AcDbEntity
  8
0
100
AcDbLine
 10
154.734
 20
137.146
 30
0.0
 11
155.403
 21
138.026
 31
0.0
  0
LINE
  5
17C
330
1E
100
AcDbEntity
  8
0
100
AcDbLine
 10
153.7959999999999
 20
136.297
 30
0.0
 11
154.734
 21
137.146
 31
0.0
  0
LINE
  5
17D
330
1E
100
AcDbEntity
  8
0
100
AcDbLine
 10
152.5959999999999
 20
135.49
 30
0.0
 11
153.7959999999999
 21
136.297
 31
0.0
  0
LINE
  5
17F
330
1E
100
AcDbEntity
  8
0
100
AcDbLine
 10
155.403
 20
138.026
 30
0.0
 11
155.8139999999999
 21
138.992
 31
0.0
  0
LINE
  5
180
330
1E
100
AcDbEntity
  8
0
100
AcDbLine
 10
155.437
 20
142.597
 30
0.0
 11
155.859
 21
145.912
 31
0.0
  0
LINE
  5
181
330
1E
100
AcDbEntity
  8
0
100
AcDbLine
 10
155.5279999999999
 20
139.69
 30
0.0
 11
155.876
 21
139.69
 31
0.0
  0
LINE
  5
184
330
1E
100
AcDbEntity
  8
0
100
AcDbLine
 10
128.77
 20
173.714
 30
0.0
 11
131.4689999999999
 21
173.7299999999999
 31
0.0
  0
LINE
  5
185
330
1E
100
AcDbEntity
  8
0
100
AcDbLine
 10
125.635
 20
173.69
 30
0.0
 11
128.77
 21
173.714
 31
0.0
  0
LINE
  5
186
330
1E
100
AcDbEntity
  8
0
100
AcDbLine
 10
139.616
 20
173.754
 30
0.0
 11
142.215
 21
173.7579999999999
 31
0.0
  0
LINE
  5
187
330
1E
100
AcDbEntity
  8
0
100
AcDbLine
 10
142.215
 20
173.7579999999999
 30
0.0
 11
144.692
 21
173.761
 31
0.0
  0
LINE
  5
188
330
1E
100
AcDbEntity
  8
0
100
AcDbLine
 10
144.692
 20
173.761
 30
0.0
 11
147.4709999999999
 21
173.764
 31
0.0
  0
LINE
  5
189
330
1E
100
AcDbEntity
  8
0
100
AcDbLine
 10
136.932
 20
173.749
 30
0.0
 11
139.616
 21
173.754
 31
0.0
  0
LINE
  5
18A
330
1E
100
AcDbEntity
  8
0
100
AcDbLine
 10
134.2019999999999
 20
173.742
 30
0.0
 11
136.932
 21
173.749
 31
0.0
  0
LINE
  5
18B
330
1E
100
AcDbEntity
  8
0
100
AcDbLine
 10
131.4689999999999
 20
173.7299999999999
 30
0.0
 11
134.2019999999999
 21
173.742
 31
0.0
  0
LINE
  5
18C
330
1E
100
AcDbEntity
  8
0
100
AcDbLine
 10
122.677
 20
173.6609999999999
 30
0.0
 11
125.635
 21
173.69
 31
0.0
  0
LINE
  5
18D
330
1E
100
AcDbEntity
  8
0
100
AcDbLine
 10
119.9559999999999
 20
173.627
 30
0.0
 11
122.677
 21
173.6609999999999
 31
0.0
  0
LINE
  5
18E
330
1E
100
AcDbEntity
  8
0
100
AcDbLine
 10
117.531
 20
173.592
 30
0.0
 11
119.9559999999999
 21
173.627
 31
0.0
  0
LINE
  5
18F
330
1E
100
AcDbEntity
  8
0
100
AcDbLine
 10
149.681
 20
173.768
 30
0.0
 11
151.627
 21
173.7729999999999
 31
0.0
  0
LINE
  5
190
330
1E
100
AcDbEntity
  8
0
100
AcDbLine
 10
151.627
 20
173.7729999999999
 30
0.0
 11
153.2729999999999
 21
173.7779999999999
 31
0.0
  0
LINE
  5
191
330
1E
100
AcDbEntity
  8
0
100
AcDbLine
 10
154.597
 20
173.7829999999999
 30
0.0
 11
155.5699999999999
 21
173.7879999999999
 31
0.0
  0
LINE
  5
192
330
1E
100
AcDbEntity
  8
0
100
AcDbLine
 10
153.2729999999999
 20
173.7779999999999
 30
0.0
 11
154.597
 21
173.7829999999999
 31
0.0
  0
LINE
  5
193
330
1E
100
AcDbEntity
  8
0
100
AcDbLine
 10
147.4709999999999
 20
173.764
 30
0.0
 11
149.681
 21
173.768
 31
0.0
  0
LINE
  5
194
330
1E
100
AcDbEntity
  8
0
100
AcDbLine
 10
156.031
 20
99.601
 30
0.0
 11
156.5179999999999
 21
99.745
 31
0.0
  0
LINE
  5
195
330
1E
100
AcDbEntity
  8
0
100
AcDbLine
 10
155.8139999999999
 20
138.992
 30
0.0
 11
156.0989999999999
 21
139.6419999999999
 31
0.0
  0
LINE
  5
196
330
1E
100
AcDbEntity
  8
0
100
AcDbLine
 10
155.876
 20
139.69
 30
0.0
 11
156.0039999999999
 21
139.69
 31
0.0
  0
LINE
  5
197
330
1E
100
AcDbEntity
  8
0
100
AcDbLine
 10
156.0989999999999
 20
139.6419999999999
 30
0.0
 11
156.24
 21
139.69
 31
0.0
  0
LINE
  5
198
330
1E
100
AcDbEntity
  8
0
100
AcDbLine
 10
156.1639999999999
 20
139.69
 30
0.0
 11
156.24
 21
139.69
 31
0.0
  0
LINE
  5
199
330
1E
100
AcDbEntity
  8
0
100
AcDbLine
 10
156.0039999999999
 20
139.69
 30
0.0
 11
156.1639999999999
 21
139.69
 31
0.0
  0
LINE
  5
19A
330
1E
100
AcDbEntity
  8
0
100
AcDbLine
 10
156.278
 20
139.69
 30
0.0
 11
156.379
 21
139.69
 31
0.0
  0
LINE
  5
19B
330
1E
100
AcDbEntity
  8
0
100
AcDbLine
 10
155.7859999999999
 20
137.016
 30
0.0
 11
156.38
 21
137.8379999999999
 31
0.0
  0
LINE
  5
19C
330
1E
100
AcDbEntity
  8
0
100
AcDbLine
 10
156.4999999999999
 20
139.69
 30
0.0
 11
156.75
 21
139.6229999999999
 31
0.0
  0
LINE
  5
19D
330
1E
100
AcDbEntity
  8
0
100
AcDbLine
 10
155.859
 20
145.912
 30
0.0
 11
155.9989999999999
 21
149.2489999999999
 31
0.0
  0
LINE
  5
19E
330
1E
100
AcDbEntity
  8
0
100
AcDbLine
 10
155.9989999999999
 20
149.2489999999999
 30
0.0
 11
155.9998764369369
 21
173.7901106862699
 31
0.0
  0
LINE
  5
19F
330
1E
100
AcDbEntity
  8
0
100
AcDbLine
 10
156.379
 20
139.69
 30
0.0
 11
156.4999999999999
 21
139.69
 31
0.0
  0
LINE
  5
1A0
330
1E
100
AcDbEntity
  8
0
100
AcDbLine
 10
156.75
 20
139.6229999999999
 30
0.0
 11
156.9329999999999
 21
139.439
 31
0.0
  0
LINE
  5
1A1
330
1E
100
AcDbEntity
  8
0
100
AcDbLine
 10
156.5179999999999
 20
99.745
 30
0.0
 11
156.871
 21
100.111
 31
0.0
  0
LINE
  5
1A2
330
1E
100
AcDbEntity
  8
0
100
AcDbLine
 10
155.925
 20
99.601
 30
0.0
 11
156.031
 21
99.601
 31
0.0
  0
LINE
  5
1A3
330
1E
100
AcDbEntity
  8
0
100
AcDbLine
 10
157.0
 20
100.602
 30
0.0
 11
157.0
 21
115.154
 31
0.0
  0
LINE
  5
1A4
330
1E
100
AcDbEntity
  8
0
100
AcDbLine
 10
156.9329999999999
 20
139.439
 30
0.0
 11
157.0
 21
139.1889999999999
 31
0.0
  0
LINE
  5
1A5
330
1E
100
AcDbEntity
  8
0
100
AcDbLine
 10
157.0
 20
139.1889999999999
 30
0.0
 11
157.0
 21
115.154
 31
0.0
  0
LINE
  5
1A6
330
1E
100
AcDbEntity
  8
0
100
AcDbLine
 10
157.0
 20
115.154
 30
0.0
 11
157.0
 21
100.602
 31
0.0
  0
LINE
  5
1A7
330
1E
100
AcDbEntity
  8
0
100
AcDbLine
 10
157.0
 20
115.154
 30
0.0
 11
157.0
 21
139.1889999999999
 31
0.0
  0
LINE
  5
1A8
330
1E
100
AcDbEntity
  8
0
100
AcDbLine
 10
156.871
 20
100.111
 30
0.0
 11
157.0
 21
100.602
 31
0.0
  0
LINE
  5
1A9
330
1E
100
AcDbEntity
  8
0
100
AcDbLine
 10
156.181
 20
173.791
 30
0.0
 11
156.4199999999999
 21
173.793
 31
0.0
  0
LINE
  5
1AA
330
1E
100
AcDbEntity
  8
0
100
AcDbLine
 10
155.5699999999999
 20
173.7879999999999
 30
0.0
 11
156.181
 21
173.791
 31
0.0
  0
LINE
  5
22B
330
1E
100
AcDbEntity
  8
0
100
AcDbLine
 10
162.795
 20
183.2499999999999
 30
0.0
 11
163.761
 21
183.2499999999999
 31
0.0
  0
LINE
  5
22C
330
1E
100
AcDbEntity
  8
0
100
AcDbLine
 10
163.761
 20
183.2499999999999
 30
0.0
 11
164.793
 21
183.2499999999999
 31
0.0
  0
LINE
  5
22F
330
1E
100
AcDbEntity
  8
0
100
AcDbLine
 10
166.364
 20
183.2499999999999
 30
0.0
 11
166.8659999999999
 21
183.2499999999999
 31
0.0
  0
LINE
  5
230
330
1E
100
AcDbEntity
  8
0
100
AcDbLine
 10
165.7829999999999
 20
183.2499999999999
 30
0.0
 11
166.3629999999999
 21
183.2499999999999
 31
0.0
  0
LINE
  5
231
330
1E
100
AcDbEntity
  8
0
100
AcDbLine
 10
164.793
 20
183.2499999999999
 30
0.0
 11
165.7829999999999
 21
183.2499999999999
 31
0.0
  0
LINE
  5
232
330
1E
100
AcDbEntity
  8
0
100
AcDbLine
 10
161.829
 20
183.2499999999999
 30
0.0
 11
162.795
 21
183.2499999999999
 31
0.0
  0
LINE
  5
233
330
1E
100
AcDbEntity
  8
0
100
AcDbLine
 10
166.867
 20
183.2499999999999
 30
0.0
 11
167.29
 21
183.2499999999999
 31
0.0
  0
LINE
  5
234
330
1E
100
AcDbEntity
  8
0
100
AcDbLine
 10
167.29
 20
183.2499999999999
 30
0.0
 11
167.5929999999999
 21
183.2499999999999
 31
0.0
  0
LINE
  5
235
330
1E
100
AcDbEntity
  8
0
100
AcDbLine
 10
167.8429999999999
 20
175.357
 30
0.0
 11
168.0
 21
183.2499999999999
 31
0.0
  0
LINE
  5
236
330
1E
100
AcDbEntity
  8
0
100
AcDbLine
 10
167.5929999999999
 20
183.2499999999999
 30
0.0
 11
167.864
 21
183.2499999999999
 31
0.0
  0
LINE
  5
237
330
1E
100
AcDbEntity
  8
0
100
AcDbLine
 10
167.864
 20
183.2499999999999
 30
0.0
 11
167.974
 21
183.2499999999999
 31
0.0
  0
LINE
  5
271
330
1E
100
AcDbEntity
  8
0
100
AcDbLine
 10
111.358
 20
173.479
 30
0.0
 11
111.427
 21
173.4799999999999
 31
0.0
  0
LINE
  5
276
330
1E
100
AcDbEntity
  8
0
100
AcDbLine
 10
156.4199999999999
 20
173.793
 30
0.0
 11
166.079460170044
 21
173.793
 31
0.0
  0
LINE
  5
277
330
1E
100
AcDbEntity
  8
0
100
AcDbLine
 10
166.079460170044
 20
173.793
 30
0.0
 11
167.0069304026012
 21
174.0405249489575
 31
0.0
  0
LINE
  5
278
330
1E
100
AcDbEntity
  8
0
100
AcDbLine
 10
167.0069304026012
 20
174.0405249489575
 30
0.0
 11
167.6046327172084
 21
174.7408708518498
 31
0.0
  0
LINE
  5
279
330
1E
100
AcDbEntity
  8
0
100
AcDbLine
 10
167.6046327172084
 20
174.7408708518498
 30
0.0
 11
167.8429999999999
 21
175.357
 31
0.0
  0
LINE
  5
27A
330
1E
100
AcDbEntity
  8
0
100
AcDbLine
 10
149.0111099113839
 20
99.45329837686351
 30
0.0
 11
155.925
 21
99.601
 31
0.0
  0
LINE
  5
27B
330
1E
100
AcDbEntity
  8
0
100
AcDbLine
 10
112.075
 20
99.601
 30
0.0
 11
118.9888900886159
 21
99.45329837686351
 31
0.0
  0
LINE
  5
27C
330
1E
100
AcDbEntity
  8
0
100
AcDbLine
 10
50.7567338481897
 20
14.6077807408568
 30
0.0
 11
50.26893972130188
 21
12.57036157127828
 31
0.0
  0
LINE
  5
27D
330
1E
100
AcDbEntity
  8
0
100
AcDbLine
 10
50.26893972130188
 20
12.57036157127828
 30
0.0
 11
49.1995
 21
9.7324
 31
0.0
  0
LINE
  5
27E
330
1E
100
AcDbEntity
  8
0
100
AcDbLine
 10
45.435220672861
 20
4.7802278730992
 30
0.0
 11
44.181
 21
3.67028
 31
0.0
  0
LINE
  5
27F
330
1E
100
AcDbEntity
  8
0
100
AcDbLine
 10
43.2062338677546
 20
3.050647665194339
 30
0.0
 11
41.8728
 21
2.203019999999999
 31
0.0
  0
LINE
  5
280
330
1E
100
AcDbEntity
  8
0
100
AcDbLine
 10
40.63011900553219
 20
1.670490550519189
 30
0.0
 11
39.3641
 21
1.12796
 31
0.0
  0
LINE
  5
281
330
1E
100
AcDbEntity
  8
0
100
AcDbLine
 10
37.7271622334643
 20
0.721675385773086
 30
0.0
 11
36.8428337792931
 21
0.502186867517939
 31
0.0
  0
LINE
  5
282
330
1E
100
AcDbEntity
  8
0
100
AcDbLine
 10
31.1571662207069
 20
0.5021868675179381
 30
0.0
 11
30.2728377665357
 21
0.721675385773105
 31
0.0
  0
LINE
  5
283
330
1E
100
AcDbEntity
  8
0
100
AcDbLine
 10
21.84159999999999
 20
5.420219999999999
 30
0.0
 11
23.07567152648425
 21
4.343098106547131
 31
0.0
  0
LINE
  5
284
330
1E
100
AcDbEntity
  8
0
100
AcDbLine
 10
23.07567152648425
 20
4.343098106547131
 30
0.0
 11
24.28451822554507
 21
3.380087258029789
 31
0.0
  0
LINE
  5
285
330
1E
100
AcDbEntity
  8
0
100
AcDbLine
 10
24.28451822554507
 20
3.380087258029789
 30
0.0
 11
25.91383286939731
 21
2.294511344801435
 31
0.0
  0
LINE
  5
286
330
1E
100
AcDbEntity
  8
0
100
AcDbLine
 10
25.91383286939731
 20
2.294511344801435
 30
0.0
 11
28.4052316560874
 21
1.226808929647489
 31
0.0
  0
LINE
  5
287
330
1E
100
AcDbEntity
  8
0
100
AcDbLine
 10
18.80049999999999
 20
9.7324
 30
0.0
 11
18.01490982761674
 21
11.36802641446718
 31
0.0
  0
LINE
  5
288
330
1E
100
AcDbEntity
  8
0
100
AcDbLine
 10
18.01490982761674
 20
11.36802641446718
 30
0.0
 11
17.51887409638993
 21
13.17305264073604
 31
0.0
  0
LINE
  5
289
330
1E
100
AcDbEntity
  8
0
100
AcDbLine
 10
17.51887409638993
 20
13.17305264073604
 30
0.0
 11
17.2432661518103
 21
14.6077807408568
 31
0.0
  0
LINE
  5
28D
330
1E
100
AcDbEntity
  8
0
100
AcDbLine
 10
11.539
 20
173.793
 30
0.0
 11
0.9936550742188501
 21
173.7143385992398
 31
0.0
  0
LINE
  5
28E
330
1E
100
AcDbEntity
  8
0
100
AcDbLine
 10
0.9936550742188501
 20
173.7143385992398
 30
0.0
 11
0.6343026541005657
 21
173.8158796969885
 31
0.0
  0
LINE
  5
28F
330
1E
100
AcDbEntity
  8
0
100
AcDbLine
 10
0.6343026541005657
 20
173.8158796969885
 30
0.0
 11
0.2678951839900492
 21
174.1637637445807
 31
0.0
  0
LINE
  5
290
330
1E
100
AcDbEntity
  8
0
100
AcDbLine
 10
0.2678951839900492
 20
174.1637637445807
 30
0.0
 11
0.1671334284224031
 21
174.6031966117789
 31
0.0
  0
LINE
  5
291
330
1E
100
AcDbEntity
  8
0
100
AcDbLine
 10
0.1671334284224031
 20
174.6031966117789
 30
0.0
 11
0.156
 21
175.3459999999999
 31
0.0
  0
ENDSEC
  0
SECTION
  2
OBJECTS
  0
DICTIONARY
  5
C
330
0
100
AcDbDictionary
281
     1
  3
ACAD_GROUP
350
D
  3
ACAD_LAYOUT
350
19
  3
ACAD_MLINESTYLE
350
16
  3
ACAD_PLOTSETTINGS
350
18
  3
ACAD_PLOTSTYLENAME
350
E
  3
AcDbVariableDictionary
350
28B
  0
DICTIONARY
  5
D
102
{ACAD_REACTORS
330
C
102
}
330
C
100
AcDbDictionary
281
     1
  0
DICTIONARY
  5
19
102
{ACAD_REACTORS
330
C
102
}
330
C
100
AcDbDictionary
281
     1
  3
Layout1
350
1D
  3
Model
350
21
  0
DICTIONARY
  5
16
102
{ACAD_REACTORS
330
C
102
}
330
C
100
AcDbDictionary
281
     1
  3
Standard
350
17
  0
DICTIONARY
  5
18
102
{ACAD_REACTORS
330
C
102
}
330
C
100
AcDbDictionary
281
     1
  0
ACDBDICTIONARYWDFLT
  5
E
102
{ACAD_REACTORS
330
C
102
}
330
C
100
AcDbDictionary
281
     1
  3
Normal
350
F
100
AcDbDictionaryWithDefault
340
F
  0
DICTIONARY
  5
28B
102
{ACAD_REACTORS
330
C
102
}
330
C
100
AcDbDictionary
281
     1
  3
DIMASSOC
350
28C
  0
LAYOUT
  5
1D
102
{ACAD_REACTORS
330
19
102
}
330
19
100
AcDbPlotSettings
  1

  2
C:\Programme\AutoCAD LT 2002 Deu\plotters\DWF ePlot (optimized for plotting).pc3
  4

  6

 40
0.0
 41
0.0
 42
0.0
 43
0.0
 44
0.0
 45
0.0
 46
0.0
 47
0.0
 48
0.0
 49
0.0
140
0.0
141
0.0
142
1.0
143
1.0
 70
   688
 72
     0
 73
     0
 74
     5
  7

 75
    16
147
1.0
148
0.0
149
0.0
100
AcDbLayout
  1
Layout1
 70
     1
 71
     1
 10
0.0
 20
0.0
 11
12.0
 21
9.0
 12
0.0
 22
0.0
 32
0.0
 14
1.000000000000000E+20
 24
1.000000000000000E+20
 34
1.000000000000000E+20
 15
-1.000000000000000E+20
 25
-1.000000000000000E+20
 35
-1.000000000000000E+20
146
0.0
 13
0.0
 23
0.0
 33
0.0
 16
1.0
 26
0.0
 36
0.0
 17
0.0
 27
1.0
 37
0.0
 76
     0
330
1A
  0
LAYOUT
  5
21
102
{ACAD_REACTORS
330
19
102
}
330
19
100
AcDbPlotSettings
  1

  2
C:\Programme\AutoCAD LT 2002 Deu\plotters\DWF ePlot (optimized for plotting).pc3
  4

  6

 40
0.0
 41
0.0
 42
0.0
 43
0.0
 44
0.0
 45
0.0
 46
0.0
 47
0.0
 48
0.0
 49
0.0
140
0.0
141
0.0
142
1.0
143
1.0
 70
  1712
 72
     0
 73
     0
 74
     0
  7

 75
     0
147
1.0
148
0.0
149
0.0
100
AcDbLayout
  1
Model
 70
     1
 71
     0
 10
0.0
 20
0.0
 11
12.0
 21
9.0
 12
0.0
 22
0.0
 32
0.0
 14
0.0
 24
0.0
 34
0.0
 15
0.0
 25
0.0
 35
0.0
146
0.0
 13
0.0
 23
0.0
 33
0.0
 16
1.0
 26
0.0
 36
0.0
 17
0.0
 27
1.0
 37
0.0
 76
     0
330
1E
  0
MLINESTYLE
  5
17
102
{ACAD_REACTORS
330
16
102
}
330
16
100
AcDbMlineStyle
  2
STANDARD
 70
     0
  3

 62
   256
 51
90.0
 52
90.0
 71
     2
 49
0.5
 62
   256
  6
BYLAYER
 49
-0.5
 62
   256
  6
BYLAYER
  0
ACDBPLACEHOLDER
  5
F
102
{ACAD_REACTORS
330
E
102
}
330
E
  0
DICTIONARYVAR
  5
28C
102
{ACAD_REACTORS
330
28B
102
}
330
28B
100
DictionaryVariables
280
     0
  1
1
  0
ENDSEC
  0
EOF
