  0
SECTION
  2
HEADER
  9
$ACADVER
  1
AC1015
  9
$ACADMAINTVER
 70
    13
  9
$DWGCODEPAGE
  3
ANSI_1252
  9
$INSBASE
 10
0.0
 20
0.0
 30
0.0
  9
$EXTMIN
 10
-0.2225580188703304
 20
0.3298963026600035
 30
0.0
  9
$EXTMAX
 10
62.0
 20
157.0
 30
0.0
  9
$LIMMIN
 10
0.0
 20
0.0
  9
$LIMMAX
 10
12.0
 20
9.0
  9
$ORTHOMODE
 70
     0
  9
$REGENMODE
 70
     1
  9
$FILLMODE
 70
     1
  9
$QTEXTMODE
 70
     0
  9
$MIRRTEXT
 70
     1
  9
$LTSCALE
 40
1.0
  9
$ATTMODE
 70
     1
  9
$TEXTSIZE
 40
0.2
  9
$TRACEWID
 40
0.05
  9
$TEXTSTYLE
  7
Standard
  9
$CLAYER
  8
0
  9
$CELTYPE
  6
Continuous
  9
$CECOLOR
 62
   256
  9
$CELTSCALE
 40
1.0
  9
$DISPSILH
 70
     0
  9
$DIMSCALE
 40
1.0
  9
$DIMASZ
 40
0.18
  9
$DIMEXO
 40
0.0625
  9
$DIMDLI
 40
0.38
  9
$DIMRND
 40
0.0
  9
$DIMDLE
 40
0.0
  9
$DIMEXE
 40
0.18
  9
$DIMTP
 40
0.0
  9
$DIMTM
 40
0.0
  9
$DIMTXT
 40
0.18
  9
$DIMCEN
 40
0.09
  9
$DIMTSZ
 40
0.0
  9
$DIMTOL
 70
     0
  9
$DIMLIM
 70
     0
  9
$DIMTIH
 70
     1
  9
$DIMTOH
 70
     1
  9
$DIMSE1
 70
     0
  9
$DIMSE2
 70
     0
  9
$DIMTAD
 70
     0
  9
$DIMZIN
 70
     0
  9
$DIMBLK
  1

  9
$DIMASO
 70
     1
  9
$DIMSHO
 70
     1
  9
$DIMPOST
  1

  9
$DIMAPOST
  1

  9
$DIMALT
 70
     0
  9
$DIMALTD
 70
     2
  9
$DIMALTF
 40
25.4
  9
$DIMLFAC
 40
1.0
  9
$DIMTOFL
 70
     0
  9
$DIMTVP
 40
0.0
  9
$DIMTIX
 70
     0
  9
$DIMSOXD
 70
     0
  9
$DIMSAH
 70
     0
  9
$DIMBLK1
  1

  9
$DIMBLK2
  1

  9
$DIMSTYLE
  2
Standard
  9
$DIMCLRD
 70
     0
  9
$DIMCLRE
 70
     0
  9
$DIMCLRT
 70
     0
  9
$DIMTFAC
 40
1.0
  9
$DIMGAP
 40
0.09
  9
$DIMJUST
 70
     0
  9
$DIMSD1
 70
     0
  9
$DIMSD2
 70
     0
  9
$DIMTOLJ
 70
     1
  9
$DIMTZIN
 70
     0
  9
$DIMALTZ
 70
     0
  9
$DIMALTTZ
 70
     0
  9
$DIMUPT
 70
     0
  9
$DIMDEC
 70
     4
  9
$DIMTDEC
 70
     4
  9
$DIMALTU
 70
     2
  9
$DIMALTTD
 70
     2
  9
$DIMTXSTY
  7
Standard
  9
$DIMAUNIT
 70
     0
  9
$DIMADEC
 70
     0
  9
$DIMALTRND
 40
0.0
  9
$DIMAZIN
 70
     0
  9
$DIMDSEP
 70
    46
  9
$DIMATFIT
 70
     3
  9
$DIMFRAC
 70
     0
  9
$DIMLDRBLK
  1

  9
$DIMLUNIT
 70
     2
  9
$DIMLWD
 70
    -2
  9
$DIMLWE
 70
    -2
  9
$DIMTMOVE
 70
     0
  9
$LUNITS
 70
     2
  9
$LUPREC
 70
     4
  9
$SKETCHINC
 40
0.1
  9
$FILLETRAD
 40
0.0
  9
$AUNITS
 70
     0
  9
$AUPREC
 70
     0
  9
$MENU
  1
.
  9
$ELEVATION
 40
0.0
  9
$PELEVATION
 40
0.0
  9
$THICKNESS
 40
0.0
  9
$LIMCHECK
 70
     0
  9
$CHAMFERA
 40
0.0
  9
$CHAMFERB
 40
0.0
  9
$CHAMFERC
 40
0.0
  9
$CHAMFERD
 40
0.0
  9
$SKPOLY
 70
     0
  9
$TDCREATE
 40
2455655.355273969
  9
$TDUCREATE
 40
2455655.271940636
  9
$TDUPDATE
 40
2455655.356322511
  9
$TDUUPDATE
 40
2455655.272989178
  9
$TDINDWG
 40
0.0010485417
  9
$TDUSRTIMER
 40
0.0010485417
  9
$USRTIMER
 70
     1
  9
$ANGBASE
 50
0.0
  9
$ANGDIR
 70
     0
  9
$PDMODE
 70
     0
  9
$PDSIZE
 40
0.0
  9
$PLINEWID
 40
0.0
  9
$SPLFRAME
 70
     0
  9
$SPLINETYPE
 70
     6
  9
$SPLINESEGS
 70
     8
  9
$HANDSEED
  5
31A
  9
$SURFTAB1
 70
     6
  9
$SURFTAB2
 70
     6
  9
$SURFTYPE
 70
     6
  9
$SURFU
 70
     6
  9
$SURFV
 70
     6
  9
$UCSBASE
  2

  9
$UCSNAME
  2

  9
$UCSORG
 10
0.0
 20
0.0
 30
0.0
  9
$UCSXDIR
 10
1.0
 20
0.0
 30
0.0
  9
$UCSYDIR
 10
0.0
 20
1.0
 30
0.0
  9
$UCSORTHOREF
  2

  9
$UCSORTHOVIEW
 70
     1
  9
$UCSORGTOP
 10
0.0
 20
0.0
 30
0.0
  9
$UCSORGBOTTOM
 10
0.0
 20
0.0
 30
0.0
  9
$UCSORGLEFT
 10
0.0
 20
0.0
 30
0.0
  9
$UCSORGRIGHT
 10
0.0
 20
0.0
 30
0.0
  9
$UCSORGFRONT
 10
0.0
 20
0.0
 30
0.0
  9
$UCSORGBACK
 10
0.0
 20
0.0
 30
0.0
  9
$PUCSBASE
  2

  9
$PUCSNAME
  2

  9
$PUCSORG
 10
0.0
 20
0.0
 30
0.0
  9
$PUCSXDIR
 10
1.0
 20
0.0
 30
0.0
  9
$PUCSYDIR
 10
0.0
 20
1.0
 30
0.0
  9
$PUCSORTHOREF
  2

  9
$PUCSORTHOVIEW
 70
     0
  9
$PUCSORGTOP
 10
0.0
 20
0.0
 30
0.0
  9
$PUCSORGBOTTOM
 10
0.0
 20
0.0
 30
0.0
  9
$PUCSORGLEFT
 10
0.0
 20
0.0
 30
0.0
  9
$PUCSORGRIGHT
 10
0.0
 20
0.0
 30
0.0
  9
$PUCSORGFRONT
 10
0.0
 20
0.0
 30
0.0
  9
$PUCSORGBACK
 10
0.0
 20
0.0
 30
0.0
  9
$USERI1
 70
     0
  9
$USERI2
 70
     0
  9
$USERI3
 70
     0
  9
$USERI4
 70
     0
  9
$USERI5
 70
     0
  9
$USERR1
 40
0.0
  9
$USERR2
 40
0.0
  9
$USERR3
 40
0.0
  9
$USERR4
 40
0.0
  9
$USERR5
 40
0.0
  9
$WORLDVIEW
 70
     1
  9
$SHADEDGE
 70
     3
  9
$SHADEDIF
 70
    70
  9
$TILEMODE
 70
     1
  9
$MAXACTVP
 70
    64
  9
$PINSBASE
 10
0.0
 20
0.0
 30
0.0
  9
$PLIMCHECK
 70
     0
  9
$PEXTMIN
 10
1.000000000000000E+20
 20
1.000000000000000E+20
 30
1.000000000000000E+20
  9
$PEXTMAX
 10
-1.000000000000000E+20
 20
-1.000000000000000E+20
 30
-1.000000000000000E+20
  9
$PLIMMIN
 10
0.0
 20
0.0
  9
$PLIMMAX
 10
12.0
 20
9.0
  9
$UNITMODE
 70
     0
  9
$VISRETAIN
 70
     1
  9
$PLINEGEN
 70
     0
  9
$PSLTSCALE
 70
     1
  9
$TREEDEPTH
 70
  3020
  9
$CMLSTYLE
  2
Standard
  9
$CMLJUST
 70
     0
  9
$CMLSCALE
 40
1.0
  9
$PROXYGRAPHICS
 70
     1
  9
$MEASUREMENT
 70
     0
  9
$CELWEIGHT
370
    -1
  9
$ENDCAPS
280
     0
  9
$JOINSTYLE
280
     0
  9
$LWDISPLAY
290
     0
  9
$INSUNITS
 70
     0
  9
$HYPERLINKBASE
  1

  9
$STYLESHEET
  1

  9
$XEDIT
290
     1
  9
$CEPSNTYPE
380
     0
  9
$PSTYLEMODE
290
     1
  9
$FINGERPRINTGUID
  2
{D28A198C-8DAF-43B7-9048-E2EDB925409E}
  9
$VERSIONGUID
  2
{D3EE9295-6BA0-45D6-A7E5-892A2423EA31}
  9
$EXTNAMES
290
     1
  9
$PSVPSCALE
 40
0.0
  9
$OLESTARTUP
290
     0
  0
ENDSEC
  0
SECTION
  2
CLASSES
  0
CLASS
  1
ACDBDICTIONARYWDFLT
  2
AcDbDictionaryWithDefault
  3
AutoCAD 2000
 90
        0
280
     0
281
     0
  0
CLASS
  1
ACDBPLACEHOLDER
  2
AcDbPlaceHolder
  3
AutoCAD 2000
 90
        0
280
     0
281
     0
  0
CLASS
  1
LAYOUT
  2
AcDbLayout
  3
AutoCAD 2000
 90
        0
280
     0
281
     0
  0
CLASS
  1
DICTIONARYVAR
  2
AcDbDictionaryVar
  3
AutoCAD 2000
 90
        0
280
     0
281
     0
  0
ENDSEC
  0
SECTION
  2
TABLES
  0
TABLE
  2
VPORT
  5
8
330
0
100
AcDbSymbolTable
 70
     4
  0
VPORT
  5
319
330
8
100
AcDbSymbolTableRecord
100
AcDbViewportTableRecord
  2
*Active
 70
     0
 10
0.0
 20
0.0
 11
1.0
 21
1.0
 12
30.88872099056483
 22
78.66494815132999
 13
0.0
 23
0.0
 14
1.0
 24
1.0
 15
0.0
 25
0.0
 16
0.0
 26
0.0
 36
1.0
 17
0.0
 27
0.0
 37
0.0
 40
157.7298789196444
 41
2.073363431151241
 42
50.0
 43
0.0
 44
0.0
 50
0.0
 51
0.0
 71
     0
 72
   100
 73
     1
 74
     3
 75
     0
 76
     0
 77
     0
 78
     0
281
     0
 65
     1
110
0.0
120
0.0
130
0.0
111
1.0
121
0.0
131
0.0
112
0.0
122
1.0
132
0.0
 79
     1
146
0.0
  0
ENDTAB
  0
TABLE
  2
LTYPE
  5
5
330
0
100
AcDbSymbolTable
 70
     1
  0
LTYPE
  5
13
330
5
100
AcDbSymbolTableRecord
100
AcDbLinetypeTableRecord
  2
ByBlock
 70
     0
  3

 72
    65
 73
     0
 40
0.0
  0
LTYPE
  5
14
330
5
100
AcDbSymbolTableRecord
100
AcDbLinetypeTableRecord
  2
ByLayer
 70
     0
  3

 72
    65
 73
     0
 40
0.0
  0
LTYPE
  5
15
330
5
100
AcDbSymbolTableRecord
100
AcDbLinetypeTableRecord
  2
Continuous
 70
     0
  3
Solid line
 72
    65
 73
     0
 40
0.0
  0
ENDTAB
  0
TABLE
  2
LAYER
  5
2
330
0
100
AcDbSymbolTable
 70
     1
  0
LAYER
  5
10
330
2
100
AcDbSymbolTableRecord
100
AcDbLayerTableRecord
  2
0
 70
     0
 62
     7
  6
Continuous
370
    -3
390
F
  0
ENDTAB
  0
TABLE
  2
STYLE
  5
3
330
0
100
AcDbSymbolTable
 70
     1
  0
STYLE
  5
11
330
3
100
AcDbSymbolTableRecord
100
AcDbTextStyleTableRecord
  2
Standard
 70
     0
 40
0.0
 41
1.0
 50
0.0
 71
     0
 42
0.2
  3
txt
  4

  0
ENDTAB
  0
TABLE
  2
VIEW
  5
6
330
0
100
AcDbSymbolTable
 70
     0
  0
ENDTAB
  0
TABLE
  2
UCS
  5
7
330
0
100
AcDbSymbolTable
 70
     0
  0
ENDTAB
  0
TABLE
  2
APPID
  5
9
330
0
100
AcDbSymbolTable
 70
     1
  0
APPID
  5
12
330
9
100
AcDbSymbolTableRecord
100
AcDbRegAppTableRecord
  2
ACAD
 70
     0
  0
ENDTAB
  0
TABLE
  2
DIMSTYLE
  5
A
330
0
100
AcDbSymbolTable
 70
     1
100
AcDbDimStyleTable
 71
     0
  0
DIMSTYLE
105
231
330
A
100
AcDbSymbolTableRecord
100
AcDbDimStyleTableRecord
  2
Standard
 70
     0
340
11
  0
ENDTAB
  0
TABLE
  2
BLOCK_RECORD
  5
1
330
0
100
AcDbSymbolTable
 70
     1
  0
BLOCK_RECORD
  5
1E
330
1
100
AcDbSymbolTableRecord
100
AcDbBlockTableRecord
  2
*Model_Space
340
21
  0
BLOCK_RECORD
  5
1A
330
1
100
AcDbSymbolTableRecord
100
AcDbBlockTableRecord
  2
*Paper_Space
340
1D
  0
ENDTAB
  0
ENDSEC
  0
SECTION
  2
BLOCKS
  0
BLOCK
  5
1F
330
1E
100
AcDbEntity
  8
0
100
AcDbBlockBegin
  2
*Model_Space
 70
     0
 10
0.0
 20
0.0
 30
0.0
  3
*Model_Space
  1

  0
ENDBLK
  5
20
330
1E
100
AcDbEntity
  8
0
100
AcDbBlockEnd
  0
BLOCK
  5
1B
330
1A
100
AcDbEntity
 67
     1
  8
0
100
AcDbBlockBegin
  2
*Paper_Space
 70
     0
 10
0.0
 20
0.0
 30
0.0
  3
*Paper_Space
  1

  0
ENDBLK
  5
1C
330
1A
100
AcDbEntity
 67
     1
  8
0
100
AcDbBlockEnd
  0
ENDSEC
  0
SECTION
  2
ENTITIES
  0
LINE
  5
10D
330
1E
100
AcDbEntity
  8
0
100
AcDbLine
 10
52.0
 20
10.3529
 30
0.0
 11
52.0
 21
9.647099999999991
 31
0.0
  0
LINE
  5
10F
330
1E
100
AcDbEntity
  8
0
100
AcDbLine
 10
52.0
 20
9.647099999999991
 30
0.0
 11
52.0
 21
10.3529
 31
0.0
  0
LINE
  5
110
330
1E
100
AcDbEntity
  8
0
100
AcDbLine
 10
52.0
 20
9.647099999999991
 30
0.0
 11
52.38459999999999
 21
8.411799999999981
 31
0.0
  0
LINE
  5
113
330
1E
100
AcDbEntity
  8
0
100
AcDbLine
 10
54.30769999999999
 20
6.99999999999999
 30
0.0
 11
62.0
 21
6.999999999999981
 31
0.0
  0
LINE
  5
114
330
1E
100
AcDbEntity
  8
0
100
AcDbLine
 10
62.0
 20
6.999999999999981
 30
0.0
 11
62.0
 21
7.79409999999999
 31
0.0
  0
LINE
  5
115
330
1E
100
AcDbEntity
  8
0
100
AcDbLine
 10
53.2308
 20
7.44119999999999
 30
0.0
 11
54.30769999999999
 21
6.99999999999999
 31
0.0
  0
LINE
  5
116
330
1E
100
AcDbEntity
  8
0
100
AcDbLine
 10
52.38459999999999
 20
8.411799999999981
 30
0.0
 11
53.2308
 21
7.44119999999999
 31
0.0
  0
LINE
  5
117
330
1E
100
AcDbEntity
  8
0
100
AcDbLine
 10
62.0
 20
7.79409999999999
 30
0.0
 11
62.0
 21
6.999999999999981
 31
0.0
  0
LINE
  5
118
330
1E
100
AcDbEntity
  8
0
100
AcDbLine
 10
62.0
 20
7.79409999999999
 30
0.0
 11
62.0
 21
9.735299999999989
 31
0.0
  0
LINE
  5
119
330
1E
100
AcDbEntity
  8
0
100
AcDbLine
 10
62.0
 20
9.735299999999989
 30
0.0
 11
62.0
 21
7.79409999999999
 31
0.0
  0
LINE
  5
11A
330
1E
100
AcDbEntity
  8
0
100
AcDbLine
 10
62.0
 20
9.735299999999989
 30
0.0
 11
62.0
 21
12.8235
 31
0.0
  0
LINE
  5
11B
330
1E
100
AcDbEntity
  8
0
100
AcDbLine
 10
62.0
 20
29.0588
 30
0.0
 11
62.0
 21
36.38239999999999
 31
0.0
  0
LINE
  5
11C
330
1E
100
AcDbEntity
  8
0
100
AcDbLine
 10
62.0
 20
29.0588
 30
0.0
 11
62.0
 21
22.6176
 31
0.0
  0
LINE
  5
11D
330
1E
100
AcDbEntity
  8
0
100
AcDbLine
 10
62.0
 20
22.6176
 30
0.0
 11
62.0
 21
17.0588
 31
0.0
  0
LINE
  5
11E
330
1E
100
AcDbEntity
  8
0
100
AcDbLine
 10
62.0
 20
22.6176
 30
0.0
 11
62.0
 21
29.0588
 31
0.0
  0
LINE
  5
127
330
1E
100
AcDbEntity
  8
0
100
AcDbLine
 10
62.0
 20
44.67649999999999
 30
0.0
 11
62.0
 21
36.38239999999999
 31
0.0
  0
LINE
  5
128
330
1E
100
AcDbEntity
  8
0
100
AcDbLine
 10
62.0
 20
44.67649999999999
 30
0.0
 11
62.0
 21
53.3235
 31
0.0
  0
LINE
  5
129
330
1E
100
AcDbEntity
  8
0
100
AcDbLine
 10
62.0
 20
36.38239999999999
 30
0.0
 11
62.0
 21
44.67649999999999
 31
0.0
  0
LINE
  5
12A
330
1E
100
AcDbEntity
  8
0
100
AcDbLine
 10
62.0
 20
17.0588
 30
0.0
 11
62.0
 21
12.8235
 31
0.0
  0
LINE
  5
12B
330
1E
100
AcDbEntity
  8
0
100
AcDbLine
 10
62.0
 20
17.0588
 30
0.0
 11
62.0
 21
22.6176
 31
0.0
  0
LINE
  5
12C
330
1E
100
AcDbEntity
  8
0
100
AcDbLine
 10
62.0
 20
12.8235
 30
0.0
 11
62.0
 21
9.735299999999989
 31
0.0
  0
LINE
  5
12D
330
1E
100
AcDbEntity
  8
0
100
AcDbLine
 10
62.0
 20
12.8235
 30
0.0
 11
62.0
 21
17.0588
 31
0.0
  0
LINE
  5
12E
330
1E
100
AcDbEntity
  8
0
100
AcDbLine
 10
52.0
 20
38.0588
 30
0.0
 11
52.0
 21
46.0
 31
0.0
  0
LINE
  5
12F
330
1E
100
AcDbEntity
  8
0
100
AcDbLine
 10
52.0
 20
54.3824
 30
0.0
 11
52.0
 21
63.29399999999999
 31
0.0
  0
LINE
  5
130
330
1E
100
AcDbEntity
  8
0
100
AcDbLine
 10
52.0
 20
54.3824
 30
0.0
 11
52.0
 21
46.0
 31
0.0
  0
LINE
  5
131
330
1E
100
AcDbEntity
  8
0
100
AcDbLine
 10
52.0
 20
63.29399999999999
 30
0.0
 11
52.0
 21
72.559
 31
0.0
  0
LINE
  5
132
330
1E
100
AcDbEntity
  8
0
100
AcDbLine
 10
52.0
 20
63.29399999999999
 30
0.0
 11
52.0
 21
54.3824
 31
0.0
  0
LINE
  5
133
330
1E
100
AcDbEntity
  8
0
100
AcDbLine
 10
62.0
 20
62.67649999999999
 30
0.0
 11
62.0
 21
53.3235
 31
0.0
  0
LINE
  5
134
330
1E
100
AcDbEntity
  8
0
100
AcDbLine
 10
62.0
 20
62.67649999999999
 30
0.0
 11
62.0
 21
72.20600000000001
 31
0.0
  0
LINE
  5
158
330
1E
100
AcDbEntity
  8
0
100
AcDbLine
 10
62.0
 20
53.3235
 30
0.0
 11
62.0
 21
44.67649999999999
 31
0.0
  0
LINE
  5
159
330
1E
100
AcDbEntity
  8
0
100
AcDbLine
 10
62.0
 20
53.3235
 30
0.0
 11
62.0
 21
62.67649999999999
 31
0.0
  0
LINE
  5
15A
330
1E
100
AcDbEntity
  8
0
100
AcDbLine
 10
52.0
 20
46.0
 30
0.0
 11
52.0
 21
38.0588
 31
0.0
  0
LINE
  5
15B
330
1E
100
AcDbEntity
  8
0
100
AcDbLine
 10
52.0
 20
46.0
 30
0.0
 11
52.0
 21
54.3824
 31
0.0
  0
LINE
  5
15C
330
1E
100
AcDbEntity
  8
0
100
AcDbLine
 10
52.0
 20
10.35289999999999
 30
0.0
 11
52.0
 21
38.0588
 31
0.0
  0
LINE
  5
15D
330
1E
100
AcDbEntity
  8
0
100
AcDbLine
 10
52.0
 20
72.559
 30
0.0
 11
52.0
 21
82.0
 31
0.0
  0
LINE
  5
15E
330
1E
100
AcDbEntity
  8
0
100
AcDbLine
 10
52.0
 20
72.559
 30
0.0
 11
52.0
 21
63.29399999999999
 31
0.0
  0
LINE
  5
194
330
1E
100
AcDbEntity
  8
0
100
AcDbLine
 10
62.0
 20
72.20600000000001
 30
0.0
 11
62.0
 21
62.67649999999999
 31
0.0
  0
LINE
  5
195
330
1E
100
AcDbEntity
  8
0
100
AcDbLine
 10
62.0
 20
72.20600000000001
 30
0.0
 11
62.0
 21
82.0
 31
0.0
  0
LINE
  5
196
330
1E
100
AcDbEntity
  8
0
100
AcDbLine
 10
52.0
 20
82.0
 30
0.0
 11
52.0
 21
91.44099999999999
 31
0.0
  0
LINE
  5
197
330
1E
100
AcDbEntity
  8
0
100
AcDbLine
 10
52.0
 20
82.0
 30
0.0
 11
52.0
 21
72.559
 31
0.0
  0
LINE
  5
198
330
1E
100
AcDbEntity
  8
0
100
AcDbLine
 10
52.0
 20
91.44099999999999
 30
0.0
 11
52.0
 21
100.706
 31
0.0
  0
LINE
  5
199
330
1E
100
AcDbEntity
  8
0
100
AcDbLine
 10
52.0
 20
91.44099999999999
 30
0.0
 11
52.0
 21
82.0
 31
0.0
  0
LINE
  5
19A
330
1E
100
AcDbEntity
  8
0
100
AcDbLine
 10
52.0
 20
100.706
 30
0.0
 11
52.0
 21
148.706
 31
0.0
  0
LINE
  5
19B
330
1E
100
AcDbEntity
  8
0
100
AcDbLine
 10
52.0
 20
100.706
 30
0.0
 11
52.0
 21
91.44099999999999
 31
0.0
  0
LINE
  5
19E
330
1E
100
AcDbEntity
  8
0
100
AcDbLine
 10
52.0
 20
148.706
 30
0.0
 11
52.0
 21
104.545662851369
 31
0.0
  0
LINE
  5
19F
330
1E
100
AcDbEntity
  8
0
100
AcDbLine
 10
52.0
 20
148.706
 30
0.0
 11
52.0
 21
100.706
 31
0.0
  0
LINE
  5
1A0
330
1E
100
AcDbEntity
  8
0
100
AcDbLine
 10
52.0
 20
104.545662851369
 30
0.0
 11
52.0
 21
148.706
 31
0.0
  0
LINE
  5
1A1
330
1E
100
AcDbEntity
  8
0
100
AcDbLine
 10
52.0
 20
148.706
 30
0.0
 11
52.0
 21
151.706
 31
0.0
  0
LINE
  5
1A2
330
1E
100
AcDbEntity
  8
0
100
AcDbLine
 10
52.0
 20
153.647
 30
0.0
 11
52.0
 21
151.706
 31
0.0
  0
LINE
  5
1A3
330
1E
100
AcDbEntity
  8
0
100
AcDbLine
 10
52.0
 20
153.647
 30
0.0
 11
52.0
 21
154.3529999999999
 31
0.0
  0
LINE
  5
1A6
330
1E
100
AcDbEntity
  8
0
100
AcDbLine
 10
52.0
 20
151.706
 30
0.0
 11
52.0
 21
153.647
 31
0.0
  0
LINE
  5
1A7
330
1E
100
AcDbEntity
  8
0
100
AcDbLine
 10
52.0
 20
151.706
 30
0.0
 11
52.0
 21
148.706
 31
0.0
  0
LINE
  5
1A8
330
1E
100
AcDbEntity
  8
0
100
AcDbLine
 10
52.0
 20
154.3529999999999
 30
0.0
 11
52.38459999999999
 21
155.5879999999999
 31
0.0
  0
LINE
  5
1A9
330
1E
100
AcDbEntity
  8
0
100
AcDbLine
 10
52.0
 20
154.3529999999999
 30
0.0
 11
52.0
 21
153.647
 31
0.0
  0
LINE
  5
1AA
330
1E
100
AcDbEntity
  8
0
100
AcDbLine
 10
52.38459999999999
 20
155.5879999999999
 30
0.0
 11
53.2308
 21
156.559
 31
0.0
  0
LINE
  5
1AB
330
1E
100
AcDbEntity
  8
0
100
AcDbLine
 10
53.2308
 20
156.559
 30
0.0
 11
54.30769999999999
 21
157.0
 31
0.0
  0
LINE
  5
1AC
330
1E
100
AcDbEntity
  8
0
100
AcDbLine
 10
62.0
 20
82.0
 30
0.0
 11
62.0
 21
91.79399999999999
 31
0.0
  0
LINE
  5
1AD
330
1E
100
AcDbEntity
  8
0
100
AcDbLine
 10
62.0
 20
82.0
 30
0.0
 11
62.0
 21
72.20600000000001
 31
0.0
  0
LINE
  5
1AF
330
1E
100
AcDbEntity
  8
0
100
AcDbLine
 10
62.0
 20
134.9409999999999
 30
0.0
 11
62.0
 21
127.6179999999999
 31
0.0
  0
LINE
  5
1B0
330
1E
100
AcDbEntity
  8
0
100
AcDbLine
 10
62.0
 20
134.9409999999999
 30
0.0
 11
62.0
 21
141.382
 31
0.0
  0
LINE
  5
1B1
330
1E
100
AcDbEntity
  8
0
100
AcDbLine
 10
62.0
 20
127.6179999999999
 30
0.0
 11
62.0
 21
119.324
 31
0.0
  0
LINE
  5
1B2
330
1E
100
AcDbEntity
  8
0
100
AcDbLine
 10
62.0
 20
127.6179999999999
 30
0.0
 11
62.0
 21
134.9409999999999
 31
0.0
  0
LINE
  5
1B3
330
1E
100
AcDbEntity
  8
0
100
AcDbLine
 10
62.0
 20
119.324
 30
0.0
 11
62.0
 21
110.6759999999999
 31
0.0
  0
LINE
  5
1B4
330
1E
100
AcDbEntity
  8
0
100
AcDbLine
 10
62.0
 20
119.324
 30
0.0
 11
62.0
 21
127.6179999999999
 31
0.0
  0
LINE
  5
1B5
330
1E
100
AcDbEntity
  8
0
100
AcDbLine
 10
62.0
 20
110.6759999999999
 30
0.0
 11
62.0
 21
101.3239999999999
 31
0.0
  0
LINE
  5
1B6
330
1E
100
AcDbEntity
  8
0
100
AcDbLine
 10
62.0
 20
110.6759999999999
 30
0.0
 11
62.0
 21
119.324
 31
0.0
  0
LINE
  5
1B7
330
1E
100
AcDbEntity
  8
0
100
AcDbLine
 10
62.0
 20
101.3239999999999
 30
0.0
 11
62.0
 21
91.79399999999999
 31
0.0
  0
LINE
  5
1B8
330
1E
100
AcDbEntity
  8
0
100
AcDbLine
 10
62.0
 20
101.3239999999999
 30
0.0
 11
62.0
 21
110.6759999999999
 31
0.0
  0
LINE
  5
220
330
1E
100
AcDbEntity
  8
0
100
AcDbLine
 10
62.0
 20
91.79399999999999
 30
0.0
 11
62.0
 21
82.0
 31
0.0
  0
LINE
  5
221
330
1E
100
AcDbEntity
  8
0
100
AcDbLine
 10
62.0
 20
91.79399999999999
 30
0.0
 11
62.0
 21
101.3239999999999
 31
0.0
  0
LINE
  5
222
330
1E
100
AcDbEntity
  8
0
100
AcDbLine
 10
62.0
 20
154.2649999999999
 30
0.0
 11
62.0
 21
151.176
 31
0.0
  0
LINE
  5
223
330
1E
100
AcDbEntity
  8
0
100
AcDbLine
 10
62.0
 20
154.2649999999999
 30
0.0
 11
62.0
 21
156.206
 31
0.0
  0
LINE
  5
224
330
1E
100
AcDbEntity
  8
0
100
AcDbLine
 10
62.0
 20
156.206
 30
0.0
 11
62.0
 21
154.2649999999999
 31
0.0
  0
LINE
  5
225
330
1E
100
AcDbEntity
  8
0
100
AcDbLine
 10
62.0
 20
156.206
 30
0.0
 11
62.0
 21
157.0
 31
0.0
  0
LINE
  5
226
330
1E
100
AcDbEntity
  8
0
100
AcDbLine
 10
62.0
 20
157.0
 30
0.0
 11
62.0
 21
156.206
 31
0.0
  0
LINE
  5
227
330
1E
100
AcDbEntity
  8
0
100
AcDbLine
 10
62.0
 20
151.176
 30
0.0
 11
62.0
 21
146.941
 31
0.0
  0
LINE
  5
228
330
1E
100
AcDbEntity
  8
0
100
AcDbLine
 10
62.0
 20
151.176
 30
0.0
 11
62.0
 21
154.2649999999999
 31
0.0
  0
LINE
  5
229
330
1E
100
AcDbEntity
  8
0
100
AcDbLine
 10
62.0
 20
146.941
 30
0.0
 11
62.0
 21
141.382
 31
0.0
  0
LINE
  5
22A
330
1E
100
AcDbEntity
  8
0
100
AcDbLine
 10
62.0
 20
146.941
 30
0.0
 11
62.0
 21
151.176
 31
0.0
  0
LINE
  5
22B
330
1E
100
AcDbEntity
  8
0
100
AcDbLine
 10
62.0
 20
141.382
 30
0.0
 11
62.0
 21
134.9409999999999
 31
0.0
  0
LINE
  5
22C
330
1E
100
AcDbEntity
  8
0
100
AcDbLine
 10
62.0
 20
141.382
 30
0.0
 11
62.0
 21
146.941
 31
0.0
  0
LINE
  5
22D
330
1E
100
AcDbEntity
  8
0
100
AcDbLine
 10
54.30769999999999
 20
157.0
 30
0.0
 11
62.0
 21
157.0
 31
0.0
  0
LINE
  5
22E
330
1E
100
AcDbEntity
  8
0
100
AcDbLine
 10
42.9258
 20
104.466
 30
0.0
 11
52.0
 21
104.545662851369
 31
0.0
  0
LINE
  5
22F
330
1E
100
AcDbEntity
  8
0
100
AcDbLine
 10
42.9258
 20
63.86199999999999
 30
0.0
 11
52.0
 21
63.7815856122973
 31
0.0
  0
LINE
  5
2A7
330
1E
100
AcDbEntity
  8
0
100
AcDbLine
 10
41.0034419811297
 20
86.10249630265998
 30
0.0
 11
35.8784419811297
 21
102.86349630266
 31
0.0
  0
LINE
  5
2A8
330
1E
100
AcDbEntity
  8
0
100
AcDbLine
 10
3.569441981129699
 20
46.44449630266
 30
0.0
 11
3.569441981129699
 21
103.78849630266
 31
0.0
  0
LINE
  5
2A9
330
1E
100
AcDbEntity
  8
0
100
AcDbLine
 10
24.26944198112972
 20
61.74049630265999
 30
0.0
 11
41.07244198112968
 21
62.25349630265999
 31
0.0
  0
LINE
  5
2AA
330
1E
100
AcDbEntity
  8
0
100
AcDbLine
 10
12.78744198112969
 20
33.52909630265999
 30
0.0
 11
13.26244198112971
 21
39.8894963026601
 31
0.0
  0
LINE
  5
2AB
330
1E
100
AcDbEntity
  8
0
100
AcDbLine
 10
3.517441981129707
 20
33.87229630265998
 30
0.0
 11
3.557441981129699
 21
38.21929630266
 31
0.0
  0
LINE
  5
2AC
330
1E
100
AcDbEntity
  8
0
100
AcDbLine
 10
4.728441981129691
 20
2.693496302660022
 30
0.0
 11
5.645441981129692
 21
4.122196302660015
 31
0.0
  0
LINE
  5
2AD
330
1E
100
AcDbEntity
  8
0
100
AcDbLine
 10
-0.1165580188703359
 20
2.678496302659979
 30
0.0
 11
0.949441981129695
 21
7.154296302660029
 31
0.0
  0
LINE
  5
2AE
330
1E
100
AcDbEntity
  8
0
100
AcDbLine
 10
2.088441981129676
 20
0.331896302660013
 30
0.0
 11
1.768441981129683
 21
0.4226963026600146
 31
0.0
  0
LINE
  5
2AF
330
1E
100
AcDbEntity
  8
0
100
AcDbLine
 10
-0.1805580188703004
 20
1.750696302659989
 30
0.0
 11
-0.2225580188703304
 21
2.208596302659984
 31
0.0
  0
LINE
  5
2B0
330
1E
100
AcDbEntity
  8
0
100
AcDbLine
 10
0.5084419811296926
 20
1.128096302660011
 30
0.0
 11
0.1064419811297057
 21
1.391496302660002
 31
0.0
  0
LINE
  5
2B1
330
1E
100
AcDbEntity
  8
0
100
AcDbLine
 10
0.1064419811297057
 20
1.391496302660002
 30
0.0
 11
-0.1805580188703004
 21
1.750696302659989
 31
0.0
  0
LINE
  5
2B2
330
1E
100
AcDbEntity
  8
0
100
AcDbLine
 10
1.093441981129672
 20
0.7778963026599826
 30
0.0
 11
0.5084419811296926
 21
1.128096302660011
 31
0.0
  0
LINE
  5
2B3
330
1E
100
AcDbEntity
  8
0
100
AcDbLine
 10
1.768441981129683
 20
0.4226963026600146
 30
0.0
 11
1.093441981129672
 21
0.7778963026599826
 31
0.0
  0
LINE
  5
2B4
330
1E
100
AcDbEntity
  8
0
100
AcDbLine
 10
-0.2225580188703304
 20
2.208596302659984
 30
0.0
 11
-0.1885580188702818
 21
2.359696302659969
 31
0.0
  0
LINE
  5
2B5
330
1E
100
AcDbEntity
  8
0
100
AcDbLine
 10
-0.1885580188702818
 20
2.359696302659969
 30
0.0
 11
-0.1165580188703359
 21
2.678496302659979
 31
0.0
  0
LINE
  5
2B6
330
1E
100
AcDbEntity
  8
0
100
AcDbLine
 10
3.731441981129705
 20
1.277696302659975
 30
0.0
 11
4.728441981129691
 21
2.693496302660022
 31
0.0
  0
LINE
  5
2B7
330
1E
100
AcDbEntity
  8
0
100
AcDbLine
 10
3.243441981129677
 20
0.6980963026600051
 30
0.0
 11
3.731441981129705
 21
1.277696302659975
 31
0.0
  0
LINE
  5
2B8
330
1E
100
AcDbEntity
  8
0
100
AcDbLine
 10
2.552441981129703
 20
0.3298963026600035
 30
0.0
 11
2.98244198112971
 21
0.4974963026599966
 31
0.0
  0
LINE
  5
2B9
330
1E
100
AcDbEntity
  8
0
100
AcDbLine
 10
2.552441981129703
 20
0.3298963026600035
 30
0.0
 11
2.088441981129676
 21
0.331896302660013
 31
0.0
  0
LINE
  5
2BA
330
1E
100
AcDbEntity
  8
0
100
AcDbLine
 10
2.98244198112971
 20
0.4974963026599966
 30
0.0
 11
3.243441981129677
 21
0.6980963026600051
 31
0.0
  0
LINE
  5
2BB
330
1E
100
AcDbEntity
  8
0
100
AcDbLine
 10
2.669441981129693
 20
18.06139630265998
 30
0.0
 11
2.94244198112969
 21
21.15399630265998
 31
0.0
  0
LINE
  5
2BC
330
1E
100
AcDbEntity
  8
0
100
AcDbLine
 10
1.767441981129707
 20
11.44749630265998
 30
0.0
 11
2.276441981129721
 21
14.80879630266001
 31
0.0
  0
LINE
  5
2BD
330
1E
100
AcDbEntity
  8
0
100
AcDbLine
 10
1.2124419811297
 20
8.534296302660024
 30
0.0
 11
1.767441981129707
 21
11.44749630265998
 31
0.0
  0
LINE
  5
2BE
330
1E
100
AcDbEntity
  8
0
100
AcDbLine
 10
0.949441981129695
 20
7.154296302660029
 30
0.0
 11
1.767441981129707
 21
11.44749630265998
 31
0.0
  0
LINE
  5
2BF
330
1E
100
AcDbEntity
  8
0
100
AcDbLine
 10
0.949441981129695
 20
7.154296302660029
 30
0.0
 11
1.2124419811297
 21
8.534296302660024
 31
0.0
  0
LINE
  5
2C0
330
1E
100
AcDbEntity
  8
0
100
AcDbLine
 10
2.276441981129721
 20
14.80879630266001
 30
0.0
 11
2.669441981129693
 21
18.06139630265998
 31
0.0
  0
LINE
  5
2C1
330
1E
100
AcDbEntity
  8
0
100
AcDbLine
 10
3.322441981129685
 20
26.96799630266001
 30
0.0
 11
3.517441981129707
 21
33.87229630265998
 31
0.0
  0
LINE
  5
2C2
330
1E
100
AcDbEntity
  8
0
100
AcDbLine
 10
3.072441981129685
 20
22.61899630265999
 30
0.0
 11
3.322441981129685
 21
26.96799630266001
 31
0.0
  0
LINE
  5
2C3
330
1E
100
AcDbEntity
  8
0
100
AcDbLine
 10
2.94244198112969
 20
21.15399630265998
 30
0.0
 11
3.072441981129685
 21
22.61899630265999
 31
0.0
  0
LINE
  5
2C4
330
1E
100
AcDbEntity
  8
0
100
AcDbLine
 10
5.645441981129692
 20
4.122196302660015
 30
0.0
 11
7.252441981129692
 21
7.010596302660005
 31
0.0
  0
LINE
  5
2C5
330
1E
100
AcDbEntity
  8
0
100
AcDbLine
 10
11.14044198112969
 20
18.60019630265999
 30
0.0
 11
11.63344198112969
 21
21.39279630266001
 31
0.0
  0
LINE
  5
2C6
330
1E
100
AcDbEntity
  8
0
100
AcDbLine
 10
9.312441981129694
 20
11.86449630266001
 30
0.0
 11
9.945441981129704
 21
13.80009630265998
 31
0.0
  0
LINE
  5
2C7
330
1E
100
AcDbEntity
  8
0
100
AcDbLine
 10
7.252441981129692
 20
7.010596302660005
 30
0.0
 11
8.576441981129704
 21
9.923996302659972
 31
0.0
  0
LINE
  5
2C8
330
1E
100
AcDbEntity
  8
0
100
AcDbLine
 10
8.576441981129704
 20
9.923996302659972
 30
0.0
 11
9.312441981129694
 21
11.86459630265999
 31
0.0
  0
LINE
  5
2C9
330
1E
100
AcDbEntity
  8
0
100
AcDbLine
 10
10.60744198112971
 20
16.21559630265998
 30
0.0
 11
11.14044198112969
 21
18.60019630265999
 31
0.0
  0
LINE
  5
2CA
330
1E
100
AcDbEntity
  8
0
100
AcDbLine
 10
9.945441981129704
 20
13.80009630265998
 30
0.0
 11
10.60744198112971
 21
16.21559630265998
 31
0.0
  0
LINE
  5
2CB
330
1E
100
AcDbEntity
  8
0
100
AcDbLine
 10
11.63344198112969
 20
21.39279630266001
 30
0.0
 11
12.00144198112968
 21
24.09559630265998
 31
0.0
  0
LINE
  5
2CC
330
1E
100
AcDbEntity
  8
0
100
AcDbLine
 10
12.34844198112969
 20
27.51779630266002
 30
0.0
 11
12.51944198112971
 21
29.65789630265998
 31
0.0
  0
LINE
  5
2CD
330
1E
100
AcDbEntity
  8
0
100
AcDbLine
 10
12.00144198112968
 20
24.09559630265998
 30
0.0
 11
12.34844198112969
 21
27.51779630266002
 31
0.0
  0
LINE
  5
2CE
330
1E
100
AcDbEntity
  8
0
100
AcDbLine
 10
12.51944198112971
 20
29.65789630265998
 30
0.0
 11
12.78744198112969
 21
33.52909630265999
 31
0.0
  0
LINE
  5
2CF
330
1E
100
AcDbEntity
  8
0
100
AcDbLine
 10
3.561441981129718
 20
40.86319630265999
 30
0.0
 11
3.569441981129699
 21
46.44449630266
 31
0.0
  0
LINE
  5
2D0
330
1E
100
AcDbEntity
  8
0
100
AcDbLine
 10
3.557441981129699
 20
38.21929630266
 30
0.0
 11
3.561441981129718
 21
40.86319630265999
 31
0.0
  0
LINE
  5
2D1
330
1E
100
AcDbEntity
  8
0
100
AcDbLine
 10
3.557441981129699
 20
38.21929630266
 30
0.0
 11
3.603441981129691
 21
39.16419630265998
 31
0.0
  0
LINE
  5
2D2
330
1E
100
AcDbEntity
  8
0
100
AcDbLine
 10
17.9274419811297
 20
59.82649630266
 30
0.0
 11
19.03644198112968
 21
60.55549630265999
 31
0.0
  0
LINE
  5
2D3
330
1E
100
AcDbEntity
  8
0
100
AcDbLine
 10
14.20362475618668
 20
50.20626148266508
 30
0.0
 11
14.49544198112968
 21
52.19739630266001
 31
0.0
  0
LINE
  5
2D4
330
1E
100
AcDbEntity
  8
0
100
AcDbLine
 10
13.26244198112971
 20
39.8894963026601
 30
0.0
 11
13.7784419811297
 21
46.03649630265998
 31
0.0
  0
LINE
  5
2D5
330
1E
100
AcDbEntity
  8
0
100
AcDbLine
 10
13.7784419811297
 20
46.03649630265998
 30
0.0
 11
14.02744198112969
 21
48.68339630266011
 31
0.0
  0
LINE
  5
2D6
330
1E
100
AcDbEntity
  8
0
100
AcDbLine
 10
14.02744198112969
 20
48.68339630266011
 30
0.0
 11
14.18544198112968
 21
50.08219630265999
 31
0.0
  0
LINE
  5
2D7
330
1E
100
AcDbEntity
  8
0
100
AcDbLine
 10
17.01444198112969
 20
58.92049630266
 30
0.0
 11
17.9274419811297
 21
59.82649630266
 31
0.0
  0
LINE
  5
2D8
330
1E
100
AcDbEntity
  8
0
100
AcDbLine
 10
15.1834419811297
 20
55.22849630265999
 30
0.0
 11
15.53544198112968
 21
56.27009630266001
 31
0.0
  0
LINE
  5
2D9
330
1E
100
AcDbEntity
  8
0
100
AcDbLine
 10
14.49544198112968
 20
52.19739630266001
 30
0.0
 11
14.79844198112971
 21
53.74879630266001
 31
0.0
  0
LINE
  5
2DA
330
1E
100
AcDbEntity
  8
0
100
AcDbLine
 10
14.79844198112971
 20
53.74879630266001
 30
0.0
 11
15.1834419811297
 21
55.22849630265999
 31
0.0
  0
LINE
  5
2DB
330
1E
100
AcDbEntity
  8
0
100
AcDbLine
 10
16.44144198112968
 20
58.12549630265998
 30
0.0
 11
17.01444198112969
 21
58.92049630266
 31
0.0
  0
LINE
  5
2DC
330
1E
100
AcDbEntity
  8
0
100
AcDbLine
 10
15.53544198112968
 20
56.27009630266001
 30
0.0
 11
15.95344198112971
 21
57.23849630265998
 31
0.0
  0
LINE
  5
2DD
330
1E
100
AcDbEntity
  8
0
100
AcDbLine
 10
15.95344198112971
 20
57.23849630265998
 30
0.0
 11
16.44144198112968
 21
58.12549630265998
 31
0.0
  0
LINE
  5
2DE
330
1E
100
AcDbEntity
  8
0
100
AcDbLine
 10
20.37244198112969
 20
61.11049630265999
 30
0.0
 11
22.16744198112968
 21
61.52849630266
 31
0.0
  0
LINE
  5
2DF
330
1E
100
AcDbEntity
  8
0
100
AcDbLine
 10
19.03644198112968
 20
60.55549630265999
 30
0.0
 11
20.37244198112969
 21
61.11049630265999
 31
0.0
  0
LINE
  5
2E0
330
1E
100
AcDbEntity
  8
0
100
AcDbLine
 10
22.16744198112968
 20
61.52849630266
 30
0.0
 11
24.26944198112972
 21
61.74049630265999
 31
0.0
  0
LINE
  5
2E1
330
1E
100
AcDbEntity
  8
0
100
AcDbLine
 10
41.55744198112969
 20
65.88349630266002
 30
0.0
 11
41.55744198112969
 21
67.41449630266003
 31
0.0
  0
LINE
  5
2E2
330
1E
100
AcDbEntity
  8
0
100
AcDbLine
 10
42.9258
 20
63.86230000000001
 30
0.0
 11
52.0
 21
63.7815849977638
 31
0.0
  0
LINE
  5
2E4
330
1E
100
AcDbEntity
  8
0
100
AcDbLine
 10
41.5235
 20
64.082424116414
 30
0.0
 11
42.9258
 21
63.86230000000001
 31
0.0
  0
LINE
  5
2E5
330
1E
100
AcDbEntity
  8
0
100
AcDbLine
 10
41.55744198112969
 20
62.81149630265999
 30
0.0
 11
41.55744198112969
 21
63.15249630265999
 31
0.0
  0
LINE
  5
2E6
330
1E
100
AcDbEntity
  8
0
100
AcDbLine
 10
41.55744198112969
 20
62.87349630266
 30
0.0
 11
41.55744198112969
 21
63.05449630266001
 31
0.0
  0
LINE
  5
2E7
330
1E
100
AcDbEntity
  8
0
100
AcDbLine
 10
41.55744198112969
 20
62.75149630266001
 30
0.0
 11
41.55744198112969
 21
62.81149630265999
 31
0.0
  0
LINE
  5
2E8
330
1E
100
AcDbEntity
  8
0
100
AcDbLine
 10
41.4934419811297
 20
62.50649630266001
 30
0.0
 11
41.55744198112969
 21
62.75149630266001
 31
0.0
  0
LINE
  5
2E9
330
1E
100
AcDbEntity
  8
0
100
AcDbLine
 10
41.31644198112968
 20
62.32449630266
 30
0.0
 11
41.4934419811297
 21
62.50649630266001
 31
0.0
  0
LINE
  5
2EA
330
1E
100
AcDbEntity
  8
0
100
AcDbLine
 10
41.07244198112968
 20
62.25349630265999
 30
0.0
 11
41.31644198112968
 21
62.32449630266
 31
0.0
  0
LINE
  5
2EB
330
1E
100
AcDbEntity
  8
0
100
AcDbLine
 10
41.55744198112969
 20
63.78649630265998
 30
0.0
 11
41.55744198112969
 21
64.70149630266
 31
0.0
  0
LINE
  5
2EC
330
1E
100
AcDbEntity
  8
0
100
AcDbLine
 10
41.55744198112969
 20
64.70149630266
 30
0.0
 11
41.55744198112969
 21
65.88349630266002
 31
0.0
  0
LINE
  5
2ED
330
1E
100
AcDbEntity
  8
0
100
AcDbLine
 10
41.55744198112969
 20
63.05449630266001
 30
0.0
 11
41.55744198112969
 21
63.59949630266
 31
0.0
  0
LINE
  5
2EE
330
1E
100
AcDbEntity
  8
0
100
AcDbLine
 10
41.55744198112969
 20
63.15249630265999
 30
0.0
 11
41.55744198112969
 21
63.78649630265998
 31
0.0
  0
LINE
  5
2EF
330
1E
100
AcDbEntity
  8
0
100
AcDbLine
 10
41.55744198112969
 20
63.59949630266
 30
0.0
 11
41.55744198112969
 21
64.20593961661397
 31
0.0
  0
LINE
  5
2F0
330
1E
100
AcDbEntity
  8
0
100
AcDbLine
 10
41.55744198112969
 20
80.09449630266001
 30
0.0
 11
41.55744198112969
 21
82.46249630265999
 31
0.0
  0
LINE
  5
2F1
330
1E
100
AcDbEntity
  8
0
100
AcDbLine
 10
41.55744198112969
 20
73.45749630266
 30
0.0
 11
41.55744198112969
 21
75.56749630265999
 31
0.0
  0
LINE
  5
2F2
330
1E
100
AcDbEntity
  8
0
100
AcDbLine
 10
41.55744198112969
 20
69.20549630265999
 30
0.0
 11
41.55744198112969
 21
71.22849630265999
 31
0.0
  0
LINE
  5
2F3
330
1E
100
AcDbEntity
  8
0
100
AcDbLine
 10
41.55744198112969
 20
67.41449630266003
 30
0.0
 11
41.55744198112969
 21
69.20549630265999
 31
0.0
  0
LINE
  5
2F4
330
1E
100
AcDbEntity
  8
0
100
AcDbLine
 10
41.55744198112969
 20
71.22849630265999
 30
0.0
 11
41.55744198112969
 21
73.45749630266
 31
0.0
  0
LINE
  5
2F5
330
1E
100
AcDbEntity
  8
0
100
AcDbLine
 10
41.55744198112969
 20
77.78749630266002
 30
0.0
 11
41.55744198112969
 21
80.09449630266001
 31
0.0
  0
LINE
  5
2F6
330
1E
100
AcDbEntity
  8
0
100
AcDbLine
 10
41.55744198112969
 20
75.56749630265999
 30
0.0
 11
41.55744198112969
 21
77.78749630266002
 31
0.0
  0
LINE
  5
2F7
330
1E
100
AcDbEntity
  8
0
100
AcDbLine
 10
41.53544198112967
 20
84.36049630265999
 30
0.0
 11
41.0034419811297
 21
86.10249630265998
 31
0.0
  0
LINE
  5
2F8
330
1E
100
AcDbEntity
  8
0
100
AcDbLine
 10
41.55744198112969
 20
84.21449630266002
 30
0.0
 11
41.53544198112967
 21
84.36049630265999
 31
0.0
  0
LINE
  5
2F9
330
1E
100
AcDbEntity
  8
0
100
AcDbLine
 10
41.55744198112969
 20
82.46249630265999
 30
0.0
 11
41.55744198112969
 21
84.21449630266002
 31
0.0
  0
LINE
  5
2FA
330
1E
100
AcDbEntity
  8
0
100
AcDbLine
 10
4.866441981129725
 20
105.12349630266
 30
0.0
 11
34.53944198112969
 21
105.98849630266
 31
0.0
  0
LINE
  5
2FB
330
1E
100
AcDbEntity
  8
0
100
AcDbLine
 10
3.657441981129693
 20
104.57449630266
 30
0.0
 11
3.822441981129685
 21
104.83949630266
 31
0.0
  0
LINE
  5
2FC
330
1E
100
AcDbEntity
  8
0
100
AcDbLine
 10
3.598441981129695
 20
104.35049630266
 30
0.0
 11
3.657441981129693
 21
104.57449630266
 31
0.0
  0
LINE
  5
2FD
330
1E
100
AcDbEntity
  8
0
100
AcDbLine
 10
3.57344198112969
 20
103.60949630266
 30
0.0
 11
3.570441981129704
 21
103.7434963026599
 31
0.0
  0
LINE
  5
2FE
330
1E
100
AcDbEntity
  8
0
100
AcDbLine
 10
3.578441981129685
 20
103.38749630266
 30
0.0
 11
3.57344198112969
 21
103.60949630266
 31
0.0
  0
LINE
  5
2FF
330
1E
100
AcDbEntity
  8
0
100
AcDbLine
 10
3.569441981129699
 20
103.78849630266
 30
0.0
 11
3.598441981129695
 21
104.35049630266
 31
0.0
  0
LINE
  5
300
330
1E
100
AcDbEntity
  8
0
100
AcDbLine
 10
3.822441981129685
 20
104.83949630266
 30
0.0
 11
4.082441981129704
 21
105.01249630266
 31
0.0
  0
LINE
  5
301
330
1E
100
AcDbEntity
  8
0
100
AcDbLine
 10
4.304441981129713
 20
105.07749630266
 30
0.0
 11
4.866441981129725
 21
105.12349630266
 31
0.0
  0
LINE
  5
302
330
1E
100
AcDbEntity
  8
0
100
AcDbLine
 10
4.082441981129704
 20
105.01249630266
 30
0.0
 11
4.304441981129713
 21
105.07749630266
 31
0.0
  0
LINE
  5
303
330
1E
100
AcDbEntity
  8
0
100
AcDbLine
 10
42.9258
 20
104.466
 30
0.0
 11
52.0
 21
104.545662851369
 31
0.0
  0
LINE
  5
305
330
1E
100
AcDbEntity
  8
0
100
AcDbLine
 10
38.8649
 20
103.612
 30
0.0
 11
40.87449999999999
 21
104.1439999999999
 31
0.0
  0
LINE
  5
306
330
1E
100
AcDbEntity
  8
0
100
AcDbLine
 10
35.5174419811297
 20
104.0444963026599
 30
0.0
 11
35.2534419811297
 21
104.9064963026599
 31
0.0
  0
LINE
  5
307
330
1E
100
AcDbEntity
  8
0
100
AcDbLine
 10
35.8784419811297
 20
102.86349630266
 30
0.0
 11
35.5174419811297
 21
104.0444963026599
 31
0.0
  0
LINE
  5
309
330
1E
100
AcDbEntity
  8
0
100
AcDbLine
 10
36.9219
 20
102.876
 30
0.0
 11
38.8649
 21
103.612
 31
0.0
  0
LINE
  5
30B
330
1E
100
AcDbEntity
  8
0
100
AcDbLine
 10
36.0139215802057
 20
102.4196901565309
 30
0.0
 11
36.9219
 21
102.876
 31
0.0
  0
LINE
  5
30C
330
1E
100
AcDbEntity
  8
0
100
AcDbLine
 10
35.03044198112968
 20
105.63649630266
 30
0.0
 11
34.92444198112972
 21
105.8224963026599
 31
0.0
  0
LINE
  5
30D
330
1E
100
AcDbEntity
  8
0
100
AcDbLine
 10
35.03144198112968
 20
105.6344963026599
 30
0.0
 11
34.92444198112972
 21
105.8224963026599
 31
0.0
  0
LINE
  5
30E
330
1E
100
AcDbEntity
  8
0
100
AcDbLine
 10
34.8444419811297
 20
105.89349630266
 30
0.0
 11
34.7494419811297
 21
105.9484963026599
 31
0.0
  0
LINE
  5
30F
330
1E
100
AcDbEntity
  8
0
100
AcDbLine
 10
34.92444198112972
 20
105.8224963026599
 30
0.0
 11
34.8444419811297
 21
105.89349630266
 31
0.0
  0
LINE
  5
310
330
1E
100
AcDbEntity
  8
0
100
AcDbLine
 10
34.7494419811297
 20
105.9484963026599
 30
0.0
 11
34.53944198112969
 21
105.98849630266
 31
0.0
  0
LINE
  5
311
330
1E
100
AcDbEntity
  8
0
100
AcDbLine
 10
35.09144198112969
 20
105.4364963026599
 30
0.0
 11
35.03144198112968
 21
105.6344963026599
 31
0.0
  0
LINE
  5
312
330
1E
100
AcDbEntity
  8
0
100
AcDbLine
 10
35.2534419811297
 20
104.9064963026599
 30
0.0
 11
35.09144198112969
 21
105.4364963026599
 31
0.0
  0
LINE
  5
314
330
1E
100
AcDbEntity
  8
0
100
AcDbLine
 10
40.87449999999999
 20
104.1439999999999
 30
0.0
 11
42.9258
 21
104.466
 31
0.0
  0
ENDSEC
  0
SECTION
  2
OBJECTS
  0
DICTIONARY
  5
C
330
0
100
AcDbDictionary
281
     1
  3
ACAD_GROUP
350
D
  3
ACAD_LAYOUT
350
19
  3
ACAD_MLINESTYLE
350
16
  3
ACAD_PLOTSETTINGS
350
18
  3
ACAD_PLOTSTYLENAME
350
E
  3
AcDbVariableDictionary
350
316
  0
DICTIONARY
  5
D
102
{ACAD_REACTORS
330
C
102
}
330
C
100
AcDbDictionary
281
     1
  0
DICTIONARY
  5
19
102
{ACAD_REACTORS
330
C
102
}
330
C
100
AcDbDictionary
281
     1
  3
Layout1
350
1D
  3
Model
350
21
  0
DICTIONARY
  5
16
102
{ACAD_REACTORS
330
C
102
}
330
C
100
AcDbDictionary
281
     1
  3
Standard
350
17
  0
DICTIONARY
  5
18
102
{ACAD_REACTORS
330
C
102
}
330
C
100
AcDbDictionary
281
     1
  0
ACDBDICTIONARYWDFLT
  5
E
102
{ACAD_REACTORS
330
C
102
}
330
C
100
AcDbDictionary
281
     1
  3
Normal
350
F
100
AcDbDictionaryWithDefault
340
F
  0
DICTIONARY
  5
316
102
{ACAD_REACTORS
330
C
102
}
330
C
100
AcDbDictionary
281
     1
  3
DIMASSOC
350
317
  0
LAYOUT
  5
1D
102
{ACAD_REACTORS
330
19
102
}
330
19
100
AcDbPlotSettings
  1

  2
C:\Programme\AutoCAD LT 2002 Deu\plotters\DWF ePlot (optimized for plotting).pc3
  4

  6

 40
0.0
 41
0.0
 42
0.0
 43
0.0
 44
0.0
 45
0.0
 46
0.0
 47
0.0
 48
0.0
 49
0.0
140
0.0
141
0.0
142
1.0
143
1.0
 70
   688
 72
     0
 73
     0
 74
     5
  7

 75
    16
147
1.0
148
0.0
149
0.0
100
AcDbLayout
  1
Layout1
 70
     1
 71
     1
 10
0.0
 20
0.0
 11
12.0
 21
9.0
 12
0.0
 22
0.0
 32
0.0
 14
1.000000000000000E+20
 24
1.000000000000000E+20
 34
1.000000000000000E+20
 15
-1.000000000000000E+20
 25
-1.000000000000000E+20
 35
-1.000000000000000E+20
146
0.0
 13
0.0
 23
0.0
 33
0.0
 16
1.0
 26
0.0
 36
0.0
 17
0.0
 27
1.0
 37
0.0
 76
     0
330
1A
  0
LAYOUT
  5
21
102
{ACAD_REACTORS
330
19
102
}
330
19
100
AcDbPlotSettings
  1

  2
C:\Programme\AutoCAD LT 2002 Deu\plotters\DWF ePlot (optimized for plotting).pc3
  4

  6

 40
0.0
 41
0.0
 42
0.0
 43
0.0
 44
0.0
 45
0.0
 46
0.0
 47
0.0
 48
0.0
 49
0.0
140
0.0
141
0.0
142
1.0
143
1.0
 70
  1712
 72
     0
 73
     0
 74
     0
  7

 75
     0
147
1.0
148
0.0
149
0.0
100
AcDbLayout
  1
Model
 70
     1
 71
     0
 10
0.0
 20
0.0
 11
12.0
 21
9.0
 12
0.0
 22
0.0
 32
0.0
 14
0.0
 24
0.0
 34
0.0
 15
0.0
 25
0.0
 35
0.0
146
0.0
 13
0.0
 23
0.0
 33
0.0
 16
1.0
 26
0.0
 36
0.0
 17
0.0
 27
1.0
 37
0.0
 76
     0
330
1E
  0
MLINESTYLE
  5
17
102
{ACAD_REACTORS
330
16
102
}
330
16
100
AcDbMlineStyle
  2
STANDARD
 70
     0
  3

 62
   256
 51
90.0
 52
90.0
 71
     2
 49
0.5
 62
   256
  6
BYLAYER
 49
-0.5
 62
   256
  6
BYLAYER
  0
ACDBPLACEHOLDER
  5
F
102
{ACAD_REACTORS
330
E
102
}
330
E
  0
DICTIONARYVAR
  5
317
102
{ACAD_REACTORS
330
316
102
}
330
316
100
DictionaryVariables
280
     0
  1
1
  0
ENDSEC
  0
EOF
