  0
SECTION
  2
HEADER
  9
$ACADVER
  1
AC1015
  9
$ACADMAINTVER
 70
    13
  9
$DWGCODEPAGE
  3
ANSI_1252
  9
$INSBASE
 10
0.0
 20
0.0
 30
0.0
  9
$EXTMIN
 10
0.5000000000000031
 20
0.0000000000000072
 30
0.0
  9
$EXTMAX
 10
150.5
 20
65.0
 30
0.0
  9
$LIMMIN
 10
0.0
 20
0.0
  9
$LIMMAX
 10
12.0
 20
9.0
  9
$ORTHOMODE
 70
     0
  9
$REGENMODE
 70
     1
  9
$FILLMODE
 70
     1
  9
$QTEXTMODE
 70
     0
  9
$MIRRTEXT
 70
     1
  9
$LTSCALE
 40
1.0
  9
$ATTMODE
 70
     1
  9
$TEXTSIZE
 40
0.2
  9
$TRACEWID
 40
0.05
  9
$TEXTSTYLE
  7
Standard
  9
$CLAYER
  8
0
  9
$CELTYPE
  6
Continuous
  9
$CECOLOR
 62
   256
  9
$CELTSCALE
 40
1.0
  9
$DISPSILH
 70
     0
  9
$DIMSCALE
 40
1.0
  9
$DIMASZ
 40
0.18
  9
$DIMEXO
 40
0.0625
  9
$DIMDLI
 40
0.38
  9
$DIMRND
 40
0.0
  9
$DIMDLE
 40
0.0
  9
$DIMEXE
 40
0.18
  9
$DIMTP
 40
0.0
  9
$DIMTM
 40
0.0
  9
$DIMTXT
 40
0.18
  9
$DIMCEN
 40
0.09
  9
$DIMTSZ
 40
0.0
  9
$DIMTOL
 70
     0
  9
$DIMLIM
 70
     0
  9
$DIMTIH
 70
     1
  9
$DIMTOH
 70
     1
  9
$DIMSE1
 70
     0
  9
$DIMSE2
 70
     0
  9
$DIMTAD
 70
     0
  9
$DIMZIN
 70
     0
  9
$DIMBLK
  1

  9
$DIMASO
 70
     1
  9
$DIMSHO
 70
     1
  9
$DIMPOST
  1

  9
$DIMAPOST
  1

  9
$DIMALT
 70
     0
  9
$DIMALTD
 70
     2
  9
$DIMALTF
 40
25.4
  9
$DIMLFAC
 40
1.0
  9
$DIMTOFL
 70
     0
  9
$DIMTVP
 40
0.0
  9
$DIMTIX
 70
     0
  9
$DIMSOXD
 70
     0
  9
$DIMSAH
 70
     0
  9
$DIMBLK1
  1

  9
$DIMBLK2
  1

  9
$DIMSTYLE
  2
Standard
  9
$DIMCLRD
 70
     0
  9
$DIMCLRE
 70
     0
  9
$DIMCLRT
 70
     0
  9
$DIMTFAC
 40
1.0
  9
$DIMGAP
 40
0.09
  9
$DIMJUST
 70
     0
  9
$DIMSD1
 70
     0
  9
$DIMSD2
 70
     0
  9
$DIMTOLJ
 70
     1
  9
$DIMTZIN
 70
     0
  9
$DIMALTZ
 70
     0
  9
$DIMALTTZ
 70
     0
  9
$DIMUPT
 70
     0
  9
$DIMDEC
 70
     4
  9
$DIMTDEC
 70
     4
  9
$DIMALTU
 70
     2
  9
$DIMALTTD
 70
     2
  9
$DIMTXSTY
  7
Standard
  9
$DIMAUNIT
 70
     0
  9
$DIMADEC
 70
     0
  9
$DIMALTRND
 40
0.0
  9
$DIMAZIN
 70
     0
  9
$DIMDSEP
 70
    46
  9
$DIMATFIT
 70
     3
  9
$DIMFRAC
 70
     0
  9
$DIMLDRBLK
  1

  9
$DIMLUNIT
 70
     2
  9
$DIMLWD
 70
    -2
  9
$DIMLWE
 70
    -2
  9
$DIMTMOVE
 70
     0
  9
$LUNITS
 70
     2
  9
$LUPREC
 70
     4
  9
$SKETCHINC
 40
0.1
  9
$FILLETRAD
 40
0.0
  9
$AUNITS
 70
     0
  9
$AUPREC
 70
     0
  9
$MENU
  1
.
  9
$ELEVATION
 40
0.0
  9
$PELEVATION
 40
0.0
  9
$THICKNESS
 40
0.0
  9
$LIMCHECK
 70
     0
  9
$CHAMFERA
 40
0.0
  9
$CHAMFERB
 40
0.0
  9
$CHAMFERC
 40
0.0
  9
$CHAMFERD
 40
0.0
  9
$SKPOLY
 70
     0
  9
$TDCREATE
 40
2455655.355266562
  9
$TDUCREATE
 40
2455655.271933229
  9
$TDUPDATE
 40
2455655.360086261
  9
$TDUUPDATE
 40
2455655.276752928
  9
$TDINDWG
 40
0.0048198727
  9
$TDUSRTIMER
 40
0.0048198727
  9
$USRTIMER
 70
     1
  9
$ANGBASE
 50
0.0
  9
$ANGDIR
 70
     0
  9
$PDMODE
 70
     0
  9
$PDSIZE
 40
0.0
  9
$PLINEWID
 40
0.0
  9
$SPLFRAME
 70
     0
  9
$SPLINETYPE
 70
     6
  9
$SPLINESEGS
 70
     8
  9
$HANDSEED
  5
3EB
  9
$SURFTAB1
 70
     6
  9
$SURFTAB2
 70
     6
  9
$SURFTYPE
 70
     6
  9
$SURFU
 70
     6
  9
$SURFV
 70
     6
  9
$UCSBASE
  2

  9
$UCSNAME
  2

  9
$UCSORG
 10
0.0
 20
0.0
 30
0.0
  9
$UCSXDIR
 10
1.0
 20
0.0
 30
0.0
  9
$UCSYDIR
 10
0.0
 20
1.0
 30
0.0
  9
$UCSORTHOREF
  2

  9
$UCSORTHOVIEW
 70
     1
  9
$UCSORGTOP
 10
0.0
 20
0.0
 30
0.0
  9
$UCSORGBOTTOM
 10
0.0
 20
0.0
 30
0.0
  9
$UCSORGLEFT
 10
0.0
 20
0.0
 30
0.0
  9
$UCSORGRIGHT
 10
0.0
 20
0.0
 30
0.0
  9
$UCSORGFRONT
 10
0.0
 20
0.0
 30
0.0
  9
$UCSORGBACK
 10
0.0
 20
0.0
 30
0.0
  9
$PUCSBASE
  2

  9
$PUCSNAME
  2

  9
$PUCSORG
 10
0.0
 20
0.0
 30
0.0
  9
$PUCSXDIR
 10
1.0
 20
0.0
 30
0.0
  9
$PUCSYDIR
 10
0.0
 20
1.0
 30
0.0
  9
$PUCSORTHOREF
  2

  9
$PUCSORTHOVIEW
 70
     0
  9
$PUCSORGTOP
 10
0.0
 20
0.0
 30
0.0
  9
$PUCSORGBOTTOM
 10
0.0
 20
0.0
 30
0.0
  9
$PUCSORGLEFT
 10
0.0
 20
0.0
 30
0.0
  9
$PUCSORGRIGHT
 10
0.0
 20
0.0
 30
0.0
  9
$PUCSORGFRONT
 10
0.0
 20
0.0
 30
0.0
  9
$PUCSORGBACK
 10
0.0
 20
0.0
 30
0.0
  9
$USERI1
 70
     0
  9
$USERI2
 70
     0
  9
$USERI3
 70
     0
  9
$USERI4
 70
     0
  9
$USERI5
 70
     0
  9
$USERR1
 40
0.0
  9
$USERR2
 40
0.0
  9
$USERR3
 40
0.0
  9
$USERR4
 40
0.0
  9
$USERR5
 40
0.0
  9
$WORLDVIEW
 70
     1
  9
$SHADEDGE
 70
     3
  9
$SHADEDIF
 70
    70
  9
$TILEMODE
 70
     1
  9
$MAXACTVP
 70
    64
  9
$PINSBASE
 10
0.0
 20
0.0
 30
0.0
  9
$PLIMCHECK
 70
     0
  9
$PEXTMIN
 10
1.000000000000000E+20
 20
1.000000000000000E+20
 30
1.000000000000000E+20
  9
$PEXTMAX
 10
-1.000000000000000E+20
 20
-1.000000000000000E+20
 30
-1.000000000000000E+20
  9
$PLIMMIN
 10
0.0
 20
0.0
  9
$PLIMMAX
 10
12.0
 20
9.0
  9
$UNITMODE
 70
     0
  9
$VISRETAIN
 70
     1
  9
$PLINEGEN
 70
     0
  9
$PSLTSCALE
 70
     1
  9
$TREEDEPTH
 70
  3020
  9
$CMLSTYLE
  2
Standard
  9
$CMLJUST
 70
     0
  9
$CMLSCALE
 40
1.0
  9
$PROXYGRAPHICS
 70
     1
  9
$MEASUREMENT
 70
     0
  9
$CELWEIGHT
370
    -1
  9
$ENDCAPS
280
     0
  9
$JOINSTYLE
280
     0
  9
$LWDISPLAY
290
     0
  9
$INSUNITS
 70
     0
  9
$HYPERLINKBASE
  1

  9
$STYLESHEET
  1

  9
$XEDIT
290
     1
  9
$CEPSNTYPE
380
     0
  9
$PSTYLEMODE
290
     1
  9
$FINGERPRINTGUID
  2
{D34F495B-52A8-43A9-B081-AEDBFBB659BA}
  9
$VERSIONGUID
  2
{64D5092F-1D70-4B9C-BB67-24D795478888}
  9
$EXTNAMES
290
     1
  9
$PSVPSCALE
 40
0.0
  9
$OLESTARTUP
290
     0
  0
ENDSEC
  0
SECTION
  2
CLASSES
  0
CLASS
  1
ACDBDICTIONARYWDFLT
  2
AcDbDictionaryWithDefault
  3
AutoCAD 2000
 90
        0
280
     0
281
     0
  0
CLASS
  1
ACDBPLACEHOLDER
  2
AcDbPlaceHolder
  3
AutoCAD 2000
 90
        0
280
     0
281
     0
  0
CLASS
  1
LAYOUT
  2
AcDbLayout
  3
AutoCAD 2000
 90
        0
280
     0
281
     0
  0
CLASS
  1
DICTIONARYVAR
  2
AcDbDictionaryVar
  3
AutoCAD 2000
 90
        0
280
     0
281
     0
  0
ENDSEC
  0
SECTION
  2
TABLES
  0
TABLE
  2
VPORT
  5
8
330
0
100
AcDbSymbolTable
 70
     4
  0
VPORT
  5
3EA
330
8
100
AcDbSymbolTableRecord
100
AcDbViewportTableRecord
  2
*Active
 70
     0
 10
0.0
 20
0.0
 11
1.0
 21
1.0
 12
75.5
 22
32.5
 13
0.0
 23
0.0
 14
1.0
 24
1.0
 15
0.0
 25
0.0
 16
0.0
 26
0.0
 36
1.0
 17
0.0
 27
0.0
 37
0.0
 40
72.58238493830423
 41
2.073363431151241
 42
50.0
 43
0.0
 44
0.0
 50
0.0
 51
0.0
 71
     0
 72
   100
 73
     1
 74
     3
 75
     0
 76
     0
 77
     0
 78
     0
281
     0
 65
     1
110
0.0
120
0.0
130
0.0
111
1.0
121
0.0
131
0.0
112
0.0
122
1.0
132
0.0
 79
     1
146
0.0
  0
ENDTAB
  0
TABLE
  2
LTYPE
  5
5
330
0
100
AcDbSymbolTable
 70
     1
  0
LTYPE
  5
13
330
5
100
AcDbSymbolTableRecord
100
AcDbLinetypeTableRecord
  2
ByBlock
 70
     0
  3

 72
    65
 73
     0
 40
0.0
  0
LTYPE
  5
14
330
5
100
AcDbSymbolTableRecord
100
AcDbLinetypeTableRecord
  2
ByLayer
 70
     0
  3

 72
    65
 73
     0
 40
0.0
  0
LTYPE
  5
15
330
5
100
AcDbSymbolTableRecord
100
AcDbLinetypeTableRecord
  2
Continuous
 70
     0
  3
Solid line
 72
    65
 73
     0
 40
0.0
  0
ENDTAB
  0
TABLE
  2
LAYER
  5
2
330
0
100
AcDbSymbolTable
 70
     1
  0
LAYER
  5
10
330
2
100
AcDbSymbolTableRecord
100
AcDbLayerTableRecord
  2
0
 70
     0
 62
     7
  6
Continuous
370
    -3
390
F
  0
ENDTAB
  0
TABLE
  2
STYLE
  5
3
330
0
100
AcDbSymbolTable
 70
     1
  0
STYLE
  5
11
330
3
100
AcDbSymbolTableRecord
100
AcDbTextStyleTableRecord
  2
Standard
 70
     0
 40
0.0
 41
1.0
 50
0.0
 71
     0
 42
0.2
  3
txt
  4

  0
ENDTAB
  0
TABLE
  2
VIEW
  5
6
330
0
100
AcDbSymbolTable
 70
     0
  0
ENDTAB
  0
TABLE
  2
UCS
  5
7
330
0
100
AcDbSymbolTable
 70
     0
  0
ENDTAB
  0
TABLE
  2
APPID
  5
9
330
0
100
AcDbSymbolTable
 70
     1
  0
APPID
  5
12
330
9
100
AcDbSymbolTableRecord
100
AcDbRegAppTableRecord
  2
ACAD
 70
     0
  0
ENDTAB
  0
TABLE
  2
DIMSTYLE
  5
A
330
0
100
AcDbSymbolTable
 70
     1
100
AcDbDimStyleTable
 71
     0
  0
DIMSTYLE
105
3E1
330
A
100
AcDbSymbolTableRecord
100
AcDbDimStyleTableRecord
  2
Standard
 70
     0
340
11
  0
ENDTAB
  0
TABLE
  2
BLOCK_RECORD
  5
1
330
0
100
AcDbSymbolTable
 70
     0
  0
BLOCK_RECORD
  5
1E
330
1
100
AcDbSymbolTableRecord
100
AcDbBlockTableRecord
  2
*Model_Space
340
21
  0
BLOCK_RECORD
  5
1A
330
1
100
AcDbSymbolTableRecord
100
AcDbBlockTableRecord
  2
*Paper_Space
340
1D
  0
ENDTAB
  0
ENDSEC
  0
SECTION
  2
BLOCKS
  0
BLOCK
  5
1F
330
1E
100
AcDbEntity
  8
0
100
AcDbBlockBegin
  2
*Model_Space
 70
     0
 10
0.0
 20
0.0
 30
0.0
  3
*Model_Space
  1

  0
ENDBLK
  5
20
330
1E
100
AcDbEntity
  8
0
100
AcDbBlockEnd
  0
BLOCK
  5
1B
330
1A
100
AcDbEntity
 67
     1
  8
0
100
AcDbBlockBegin
  2
*Paper_Space
 70
     0
 10
0.0
 20
0.0
 30
0.0
  3
*Paper_Space
  1

  0
ENDBLK
  5
1C
330
1A
100
AcDbEntity
 67
     1
  8
0
100
AcDbBlockEnd
  0
ENDSEC
  0
SECTION
  2
ENTITIES
  0
LINE
  5
22
330
1E
100
AcDbEntity
  8
0
100
AcDbLine
 10
0.5000000000000031
 20
55.0
 30
0.0
 11
0.9411760000000029
 21
53.6
 31
0.0
  0
LINE
  5
23
330
1E
100
AcDbEntity
  8
0
100
AcDbLine
 10
0.5000000000000031
 20
55.0
 30
0.0
 11
0.5000000000000031
 21
65.0
 31
0.0
  0
LINE
  5
24
330
1E
100
AcDbEntity
  8
0
100
AcDbLine
 10
3.147059999999999
 20
52.0
 30
0.0
 11
3.85294
 21
52.0
 31
0.0
  0
LINE
  5
25
330
1E
100
AcDbEntity
  8
0
100
AcDbLine
 10
1.911759999999999
 20
52.5
 30
0.0
 11
3.147059999999999
 21
52.0
 31
0.0
  0
LINE
  5
26
330
1E
100
AcDbEntity
  8
0
100
AcDbLine
 10
0.9411760000000029
 20
53.6
 30
0.0
 11
1.911759999999999
 21
52.5
 31
0.0
  0
LINE
  5
27
330
1E
100
AcDbEntity
  8
0
100
AcDbLine
 10
3.85294
 20
52.0
 30
0.0
 11
5.794119999999999
 21
52.0
 31
0.0
  0
LINE
  5
28
330
1E
100
AcDbEntity
  8
0
100
AcDbLine
 10
5.794119999999999
 20
52.0
 30
0.0
 11
8.794119999999999
 21
52.0
 31
0.0
  0
LINE
  5
29
330
1E
100
AcDbEntity
  8
0
100
AcDbLine
 10
8.794119999999999
 20
52.0
 30
0.0
 11
12.8529
 21
52.0
 31
0.0
  0
LINE
  5
2B
330
1E
100
AcDbEntity
  8
0
100
AcDbLine
 10
12.8529
 20
52.0
 30
0.0
 11
18.14709999999999
 21
52.0
 31
0.0
  0
LINE
  5
2C
330
1E
100
AcDbEntity
  8
0
100
AcDbLine
 10
24.4118
 20
52.0
 30
0.0
 11
31.5588
 21
52.0
 31
0.0
  0
LINE
  5
2D
330
1E
100
AcDbEntity
  8
0
100
AcDbLine
 10
18.14709999999999
 20
52.0
 30
0.0
 11
24.4118
 21
52.0
 31
0.0
  0
LINE
  5
2E
330
1E
100
AcDbEntity
  8
0
100
AcDbLine
 10
16.1176
 20
65.0
 30
0.0
 11
22.5588
 21
65.0
 31
0.0
  0
LINE
  5
2F
330
1E
100
AcDbEntity
  8
0
100
AcDbLine
 10
10.55879999999999
 20
65.0
 30
0.0
 11
16.1176
 21
65.0
 31
0.0
  0
LINE
  5
30
330
1E
100
AcDbEntity
  8
0
100
AcDbLine
 10
6.323529999999999
 20
65.0
 30
0.0
 11
10.55879999999999
 21
65.0
 31
0.0
  0
LINE
  5
31
330
1E
100
AcDbEntity
  8
0
100
AcDbLine
 10
3.235289999999999
 20
65.0
 30
0.0
 11
6.323529999999999
 21
65.0
 31
0.0
  0
LINE
  5
32
330
1E
100
AcDbEntity
  8
0
100
AcDbLine
 10
1.294118
 20
65.0
 30
0.0
 11
3.235289999999999
 21
65.0
 31
0.0
  0
LINE
  5
33
330
1E
100
AcDbEntity
  8
0
100
AcDbLine
 10
0.5000000000000031
 20
65.0
 30
0.0
 11
1.294118
 21
65.0
 31
0.0
  0
LINE
  5
34
330
1E
100
AcDbEntity
  8
0
100
AcDbLine
 10
0.5000000000000031
 20
65.0
 30
0.0
 11
0.5000000000000031
 21
55.0
 31
0.0
  0
LINE
  5
35
330
1E
100
AcDbEntity
  8
0
100
AcDbLine
 10
22.5588
 20
65.0
 30
0.0
 11
29.8824
 21
65.0
 31
0.0
  0
LINE
  5
36
330
1E
100
AcDbEntity
  8
0
100
AcDbLine
 10
39.5
 20
52.0
 30
0.0
 11
47.8824
 21
52.0
 31
0.0
  0
LINE
  5
37
330
1E
100
AcDbEntity
  8
0
100
AcDbLine
 10
31.5588
 20
52.0
 30
0.0
 11
39.5
 21
52.0
 31
0.0
  0
LINE
  5
38
330
1E
100
AcDbEntity
  8
0
100
AcDbLine
 10
29.8824
 20
65.0
 30
0.0
 11
38.1765
 21
65.0
 31
0.0
  0
LINE
  5
39
330
1E
100
AcDbEntity
  8
0
100
AcDbLine
 10
38.1765
 20
65.0
 30
0.0
 11
46.8235
 21
65.0
 31
0.0
  0
LINE
  5
3A
330
1E
100
AcDbEntity
  8
0
100
AcDbLine
 10
53.502
 20
18.779
 30
0.0
 11
53.505
 21
19.7987
 31
0.0
  0
LINE
  5
3B
330
1E
100
AcDbEntity
  8
0
100
AcDbLine
 10
53.502
 20
18.779
 30
0.0
 11
53.503
 21
17.64199999999999
 31
0.0
  0
LINE
  5
3C
330
1E
100
AcDbEntity
  8
0
100
AcDbLine
 10
53.504
 20
15.535
 30
0.0
 11
53.50699999999999
 21
16.509
 31
0.0
  0
LINE
  5
3D
330
1E
100
AcDbEntity
  8
0
100
AcDbLine
 10
53.504
 20
15.535
 30
0.0
 11
53.51399999999999
 21
5.314200000000009
 31
0.0
  0
LINE
  5
3E
330
1E
100
AcDbEntity
  8
0
100
AcDbLine
 10
53.504
 20
19.2799
 30
0.0
 11
53.505
 21
19.7987
 31
0.0
  0
LINE
  5
3F
330
1E
100
AcDbEntity
  8
0
100
AcDbLine
 10
53.503
 20
20.51429999999999
 30
0.0
 11
53.508
 21
20.8383
 31
0.0
  0
LINE
  5
40
330
1E
100
AcDbEntity
  8
0
100
AcDbLine
 10
53.503
 20
20.51429999999999
 30
0.0
 11
53.504
 21
19.2799
 31
0.0
  0
LINE
  5
41
330
1E
100
AcDbEntity
  8
0
100
AcDbLine
 10
53.503
 20
24.5006
 30
0.0
 11
53.503
 21
23.0357
 31
0.0
  0
LINE
  5
42
330
1E
100
AcDbEntity
  8
0
100
AcDbLine
 10
53.503
 20
23.0357
 30
0.0
 11
53.505
 21
22.8647
 31
0.0
  0
LINE
  5
43
330
1E
100
AcDbEntity
  8
0
100
AcDbLine
 10
53.503
 20
23.0357
 30
0.0
 11
53.503
 21
24.5006
 31
0.0
  0
LINE
  5
44
330
1E
100
AcDbEntity
  8
0
100
AcDbLine
 10
53.503
 20
21.76849999999999
 30
0.0
 11
53.505
 21
22.8647
 31
0.0
  0
LINE
  5
45
330
1E
100
AcDbEntity
  8
0
100
AcDbLine
 10
53.503
 20
21.76849999999999
 30
0.0
 11
53.508
 21
20.8383
 31
0.0
  0
LINE
  5
46
330
1E
100
AcDbEntity
  8
0
100
AcDbLine
 10
53.502
 20
17.2117
 30
0.0
 11
53.50699999999999
 21
16.509
 31
0.0
  0
LINE
  5
47
330
1E
100
AcDbEntity
  8
0
100
AcDbLine
 10
53.502
 20
17.2117
 30
0.0
 11
53.503
 21
17.64199999999999
 31
0.0
  0
LINE
  5
48
330
1E
100
AcDbEntity
  8
0
100
AcDbLine
 10
53.504
 20
29.4322
 30
0.0
 11
53.504
 21
26.0163
 31
0.0
  0
LINE
  5
49
330
1E
100
AcDbEntity
  8
0
100
AcDbLine
 10
53.502
 20
26.1425
 30
0.0
 11
53.504
 21
26.0163
 31
0.0
  0
LINE
  5
4A
330
1E
100
AcDbEntity
  8
0
100
AcDbLine
 10
53.502
 20
26.1425
 30
0.0
 11
53.503
 21
24.5006
 31
0.0
  0
LINE
  5
4B
330
1E
100
AcDbEntity
  8
0
100
AcDbLine
 10
53.53899999999999
 20
4.756600000000009
 30
0.0
 11
53.59799999999999
 21
4.534000000000009
 31
0.0
  0
LINE
  5
4C
330
1E
100
AcDbEntity
  8
0
100
AcDbLine
 10
53.511
 20
5.318100000000009
 30
0.0
 11
53.53899999999999
 21
4.756600000000009
 31
0.0
  0
LINE
  5
4D
330
1E
100
AcDbEntity
  8
0
100
AcDbLine
 10
53.504
 20
26.0163
 30
0.0
 11
53.504
 21
29.4322
 31
0.0
  0
LINE
  5
4E
330
1E
100
AcDbEntity
  8
0
100
AcDbLine
 10
53.5
 20
41.0285
 30
0.0
 11
53.56899999999999
 21
41.275
 31
0.0
  0
LINE
  5
4F
330
1E
100
AcDbEntity
  8
0
100
AcDbLine
 10
53.502
 20
41.0275
 30
0.0
 11
53.504
 21
29.4322
 31
0.0
  0
LINE
  5
50
330
1E
100
AcDbEntity
  8
0
100
AcDbLine
 10
53.59799999999999
 20
4.534000000000009
 30
0.0
 11
53.7639
 21
4.274600000000009
 31
0.0
  0
LINE
  5
51
330
1E
100
AcDbEntity
  8
0
100
AcDbLine
 10
53.7639
 20
4.274600000000009
 30
0.0
 11
54.0249
 21
4.105600000000009
 31
0.0
  0
LINE
  5
52
330
1E
100
AcDbEntity
  8
0
100
AcDbLine
 10
53.56899999999999
 20
41.275
 30
0.0
 11
53.75189999999999
 21
41.4579
 31
0.0
  0
LINE
  5
53
330
1E
100
AcDbEntity
  8
0
100
AcDbLine
 10
53.75189999999999
 20
41.4579
 30
0.0
 11
54.0019
 21
41.5235
 31
0.0
  0
LINE
  5
54
330
1E
100
AcDbEntity
  8
0
100
AcDbLine
 10
54.0319
 20
4.101700000000009
 30
0.0
 11
54.2538
 21
4.040000000000009
 31
0.0
  0
LINE
  5
55
330
1E
100
AcDbEntity
  8
0
100
AcDbLine
 10
54.2538
 20
4.040000000000009
 30
0.0
 11
54.3258
 21
4.033100000000009
 31
0.0
  0
LINE
  5
56
330
1E
100
AcDbEntity
  8
0
100
AcDbLine
 10
54.3258
 20
4.033100000000009
 30
0.0
 11
54.9026
 21
3.993300000000009
 31
0.0
  0
LINE
  5
57
330
1E
100
AcDbEntity
  8
0
100
AcDbLine
 10
55.2025
 20
3.981400000000009
 30
0.0
 11
55.7384
 21
3.966500000000009
 31
0.0
  0
LINE
  5
58
330
1E
100
AcDbEntity
  8
0
100
AcDbLine
 10
54.9026
 20
3.993300000000009
 30
0.0
 11
55.2025
 21
3.981400000000009
 31
0.0
  0
LINE
  5
59
330
1E
100
AcDbEntity
  8
0
100
AcDbLine
 10
55.42211434763729
 20
3.975293909722359
 30
0.0
 11
55.4515
 21
3.843300000000009
 31
0.0
  0
LINE
  5
5A
330
1E
100
AcDbEntity
  8
0
100
AcDbLine
 10
55.5255
 20
3.438800000000009
 30
0.0
 11
55.5754
 21
3.126700000000009
 31
0.0
  0
LINE
  5
5B
330
1E
100
AcDbEntity
  8
0
100
AcDbLine
 10
55.4515
 20
3.843300000000009
 30
0.0
 11
55.5255
 21
3.438800000000009
 31
0.0
  0
LINE
  5
5C
330
1E
100
AcDbEntity
  8
0
100
AcDbLine
 10
54.7464488357345
 20
40.49987835382649
 30
0.0
 11
55.1416
 21
39.90149999999999
 31
0.0
  0
LINE
  5
5D
330
1E
100
AcDbEntity
  8
0
100
AcDbLine
 10
54.5967
 20
41.0703
 30
0.0
 11
54.7986
 21
41.0703
 31
0.0
  0
LINE
  5
5E
330
1E
100
AcDbEntity
  8
0
100
AcDbLine
 10
54.5967
 20
41.0703
 30
0.0
 11
54.7464488357345
 21
40.49987835382649
 31
0.0
  0
LINE
  5
5F
330
1E
100
AcDbEntity
  8
0
100
AcDbLine
 10
54.7986
 20
41.0703
 30
0.0
 11
55.3925
 21
41.0703
 31
0.0
  0
LINE
  5
60
330
1E
100
AcDbEntity
  8
0
100
AcDbLine
 10
55.1416
 20
39.90149999999999
 30
0.0
 11
55.6414
 21
39.39159999999999
 31
0.0
  0
LINE
  5
61
330
1E
100
AcDbEntity
  8
0
100
AcDbLine
 10
55.3925
 20
41.0703
 30
0.0
 11
55.5066741091016
 21
41.0703
 31
0.0
  0
LINE
  5
64
330
1E
100
AcDbEntity
  8
0
100
AcDbLine
 10
54.0988
 20
41.5235
 30
0.0
 11
54.2838
 21
41.5235
 31
0.0
  0
LINE
  5
66
330
1E
100
AcDbEntity
  8
0
100
AcDbLine
 10
54.8316
 20
41.5235
 30
0.0
 11
55.4355557548871
 21
41.5235
 31
0.0
  0
LINE
  5
67
330
1E
100
AcDbEntity
  8
0
100
AcDbLine
 10
54.2838
 20
41.5235
 30
0.0
 11
54.8316
 21
41.5235
 31
0.0
  0
LINE
  5
69
330
1E
100
AcDbEntity
  8
0
100
AcDbLine
 10
54.0019
 20
41.5235
 30
0.0
 11
54.0988
 21
41.5235
 31
0.0
  0
LINE
  5
6C
330
1E
100
AcDbEntity
  8
0
100
AcDbLine
 10
55.2155
 20
42.9258
 30
0.0
 11
55.5374
 21
40.87449999999999
 31
0.0
  0
LINE
  5
6D
330
1E
100
AcDbEntity
  8
0
100
AcDbLine
 10
58.7846
 20
0.548600000000005
 30
0.0
 11
59.7853
 21
0.4641000000000071
 31
0.0
  0
LINE
  5
6E
330
1E
100
AcDbEntity
  8
0
100
AcDbLine
 10
58.3067
 20
0.616200000000006
 30
0.0
 11
58.7846
 21
0.548600000000005
 31
0.0
  0
LINE
  5
6F
330
1E
100
AcDbEntity
  8
0
100
AcDbLine
 10
56.6521
 20
1.130000000000009
 30
0.0
 11
57.087
 21
0.9273000000000051
 31
0.0
  0
LINE
  5
70
330
1E
100
AcDbEntity
  8
0
100
AcDbLine
 10
56.0003
 20
1.63490000000001
 30
0.0
 11
56.1253
 21
1.47990000000001
 31
0.0
  0
LINE
  5
71
330
1E
100
AcDbEntity
  8
0
100
AcDbLine
 10
55.5754
 20
3.126700000000009
 30
0.0
 11
55.6764
 21
2.391200000000009
 31
0.0
  0
LINE
  5
72
330
1E
100
AcDbEntity
  8
0
100
AcDbLine
 10
55.6764
 20
2.391200000000009
 30
0.0
 11
55.7374
 21
2.181500000000009
 31
0.0
  0
LINE
  5
73
330
1E
100
AcDbEntity
  8
0
100
AcDbLine
 10
55.7374
 20
2.181500000000009
 30
0.0
 11
55.83339999999999
 21
1.87540000000001
 31
0.0
  0
LINE
  5
74
330
1E
100
AcDbEntity
  8
0
100
AcDbLine
 10
55.83339999999999
 20
1.87540000000001
 30
0.0
 11
56.0003
 21
1.63490000000001
 31
0.0
  0
LINE
  5
75
330
1E
100
AcDbEntity
  8
0
100
AcDbLine
 10
56.51019999999999
 20
3.948600000000009
 30
0.0
 11
57.50189999999999
 21
3.928700000000009
 31
0.0
  0
LINE
  5
76
330
1E
100
AcDbEntity
  8
0
100
AcDbLine
 10
56.1253
 20
1.47990000000001
 30
0.0
 11
56.4412
 21
1.24330000000001
 31
0.0
  0
LINE
  5
77
330
1E
100
AcDbEntity
  8
0
100
AcDbLine
 10
56.4412
 20
1.24330000000001
 30
0.0
 11
56.6521
 21
1.130000000000009
 31
0.0
  0
LINE
  5
78
330
1E
100
AcDbEntity
  8
0
100
AcDbLine
 10
57.50189999999999
 20
3.928700000000009
 30
0.0
 11
58.2147
 21
3.915800000000009
 31
0.0
  0
LINE
  5
79
330
1E
100
AcDbEntity
  8
0
100
AcDbLine
 10
58.2147
 20
3.915800000000009
 30
0.0
 11
59.00249999999999
 21
3.902900000000009
 31
0.0
  0
LINE
  5
7A
330
1E
100
AcDbEntity
  8
0
100
AcDbLine
 10
59.00249999999999
 20
3.902900000000009
 30
0.0
 11
59.8613
 21
3.890000000000009
 31
0.0
  0
LINE
  5
7B
330
1E
100
AcDbEntity
  8
0
100
AcDbLine
 10
57.087
 20
0.9273000000000051
 30
0.0
 11
57.6469
 21
0.7524000000000079
 31
0.0
  0
LINE
  5
7C
330
1E
100
AcDbEntity
  8
0
100
AcDbLine
 10
57.6469
 20
0.7524000000000079
 30
0.0
 11
58.3067
 21
0.616200000000006
 31
0.0
  0
LINE
  5
7D
330
1E
100
AcDbEntity
  8
0
100
AcDbLine
 10
59.8613
 20
3.890000000000009
 30
0.0
 11
60.78899999999999
 21
3.877100000000009
 31
0.0
  0
LINE
  5
7E
330
1E
100
AcDbEntity
  8
0
100
AcDbLine
 10
60.78899999999999
 20
3.877100000000009
 30
0.0
 11
61.7798
 21
3.863100000000009
 31
0.0
  0
LINE
  5
7F
330
1E
100
AcDbEntity
  8
0
100
AcDbLine
 10
59.7853
 20
0.4641000000000071
 30
0.0
 11
63.6992
 21
0.248500000000005
 31
0.0
  0
LINE
  5
80
330
1E
100
AcDbEntity
  8
0
100
AcDbLine
 10
55.7384
 20
3.966500000000009
 30
0.0
 11
56.51019999999999
 21
3.948600000000009
 31
0.0
  0
LINE
  5
82
330
1E
100
AcDbEntity
  8
0
100
AcDbLine
 10
63.6992
 20
0.248500000000005
 30
0.0
 11
67.6251
 21
0.102400000000008
 31
0.0
  0
LINE
  5
83
330
1E
100
AcDbEntity
  8
0
100
AcDbLine
 10
62.82939999999999
 20
3.851200000000009
 30
0.0
 11
63.9352
 21
3.838300000000009
 31
0.0
  0
LINE
  5
84
330
1E
100
AcDbEntity
  8
0
100
AcDbLine
 10
61.7798
 20
3.863100000000009
 30
0.0
 11
62.82939999999999
 21
3.851200000000009
 31
0.0
  0
LINE
  5
85
330
1E
100
AcDbEntity
  8
0
100
AcDbLine
 10
63.9352
 20
3.838300000000009
 30
0.0
 11
65.0898
 21
3.82640000000002
 31
0.0
  0
LINE
  5
86
330
1E
100
AcDbEntity
  8
0
100
AcDbLine
 10
65.0898
 20
3.82640000000002
 30
0.0
 11
66.29049999999999
 21
3.814400000000009
 31
0.0
  0
LINE
  5
87
330
1E
100
AcDbEntity
  8
0
100
AcDbLine
 10
65.6087
 20
35.9241
 30
0.0
 11
67.8641
 21
35.60999999999999
 31
0.0
  0
LINE
  5
89
330
1E
100
AcDbEntity
  8
0
100
AcDbLine
 10
63.4183
 20
36.33059999999999
 30
0.0
 11
65.6087
 21
35.9241
 31
0.0
  0
LINE
  5
8C
330
1E
100
AcDbEntity
  8
0
100
AcDbLine
 10
55.6414
 20
39.39159999999999
 30
0.0
 11
56.6871
 21
38.6691
 31
0.0
  0
LINE
  5
8D
330
1E
100
AcDbEntity
  8
0
100
AcDbLine
 10
56.6871
 20
38.6691
 30
0.0
 11
58.0108
 21
37.9923
 31
0.0
  0
LINE
  5
8E
330
1E
100
AcDbEntity
  8
0
100
AcDbLine
 10
58.0108
 20
37.9923
 30
0.0
 11
59.5903
 21
37.3721
 31
0.0
  0
LINE
  5
90
330
1E
100
AcDbEntity
  8
0
100
AcDbLine
 10
59.5903
 20
37.3721
 30
0.0
 11
61.4028
 21
36.8156
 31
0.0
  0
LINE
  5
91
330
1E
100
AcDbEntity
  8
0
100
AcDbLine
 10
61.4028
 20
36.8156
 30
0.0
 11
63.4183
 21
36.33059999999999
 31
0.0
  0
LINE
  5
94
330
1E
100
AcDbEntity
  8
0
100
AcDbLine
 10
55.5374
 20
40.87449999999999
 30
0.0
 11
55.9934071916408
 21
39.1483895228455
 31
0.0
  0
LINE
  5
95
330
1E
100
AcDbEntity
  8
0
100
AcDbLine
 10
55.1351607659307
 20
52.0
 30
0.0
 11
55.2155
 21
42.9258
 31
0.0
  0
LINE
  5
96
330
1E
100
AcDbEntity
  8
0
100
AcDbLine
 10
47.8824
 20
52.0
 30
0.0
 11
95.8649143877027
 21
52.0
 31
0.0
  0
LINE
  5
97
330
1E
100
AcDbEntity
  8
0
100
AcDbLine
 10
47.8824
 20
52.0
 30
0.0
 11
95.8649143877027
 21
52.0
 31
0.0
  0
LINE
  5
98
330
1E
100
AcDbEntity
  8
0
100
AcDbLine
 10
46.8235
 20
65.0
 30
0.0
 11
56.1765
 21
65.0
 31
0.0
  0
LINE
  5
1CF
330
1E
100
AcDbEntity
  8
0
100
AcDbLine
 10
56.1765
 20
65.0
 30
0.0
 11
65.7059
 21
65.0
 31
0.0
  0
LINE
  5
1D0
330
1E
100
AcDbEntity
  8
0
100
AcDbLine
 10
66.29049999999999
 20
3.814400000000009
 30
0.0
 11
67.53109999999999
 21
3.803500000000009
 31
0.0
  0
LINE
  5
1D1
330
1E
100
AcDbEntity
  8
0
100
AcDbLine
 10
67.6251
 20
0.102400000000008
 30
0.0
 11
71.56010000000001
 21
0.0169000000000063
 31
0.0
  0
LINE
  5
1DB
330
1E
100
AcDbEntity
  8
0
100
AcDbLine
 10
71.56010000000001
 20
0.0169000000000063
 30
0.0
 11
75.5
 21
0.0000000000000072
 31
0.0
  0
LINE
  5
1E2
330
1E
100
AcDbEntity
  8
0
100
AcDbLine
 10
70.1095
 20
3.78560000000002
 30
0.0
 11
71.43609999999999
 21
3.777700000000009
 31
0.0
  0
LINE
  5
1E3
330
1E
100
AcDbEntity
  8
0
100
AcDbLine
 10
67.53109999999999
 20
3.803500000000009
 30
0.0
 11
68.80589999999999
 21
3.793600000000009
 31
0.0
  0
LINE
  5
1E4
330
1E
100
AcDbEntity
  8
0
100
AcDbLine
 10
68.80589999999999
 20
3.793600000000009
 30
0.0
 11
70.1095
 21
3.78560000000002
 31
0.0
  0
LINE
  5
1E7
330
1E
100
AcDbEntity
  8
0
100
AcDbLine
 10
72.7808
 20
3.772700000000009
 30
0.0
 11
74.1373
 21
3.769700000000009
 31
0.0
  0
LINE
  5
1E8
330
1E
100
AcDbEntity
  8
0
100
AcDbLine
 10
71.43609999999999
 20
3.777700000000009
 30
0.0
 11
72.7808
 21
3.772700000000009
 31
0.0
  0
LINE
  5
1E9
330
1E
100
AcDbEntity
  8
0
100
AcDbLine
 10
74.1373
 20
3.769700000000009
 30
0.0
 11
75.5
 21
3.768700000000009
 31
0.0
  0
LINE
  5
1EC
330
1E
100
AcDbEntity
  8
0
100
AcDbLine
 10
75.5
 20
0.0000000000000072
 30
0.0
 11
79.43989999999999
 21
0.0169000000000063
 31
0.0
  0
LINE
  5
1F2
330
1E
100
AcDbEntity
  8
0
100
AcDbLine
 10
75.5
 20
3.768700000000009
 30
0.0
 11
76.8627
 21
3.769700000000009
 31
0.0
  0
LINE
  5
1FF
330
1E
100
AcDbEntity
  8
0
100
AcDbLine
 10
72.64906763064811
 20
35.2344034729317
 30
0.0
 11
75.1153218221208
 21
35.17674152902969
 31
0.0
  0
LINE
  5
20E
330
1E
100
AcDbEntity
  8
0
100
AcDbLine
 10
75.5
 20
35.1817
 30
0.0
 11
75.8879
 21
35.17669999999999
 31
0.0
  0
LINE
  5
20F
330
1E
100
AcDbEntity
  8
0
100
AcDbLine
 10
75.1121
 20
35.17669999999999
 30
0.0
 11
75.5
 21
35.1817
 31
0.0
  0
LINE
  5
210
330
1E
100
AcDbEntity
  8
0
100
AcDbLine
 10
72.64906763064811
 20
35.2344034729317
 30
0.0
 11
75.1153218221208
 21
35.17674152902969
 31
0.0
  0
LINE
  5
211
330
1E
100
AcDbEntity
  8
0
100
AcDbLine
 10
70.2215
 20
35.37939999999999
 30
0.0
 11
72.64906763064811
 21
35.2344034729317
 31
0.0
  0
LINE
  5
212
330
1E
100
AcDbEntity
  8
0
100
AcDbLine
 10
67.8641
 20
35.60999999999999
 30
0.0
 11
70.2215
 21
35.37939999999999
 31
0.0
  0
LINE
  5
215
330
1E
100
AcDbEntity
  8
0
100
AcDbLine
 10
83.3749
 20
0.102400000000008
 30
0.0
 11
87.30079999999999
 21
0.248500000000005
 31
0.0
  0
LINE
  5
216
330
1E
100
AcDbEntity
  8
0
100
AcDbLine
 10
79.43989999999999
 20
0.0169000000000063
 30
0.0
 11
83.3749
 21
0.102400000000008
 31
0.0
  0
LINE
  5
21C
330
1E
100
AcDbEntity
  8
0
100
AcDbLine
 10
78.2192
 20
3.772700000000009
 30
0.0
 11
79.5639
 21
3.777700000000009
 31
0.0
  0
LINE
  5
21D
330
1E
100
AcDbEntity
  8
0
100
AcDbLine
 10
76.8627
 20
3.769700000000009
 30
0.0
 11
78.2192
 21
3.772700000000009
 31
0.0
  0
LINE
  5
21F
330
1E
100
AcDbEntity
  8
0
100
AcDbLine
 10
75.88467817787919
 20
35.17674152902969
 30
0.0
 11
78.3509323693519
 21
35.2344034729317
 31
0.0
  0
LINE
  5
220
330
1E
100
AcDbEntity
  8
0
100
AcDbLine
 10
75.88467817787919
 20
35.17674152902969
 30
0.0
 11
78.3509323693519
 21
35.2344034729317
 31
0.0
  0
LINE
  5
223
330
1E
100
AcDbEntity
  8
0
100
AcDbLine
 10
80.8905
 20
3.78560000000002
 30
0.0
 11
82.19410000000001
 21
3.793600000000009
 31
0.0
  0
LINE
  5
224
330
1E
100
AcDbEntity
  8
0
100
AcDbLine
 10
79.5639
 20
3.777700000000009
 30
0.0
 11
80.8905
 21
3.78560000000002
 31
0.0
  0
LINE
  5
225
330
1E
100
AcDbEntity
  8
0
100
AcDbLine
 10
80.77849999999999
 20
35.37939999999999
 30
0.0
 11
83.13590000000001
 21
35.60999999999999
 31
0.0
  0
LINE
  5
227
330
1E
100
AcDbEntity
  8
0
100
AcDbLine
 10
78.3509323693519
 20
35.2344034729317
 30
0.0
 11
80.77849999999999
 21
35.37939999999999
 31
0.0
  0
LINE
  5
22A
330
1E
100
AcDbEntity
  8
0
100
AcDbLine
 10
83.4689
 20
3.803500000000009
 30
0.0
 11
84.7095
 21
3.814400000000009
 31
0.0
  0
LINE
  5
22B
330
1E
100
AcDbEntity
  8
0
100
AcDbLine
 10
82.19410000000001
 20
3.793600000000009
 30
0.0
 11
83.4689
 21
3.803500000000009
 31
0.0
  0
LINE
  5
22D
330
1E
100
AcDbEntity
  8
0
100
AcDbLine
 10
83.13590000000001
 20
35.60999999999999
 30
0.0
 11
85.3913
 21
35.9241
 31
0.0
  0
LINE
  5
22E
330
1E
100
AcDbEntity
  8
0
100
AcDbLine
 10
84.7095
 20
3.814400000000009
 30
0.0
 11
85.9102
 21
3.82640000000002
 31
0.0
  0
LINE
  5
231
330
1E
100
AcDbEntity
  8
0
100
AcDbLine
 10
88.17059999999999
 20
3.851200000000009
 30
0.0
 11
89.22020000000001
 21
3.863100000000009
 31
0.0
  0
LINE
  5
232
330
1E
100
AcDbEntity
  8
0
100
AcDbLine
 10
87.0648
 20
3.838300000000009
 30
0.0
 11
88.17059999999999
 21
3.851200000000009
 31
0.0
  0
LINE
  5
233
330
1E
100
AcDbEntity
  8
0
100
AcDbLine
 10
85.9102
 20
3.82640000000002
 30
0.0
 11
87.0648
 21
3.838300000000009
 31
0.0
  0
LINE
  5
234
330
1E
100
AcDbEntity
  8
0
100
AcDbLine
 10
92.2154
 20
0.548600000000005
 30
0.0
 11
92.6933
 21
0.616200000000006
 31
0.0
  0
LINE
  5
235
330
1E
100
AcDbEntity
  8
0
100
AcDbLine
 10
92.6933
 20
0.616200000000006
 30
0.0
 11
93.35320000000001
 21
0.7524000000000079
 31
0.0
  0
LINE
  5
236
330
1E
100
AcDbEntity
  8
0
100
AcDbLine
 10
91.2147
 20
0.4641000000000071
 30
0.0
 11
92.2154
 21
0.548600000000005
 31
0.0
  0
LINE
  5
237
330
1E
100
AcDbEntity
  8
0
100
AcDbLine
 10
90.211
 20
3.877100000000009
 30
0.0
 11
91.1387
 21
3.890000000000009
 31
0.0
  0
LINE
  5
238
330
1E
100
AcDbEntity
  8
0
100
AcDbLine
 10
89.22020000000001
 20
3.863100000000009
 30
0.0
 11
90.211
 21
3.877100000000009
 31
0.0
  0
LINE
  5
239
330
1E
100
AcDbEntity
  8
0
100
AcDbLine
 10
91.99749999999999
 20
3.902900000000009
 30
0.0
 11
92.78530000000001
 21
3.915800000000009
 31
0.0
  0
LINE
  5
23A
330
1E
100
AcDbEntity
  8
0
100
AcDbLine
 10
91.1387
 20
3.890000000000009
 30
0.0
 11
91.99749999999999
 21
3.902900000000009
 31
0.0
  0
LINE
  5
23B
330
1E
100
AcDbEntity
  8
0
100
AcDbLine
 10
93.35320000000001
 20
0.7524000000000079
 30
0.0
 11
93.91299999999999
 21
0.9273000000000051
 31
0.0
  0
LINE
  5
23C
330
1E
100
AcDbEntity
  8
0
100
AcDbLine
 10
93.91299999999999
 20
0.9273000000000051
 30
0.0
 11
94.34789999999999
 21
1.130000000000009
 31
0.0
  0
LINE
  5
23D
330
1E
100
AcDbEntity
  8
0
100
AcDbLine
 10
94.34789999999999
 20
1.130000000000009
 30
0.0
 11
94.5588
 21
1.24330000000001
 31
0.0
  0
LINE
  5
23E
330
1E
100
AcDbEntity
  8
0
100
AcDbLine
 10
94.5588
 20
1.24330000000001
 30
0.0
 11
94.8747
 21
1.47990000000001
 31
0.0
  0
LINE
  5
23F
330
1E
100
AcDbEntity
  8
0
100
AcDbLine
 10
94.4899
 20
3.948600000000009
 30
0.0
 11
95.2616
 21
3.966500000000009
 31
0.0
  0
LINE
  5
240
330
1E
100
AcDbEntity
  8
0
100
AcDbLine
 10
93.49809999999999
 20
3.928700000000009
 30
0.0
 11
94.4899
 21
3.948600000000009
 31
0.0
  0
LINE
  5
241
330
1E
100
AcDbEntity
  8
0
100
AcDbLine
 10
92.78530000000001
 20
3.915800000000009
 30
0.0
 11
93.49809999999999
 21
3.928700000000009
 31
0.0
  0
LINE
  5
244
330
1E
100
AcDbEntity
  8
0
100
AcDbLine
 10
91.40970000000001
 20
37.3721
 30
0.0
 11
92.9892
 21
37.9923
 31
0.0
  0
LINE
  5
245
330
1E
100
AcDbEntity
  8
0
100
AcDbLine
 10
92.9892
 20
37.9923
 30
0.0
 11
94.31279999999999
 21
38.6691
 31
0.0
  0
LINE
  5
246
330
1E
100
AcDbEntity
  8
0
100
AcDbLine
 10
89.5972
 20
36.8156
 30
0.0
 11
91.40970000000001
 21
37.3721
 31
0.0
  0
LINE
  5
249
330
1E
100
AcDbEntity
  8
0
100
AcDbLine
 10
94.31279999999999
 20
38.6691
 30
0.0
 11
95.35859999999999
 21
39.39159999999999
 31
0.0
  0
LINE
  5
24A
330
1E
100
AcDbEntity
  8
0
100
AcDbLine
 10
87.58169999999999
 20
36.33059999999999
 30
0.0
 11
89.5972
 21
36.8156
 31
0.0
  0
LINE
  5
24C
330
1E
100
AcDbEntity
  8
0
100
AcDbLine
 10
85.3913
 20
35.9241
 30
0.0
 11
87.58169999999999
 21
36.33059999999999
 31
0.0
  0
LINE
  5
24D
330
1E
100
AcDbEntity
  8
0
100
AcDbLine
 10
87.30079999999999
 20
0.248500000000005
 30
0.0
 11
91.2147
 21
0.4641000000000071
 31
0.0
  0
LINE
  5
24E
330
1E
100
AcDbEntity
  8
0
100
AcDbLine
 10
95.16659999999999
 20
1.87540000000001
 30
0.0
 11
95.2626
 21
2.181500000000009
 31
0.0
  0
LINE
  5
24F
330
1E
100
AcDbEntity
  8
0
100
AcDbLine
 10
95.2616
 20
3.966500000000009
 30
0.0
 11
95.7975
 21
3.981400000000009
 31
0.0
  0
LINE
  5
250
330
1E
100
AcDbEntity
  8
0
100
AcDbLine
 10
95.2626
 20
2.181500000000009
 30
0.0
 11
95.32349999999999
 21
2.391200000000009
 31
0.0
  0
LINE
  5
251
330
1E
100
AcDbEntity
  8
0
100
AcDbLine
 10
95.47459999999999
 20
3.438800000000009
 30
0.0
 11
95.5485
 21
3.843300000000009
 31
0.0
  0
LINE
  5
252
330
1E
100
AcDbEntity
  8
0
100
AcDbLine
 10
95.4245
 20
3.126700000000009
 30
0.0
 11
95.47459999999999
 21
3.438800000000009
 31
0.0
  0
LINE
  5
253
330
1E
100
AcDbEntity
  8
0
100
AcDbLine
 10
95.5485
 20
3.843300000000009
 30
0.0
 11
95.5778856523627
 21
3.975293909722359
 31
0.0
  0
LINE
  5
254
330
1E
100
AcDbEntity
  8
0
100
AcDbLine
 10
95.7975
 20
3.981400000000009
 30
0.0
 11
96.0974
 21
3.993300000000009
 31
0.0
  0
LINE
  5
255
330
1E
100
AcDbEntity
  8
0
100
AcDbLine
 10
95.32349999999999
 20
2.391200000000009
 30
0.0
 11
95.4245
 21
3.126700000000009
 31
0.0
  0
LINE
  5
256
330
1E
100
AcDbEntity
  8
0
100
AcDbLine
 10
94.99970000000001
 20
1.63490000000001
 30
0.0
 11
95.16659999999999
 21
1.87540000000001
 31
0.0
  0
LINE
  5
257
330
1E
100
AcDbEntity
  8
0
100
AcDbLine
 10
94.8747
 20
1.47990000000001
 30
0.0
 11
94.99970000000001
 21
1.63490000000001
 31
0.0
  0
LINE
  5
258
330
1E
100
AcDbEntity
  8
0
100
AcDbLine
 10
95.4626
 20
40.87449999999999
 30
0.0
 11
95.7845
 21
42.9258
 31
0.0
  0
LINE
  5
259
330
1E
100
AcDbEntity
  8
0
100
AcDbLine
 10
95.35859999999999
 20
39.39159999999999
 30
0.0
 11
95.85840000000001
 21
39.90149999999999
 31
0.0
  0
LINE
  5
25A
330
1E
100
AcDbEntity
  8
0
100
AcDbLine
 10
95.0066003238191
 20
39.1484179708924
 30
0.0
 11
95.4626
 21
40.87449999999999
 31
0.0
  0
LINE
  5
25B
330
1E
100
AcDbEntity
  8
0
100
AcDbLine
 10
95.49332589089848
 20
41.0703
 30
0.0
 11
95.6076
 21
41.0703
 31
0.0
  0
LINE
  5
25D
330
1E
100
AcDbEntity
  8
0
100
AcDbLine
 10
95.6076
 20
41.0703
 30
0.0
 11
96.20140000000001
 21
41.0703
 31
0.0
  0
LINE
  5
260
330
1E
100
AcDbEntity
  8
0
100
AcDbLine
 10
95.7845
 20
42.9258
 30
0.0
 11
95.8649143877027
 21
52.0
 31
0.0
  0
LINE
  5
261
330
1E
100
AcDbEntity
  8
0
100
AcDbLine
 10
95.5644442451129
 20
41.5235
 30
0.0
 11
96.1683
 21
41.5235
 31
0.0
  0
LINE
  5
263
330
1E
100
AcDbEntity
  8
0
100
AcDbLine
 10
96.0974
 20
3.993300000000009
 30
0.0
 11
96.67419999999999
 21
4.033100000000009
 31
0.0
  0
LINE
  5
264
330
1E
100
AcDbEntity
  8
0
100
AcDbLine
 10
96.67419999999999
 20
4.033100000000009
 30
0.0
 11
96.7462
 21
4.040000000000009
 31
0.0
  0
LINE
  5
265
330
1E
100
AcDbEntity
  8
0
100
AcDbLine
 10
96.97510000000001
 20
4.105600000000009
 30
0.0
 11
97.2361
 21
4.274600000000009
 31
0.0
  0
LINE
  5
266
330
1E
100
AcDbEntity
  8
0
100
AcDbLine
 10
97.40200000000001
 20
4.534000000000009
 30
0.0
 11
97.461
 21
4.756600000000009
 31
0.0
  0
LINE
  5
267
330
1E
100
AcDbEntity
  8
0
100
AcDbLine
 10
97.2361
 20
4.274600000000009
 30
0.0
 11
97.40200000000001
 21
4.534000000000009
 31
0.0
  0
LINE
  5
268
330
1E
100
AcDbEntity
  8
0
100
AcDbLine
 10
97.461
 20
4.756600000000009
 30
0.0
 11
97.48899999999999
 21
5.318100000000009
 31
0.0
  0
LINE
  5
269
330
1E
100
AcDbEntity
  8
0
100
AcDbLine
 10
96.7462
 20
4.040000000000009
 30
0.0
 11
96.96810000000001
 21
4.101700000000009
 31
0.0
  0
LINE
  5
26A
330
1E
100
AcDbEntity
  8
0
100
AcDbLine
 10
97.48600000000001
 20
5.314200000000009
 30
0.0
 11
97.496
 21
15.535
 31
0.0
  0
LINE
  5
26B
330
1E
100
AcDbEntity
  8
0
100
AcDbLine
 10
97.49200000000001
 20
20.8383
 30
0.0
 11
97.49700000000002
 21
21.76849999999999
 31
0.0
  0
LINE
  5
26C
330
1E
100
AcDbEntity
  8
0
100
AcDbLine
 10
97.49200000000001
 20
20.8383
 30
0.0
 11
97.49700000000002
 21
20.51429999999999
 31
0.0
  0
LINE
  5
26D
330
1E
100
AcDbEntity
  8
0
100
AcDbLine
 10
97.49500000000001
 20
19.7987
 30
0.0
 11
97.498
 21
18.779
 31
0.0
  0
LINE
  5
26E
330
1E
100
AcDbEntity
  8
0
100
AcDbLine
 10
97.49500000000001
 20
19.7987
 30
0.0
 11
97.496
 21
19.2799
 31
0.0
  0
LINE
  5
26F
330
1E
100
AcDbEntity
  8
0
100
AcDbLine
 10
97.49299999999999
 20
16.509
 30
0.0
 11
97.496
 21
15.535
 31
0.0
  0
LINE
  5
270
330
1E
100
AcDbEntity
  8
0
100
AcDbLine
 10
97.49299999999999
 20
16.509
 30
0.0
 11
97.498
 21
17.2117
 31
0.0
  0
LINE
  5
271
330
1E
100
AcDbEntity
  8
0
100
AcDbLine
 10
97.49700000000002
 20
17.64199999999999
 30
0.0
 11
97.498
 21
18.779
 31
0.0
  0
LINE
  5
272
330
1E
100
AcDbEntity
  8
0
100
AcDbLine
 10
97.49700000000002
 20
17.64199999999999
 30
0.0
 11
97.498
 21
17.2117
 31
0.0
  0
LINE
  5
273
330
1E
100
AcDbEntity
  8
0
100
AcDbLine
 10
97.496
 20
19.2799
 30
0.0
 11
97.49700000000002
 21
20.51429999999999
 31
0.0
  0
LINE
  5
274
330
1E
100
AcDbEntity
  8
0
100
AcDbLine
 10
97.49500000000001
 20
22.8647
 30
0.0
 11
97.49700000000002
 21
21.76849999999999
 31
0.0
  0
LINE
  5
275
330
1E
100
AcDbEntity
  8
0
100
AcDbLine
 10
97.49500000000001
 20
22.8647
 30
0.0
 11
97.49700000000002
 21
23.0357
 31
0.0
  0
LINE
  5
276
330
1E
100
AcDbEntity
  8
0
100
AcDbLine
 10
97.49700000000002
 20
24.5006
 30
0.0
 11
97.498
 21
26.1425
 31
0.0
  0
LINE
  5
277
330
1E
100
AcDbEntity
  8
0
100
AcDbLine
 10
97.49700000000002
 20
24.5006
 30
0.0
 11
97.49700000000002
 21
23.0357
 31
0.0
  0
LINE
  5
278
330
1E
100
AcDbEntity
  8
0
100
AcDbLine
 10
97.496
 20
26.0163
 30
0.0
 11
97.498
 21
26.1425
 31
0.0
  0
LINE
  5
279
330
1E
100
AcDbEntity
  8
0
100
AcDbLine
 10
97.496
 20
26.0163
 30
0.0
 11
97.496
 21
29.4322
 31
0.0
  0
LINE
  5
27A
330
1E
100
AcDbEntity
  8
0
100
AcDbLine
 10
96.25368547419631
 20
40.50008173967611
 30
0.0
 11
96.4033
 21
41.0703
 31
0.0
  0
LINE
  5
27B
330
1E
100
AcDbEntity
  8
0
100
AcDbLine
 10
96.20140000000001
 20
41.0703
 30
0.0
 11
96.4033
 21
41.0703
 31
0.0
  0
LINE
  5
27E
330
1E
100
AcDbEntity
  8
0
100
AcDbLine
 10
97.248
 20
41.4579
 30
0.0
 11
97.431
 21
41.275
 31
0.0
  0
LINE
  5
27F
330
1E
100
AcDbEntity
  8
0
100
AcDbLine
 10
97.431
 20
41.275
 30
0.0
 11
97.5
 21
41.0285
 31
0.0
  0
LINE
  5
280
330
1E
100
AcDbEntity
  8
0
100
AcDbLine
 10
96.99809999999999
 20
41.5235
 30
0.0
 11
97.248
 21
41.4579
 31
0.0
  0
LINE
  5
281
330
1E
100
AcDbEntity
  8
0
100
AcDbLine
 10
96.9012
 20
41.5235
 30
0.0
 11
96.99809999999999
 21
41.5235
 31
0.0
  0
LINE
  5
282
330
1E
100
AcDbEntity
  8
0
100
AcDbLine
 10
96.7162
 20
41.5235
 30
0.0
 11
96.9012
 21
41.5235
 31
0.0
  0
LINE
  5
284
330
1E
100
AcDbEntity
  8
0
100
AcDbLine
 10
97.496
 20
29.4322
 30
0.0
 11
97.498
 21
41.0275
 31
0.0
  0
LINE
  5
285
330
1E
100
AcDbEntity
  8
0
100
AcDbLine
 10
97.496
 20
29.4322
 30
0.0
 11
97.496
 21
26.0163
 31
0.0
  0
LINE
  5
286
330
1E
100
AcDbEntity
  8
0
100
AcDbLine
 10
96.1683
 20
41.5235
 30
0.0
 11
96.7162
 21
41.5235
 31
0.0
  0
LINE
  5
287
330
1E
100
AcDbEntity
  8
0
100
AcDbLine
 10
97.49700000000002
 20
23.0357
 30
0.0
 11
97.49700000000002
 21
24.5006
 31
0.0
  0
LINE
  5
288
330
1E
100
AcDbEntity
  8
0
100
AcDbLine
 10
111.4999999999999
 20
52.0
 30
0.0
 11
119.4409999999999
 21
52.0
 31
0.0
  0
LINE
  5
289
330
1E
100
AcDbEntity
  8
0
100
AcDbLine
 10
103.1179999999999
 20
52.0
 30
0.0
 11
111.4999999999999
 21
52.0
 31
0.0
  0
LINE
  5
28A
330
1E
100
AcDbEntity
  8
0
100
AcDbLine
 10
95.8649143877027
 20
52.0
 30
0.0
 11
103.1179999999999
 21
52.0
 31
0.0
  0
LINE
  5
28B
330
1E
100
AcDbEntity
  8
0
100
AcDbLine
 10
94.8235
 20
65.0
 30
0.0
 11
104.176
 21
65.0
 31
0.0
  0
LINE
  5
28C
330
1E
100
AcDbEntity
  8
0
100
AcDbLine
 10
85.2941
 20
65.0
 30
0.0
 11
94.8235
 21
65.0
 31
0.0
  0
LINE
  5
28D
330
1E
100
AcDbEntity
  8
0
100
AcDbLine
 10
75.5
 20
65.0
 30
0.0
 11
85.2941
 21
65.0
 31
0.0
  0
LINE
  5
28E
330
1E
100
AcDbEntity
  8
0
100
AcDbLine
 10
104.176
 20
65.0
 30
0.0
 11
112.8239999999999
 21
65.0
 31
0.0
  0
LINE
  5
28F
330
1E
100
AcDbEntity
  8
0
100
AcDbLine
 10
126.5879999999999
 20
52.0
 30
0.0
 11
132.8529999999999
 21
52.0
 31
0.0
  0
LINE
  5
290
330
1E
100
AcDbEntity
  8
0
100
AcDbLine
 10
119.4409999999999
 20
52.0
 30
0.0
 11
126.5879999999999
 21
52.0
 31
0.0
  0
LINE
  5
291
330
1E
100
AcDbEntity
  8
0
100
AcDbLine
 10
132.8529999999999
 20
52.0
 30
0.0
 11
138.147
 21
52.0
 31
0.0
  0
LINE
  5
292
330
1E
100
AcDbEntity
  8
0
100
AcDbLine
 10
112.8239999999999
 20
65.0
 30
0.0
 11
121.1179999999999
 21
65.0
 31
0.0
  0
LINE
  5
293
330
1E
100
AcDbEntity
  8
0
100
AcDbLine
 10
128.441
 20
65.0
 30
0.0
 11
134.882
 21
65.0
 31
0.0
  0
LINE
  5
294
330
1E
100
AcDbEntity
  8
0
100
AcDbLine
 10
138.147
 20
52.0
 30
0.0
 11
142.206
 21
52.0
 31
0.0
  0
LINE
  5
296
330
1E
100
AcDbEntity
  8
0
100
AcDbLine
 10
142.206
 20
52.0
 30
0.0
 11
145.206
 21
52.0
 31
0.0
  0
LINE
  5
297
330
1E
100
AcDbEntity
  8
0
100
AcDbLine
 10
134.882
 20
65.0
 30
0.0
 11
140.441
 21
65.0
 31
0.0
  0
LINE
  5
298
330
1E
100
AcDbEntity
  8
0
100
AcDbLine
 10
140.441
 20
65.0
 30
0.0
 11
144.676
 21
65.0
 31
0.0
  0
LINE
  5
299
330
1E
100
AcDbEntity
  8
0
100
AcDbLine
 10
145.206
 20
52.0
 30
0.0
 11
147.147
 21
52.0
 31
0.0
  0
LINE
  5
29A
330
1E
100
AcDbEntity
  8
0
100
AcDbLine
 10
147.147
 20
52.0
 30
0.0
 11
147.8529999999999
 21
52.0
 31
0.0
  0
LINE
  5
29B
330
1E
100
AcDbEntity
  8
0
100
AcDbLine
 10
149.0879999999999
 20
52.5
 30
0.0
 11
150.059
 21
53.6
 31
0.0
  0
LINE
  5
29C
330
1E
100
AcDbEntity
  8
0
100
AcDbLine
 10
147.8529999999999
 20
52.0
 30
0.0
 11
149.0879999999999
 21
52.5
 31
0.0
  0
LINE
  5
29D
330
1E
100
AcDbEntity
  8
0
100
AcDbLine
 10
144.676
 20
65.0
 30
0.0
 11
147.7649999999999
 21
65.0
 31
0.0
  0
LINE
  5
29E
330
1E
100
AcDbEntity
  8
0
100
AcDbLine
 10
147.7649999999999
 20
65.0
 30
0.0
 11
149.706
 21
65.0
 31
0.0
  0
LINE
  5
29F
330
1E
100
AcDbEntity
  8
0
100
AcDbLine
 10
150.059
 20
53.6
 30
0.0
 11
150.5
 21
55.0
 31
0.0
  0
LINE
  5
2A0
330
1E
100
AcDbEntity
  8
0
100
AcDbLine
 10
150.5
 20
65.0
 30
0.0
 11
150.5
 21
55.0
 31
0.0
  0
LINE
  5
2A1
330
1E
100
AcDbEntity
  8
0
100
AcDbLine
 10
150.5
 20
55.0
 30
0.0
 11
150.5
 21
65.0
 31
0.0
  0
LINE
  5
2A2
330
1E
100
AcDbEntity
  8
0
100
AcDbLine
 10
149.706
 20
65.0
 30
0.0
 11
150.5
 21
65.0
 31
0.0
  0
LINE
  5
3DF
330
1E
100
AcDbEntity
  8
0
100
AcDbLine
 10
121.1179999999999
 20
65.0
 30
0.0
 11
128.441
 21
65.0
 31
0.0
  0
LINE
  5
3E0
330
1E
100
AcDbEntity
  8
0
100
AcDbLine
 10
65.7059
 20
65.0
 30
0.0
 11
75.5
 21
65.0
 31
0.0
  0
LINE
  5
3E5
330
1E
100
AcDbEntity
  8
0
100
AcDbLine
 10
95.85840000000001
 20
39.90149999999999
 30
0.0
 11
96.25368547419631
 21
40.50008173967611
 31
0.0
  0
ENDSEC
  0
SECTION
  2
OBJECTS
  0
DICTIONARY
  5
C
330
0
100
AcDbDictionary
281
     1
  3
ACAD_GROUP
350
D
  3
ACAD_LAYOUT
350
19
  3
ACAD_MLINESTYLE
350
16
  3
ACAD_PLOTSETTINGS
350
18
  3
ACAD_PLOTSTYLENAME
350
E
  3
AcDbVariableDictionary
350
3E7
  0
DICTIONARY
  5
D
102
{ACAD_REACTORS
330
C
102
}
330
C
100
AcDbDictionary
281
     1
  0
DICTIONARY
  5
19
102
{ACAD_REACTORS
330
C
102
}
330
C
100
AcDbDictionary
281
     1
  3
Layout1
350
1D
  3
Model
350
21
  0
DICTIONARY
  5
16
102
{ACAD_REACTORS
330
C
102
}
330
C
100
AcDbDictionary
281
     1
  3
Standard
350
17
  0
DICTIONARY
  5
18
102
{ACAD_REACTORS
330
C
102
}
330
C
100
AcDbDictionary
281
     1
  0
ACDBDICTIONARYWDFLT
  5
E
102
{ACAD_REACTORS
330
C
102
}
330
C
100
AcDbDictionary
281
     1
  3
Normal
350
F
100
AcDbDictionaryWithDefault
340
F
  0
DICTIONARY
  5
3E7
102
{ACAD_REACTORS
330
C
102
}
330
C
100
AcDbDictionary
281
     1
  3
DIMASSOC
350
3E8
  0
LAYOUT
  5
1D
102
{ACAD_REACTORS
330
19
102
}
330
19
100
AcDbPlotSettings
  1

  2
C:\Programme\AutoCAD LT 2002 Deu\plotters\DWF ePlot (optimized for plotting).pc3
  4

  6

 40
0.0
 41
0.0
 42
0.0
 43
0.0
 44
0.0
 45
0.0
 46
0.0
 47
0.0
 48
0.0
 49
0.0
140
0.0
141
0.0
142
1.0
143
1.0
 70
   688
 72
     0
 73
     0
 74
     5
  7

 75
    16
147
1.0
148
0.0
149
0.0
100
AcDbLayout
  1
Layout1
 70
     1
 71
     1
 10
0.0
 20
0.0
 11
12.0
 21
9.0
 12
0.0
 22
0.0
 32
0.0
 14
1.000000000000000E+20
 24
1.000000000000000E+20
 34
1.000000000000000E+20
 15
-1.000000000000000E+20
 25
-1.000000000000000E+20
 35
-1.000000000000000E+20
146
0.0
 13
0.0
 23
0.0
 33
0.0
 16
1.0
 26
0.0
 36
0.0
 17
0.0
 27
1.0
 37
0.0
 76
     0
330
1A
  0
LAYOUT
  5
21
102
{ACAD_REACTORS
330
19
102
}
330
19
100
AcDbPlotSettings
  1

  2
C:\Programme\AutoCAD LT 2002 Deu\plotters\DWF ePlot (optimized for plotting).pc3
  4

  6

 40
0.0
 41
0.0
 42
0.0
 43
0.0
 44
0.0
 45
0.0
 46
0.0
 47
0.0
 48
0.0
 49
0.0
140
0.0
141
0.0
142
1.0
143
1.0
 70
  1712
 72
     0
 73
     0
 74
     0
  7

 75
     0
147
1.0
148
0.0
149
0.0
100
AcDbLayout
  1
Model
 70
     1
 71
     0
 10
0.0
 20
0.0
 11
12.0
 21
9.0
 12
0.0
 22
0.0
 32
0.0
 14
0.0
 24
0.0
 34
0.0
 15
0.0
 25
0.0
 35
0.0
146
0.0
 13
0.0
 23
0.0
 33
0.0
 16
1.0
 26
0.0
 36
0.0
 17
0.0
 27
1.0
 37
0.0
 76
     0
330
1E
  0
MLINESTYLE
  5
17
102
{ACAD_REACTORS
330
16
102
}
330
16
100
AcDbMlineStyle
  2
STANDARD
 70
     0
  3

 62
   256
 51
90.0
 52
90.0
 71
     2
 49
0.5
 62
   256
  6
BYLAYER
 49
-0.5
 62
   256
  6
BYLAYER
  0
ACDBPLACEHOLDER
  5
F
102
{ACAD_REACTORS
330
E
102
}
330
E
  0
DICTIONARYVAR
  5
3E8
102
{ACAD_REACTORS
330
3E7
102
}
330
3E7
100
DictionaryVariables
280
     0
  1
1
  0
ENDSEC
  0
EOF
