  0
SECTION
  2
HEADER
  9
$ACADVER
  1
AC1015
  9
$ACADMAINTVER
 70
    13
  9
$DWGCODEPAGE
  3
ANSI_1252
  9
$INSBASE
 10
0.0
 20
0.0
 30
0.0
  9
$EXTMIN
 10
-0.2225580188703304
 20
0.5798963026600035
 30
0.0
  9
$EXTMAX
 10
65.0
 20
157.2499999999999
 30
0.0
  9
$LIMMIN
 10
0.0
 20
0.0
  9
$LIMMAX
 10
12.0
 20
9.0
  9
$ORTHOMODE
 70
     0
  9
$REGENMODE
 70
     1
  9
$FILLMODE
 70
     1
  9
$QTEXTMODE
 70
     0
  9
$MIRRTEXT
 70
     1
  9
$LTSCALE
 40
1.0
  9
$ATTMODE
 70
     1
  9
$TEXTSIZE
 40
0.2
  9
$TRACEWID
 40
0.05
  9
$TEXTSTYLE
  7
Standard
  9
$CLAYER
  8
0
  9
$CELTYPE
  6
Continuous
  9
$CECOLOR
 62
   256
  9
$CELTSCALE
 40
1.0
  9
$DISPSILH
 70
     0
  9
$DIMSCALE
 40
1.0
  9
$DIMASZ
 40
0.18
  9
$DIMEXO
 40
0.0625
  9
$DIMDLI
 40
0.38
  9
$DIMRND
 40
0.0
  9
$DIMDLE
 40
0.0
  9
$DIMEXE
 40
0.18
  9
$DIMTP
 40
0.0
  9
$DIMTM
 40
0.0
  9
$DIMTXT
 40
0.18
  9
$DIMCEN
 40
0.09
  9
$DIMTSZ
 40
0.0
  9
$DIMTOL
 70
     0
  9
$DIMLIM
 70
     0
  9
$DIMTIH
 70
     1
  9
$DIMTOH
 70
     1
  9
$DIMSE1
 70
     0
  9
$DIMSE2
 70
     0
  9
$DIMTAD
 70
     0
  9
$DIMZIN
 70
     0
  9
$DIMBLK
  1

  9
$DIMASO
 70
     1
  9
$DIMSHO
 70
     1
  9
$DIMPOST
  1

  9
$DIMAPOST
  1

  9
$DIMALT
 70
     0
  9
$DIMALTD
 70
     2
  9
$DIMALTF
 40
25.4
  9
$DIMLFAC
 40
1.0
  9
$DIMTOFL
 70
     0
  9
$DIMTVP
 40
0.0
  9
$DIMTIX
 70
     0
  9
$DIMSOXD
 70
     0
  9
$DIMSAH
 70
     0
  9
$DIMBLK1
  1

  9
$DIMBLK2
  1

  9
$DIMSTYLE
  2
Standard
  9
$DIMCLRD
 70
     0
  9
$DIMCLRE
 70
     0
  9
$DIMCLRT
 70
     0
  9
$DIMTFAC
 40
1.0
  9
$DIMGAP
 40
0.09
  9
$DIMJUST
 70
     0
  9
$DIMSD1
 70
     0
  9
$DIMSD2
 70
     0
  9
$DIMTOLJ
 70
     1
  9
$DIMTZIN
 70
     0
  9
$DIMALTZ
 70
     0
  9
$DIMALTTZ
 70
     0
  9
$DIMUPT
 70
     0
  9
$DIMDEC
 70
     4
  9
$DIMTDEC
 70
     4
  9
$DIMALTU
 70
     2
  9
$DIMALTTD
 70
     2
  9
$DIMTXSTY
  7
Standard
  9
$DIMAUNIT
 70
     0
  9
$DIMADEC
 70
     0
  9
$DIMALTRND
 40
0.0
  9
$DIMAZIN
 70
     0
  9
$DIMDSEP
 70
    46
  9
$DIMATFIT
 70
     3
  9
$DIMFRAC
 70
     0
  9
$DIMLDRBLK
  1

  9
$DIMLUNIT
 70
     2
  9
$DIMLWD
 70
    -2
  9
$DIMLWE
 70
    -2
  9
$DIMTMOVE
 70
     0
  9
$LUNITS
 70
     2
  9
$LUPREC
 70
     4
  9
$SKETCHINC
 40
0.1
  9
$FILLETRAD
 40
0.0
  9
$AUNITS
 70
     0
  9
$AUPREC
 70
     0
  9
$MENU
  1
.
  9
$ELEVATION
 40
0.0
  9
$PELEVATION
 40
0.0
  9
$THICKNESS
 40
0.0
  9
$LIMCHECK
 70
     0
  9
$CHAMFERA
 40
0.0
  9
$CHAMFERB
 40
0.0
  9
$CHAMFERC
 40
0.0
  9
$CHAMFERD
 40
0.0
  9
$SKPOLY
 70
     0
  9
$TDCREATE
 40
2455655.355262222
  9
$TDUCREATE
 40
2455655.271928888
  9
$TDUPDATE
 40
2455655.357401979
  9
$TDUUPDATE
 40
2455655.274068646
  9
$TDINDWG
 40
0.0021399306
  9
$TDUSRTIMER
 40
0.0021399306
  9
$USRTIMER
 70
     1
  9
$ANGBASE
 50
0.0
  9
$ANGDIR
 70
     0
  9
$PDMODE
 70
     0
  9
$PDSIZE
 40
0.0
  9
$PLINEWID
 40
0.0
  9
$SPLFRAME
 70
     0
  9
$SPLINETYPE
 70
     6
  9
$SPLINESEGS
 70
     8
  9
$HANDSEED
  5
588
  9
$SURFTAB1
 70
     6
  9
$SURFTAB2
 70
     6
  9
$SURFTYPE
 70
     6
  9
$SURFU
 70
     6
  9
$SURFV
 70
     6
  9
$UCSBASE
  2

  9
$UCSNAME
  2

  9
$UCSORG
 10
0.0
 20
0.0
 30
0.0
  9
$UCSXDIR
 10
1.0
 20
0.0
 30
0.0
  9
$UCSYDIR
 10
0.0
 20
1.0
 30
0.0
  9
$UCSORTHOREF
  2

  9
$UCSORTHOVIEW
 70
     1
  9
$UCSORGTOP
 10
0.0
 20
0.0
 30
0.0
  9
$UCSORGBOTTOM
 10
0.0
 20
0.0
 30
0.0
  9
$UCSORGLEFT
 10
0.0
 20
0.0
 30
0.0
  9
$UCSORGRIGHT
 10
0.0
 20
0.0
 30
0.0
  9
$UCSORGFRONT
 10
0.0
 20
0.0
 30
0.0
  9
$UCSORGBACK
 10
0.0
 20
0.0
 30
0.0
  9
$PUCSBASE
  2

  9
$PUCSNAME
  2

  9
$PUCSORG
 10
0.0
 20
0.0
 30
0.0
  9
$PUCSXDIR
 10
1.0
 20
0.0
 30
0.0
  9
$PUCSYDIR
 10
0.0
 20
1.0
 30
0.0
  9
$PUCSORTHOREF
  2

  9
$PUCSORTHOVIEW
 70
     0
  9
$PUCSORGTOP
 10
0.0
 20
0.0
 30
0.0
  9
$PUCSORGBOTTOM
 10
0.0
 20
0.0
 30
0.0
  9
$PUCSORGLEFT
 10
0.0
 20
0.0
 30
0.0
  9
$PUCSORGRIGHT
 10
0.0
 20
0.0
 30
0.0
  9
$PUCSORGFRONT
 10
0.0
 20
0.0
 30
0.0
  9
$PUCSORGBACK
 10
0.0
 20
0.0
 30
0.0
  9
$USERI1
 70
     0
  9
$USERI2
 70
     0
  9
$USERI3
 70
     0
  9
$USERI4
 70
     0
  9
$USERI5
 70
     0
  9
$USERR1
 40
0.0
  9
$USERR2
 40
0.0
  9
$USERR3
 40
0.0
  9
$USERR4
 40
0.0
  9
$USERR5
 40
0.0
  9
$WORLDVIEW
 70
     1
  9
$SHADEDGE
 70
     3
  9
$SHADEDIF
 70
    70
  9
$TILEMODE
 70
     1
  9
$MAXACTVP
 70
    64
  9
$PINSBASE
 10
0.0
 20
0.0
 30
0.0
  9
$PLIMCHECK
 70
     0
  9
$PEXTMIN
 10
1.000000000000000E+20
 20
1.000000000000000E+20
 30
1.000000000000000E+20
  9
$PEXTMAX
 10
-1.000000000000000E+20
 20
-1.000000000000000E+20
 30
-1.000000000000000E+20
  9
$PLIMMIN
 10
0.0
 20
0.0
  9
$PLIMMAX
 10
12.0
 20
9.0
  9
$UNITMODE
 70
     0
  9
$VISRETAIN
 70
     1
  9
$PLINEGEN
 70
     0
  9
$PSLTSCALE
 70
     1
  9
$TREEDEPTH
 70
  3020
  9
$CMLSTYLE
  2
Standard
  9
$CMLJUST
 70
     0
  9
$CMLSCALE
 40
1.0
  9
$PROXYGRAPHICS
 70
     1
  9
$MEASUREMENT
 70
     0
  9
$CELWEIGHT
370
    -1
  9
$ENDCAPS
280
     0
  9
$JOINSTYLE
280
     0
  9
$LWDISPLAY
290
     0
  9
$INSUNITS
 70
     0
  9
$HYPERLINKBASE
  1

  9
$STYLESHEET
  1

  9
$XEDIT
290
     1
  9
$CEPSNTYPE
380
     0
  9
$PSTYLEMODE
290
     1
  9
$FINGERPRINTGUID
  2
{B56955FE-1643-4CCC-97DB-28B51F897080}
  9
$VERSIONGUID
  2
{88C6D29D-3398-4387-A697-0A4094B0E75F}
  9
$EXTNAMES
290
     1
  9
$PSVPSCALE
 40
0.0
  9
$OLESTARTUP
290
     0
  0
ENDSEC
  0
SECTION
  2
CLASSES
  0
CLASS
  1
ACDBDICTIONARYWDFLT
  2
AcDbDictionaryWithDefault
  3
AutoCAD 2000
 90
        0
280
     0
281
     0
  0
CLASS
  1
ACDBPLACEHOLDER
  2
AcDbPlaceHolder
  3
AutoCAD 2000
 90
        0
280
     0
281
     0
  0
CLASS
  1
LAYOUT
  2
AcDbLayout
  3
AutoCAD 2000
 90
        0
280
     0
281
     0
  0
CLASS
  1
DICTIONARYVAR
  2
AcDbDictionaryVar
  3
AutoCAD 2000
 90
        0
280
     0
281
     0
  0
ENDSEC
  0
SECTION
  2
TABLES
  0
TABLE
  2
VPORT
  5
8
330
0
100
AcDbSymbolTable
 70
     4
  0
VPORT
  5
587
330
8
100
AcDbSymbolTableRecord
100
AcDbViewportTableRecord
  2
*Active
 70
     0
 10
0.0
 20
0.0
 11
1.0
 21
1.0
 12
32.38872099056483
 22
78.91494815132999
 13
0.0
 23
0.0
 14
1.0
 24
1.0
 15
0.0
 25
0.0
 16
0.0
 26
0.0
 36
1.0
 17
0.0
 27
0.0
 37
0.0
 40
157.7298789196444
 41
2.073363431151241
 42
50.0
 43
0.0
 44
0.0
 50
0.0
 51
0.0
 71
     0
 72
   100
 73
     1
 74
     3
 75
     0
 76
     0
 77
     0
 78
     0
281
     0
 65
     1
110
0.0
120
0.0
130
0.0
111
1.0
121
0.0
131
0.0
112
0.0
122
1.0
132
0.0
 79
     1
146
0.0
  0
ENDTAB
  0
TABLE
  2
LTYPE
  5
5
330
0
100
AcDbSymbolTable
 70
     1
  0
LTYPE
  5
13
330
5
100
AcDbSymbolTableRecord
100
AcDbLinetypeTableRecord
  2
ByBlock
 70
     0
  3

 72
    65
 73
     0
 40
0.0
  0
LTYPE
  5
14
330
5
100
AcDbSymbolTableRecord
100
AcDbLinetypeTableRecord
  2
ByLayer
 70
     0
  3

 72
    65
 73
     0
 40
0.0
  0
LTYPE
  5
15
330
5
100
AcDbSymbolTableRecord
100
AcDbLinetypeTableRecord
  2
Continuous
 70
     0
  3
Solid line
 72
    65
 73
     0
 40
0.0
  0
ENDTAB
  0
TABLE
  2
LAYER
  5
2
330
0
100
AcDbSymbolTable
 70
     1
  0
LAYER
  5
10
330
2
100
AcDbSymbolTableRecord
100
AcDbLayerTableRecord
  2
0
 70
     0
 62
     7
  6
Continuous
370
    -3
390
F
  0
ENDTAB
  0
TABLE
  2
STYLE
  5
3
330
0
100
AcDbSymbolTable
 70
     1
  0
STYLE
  5
11
330
3
100
AcDbSymbolTableRecord
100
AcDbTextStyleTableRecord
  2
Standard
 70
     0
 40
0.0
 41
1.0
 50
0.0
 71
     0
 42
0.2
  3
txt
  4

  0
ENDTAB
  0
TABLE
  2
VIEW
  5
6
330
0
100
AcDbSymbolTable
 70
     0
  0
ENDTAB
  0
TABLE
  2
UCS
  5
7
330
0
100
AcDbSymbolTable
 70
     0
  0
ENDTAB
  0
TABLE
  2
APPID
  5
9
330
0
100
AcDbSymbolTable
 70
     1
  0
APPID
  5
12
330
9
100
AcDbSymbolTableRecord
100
AcDbRegAppTableRecord
  2
ACAD
 70
     0
  0
ENDTAB
  0
TABLE
  2
DIMSTYLE
  5
A
330
0
100
AcDbSymbolTable
 70
     1
100
AcDbDimStyleTable
 71
     0
  0
DIMSTYLE
105
49F
330
A
100
AcDbSymbolTableRecord
100
AcDbDimStyleTableRecord
  2
Standard
 70
     0
340
11
  0
ENDTAB
  0
TABLE
  2
BLOCK_RECORD
  5
1
330
0
100
AcDbSymbolTable
 70
     1
  0
BLOCK_RECORD
  5
1E
330
1
100
AcDbSymbolTableRecord
100
AcDbBlockTableRecord
  2
*Model_Space
340
21
  0
BLOCK_RECORD
  5
1A
330
1
100
AcDbSymbolTableRecord
100
AcDbBlockTableRecord
  2
*Paper_Space
340
1D
  0
ENDTAB
  0
ENDSEC
  0
SECTION
  2
BLOCKS
  0
BLOCK
  5
1F
330
1E
100
AcDbEntity
  8
0
100
AcDbBlockBegin
  2
*Model_Space
 70
     0
 10
0.0
 20
0.0
 30
0.0
  3
*Model_Space
  1

  0
ENDBLK
  5
20
330
1E
100
AcDbEntity
  8
0
100
AcDbBlockEnd
  0
BLOCK
  5
1B
330
1A
100
AcDbEntity
 67
     1
  8
0
100
AcDbBlockBegin
  2
*Paper_Space
 70
     0
 10
0.0
 20
0.0
 30
0.0
  3
*Paper_Space
  1

  0
ENDBLK
  5
1C
330
1A
100
AcDbEntity
 67
     1
  8
0
100
AcDbBlockEnd
  0
ENDSEC
  0
SECTION
  2
ENTITIES
  0
LINE
  5
54
330
1E
100
AcDbEntity
  8
0
100
AcDbLine
 10
52.0
 20
10.60289999999999
 30
0.0
 11
52.0
 21
9.897099999999991
 31
0.0
  0
LINE
  5
61
330
1E
100
AcDbEntity
  8
0
100
AcDbLine
 10
52.0
 20
9.897099999999991
 30
0.0
 11
52.0
 21
10.60289999999999
 31
0.0
  0
LINE
  5
62
330
1E
100
AcDbEntity
  8
0
100
AcDbLine
 10
52.0
 20
9.897099999999991
 30
0.0
 11
52.5
 21
8.66179999999999
 31
0.0
  0
LINE
  5
D7
330
1E
100
AcDbEntity
  8
0
100
AcDbLine
 10
52.0
 20
10.60289999999999
 30
0.0
 11
52.0
 21
54.63239999999999
 31
0.0
  0
LINE
  5
D8
330
1E
100
AcDbEntity
  8
0
100
AcDbLine
 10
52.0
 20
54.63239999999999
 30
0.0
 11
52.0
 21
63.544
 31
0.0
  0
LINE
  5
D9
330
1E
100
AcDbEntity
  8
0
100
AcDbLine
 10
52.0
 20
54.63239999999999
 30
0.0
 11
52.0
 21
10.60289999999999
 31
0.0
  0
LINE
  5
EF
330
1E
100
AcDbEntity
  8
0
100
AcDbLine
 10
52.0
 20
63.544
 30
0.0
 11
52.0
 21
72.80899999999999
 31
0.0
  0
LINE
  5
F0
330
1E
100
AcDbEntity
  8
0
100
AcDbLine
 10
52.0
 20
63.544
 30
0.0
 11
52.0
 21
54.63239999999999
 31
0.0
  0
LINE
  5
F1
330
1E
100
AcDbEntity
  8
0
100
AcDbLine
 10
52.0
 20
72.80899999999999
 30
0.0
 11
52.0
 21
82.24999999999999
 31
0.0
  0
LINE
  5
F2
330
1E
100
AcDbEntity
  8
0
100
AcDbLine
 10
52.0
 20
72.80899999999999
 30
0.0
 11
52.0
 21
63.544
 31
0.0
  0
LINE
  5
F5
330
1E
100
AcDbEntity
  8
0
100
AcDbLine
 10
52.0
 20
82.24999999999999
 30
0.0
 11
52.0
 21
91.691
 31
0.0
  0
LINE
  5
F6
330
1E
100
AcDbEntity
  8
0
100
AcDbLine
 10
52.0
 20
82.24999999999999
 30
0.0
 11
52.0
 21
72.80899999999999
 31
0.0
  0
LINE
  5
121
330
1E
100
AcDbEntity
  8
0
100
AcDbLine
 10
42.9258
 20
104.716
 30
0.0
 11
52.0
 21
104.795662851369
 31
0.0
  0
LINE
  5
124
330
1E
100
AcDbEntity
  8
0
100
AcDbLine
 10
52.0
 20
91.691
 30
0.0
 11
52.0
 21
100.956
 31
0.0
  0
LINE
  5
125
330
1E
100
AcDbEntity
  8
0
100
AcDbLine
 10
52.0
 20
91.691
 30
0.0
 11
52.0
 21
82.24999999999999
 31
0.0
  0
LINE
  5
126
330
1E
100
AcDbEntity
  8
0
100
AcDbLine
 10
52.0
 20
100.956
 30
0.0
 11
52.0
 21
148.956
 31
0.0
  0
LINE
  5
127
330
1E
100
AcDbEntity
  8
0
100
AcDbLine
 10
52.0
 20
100.956
 30
0.0
 11
52.0
 21
91.691
 31
0.0
  0
LINE
  5
12A
330
1E
100
AcDbEntity
  8
0
100
AcDbLine
 10
52.0
 20
148.956
 30
0.0
 11
52.0
 21
104.795662851369
 31
0.0
  0
LINE
  5
12B
330
1E
100
AcDbEntity
  8
0
100
AcDbLine
 10
52.0
 20
148.956
 30
0.0
 11
52.0
 21
100.956
 31
0.0
  0
LINE
  5
12C
330
1E
100
AcDbEntity
  8
0
100
AcDbLine
 10
52.0
 20
104.795662851369
 30
0.0
 11
52.0
 21
148.956
 31
0.0
  0
LINE
  5
12D
330
1E
100
AcDbEntity
  8
0
100
AcDbLine
 10
52.0
 20
148.956
 30
0.0
 11
52.0
 21
151.956
 31
0.0
  0
LINE
  5
12E
330
1E
100
AcDbEntity
  8
0
100
AcDbLine
 10
52.0
 20
153.897
 30
0.0
 11
52.0
 21
151.956
 31
0.0
  0
LINE
  5
12F
330
1E
100
AcDbEntity
  8
0
100
AcDbLine
 10
52.0
 20
153.897
 30
0.0
 11
52.0
 21
154.6029999999999
 31
0.0
  0
LINE
  5
132
330
1E
100
AcDbEntity
  8
0
100
AcDbLine
 10
52.5
 20
8.66179999999999
 30
0.0
 11
53.6
 21
7.69119999999999
 31
0.0
  0
LINE
  5
133
330
1E
100
AcDbEntity
  8
0
100
AcDbLine
 10
52.0
 20
151.956
 30
0.0
 11
52.0
 21
153.897
 31
0.0
  0
LINE
  5
134
330
1E
100
AcDbEntity
  8
0
100
AcDbLine
 10
52.0
 20
151.956
 30
0.0
 11
52.0
 21
148.956
 31
0.0
  0
LINE
  5
135
330
1E
100
AcDbEntity
  8
0
100
AcDbLine
 10
52.0
 20
154.6029999999999
 30
0.0
 11
52.5
 21
155.8379999999999
 31
0.0
  0
LINE
  5
136
330
1E
100
AcDbEntity
  8
0
100
AcDbLine
 10
52.0
 20
154.6029999999999
 30
0.0
 11
52.0
 21
153.897
 31
0.0
  0
LINE
  5
137
330
1E
100
AcDbEntity
  8
0
100
AcDbLine
 10
55.0
 20
7.24999999999999
 30
0.0
 11
65.0
 21
7.24999999999999
 31
0.0
  0
LINE
  5
138
330
1E
100
AcDbEntity
  8
0
100
AcDbLine
 10
53.6
 20
7.69119999999999
 30
0.0
 11
55.0
 21
7.24999999999999
 31
0.0
  0
LINE
  5
139
330
1E
100
AcDbEntity
  8
0
100
AcDbLine
 10
52.5
 20
155.8379999999999
 30
0.0
 11
53.6
 21
156.8089999999999
 31
0.0
  0
LINE
  5
13A
330
1E
100
AcDbEntity
  8
0
100
AcDbLine
 10
53.6
 20
156.8089999999999
 30
0.0
 11
55.0
 21
157.2499999999999
 31
0.0
  0
LINE
  5
13B
330
1E
100
AcDbEntity
  8
0
100
AcDbLine
 10
65.0
 20
7.24999999999999
 30
0.0
 11
65.0
 21
8.044099999999989
 31
0.0
  0
LINE
  5
13C
330
1E
100
AcDbEntity
  8
0
100
AcDbLine
 10
65.0
 20
8.044099999999989
 30
0.0
 11
65.0
 21
7.24999999999999
 31
0.0
  0
LINE
  5
13D
330
1E
100
AcDbEntity
  8
0
100
AcDbLine
 10
65.0
 20
8.044099999999989
 30
0.0
 11
65.0
 21
9.9853
 31
0.0
  0
LINE
  5
13E
330
1E
100
AcDbEntity
  8
0
100
AcDbLine
 10
65.0
 20
9.9853
 30
0.0
 11
65.0
 21
8.044099999999989
 31
0.0
  0
LINE
  5
13F
330
1E
100
AcDbEntity
  8
0
100
AcDbLine
 10
65.0
 20
9.9853
 30
0.0
 11
65.0
 21
13.0735
 31
0.0
  0
LINE
  5
141
330
1E
100
AcDbEntity
  8
0
100
AcDbLine
 10
65.0
 20
29.3088
 30
0.0
 11
65.0
 21
22.8676
 31
0.0
  0
LINE
  5
142
330
1E
100
AcDbEntity
  8
0
100
AcDbLine
 10
65.0
 20
29.3088
 30
0.0
 11
65.0
 21
36.6324
 31
0.0
  0
LINE
  5
143
330
1E
100
AcDbEntity
  8
0
100
AcDbLine
 10
65.0
 20
22.8676
 30
0.0
 11
65.0
 21
17.3088
 31
0.0
  0
LINE
  5
144
330
1E
100
AcDbEntity
  8
0
100
AcDbLine
 10
65.0
 20
22.8676
 30
0.0
 11
65.0
 21
29.3088
 31
0.0
  0
LINE
  5
145
330
1E
100
AcDbEntity
  8
0
100
AcDbLine
 10
65.0
 20
36.6324
 30
0.0
 11
65.0
 21
44.9265
 31
0.0
  0
LINE
  5
146
330
1E
100
AcDbEntity
  8
0
100
AcDbLine
 10
65.0
 20
36.6324
 30
0.0
 11
65.0
 21
29.3088
 31
0.0
  0
LINE
  5
147
330
1E
100
AcDbEntity
  8
0
100
AcDbLine
 10
65.0
 20
44.9265
 30
0.0
 11
65.0
 21
53.5735
 31
0.0
  0
LINE
  5
148
330
1E
100
AcDbEntity
  8
0
100
AcDbLine
 10
65.0
 20
72.456
 30
0.0
 11
65.0
 21
62.9265
 31
0.0
  0
LINE
  5
149
330
1E
100
AcDbEntity
  8
0
100
AcDbLine
 10
65.0
 20
72.456
 30
0.0
 11
65.0
 21
82.24999999999999
 31
0.0
  0
LINE
  5
14A
330
1E
100
AcDbEntity
  8
0
100
AcDbLine
 10
65.0
 20
62.9265
 30
0.0
 11
65.0
 21
53.5735
 31
0.0
  0
LINE
  5
14B
330
1E
100
AcDbEntity
  8
0
100
AcDbLine
 10
65.0
 20
62.9265
 30
0.0
 11
65.0
 21
72.456
 31
0.0
  0
LINE
  5
14C
330
1E
100
AcDbEntity
  8
0
100
AcDbLine
 10
65.0
 20
53.5735
 30
0.0
 11
65.0
 21
44.9265
 31
0.0
  0
LINE
  5
14D
330
1E
100
AcDbEntity
  8
0
100
AcDbLine
 10
65.0
 20
53.5735
 30
0.0
 11
65.0
 21
62.9265
 31
0.0
  0
LINE
  5
14E
330
1E
100
AcDbEntity
  8
0
100
AcDbLine
 10
65.0
 20
17.3088
 30
0.0
 11
65.0
 21
13.0735
 31
0.0
  0
LINE
  5
14F
330
1E
100
AcDbEntity
  8
0
100
AcDbLine
 10
65.0
 20
17.3088
 30
0.0
 11
65.0
 21
22.8676
 31
0.0
  0
LINE
  5
150
330
1E
100
AcDbEntity
  8
0
100
AcDbLine
 10
65.0
 20
13.0735
 30
0.0
 11
65.0
 21
9.9853
 31
0.0
  0
LINE
  5
151
330
1E
100
AcDbEntity
  8
0
100
AcDbLine
 10
65.0
 20
13.0735
 30
0.0
 11
65.0
 21
17.3088
 31
0.0
  0
LINE
  5
152
330
1E
100
AcDbEntity
  8
0
100
AcDbLine
 10
65.0
 20
82.24999999999999
 30
0.0
 11
65.0
 21
92.04399999999999
 31
0.0
  0
LINE
  5
153
330
1E
100
AcDbEntity
  8
0
100
AcDbLine
 10
65.0
 20
82.24999999999999
 30
0.0
 11
65.0
 21
72.456
 31
0.0
  0
LINE
  5
154
330
1E
100
AcDbEntity
  8
0
100
AcDbLine
 10
65.0
 20
135.1909999999999
 30
0.0
 11
65.0
 21
127.868
 31
0.0
  0
LINE
  5
155
330
1E
100
AcDbEntity
  8
0
100
AcDbLine
 10
65.0
 20
135.1909999999999
 30
0.0
 11
65.0
 21
141.6319999999999
 31
0.0
  0
LINE
  5
156
330
1E
100
AcDbEntity
  8
0
100
AcDbLine
 10
65.0
 20
127.868
 30
0.0
 11
65.0
 21
119.574
 31
0.0
  0
LINE
  5
157
330
1E
100
AcDbEntity
  8
0
100
AcDbLine
 10
65.0
 20
127.868
 30
0.0
 11
65.0
 21
135.1909999999999
 31
0.0
  0
LINE
  5
158
330
1E
100
AcDbEntity
  8
0
100
AcDbLine
 10
65.0
 20
119.574
 30
0.0
 11
65.0
 21
110.926
 31
0.0
  0
LINE
  5
159
330
1E
100
AcDbEntity
  8
0
100
AcDbLine
 10
65.0
 20
119.574
 30
0.0
 11
65.0
 21
127.868
 31
0.0
  0
LINE
  5
15A
330
1E
100
AcDbEntity
  8
0
100
AcDbLine
 10
65.0
 20
110.926
 30
0.0
 11
65.0
 21
101.574
 31
0.0
  0
LINE
  5
15B
330
1E
100
AcDbEntity
  8
0
100
AcDbLine
 10
65.0
 20
110.926
 30
0.0
 11
65.0
 21
119.574
 31
0.0
  0
LINE
  5
15C
330
1E
100
AcDbEntity
  8
0
100
AcDbLine
 10
65.0
 20
101.574
 30
0.0
 11
65.0
 21
92.04399999999999
 31
0.0
  0
LINE
  5
15D
330
1E
100
AcDbEntity
  8
0
100
AcDbLine
 10
65.0
 20
101.574
 30
0.0
 11
65.0
 21
110.926
 31
0.0
  0
LINE
  5
411
330
1E
100
AcDbEntity
  8
0
100
AcDbLine
 10
65.0
 20
92.04399999999999
 30
0.0
 11
65.0
 21
82.24999999999999
 31
0.0
  0
LINE
  5
412
330
1E
100
AcDbEntity
  8
0
100
AcDbLine
 10
65.0
 20
92.04399999999999
 30
0.0
 11
65.0
 21
101.574
 31
0.0
  0
LINE
  5
414
330
1E
100
AcDbEntity
  8
0
100
AcDbLine
 10
65.0
 20
154.5149999999999
 30
0.0
 11
65.0
 21
151.426
 31
0.0
  0
LINE
  5
415
330
1E
100
AcDbEntity
  8
0
100
AcDbLine
 10
65.0
 20
154.5149999999999
 30
0.0
 11
65.0
 21
156.456
 31
0.0
  0
LINE
  5
416
330
1E
100
AcDbEntity
  8
0
100
AcDbLine
 10
65.0
 20
156.456
 30
0.0
 11
65.0
 21
154.5149999999999
 31
0.0
  0
LINE
  5
417
330
1E
100
AcDbEntity
  8
0
100
AcDbLine
 10
65.0
 20
156.456
 30
0.0
 11
65.0
 21
157.2499999999999
 31
0.0
  0
LINE
  5
418
330
1E
100
AcDbEntity
  8
0
100
AcDbLine
 10
65.0
 20
157.2499999999999
 30
0.0
 11
65.0
 21
156.456
 31
0.0
  0
LINE
  5
419
330
1E
100
AcDbEntity
  8
0
100
AcDbLine
 10
65.0
 20
151.426
 30
0.0
 11
65.0
 21
147.191
 31
0.0
  0
LINE
  5
41A
330
1E
100
AcDbEntity
  8
0
100
AcDbLine
 10
65.0
 20
151.426
 30
0.0
 11
65.0
 21
154.5149999999999
 31
0.0
  0
LINE
  5
49A
330
1E
100
AcDbEntity
  8
0
100
AcDbLine
 10
65.0
 20
147.191
 30
0.0
 11
65.0
 21
141.6319999999999
 31
0.0
  0
LINE
  5
49B
330
1E
100
AcDbEntity
  8
0
100
AcDbLine
 10
65.0
 20
147.191
 30
0.0
 11
65.0
 21
151.426
 31
0.0
  0
LINE
  5
49C
330
1E
100
AcDbEntity
  8
0
100
AcDbLine
 10
65.0
 20
141.6319999999999
 30
0.0
 11
65.0
 21
135.1909999999999
 31
0.0
  0
LINE
  5
49D
330
1E
100
AcDbEntity
  8
0
100
AcDbLine
 10
65.0
 20
141.6319999999999
 30
0.0
 11
65.0
 21
147.191
 31
0.0
  0
LINE
  5
49E
330
1E
100
AcDbEntity
  8
0
100
AcDbLine
 10
55.0
 20
157.2499999999999
 30
0.0
 11
65.0
 21
157.2499999999999
 31
0.0
  0
LINE
  5
515
330
1E
100
AcDbEntity
  8
0
100
AcDbLine
 10
41.0034419811297
 20
86.35249630265997
 30
0.0
 11
35.8784419811297
 21
103.11349630266
 31
0.0
  0
LINE
  5
516
330
1E
100
AcDbEntity
  8
0
100
AcDbLine
 10
3.569441981129699
 20
46.69449630266
 30
0.0
 11
3.569441981129699
 21
104.0384963026599
 31
0.0
  0
LINE
  5
517
330
1E
100
AcDbEntity
  8
0
100
AcDbLine
 10
24.26944198112972
 20
61.99049630265999
 30
0.0
 11
41.07244198112968
 21
62.50349630266
 31
0.0
  0
LINE
  5
518
330
1E
100
AcDbEntity
  8
0
100
AcDbLine
 10
12.78744198112969
 20
33.77909630265999
 30
0.0
 11
13.26244198112971
 21
40.13949630266011
 31
0.0
  0
LINE
  5
519
330
1E
100
AcDbEntity
  8
0
100
AcDbLine
 10
3.517441981129707
 20
34.12229630265999
 30
0.0
 11
3.557441981129699
 21
38.46929630266
 31
0.0
  0
LINE
  5
51A
330
1E
100
AcDbEntity
  8
0
100
AcDbLine
 10
4.728441981129691
 20
2.943496302660022
 30
0.0
 11
5.645441981129692
 21
4.372196302660015
 31
0.0
  0
LINE
  5
51B
330
1E
100
AcDbEntity
  8
0
100
AcDbLine
 10
-0.1165580188703359
 20
2.928496302659979
 30
0.0
 11
0.949441981129695
 21
7.404296302660029
 31
0.0
  0
LINE
  5
51C
330
1E
100
AcDbEntity
  8
0
100
AcDbLine
 10
2.088441981129676
 20
0.5818963026600131
 30
0.0
 11
1.768441981129683
 21
0.6726963026600146
 31
0.0
  0
LINE
  5
51D
330
1E
100
AcDbEntity
  8
0
100
AcDbLine
 10
-0.1805580188703004
 20
2.000696302659989
 30
0.0
 11
-0.2225580188703304
 21
2.458596302659984
 31
0.0
  0
LINE
  5
51E
330
1E
100
AcDbEntity
  8
0
100
AcDbLine
 10
0.5084419811296926
 20
1.378096302660011
 30
0.0
 11
0.1064419811297057
 21
1.641496302660002
 31
0.0
  0
LINE
  5
51F
330
1E
100
AcDbEntity
  8
0
100
AcDbLine
 10
0.1064419811297057
 20
1.641496302660002
 30
0.0
 11
-0.1805580188703004
 21
2.000696302659989
 31
0.0
  0
LINE
  5
520
330
1E
100
AcDbEntity
  8
0
100
AcDbLine
 10
1.093441981129672
 20
1.027896302659982
 30
0.0
 11
0.5084419811296926
 21
1.378096302660011
 31
0.0
  0
LINE
  5
521
330
1E
100
AcDbEntity
  8
0
100
AcDbLine
 10
1.768441981129683
 20
0.6726963026600146
 30
0.0
 11
1.093441981129672
 21
1.027896302659982
 31
0.0
  0
LINE
  5
522
330
1E
100
AcDbEntity
  8
0
100
AcDbLine
 10
-0.2225580188703304
 20
2.458596302659984
 30
0.0
 11
-0.1885580188702818
 21
2.609696302659969
 31
0.0
  0
LINE
  5
523
330
1E
100
AcDbEntity
  8
0
100
AcDbLine
 10
-0.1885580188702818
 20
2.609696302659969
 30
0.0
 11
-0.1165580188703359
 21
2.928496302659979
 31
0.0
  0
LINE
  5
524
330
1E
100
AcDbEntity
  8
0
100
AcDbLine
 10
3.731441981129705
 20
1.527696302659975
 30
0.0
 11
4.728441981129691
 21
2.943496302660022
 31
0.0
  0
LINE
  5
525
330
1E
100
AcDbEntity
  8
0
100
AcDbLine
 10
3.243441981129677
 20
0.9480963026600051
 30
0.0
 11
3.731441981129705
 21
1.527696302659975
 31
0.0
  0
LINE
  5
526
330
1E
100
AcDbEntity
  8
0
100
AcDbLine
 10
2.552441981129703
 20
0.5798963026600035
 30
0.0
 11
2.98244198112971
 21
0.7474963026599966
 31
0.0
  0
LINE
  5
527
330
1E
100
AcDbEntity
  8
0
100
AcDbLine
 10
2.552441981129703
 20
0.5798963026600035
 30
0.0
 11
2.088441981129676
 21
0.5818963026600131
 31
0.0
  0
LINE
  5
528
330
1E
100
AcDbEntity
  8
0
100
AcDbLine
 10
2.98244198112971
 20
0.7474963026599966
 30
0.0
 11
3.243441981129677
 21
0.9480963026600051
 31
0.0
  0
LINE
  5
529
330
1E
100
AcDbEntity
  8
0
100
AcDbLine
 10
2.669441981129693
 20
18.31139630265998
 30
0.0
 11
2.94244198112969
 21
21.40399630265999
 31
0.0
  0
LINE
  5
52A
330
1E
100
AcDbEntity
  8
0
100
AcDbLine
 10
1.767441981129707
 20
11.69749630265998
 30
0.0
 11
2.276441981129721
 21
15.05879630266001
 31
0.0
  0
LINE
  5
52B
330
1E
100
AcDbEntity
  8
0
100
AcDbLine
 10
1.2124419811297
 20
8.784296302660024
 30
0.0
 11
1.767441981129707
 21
11.69749630265998
 31
0.0
  0
LINE
  5
52C
330
1E
100
AcDbEntity
  8
0
100
AcDbLine
 10
0.949441981129695
 20
7.404296302660029
 30
0.0
 11
1.767441981129707
 21
11.69749630265998
 31
0.0
  0
LINE
  5
52D
330
1E
100
AcDbEntity
  8
0
100
AcDbLine
 10
0.949441981129695
 20
7.404296302660029
 30
0.0
 11
1.2124419811297
 21
8.784296302660024
 31
0.0
  0
LINE
  5
52E
330
1E
100
AcDbEntity
  8
0
100
AcDbLine
 10
2.276441981129721
 20
15.05879630266001
 30
0.0
 11
2.669441981129693
 21
18.31139630265998
 31
0.0
  0
LINE
  5
52F
330
1E
100
AcDbEntity
  8
0
100
AcDbLine
 10
3.322441981129685
 20
27.21799630266001
 30
0.0
 11
3.517441981129707
 21
34.12229630265999
 31
0.0
  0
LINE
  5
530
330
1E
100
AcDbEntity
  8
0
100
AcDbLine
 10
3.072441981129685
 20
22.86899630265999
 30
0.0
 11
3.322441981129685
 21
27.21799630266001
 31
0.0
  0
LINE
  5
531
330
1E
100
AcDbEntity
  8
0
100
AcDbLine
 10
2.94244198112969
 20
21.40399630265999
 30
0.0
 11
3.072441981129685
 21
22.86899630265999
 31
0.0
  0
LINE
  5
532
330
1E
100
AcDbEntity
  8
0
100
AcDbLine
 10
5.645441981129692
 20
4.372196302660015
 30
0.0
 11
7.252441981129692
 21
7.260596302660005
 31
0.0
  0
LINE
  5
533
330
1E
100
AcDbEntity
  8
0
100
AcDbLine
 10
11.14044198112969
 20
18.85019630265999
 30
0.0
 11
11.63344198112969
 21
21.64279630266001
 31
0.0
  0
LINE
  5
534
330
1E
100
AcDbEntity
  8
0
100
AcDbLine
 10
9.312441981129694
 20
12.11449630266001
 30
0.0
 11
9.945441981129704
 21
14.05009630265998
 31
0.0
  0
LINE
  5
535
330
1E
100
AcDbEntity
  8
0
100
AcDbLine
 10
7.252441981129692
 20
7.260596302660005
 30
0.0
 11
8.576441981129704
 21
10.17399630265997
 31
0.0
  0
LINE
  5
536
330
1E
100
AcDbEntity
  8
0
100
AcDbLine
 10
8.576441981129704
 20
10.17399630265997
 30
0.0
 11
9.312441981129694
 21
12.11459630265999
 31
0.0
  0
LINE
  5
537
330
1E
100
AcDbEntity
  8
0
100
AcDbLine
 10
10.60744198112971
 20
16.46559630265999
 30
0.0
 11
11.14044198112969
 21
18.85019630265999
 31
0.0
  0
LINE
  5
538
330
1E
100
AcDbEntity
  8
0
100
AcDbLine
 10
9.945441981129704
 20
14.05009630265998
 30
0.0
 11
10.60744198112971
 21
16.46559630265999
 31
0.0
  0
LINE
  5
539
330
1E
100
AcDbEntity
  8
0
100
AcDbLine
 10
11.63344198112969
 20
21.64279630266001
 30
0.0
 11
12.00144198112968
 21
24.34559630265998
 31
0.0
  0
LINE
  5
53A
330
1E
100
AcDbEntity
  8
0
100
AcDbLine
 10
12.34844198112969
 20
27.76779630266001
 30
0.0
 11
12.51944198112971
 21
29.90789630265997
 31
0.0
  0
LINE
  5
53B
330
1E
100
AcDbEntity
  8
0
100
AcDbLine
 10
12.00144198112968
 20
24.34559630265998
 30
0.0
 11
12.34844198112969
 21
27.76779630266001
 31
0.0
  0
LINE
  5
53C
330
1E
100
AcDbEntity
  8
0
100
AcDbLine
 10
12.51944198112971
 20
29.90789630265997
 30
0.0
 11
12.78744198112969
 21
33.77909630265999
 31
0.0
  0
LINE
  5
53D
330
1E
100
AcDbEntity
  8
0
100
AcDbLine
 10
3.561441981129718
 20
41.11319630266
 30
0.0
 11
3.569441981129699
 21
46.69449630266
 31
0.0
  0
LINE
  5
53E
330
1E
100
AcDbEntity
  8
0
100
AcDbLine
 10
3.557441981129699
 20
38.46929630266
 30
0.0
 11
3.561441981129718
 21
41.11319630266
 31
0.0
  0
LINE
  5
53F
330
1E
100
AcDbEntity
  8
0
100
AcDbLine
 10
3.557441981129699
 20
38.46929630266
 30
0.0
 11
3.603441981129691
 21
39.41419630265999
 31
0.0
  0
LINE
  5
540
330
1E
100
AcDbEntity
  8
0
100
AcDbLine
 10
17.9274419811297
 20
60.07649630266
 30
0.0
 11
19.03644198112968
 21
60.80549630265998
 31
0.0
  0
LINE
  5
541
330
1E
100
AcDbEntity
  8
0
100
AcDbLine
 10
14.20362475618668
 20
50.45626148266508
 30
0.0
 11
14.49544198112968
 21
52.44739630266001
 31
0.0
  0
LINE
  5
542
330
1E
100
AcDbEntity
  8
0
100
AcDbLine
 10
13.26244198112971
 20
40.13949630266011
 30
0.0
 11
13.7784419811297
 21
46.28649630265998
 31
0.0
  0
LINE
  5
543
330
1E
100
AcDbEntity
  8
0
100
AcDbLine
 10
13.7784419811297
 20
46.28649630265998
 30
0.0
 11
14.02744198112969
 21
48.93339630266011
 31
0.0
  0
LINE
  5
544
330
1E
100
AcDbEntity
  8
0
100
AcDbLine
 10
14.02744198112969
 20
48.93339630266011
 30
0.0
 11
14.18544198112968
 21
50.33219630266
 31
0.0
  0
LINE
  5
545
330
1E
100
AcDbEntity
  8
0
100
AcDbLine
 10
17.01444198112969
 20
59.17049630265999
 30
0.0
 11
17.9274419811297
 21
60.07649630266
 31
0.0
  0
LINE
  5
546
330
1E
100
AcDbEntity
  8
0
100
AcDbLine
 10
15.1834419811297
 20
55.47849630265999
 30
0.0
 11
15.53544198112968
 21
56.52009630266
 31
0.0
  0
LINE
  5
547
330
1E
100
AcDbEntity
  8
0
100
AcDbLine
 10
14.49544198112968
 20
52.44739630266001
 30
0.0
 11
14.79844198112971
 21
53.99879630266001
 31
0.0
  0
LINE
  5
548
330
1E
100
AcDbEntity
  8
0
100
AcDbLine
 10
14.79844198112971
 20
53.99879630266001
 30
0.0
 11
15.1834419811297
 21
55.47849630265999
 31
0.0
  0
LINE
  5
549
330
1E
100
AcDbEntity
  8
0
100
AcDbLine
 10
16.44144198112968
 20
58.37549630265998
 30
0.0
 11
17.01444198112969
 21
59.17049630265999
 31
0.0
  0
LINE
  5
54A
330
1E
100
AcDbEntity
  8
0
100
AcDbLine
 10
15.53544198112968
 20
56.52009630266
 30
0.0
 11
15.95344198112971
 21
57.48849630265998
 31
0.0
  0
LINE
  5
54B
330
1E
100
AcDbEntity
  8
0
100
AcDbLine
 10
15.95344198112971
 20
57.48849630265998
 30
0.0
 11
16.44144198112968
 21
58.37549630265998
 31
0.0
  0
LINE
  5
54C
330
1E
100
AcDbEntity
  8
0
100
AcDbLine
 10
20.37244198112969
 20
61.36049630266
 30
0.0
 11
22.16744198112968
 21
61.77849630266
 31
0.0
  0
LINE
  5
54D
330
1E
100
AcDbEntity
  8
0
100
AcDbLine
 10
19.03644198112968
 20
60.80549630265998
 30
0.0
 11
20.37244198112969
 21
61.36049630266
 31
0.0
  0
LINE
  5
54E
330
1E
100
AcDbEntity
  8
0
100
AcDbLine
 10
22.16744198112968
 20
61.77849630266
 30
0.0
 11
24.26944198112972
 21
61.99049630265999
 31
0.0
  0
LINE
  5
54F
330
1E
100
AcDbEntity
  8
0
100
AcDbLine
 10
41.55744198112969
 20
66.13349630266002
 30
0.0
 11
41.55744198112969
 21
67.66449630266002
 31
0.0
  0
LINE
  5
550
330
1E
100
AcDbEntity
  8
0
100
AcDbLine
 10
42.9258
 20
64.1123
 30
0.0
 11
52.0
 21
64.0315849977638
 31
0.0
  0
LINE
  5
552
330
1E
100
AcDbEntity
  8
0
100
AcDbLine
 10
41.5235
 20
64.332424116414
 30
0.0
 11
42.9258
 21
64.1123
 31
0.0
  0
LINE
  5
553
330
1E
100
AcDbEntity
  8
0
100
AcDbLine
 10
41.55744198112969
 20
63.06149630265998
 30
0.0
 11
41.55744198112969
 21
63.40249630266
 31
0.0
  0
LINE
  5
554
330
1E
100
AcDbEntity
  8
0
100
AcDbLine
 10
41.55744198112969
 20
63.12349630266
 30
0.0
 11
41.55744198112969
 21
63.30449630266001
 31
0.0
  0
LINE
  5
555
330
1E
100
AcDbEntity
  8
0
100
AcDbLine
 10
41.55744198112969
 20
63.00149630266002
 30
0.0
 11
41.55744198112969
 21
63.06149630265998
 31
0.0
  0
LINE
  5
556
330
1E
100
AcDbEntity
  8
0
100
AcDbLine
 10
41.4934419811297
 20
62.75649630266001
 30
0.0
 11
41.55744198112969
 21
63.00149630266002
 31
0.0
  0
LINE
  5
557
330
1E
100
AcDbEntity
  8
0
100
AcDbLine
 10
41.31644198112968
 20
62.57449630265999
 30
0.0
 11
41.4934419811297
 21
62.75649630266001
 31
0.0
  0
LINE
  5
558
330
1E
100
AcDbEntity
  8
0
100
AcDbLine
 10
41.07244198112968
 20
62.50349630266
 30
0.0
 11
41.31644198112968
 21
62.57449630265999
 31
0.0
  0
LINE
  5
559
330
1E
100
AcDbEntity
  8
0
100
AcDbLine
 10
41.55744198112969
 20
64.03649630265999
 30
0.0
 11
41.55744198112969
 21
64.95149630266
 31
0.0
  0
LINE
  5
55A
330
1E
100
AcDbEntity
  8
0
100
AcDbLine
 10
41.55744198112969
 20
64.95149630266
 30
0.0
 11
41.55744198112969
 21
66.13349630266002
 31
0.0
  0
LINE
  5
55B
330
1E
100
AcDbEntity
  8
0
100
AcDbLine
 10
41.55744198112969
 20
63.30449630266001
 30
0.0
 11
41.55744198112969
 21
63.84949630266
 31
0.0
  0
LINE
  5
55C
330
1E
100
AcDbEntity
  8
0
100
AcDbLine
 10
41.55744198112969
 20
63.40249630266
 30
0.0
 11
41.55744198112969
 21
64.03649630265999
 31
0.0
  0
LINE
  5
55D
330
1E
100
AcDbEntity
  8
0
100
AcDbLine
 10
41.55744198112969
 20
63.84949630266
 30
0.0
 11
41.55744198112969
 21
64.45593961661398
 31
0.0
  0
LINE
  5
55E
330
1E
100
AcDbEntity
  8
0
100
AcDbLine
 10
41.55744198112969
 20
80.34449630266001
 30
0.0
 11
41.55744198112969
 21
82.71249630266
 31
0.0
  0
LINE
  5
55F
330
1E
100
AcDbEntity
  8
0
100
AcDbLine
 10
41.55744198112969
 20
73.70749630266001
 30
0.0
 11
41.55744198112969
 21
75.81749630265999
 31
0.0
  0
LINE
  5
560
330
1E
100
AcDbEntity
  8
0
100
AcDbLine
 10
41.55744198112969
 20
69.45549630266
 30
0.0
 11
41.55744198112969
 21
71.47849630265999
 31
0.0
  0
LINE
  5
561
330
1E
100
AcDbEntity
  8
0
100
AcDbLine
 10
41.55744198112969
 20
67.66449630266002
 30
0.0
 11
41.55744198112969
 21
69.45549630266
 31
0.0
  0
LINE
  5
562
330
1E
100
AcDbEntity
  8
0
100
AcDbLine
 10
41.55744198112969
 20
71.47849630265999
 30
0.0
 11
41.55744198112969
 21
73.70749630266001
 31
0.0
  0
LINE
  5
563
330
1E
100
AcDbEntity
  8
0
100
AcDbLine
 10
41.55744198112969
 20
78.03749630266001
 30
0.0
 11
41.55744198112969
 21
80.34449630266001
 31
0.0
  0
LINE
  5
564
330
1E
100
AcDbEntity
  8
0
100
AcDbLine
 10
41.55744198112969
 20
75.81749630265999
 30
0.0
 11
41.55744198112969
 21
78.03749630266001
 31
0.0
  0
LINE
  5
565
330
1E
100
AcDbEntity
  8
0
100
AcDbLine
 10
41.53544198112967
 20
84.61049630266
 30
0.0
 11
41.0034419811297
 21
86.35249630265997
 31
0.0
  0
LINE
  5
566
330
1E
100
AcDbEntity
  8
0
100
AcDbLine
 10
41.55744198112969
 20
84.46449630266
 30
0.0
 11
41.53544198112967
 21
84.61049630266
 31
0.0
  0
LINE
  5
567
330
1E
100
AcDbEntity
  8
0
100
AcDbLine
 10
41.55744198112969
 20
82.71249630266
 30
0.0
 11
41.55744198112969
 21
84.46449630266
 31
0.0
  0
LINE
  5
568
330
1E
100
AcDbEntity
  8
0
100
AcDbLine
 10
4.866441981129725
 20
105.3734963026599
 30
0.0
 11
34.53944198112969
 21
106.23849630266
 31
0.0
  0
LINE
  5
569
330
1E
100
AcDbEntity
  8
0
100
AcDbLine
 10
3.657441981129693
 20
104.82449630266
 30
0.0
 11
3.822441981129685
 21
105.08949630266
 31
0.0
  0
LINE
  5
56A
330
1E
100
AcDbEntity
  8
0
100
AcDbLine
 10
3.598441981129695
 20
104.60049630266
 30
0.0
 11
3.657441981129693
 21
104.82449630266
 31
0.0
  0
LINE
  5
56B
330
1E
100
AcDbEntity
  8
0
100
AcDbLine
 10
3.57344198112969
 20
103.85949630266
 30
0.0
 11
3.570441981129704
 21
103.9934963026599
 31
0.0
  0
LINE
  5
56C
330
1E
100
AcDbEntity
  8
0
100
AcDbLine
 10
3.578441981129685
 20
103.6374963026599
 30
0.0
 11
3.57344198112969
 21
103.85949630266
 31
0.0
  0
LINE
  5
56D
330
1E
100
AcDbEntity
  8
0
100
AcDbLine
 10
3.569441981129699
 20
104.0384963026599
 30
0.0
 11
3.598441981129695
 21
104.60049630266
 31
0.0
  0
LINE
  5
56E
330
1E
100
AcDbEntity
  8
0
100
AcDbLine
 10
3.822441981129685
 20
105.08949630266
 30
0.0
 11
4.082441981129704
 21
105.26249630266
 31
0.0
  0
LINE
  5
56F
330
1E
100
AcDbEntity
  8
0
100
AcDbLine
 10
4.304441981129713
 20
105.32749630266
 30
0.0
 11
4.866441981129725
 21
105.3734963026599
 31
0.0
  0
LINE
  5
570
330
1E
100
AcDbEntity
  8
0
100
AcDbLine
 10
4.082441981129704
 20
105.26249630266
 30
0.0
 11
4.304441981129713
 21
105.32749630266
 31
0.0
  0
LINE
  5
571
330
1E
100
AcDbEntity
  8
0
100
AcDbLine
 10
42.9258
 20
104.716
 30
0.0
 11
52.0
 21
104.795662851369
 31
0.0
  0
LINE
  5
573
330
1E
100
AcDbEntity
  8
0
100
AcDbLine
 10
38.8649
 20
103.862
 30
0.0
 11
40.87449999999999
 21
104.394
 31
0.0
  0
LINE
  5
574
330
1E
100
AcDbEntity
  8
0
100
AcDbLine
 10
35.5174419811297
 20
104.2944963026599
 30
0.0
 11
35.2534419811297
 21
105.1564963026599
 31
0.0
  0
LINE
  5
575
330
1E
100
AcDbEntity
  8
0
100
AcDbLine
 10
35.8784419811297
 20
103.11349630266
 30
0.0
 11
35.5174419811297
 21
104.2944963026599
 31
0.0
  0
LINE
  5
577
330
1E
100
AcDbEntity
  8
0
100
AcDbLine
 10
36.9219
 20
103.126
 30
0.0
 11
38.8649
 21
103.862
 31
0.0
  0
LINE
  5
579
330
1E
100
AcDbEntity
  8
0
100
AcDbLine
 10
36.0139215802057
 20
102.6696901565309
 30
0.0
 11
36.9219
 21
103.126
 31
0.0
  0
LINE
  5
57A
330
1E
100
AcDbEntity
  8
0
100
AcDbLine
 10
35.03044198112968
 20
105.88649630266
 30
0.0
 11
34.92444198112972
 21
106.07249630266
 31
0.0
  0
LINE
  5
57B
330
1E
100
AcDbEntity
  8
0
100
AcDbLine
 10
35.03144198112968
 20
105.88449630266
 30
0.0
 11
34.92444198112972
 21
106.07249630266
 31
0.0
  0
LINE
  5
57C
330
1E
100
AcDbEntity
  8
0
100
AcDbLine
 10
34.8444419811297
 20
106.14349630266
 30
0.0
 11
34.7494419811297
 21
106.1984963026599
 31
0.0
  0
LINE
  5
57D
330
1E
100
AcDbEntity
  8
0
100
AcDbLine
 10
34.92444198112972
 20
106.07249630266
 30
0.0
 11
34.8444419811297
 21
106.14349630266
 31
0.0
  0
LINE
  5
57E
330
1E
100
AcDbEntity
  8
0
100
AcDbLine
 10
34.7494419811297
 20
106.1984963026599
 30
0.0
 11
34.53944198112969
 21
106.23849630266
 31
0.0
  0
LINE
  5
57F
330
1E
100
AcDbEntity
  8
0
100
AcDbLine
 10
35.09144198112969
 20
105.6864963026599
 30
0.0
 11
35.03144198112968
 21
105.88449630266
 31
0.0
  0
LINE
  5
580
330
1E
100
AcDbEntity
  8
0
100
AcDbLine
 10
35.2534419811297
 20
105.1564963026599
 30
0.0
 11
35.09144198112969
 21
105.6864963026599
 31
0.0
  0
LINE
  5
582
330
1E
100
AcDbEntity
  8
0
100
AcDbLine
 10
40.87449999999999
 20
104.394
 30
0.0
 11
42.9258
 21
104.716
 31
0.0
  0
ENDSEC
  0
SECTION
  2
OBJECTS
  0
DICTIONARY
  5
C
330
0
100
AcDbDictionary
281
     1
  3
ACAD_GROUP
350
D
  3
ACAD_LAYOUT
350
19
  3
ACAD_MLINESTYLE
350
16
  3
ACAD_PLOTSETTINGS
350
18
  3
ACAD_PLOTSTYLENAME
350
E
  3
AcDbVariableDictionary
350
584
  0
DICTIONARY
  5
D
102
{ACAD_REACTORS
330
C
102
}
330
C
100
AcDbDictionary
281
     1
  0
DICTIONARY
  5
19
102
{ACAD_REACTORS
330
C
102
}
330
C
100
AcDbDictionary
281
     1
  3
Layout1
350
1D
  3
Model
350
21
  0
DICTIONARY
  5
16
102
{ACAD_REACTORS
330
C
102
}
330
C
100
AcDbDictionary
281
     1
  3
Standard
350
17
  0
DICTIONARY
  5
18
102
{ACAD_REACTORS
330
C
102
}
330
C
100
AcDbDictionary
281
     1
  0
ACDBDICTIONARYWDFLT
  5
E
102
{ACAD_REACTORS
330
C
102
}
330
C
100
AcDbDictionary
281
     1
  3
Normal
350
F
100
AcDbDictionaryWithDefault
340
F
  0
DICTIONARY
  5
584
102
{ACAD_REACTORS
330
C
102
}
330
C
100
AcDbDictionary
281
     1
  3
DIMASSOC
350
585
  0
LAYOUT
  5
1D
102
{ACAD_REACTORS
330
19
102
}
330
19
100
AcDbPlotSettings
  1

  2
C:\Programme\AutoCAD LT 2002 Deu\plotters\DWF ePlot (optimized for plotting).pc3
  4

  6

 40
0.0
 41
0.0
 42
0.0
 43
0.0
 44
0.0
 45
0.0
 46
0.0
 47
0.0
 48
0.0
 49
0.0
140
0.0
141
0.0
142
1.0
143
1.0
 70
   688
 72
     0
 73
     0
 74
     5
  7

 75
    16
147
1.0
148
0.0
149
0.0
100
AcDbLayout
  1
Layout1
 70
     1
 71
     1
 10
0.0
 20
0.0
 11
12.0
 21
9.0
 12
0.0
 22
0.0
 32
0.0
 14
1.000000000000000E+20
 24
1.000000000000000E+20
 34
1.000000000000000E+20
 15
-1.000000000000000E+20
 25
-1.000000000000000E+20
 35
-1.000000000000000E+20
146
0.0
 13
0.0
 23
0.0
 33
0.0
 16
1.0
 26
0.0
 36
0.0
 17
0.0
 27
1.0
 37
0.0
 76
     0
330
1A
  0
LAYOUT
  5
21
102
{ACAD_REACTORS
330
19
102
}
330
19
100
AcDbPlotSettings
  1

  2
C:\Programme\AutoCAD LT 2002 Deu\plotters\DWF ePlot (optimized for plotting).pc3
  4

  6

 40
0.0
 41
0.0
 42
0.0
 43
0.0
 44
0.0
 45
0.0
 46
0.0
 47
0.0
 48
0.0
 49
0.0
140
0.0
141
0.0
142
1.0
143
1.0
 70
  1712
 72
     0
 73
     0
 74
     0
  7

 75
     0
147
1.0
148
0.0
149
0.0
100
AcDbLayout
  1
Model
 70
     1
 71
     0
 10
0.0
 20
0.0
 11
12.0
 21
9.0
 12
0.0
 22
0.0
 32
0.0
 14
0.0
 24
0.0
 34
0.0
 15
0.0
 25
0.0
 35
0.0
146
0.0
 13
0.0
 23
0.0
 33
0.0
 16
1.0
 26
0.0
 36
0.0
 17
0.0
 27
1.0
 37
0.0
 76
     0
330
1E
  0
MLINESTYLE
  5
17
102
{ACAD_REACTORS
330
16
102
}
330
16
100
AcDbMlineStyle
  2
STANDARD
 70
     0
  3

 62
   256
 51
90.0
 52
90.0
 71
     2
 49
0.5
 62
   256
  6
BYLAYER
 49
-0.5
 62
   256
  6
BYLAYER
  0
ACDBPLACEHOLDER
  5
F
102
{ACAD_REACTORS
330
E
102
}
330
E
  0
DICTIONARYVAR
  5
585
102
{ACAD_REACTORS
330
584
102
}
330
584
100
DictionaryVariables
280
     0
  1
1
  0
ENDSEC
  0
EOF
