  0
SECTION
  2
HEADER
  9
$ACADVER
  1
AC1015
  9
$ACADMAINTVER
 70
    13
  9
$DWGCODEPAGE
  3
ANSI_1252
  9
$INSBASE
 10
0.0
 20
0.0
 30
0.0
  9
$EXTMIN
 10
-0.0557999999999765
 20
605.1169999999999
 30
0.0
  9
$EXTMAX
 10
262.4978
 20
818.8830000000001
 30
0.0
  9
$LIMMIN
 10
0.0
 20
0.0
  9
$LIMMAX
 10
12.0
 20
9.0
  9
$ORTHOMODE
 70
     0
  9
$REGENMODE
 70
     1
  9
$FILLMODE
 70
     1
  9
$QTEXTMODE
 70
     0
  9
$MIRRTEXT
 70
     1
  9
$LTSCALE
 40
1.0
  9
$ATTMODE
 70
     1
  9
$TEXTSIZE
 40
0.2
  9
$TRACEWID
 40
0.05
  9
$TEXTSTYLE
  7
Standard
  9
$CLAYER
  8
0
  9
$CELTYPE
  6
Continuous
  9
$CECOLOR
 62
   256
  9
$CELTSCALE
 40
1.0
  9
$DISPSILH
 70
     0
  9
$DIMSCALE
 40
1.0
  9
$DIMASZ
 40
0.18
  9
$DIMEXO
 40
0.0625
  9
$DIMDLI
 40
0.38
  9
$DIMRND
 40
0.0
  9
$DIMDLE
 40
0.0
  9
$DIMEXE
 40
0.18
  9
$DIMTP
 40
0.0
  9
$DIMTM
 40
0.0
  9
$DIMTXT
 40
0.18
  9
$DIMCEN
 40
0.09
  9
$DIMTSZ
 40
0.0
  9
$DIMTOL
 70
     0
  9
$DIMLIM
 70
     0
  9
$DIMTIH
 70
     1
  9
$DIMTOH
 70
     1
  9
$DIMSE1
 70
     0
  9
$DIMSE2
 70
     0
  9
$DIMTAD
 70
     0
  9
$DIMZIN
 70
     0
  9
$DIMBLK
  1

  9
$DIMASO
 70
     1
  9
$DIMSHO
 70
     1
  9
$DIMPOST
  1

  9
$DIMAPOST
  1

  9
$DIMALT
 70
     0
  9
$DIMALTD
 70
     2
  9
$DIMALTF
 40
25.4
  9
$DIMLFAC
 40
1.0
  9
$DIMTOFL
 70
     0
  9
$DIMTVP
 40
0.0
  9
$DIMTIX
 70
     0
  9
$DIMSOXD
 70
     0
  9
$DIMSAH
 70
     0
  9
$DIMBLK1
  1

  9
$DIMBLK2
  1

  9
$DIMSTYLE
  2
Standard
  9
$DIMCLRD
 70
     0
  9
$DIMCLRE
 70
     0
  9
$DIMCLRT
 70
     0
  9
$DIMTFAC
 40
1.0
  9
$DIMGAP
 40
0.09
  9
$DIMJUST
 70
     0
  9
$DIMSD1
 70
     0
  9
$DIMSD2
 70
     0
  9
$DIMTOLJ
 70
     1
  9
$DIMTZIN
 70
     0
  9
$DIMALTZ
 70
     0
  9
$DIMALTTZ
 70
     0
  9
$DIMUPT
 70
     0
  9
$DIMDEC
 70
     4
  9
$DIMTDEC
 70
     4
  9
$DIMALTU
 70
     2
  9
$DIMALTTD
 70
     2
  9
$DIMTXSTY
  7
Standard
  9
$DIMAUNIT
 70
     0
  9
$DIMADEC
 70
     0
  9
$DIMALTRND
 40
0.0
  9
$DIMAZIN
 70
     0
  9
$DIMDSEP
 70
    46
  9
$DIMATFIT
 70
     3
  9
$DIMFRAC
 70
     0
  9
$DIMLDRBLK
  1

  9
$DIMLUNIT
 70
     2
  9
$DIMLWD
 70
    -2
  9
$DIMLWE
 70
    -2
  9
$DIMTMOVE
 70
     0
  9
$LUNITS
 70
     2
  9
$LUPREC
 70
     4
  9
$SKETCHINC
 40
0.1
  9
$FILLETRAD
 40
0.0
  9
$AUNITS
 70
     0
  9
$AUPREC
 70
     0
  9
$MENU
  1
.
  9
$ELEVATION
 40
0.0
  9
$PELEVATION
 40
0.0
  9
$THICKNESS
 40
0.0
  9
$LIMCHECK
 70
     0
  9
$CHAMFERA
 40
0.0
  9
$CHAMFERB
 40
0.0
  9
$CHAMFERC
 40
0.0
  9
$CHAMFERD
 40
0.0
  9
$SKPOLY
 70
     0
  9
$TDCREATE
 40
2455654.969380960
  9
$TDUCREATE
 40
2455654.886047627
  9
$TDUPDATE
 40
2455654.971240231
  9
$TDUUPDATE
 40
2455654.887906898
  9
$TDINDWG
 40
0.0018592708
  9
$TDUSRTIMER
 40
0.0018592708
  9
$USRTIMER
 70
     1
  9
$ANGBASE
 50
0.0
  9
$ANGDIR
 70
     0
  9
$PDMODE
 70
     0
  9
$PDSIZE
 40
0.0
  9
$PLINEWID
 40
0.0
  9
$SPLFRAME
 70
     0
  9
$SPLINETYPE
 70
     6
  9
$SPLINESEGS
 70
     8
  9
$HANDSEED
  5
B4B
  9
$SURFTAB1
 70
     6
  9
$SURFTAB2
 70
     6
  9
$SURFTYPE
 70
     6
  9
$SURFU
 70
     6
  9
$SURFV
 70
     6
  9
$UCSBASE
  2

  9
$UCSNAME
  2

  9
$UCSORG
 10
0.0
 20
0.0
 30
0.0
  9
$UCSXDIR
 10
1.0
 20
0.0
 30
0.0
  9
$UCSYDIR
 10
0.0
 20
1.0
 30
0.0
  9
$UCSORTHOREF
  2

  9
$UCSORTHOVIEW
 70
     1
  9
$UCSORGTOP
 10
0.0
 20
0.0
 30
0.0
  9
$UCSORGBOTTOM
 10
0.0
 20
0.0
 30
0.0
  9
$UCSORGLEFT
 10
0.0
 20
0.0
 30
0.0
  9
$UCSORGRIGHT
 10
0.0
 20
0.0
 30
0.0
  9
$UCSORGFRONT
 10
0.0
 20
0.0
 30
0.0
  9
$UCSORGBACK
 10
0.0
 20
0.0
 30
0.0
  9
$PUCSBASE
  2

  9
$PUCSNAME
  2

  9
$PUCSORG
 10
0.0
 20
0.0
 30
0.0
  9
$PUCSXDIR
 10
1.0
 20
0.0
 30
0.0
  9
$PUCSYDIR
 10
0.0
 20
1.0
 30
0.0
  9
$PUCSORTHOREF
  2

  9
$PUCSORTHOVIEW
 70
     0
  9
$PUCSORGTOP
 10
0.0
 20
0.0
 30
0.0
  9
$PUCSORGBOTTOM
 10
0.0
 20
0.0
 30
0.0
  9
$PUCSORGLEFT
 10
0.0
 20
0.0
 30
0.0
  9
$PUCSORGRIGHT
 10
0.0
 20
0.0
 30
0.0
  9
$PUCSORGFRONT
 10
0.0
 20
0.0
 30
0.0
  9
$PUCSORGBACK
 10
0.0
 20
0.0
 30
0.0
  9
$USERI1
 70
     0
  9
$USERI2
 70
     0
  9
$USERI3
 70
     0
  9
$USERI4
 70
     0
  9
$USERI5
 70
     0
  9
$USERR1
 40
0.0
  9
$USERR2
 40
0.0
  9
$USERR3
 40
0.0
  9
$USERR4
 40
0.0
  9
$USERR5
 40
0.0
  9
$WORLDVIEW
 70
     1
  9
$SHADEDGE
 70
     3
  9
$SHADEDIF
 70
    70
  9
$TILEMODE
 70
     1
  9
$MAXACTVP
 70
    64
  9
$PINSBASE
 10
0.0
 20
0.0
 30
0.0
  9
$PLIMCHECK
 70
     0
  9
$PEXTMIN
 10
1.000000000000000E+20
 20
1.000000000000000E+20
 30
1.000000000000000E+20
  9
$PEXTMAX
 10
-1.000000000000000E+20
 20
-1.000000000000000E+20
 30
-1.000000000000000E+20
  9
$PLIMMIN
 10
0.0
 20
0.0
  9
$PLIMMAX
 10
12.0
 20
9.0
  9
$UNITMODE
 70
     0
  9
$VISRETAIN
 70
     1
  9
$PLINEGEN
 70
     0
  9
$PSLTSCALE
 70
     1
  9
$TREEDEPTH
 70
  3020
  9
$CMLSTYLE
  2
Standard
  9
$CMLJUST
 70
     0
  9
$CMLSCALE
 40
1.0
  9
$PROXYGRAPHICS
 70
     1
  9
$MEASUREMENT
 70
     0
  9
$CELWEIGHT
370
    -1
  9
$ENDCAPS
280
     0
  9
$JOINSTYLE
280
     0
  9
$LWDISPLAY
290
     0
  9
$INSUNITS
 70
     0
  9
$HYPERLINKBASE
  1

  9
$STYLESHEET
  1

  9
$XEDIT
290
     1
  9
$CEPSNTYPE
380
     0
  9
$PSTYLEMODE
290
     1
  9
$FINGERPRINTGUID
  2
{339A3132-3683-48A0-8EFC-69CDD8B96852}
  9
$VERSIONGUID
  2
{64C80969-CBBE-48F6-8DFB-12669B1B98E5}
  9
$EXTNAMES
290
     1
  9
$PSVPSCALE
 40
0.0
  9
$OLESTARTUP
290
     0
  0
ENDSEC
  0
SECTION
  2
CLASSES
  0
CLASS
  1
ACDBDICTIONARYWDFLT
  2
AcDbDictionaryWithDefault
  3
AutoCAD 2000
 90
        0
280
     0
281
     0
  0
CLASS
  1
ACDBPLACEHOLDER
  2
AcDbPlaceHolder
  3
AutoCAD 2000
 90
        0
280
     0
281
     0
  0
CLASS
  1
LAYOUT
  2
AcDbLayout
  3
AutoCAD 2000
 90
        0
280
     0
281
     0
  0
CLASS
  1
DICTIONARYVAR
  2
AcDbDictionaryVar
  3
AutoCAD 2000
 90
        0
280
     0
281
     0
  0
ENDSEC
  0
SECTION
  2
TABLES
  0
TABLE
  2
VPORT
  5
8
330
0
100
AcDbSymbolTable
 70
     6
  0
VPORT
  5
B4A
330
8
100
AcDbSymbolTableRecord
100
AcDbViewportTableRecord
  2
*Active
 70
     0
 10
0.0
 20
0.0
 11
1.0
 21
1.0
 12
131.221
 22
712.0
 13
0.0
 23
0.0
 14
1.0
 24
1.0
 15
0.0
 25
0.0
 16
0.0
 26
0.0
 36
1.0
 17
0.0
 27
0.0
 37
0.0
 40
215.2119932356257
 41
2.073363431151241
 42
50.0
 43
0.0
 44
0.0
 50
0.0
 51
0.0
 71
     0
 72
   100
 73
     1
 74
     3
 75
     0
 76
     0
 77
     0
 78
     0
281
     0
 65
     1
110
0.0
120
0.0
130
0.0
111
1.0
121
0.0
131
0.0
112
0.0
122
1.0
132
0.0
 79
     1
146
0.0
  0
ENDTAB
  0
TABLE
  2
LTYPE
  5
5
330
0
100
AcDbSymbolTable
 70
     1
  0
LTYPE
  5
13
330
5
100
AcDbSymbolTableRecord
100
AcDbLinetypeTableRecord
  2
ByBlock
 70
     0
  3

 72
    65
 73
     0
 40
0.0
  0
LTYPE
  5
14
330
5
100
AcDbSymbolTableRecord
100
AcDbLinetypeTableRecord
  2
ByLayer
 70
     0
  3

 72
    65
 73
     0
 40
0.0
  0
LTYPE
  5
15
330
5
100
AcDbSymbolTableRecord
100
AcDbLinetypeTableRecord
  2
Continuous
 70
     0
  3
Solid line
 72
    65
 73
     0
 40
0.0
  0
ENDTAB
  0
TABLE
  2
LAYER
  5
2
330
0
100
AcDbSymbolTable
 70
     1
  0
LAYER
  5
10
330
2
100
AcDbSymbolTableRecord
100
AcDbLayerTableRecord
  2
0
 70
     0
 62
     7
  6
Continuous
370
    -3
390
F
  0
ENDTAB
  0
TABLE
  2
STYLE
  5
3
330
0
100
AcDbSymbolTable
 70
     1
  0
STYLE
  5
11
330
3
100
AcDbSymbolTableRecord
100
AcDbTextStyleTableRecord
  2
Standard
 70
     0
 40
0.0
 41
1.0
 50
0.0
 71
     0
 42
0.2
  3
txt
  4

  0
ENDTAB
  0
TABLE
  2
VIEW
  5
6
330
0
100
AcDbSymbolTable
 70
     0
  0
ENDTAB
  0
TABLE
  2
UCS
  5
7
330
0
100
AcDbSymbolTable
 70
     0
  0
ENDTAB
  0
TABLE
  2
APPID
  5
9
330
0
100
AcDbSymbolTable
 70
     1
  0
APPID
  5
12
330
9
100
AcDbSymbolTableRecord
100
AcDbRegAppTableRecord
  2
ACAD
 70
     0
  0
ENDTAB
  0
TABLE
  2
DIMSTYLE
  5
A
330
0
100
AcDbSymbolTable
 70
     1
100
AcDbDimStyleTable
 71
     0
  0
DIMSTYLE
105
62A
330
A
100
AcDbSymbolTableRecord
100
AcDbDimStyleTableRecord
  2
Standard
 70
     0
340
11
  0
ENDTAB
  0
TABLE
  2
BLOCK_RECORD
  5
1
330
0
100
AcDbSymbolTable
 70
     1
  0
BLOCK_RECORD
  5
1E
330
1
100
AcDbSymbolTableRecord
100
AcDbBlockTableRecord
  2
*Model_Space
340
21
  0
BLOCK_RECORD
  5
1A
330
1
100
AcDbSymbolTableRecord
100
AcDbBlockTableRecord
  2
*Paper_Space
340
1D
  0
ENDTAB
  0
ENDSEC
  0
SECTION
  2
BLOCKS
  0
BLOCK
  5
1F
330
1E
100
AcDbEntity
  8
0
100
AcDbBlockBegin
  2
*Model_Space
 70
     0
 10
0.0
 20
0.0
 30
0.0
  3
*Model_Space
  1

  0
ENDBLK
  5
20
330
1E
100
AcDbEntity
  8
0
100
AcDbBlockEnd
  0
BLOCK
  5
1B
330
1A
100
AcDbEntity
 67
     1
  8
0
100
AcDbBlockBegin
  2
*Paper_Space
 70
     0
 10
0.0
 20
0.0
 30
0.0
  3
*Paper_Space
  1

  0
ENDBLK
  5
1C
330
1A
100
AcDbEntity
 67
     1
  8
0
100
AcDbBlockEnd
  0
ENDSEC
  0
SECTION
  2
ENTITIES
  0
LINE
  5
34B
330
1E
100
AcDbEntity
  8
0
100
AcDbLine
 10
183.2907999999999
 20
605.1169999999999
 30
0.0
 11
186.7907999999999
 21
605.1169999999999
 31
0.0
  0
LINE
  5
34D
330
1E
100
AcDbEntity
  8
0
100
AcDbLine
 10
182.0558
 20
605.1169999999999
 30
0.0
 11
183.3558
 21
605.1169999999999
 31
0.0
  0
LINE
  5
34E
330
1E
100
AcDbEntity
  8
0
100
AcDbLine
 10
182.0558
 20
605.1169999999999
 30
0.0
 11
183.2907999999999
 21
605.1169999999999
 31
0.0
  0
LINE
  5
34F
330
1E
100
AcDbEntity
  8
0
100
AcDbLine
 10
182.0558
 20
605.1169999999999
 30
0.0
 11
182.0558
 21
610.77085
 31
0.0
  0
LINE
  5
350
330
1E
100
AcDbEntity
  8
0
100
AcDbLine
 10
182.0558
 20
610.77085
 30
0.0
 11
182.0558
 21
605.1169999999999
 31
0.0
  0
LINE
  5
353
330
1E
100
AcDbEntity
  8
0
100
AcDbLine
 10
183.3558
 20
605.1169999999999
 30
0.0
 11
186.7558
 21
605.1169999999999
 31
0.0
  0
LINE
  5
370
330
1E
100
AcDbEntity
  8
0
100
AcDbLine
 10
187.7758
 20
605.1169999999999
 30
0.0
 11
188.8557999999999
 21
605.1169999999999
 31
0.0
  0
LINE
  5
371
330
1E
100
AcDbEntity
  8
0
100
AcDbLine
 10
188.8557999999999
 20
605.1169999999999
 30
0.0
 11
191.7358
 21
605.1169999999999
 31
0.0
  0
LINE
  5
374
330
1E
100
AcDbEntity
  8
0
100
AcDbLine
 10
187.0558
 20
605.1169999999999
 30
0.0
 11
187.7758
 21
605.1169999999999
 31
0.0
  0
LINE
  5
375
330
1E
100
AcDbEntity
  8
0
100
AcDbLine
 10
186.7907999999999
 20
605.1169999999999
 30
0.0
 11
187.7758
 21
605.1169999999999
 31
0.0
  0
LINE
  5
376
330
1E
100
AcDbEntity
  8
0
100
AcDbLine
 10
186.7558
 20
605.1169999999999
 30
0.0
 11
187.7758
 21
605.1169999999999
 31
0.0
  0
LINE
  5
377
330
1E
100
AcDbEntity
  8
0
100
AcDbLine
 10
186.7558
 20
605.1169999999999
 30
0.0
 11
192.3557999999999
 21
605.1169999999999
 31
0.0
  0
LINE
  5
38D
330
1E
100
AcDbEntity
  8
0
100
AcDbLine
 10
191.7358
 20
605.1169999999999
 30
0.0
 11
196.4157999999999
 21
605.1169999999999
 31
0.0
  0
LINE
  5
393
330
1E
100
AcDbEntity
  8
0
100
AcDbLine
 10
192.3557999999999
 20
605.1169999999999
 30
0.0
 11
199.6558
 21
605.1169999999999
 31
0.0
  0
LINE
  5
39E
330
1E
100
AcDbEntity
  8
0
100
AcDbLine
 10
196.4157999999999
 20
605.1169999999999
 30
0.0
 11
202.5357999999999
 21
605.1169999999999
 31
0.0
  0
LINE
  5
3F8
330
1E
100
AcDbEntity
  8
0
100
AcDbLine
 10
199.6558
 20
605.1169999999999
 30
0.0
 11
208.0557999999999
 21
605.1169999999999
 31
0.0
  0
LINE
  5
404
330
1E
100
AcDbEntity
  8
0
100
AcDbLine
 10
202.5357999999999
 20
605.1169999999999
 30
0.0
 11
209.4958
 21
605.1169999999999
 31
0.0
  0
LINE
  5
407
330
1E
100
AcDbEntity
  8
0
100
AcDbLine
 10
208.0557999999999
 20
605.1169999999999
 30
0.0
 11
217.0558
 21
605.1169999999999
 31
0.0
  0
LINE
  5
43E
330
1E
100
AcDbEntity
  8
0
100
AcDbLine
 10
209.4958
 20
605.1169999999999
 30
0.0
 11
217.0558
 21
605.1169999999999
 31
0.0
  0
LINE
  5
43F
330
1E
100
AcDbEntity
  8
0
100
AcDbLine
 10
217.0558
 20
605.1169999999999
 30
0.0
 11
224.6158
 21
605.1169999999999
 31
0.0
  0
LINE
  5
46A
330
1E
100
AcDbEntity
  8
0
100
AcDbLine
 10
224.6158
 20
605.1169999999999
 30
0.0
 11
231.5757999999999
 21
605.1169999999999
 31
0.0
  0
LINE
  5
46C
330
1E
100
AcDbEntity
  8
0
100
AcDbLine
 10
217.0558
 20
605.1169999999999
 30
0.0
 11
226.0558
 21
605.1169999999999
 31
0.0
  0
LINE
  5
478
330
1E
100
AcDbEntity
  8
0
100
AcDbLine
 10
231.5757999999999
 20
605.1169999999999
 30
0.0
 11
237.6958
 21
605.1169999999999
 31
0.0
  0
LINE
  5
47A
330
1E
100
AcDbEntity
  8
0
100
AcDbLine
 10
234.4558
 20
605.1169999999999
 30
0.0
 11
241.7558
 21
605.1169999999999
 31
0.0
  0
LINE
  5
47B
330
1E
100
AcDbEntity
  8
0
100
AcDbLine
 10
226.0558
 20
605.1169999999999
 30
0.0
 11
234.4558
 21
605.1169999999999
 31
0.0
  0
LINE
  5
487
330
1E
100
AcDbEntity
  8
0
100
AcDbLine
 10
237.6958
 20
605.1169999999999
 30
0.0
 11
242.3757999999999
 21
605.1169999999999
 31
0.0
  0
LINE
  5
494
330
1E
100
AcDbEntity
  8
0
100
AcDbLine
 10
241.7558
 20
605.1169999999999
 30
0.0
 11
247.3558
 21
605.1169999999999
 31
0.0
  0
LINE
  5
4B2
330
1E
100
AcDbEntity
  8
0
100
AcDbLine
 10
232.0348
 20
627.959958333333
 30
0.0
 11
232.0348
 21
657.1635999999999
 31
0.0
  0
LINE
  5
4CC
330
1E
100
AcDbEntity
  8
0
100
AcDbLine
 10
242.3757999999999
 20
605.1169999999999
 30
0.0
 11
245.2557999999999
 21
605.1169999999999
 31
0.0
  0
LINE
  5
4CD
330
1E
100
AcDbEntity
  8
0
100
AcDbLine
 10
245.2557999999999
 20
605.1169999999999
 30
0.0
 11
246.3357999999999
 21
605.1169999999999
 31
0.0
  0
LINE
  5
4D6
330
1E
100
AcDbEntity
  8
0
100
AcDbLine
 10
247.3208
 20
605.1169999999999
 30
0.0
 11
250.8207999999999
 21
605.1169999999999
 31
0.0
  0
LINE
  5
4D9
330
1E
100
AcDbEntity
  8
0
100
AcDbLine
 10
250.8207999999999
 20
605.1169999999999
 30
0.0
 11
252.0558
 21
605.1169999999999
 31
0.0
  0
LINE
  5
4DB
330
1E
100
AcDbEntity
  8
0
100
AcDbLine
 10
250.7557999999999
 20
605.1169999999999
 30
0.0
 11
252.0558
 21
605.1169999999999
 31
0.0
  0
LINE
  5
4E1
330
1E
100
AcDbEntity
  8
0
100
AcDbLine
 10
247.3558
 20
605.1169999999999
 30
0.0
 11
250.7557999999999
 21
605.1169999999999
 31
0.0
  0
LINE
  5
4E2
330
1E
100
AcDbEntity
  8
0
100
AcDbLine
 10
246.3357999999999
 20
605.1169999999999
 30
0.0
 11
247.3558
 21
605.1169999999999
 31
0.0
  0
LINE
  5
4E3
330
1E
100
AcDbEntity
  8
0
100
AcDbLine
 10
246.3357999999999
 20
605.1169999999999
 30
0.0
 11
247.3208
 21
605.1169999999999
 31
0.0
  0
LINE
  5
4E4
330
1E
100
AcDbEntity
  8
0
100
AcDbLine
 10
246.3357999999999
 20
605.1169999999999
 30
0.0
 11
247.0558
 21
605.1169999999999
 31
0.0
  0
LINE
  5
4FC
330
1E
100
AcDbEntity
  8
0
100
AcDbLine
 10
202.0767999999999
 20
646.304510939962
 30
0.0
 11
202.0767999999999
 21
657.1635999999999
 31
0.0
  0
LINE
  5
4FD
330
1E
100
AcDbEntity
  8
0
100
AcDbLine
 10
202.0767999999999
 20
659.6747999999999
 30
0.0
 11
202.0777999999999
 21
660.9308999999999
 31
0.0
  0
LINE
  5
4FE
330
1E
100
AcDbEntity
  8
0
100
AcDbLine
 10
202.0767999999999
 20
659.6747999999999
 30
0.0
 11
202.0767999999999
 21
657.1635999999999
 31
0.0
  0
LINE
  5
4FF
330
1E
100
AcDbEntity
  8
0
100
AcDbLine
 10
202.0588
 20
666.9314
 30
0.0
 11
202.0588
 21
666.0789
 31
0.0
  0
LINE
  5
500
330
1E
100
AcDbEntity
  8
0
100
AcDbLine
 10
202.0567999999999
 20
676.0045999999999
 30
0.0
 11
202.084089709763
 21
676.2388634300789
 31
0.0
  0
LINE
  5
501
330
1E
100
AcDbEntity
  8
0
100
AcDbLine
 10
202.0558
 20
667.8905
 30
0.0
 11
202.0588
 21
666.9314
 31
0.0
  0
LINE
  5
502
330
1E
100
AcDbEntity
  8
0
100
AcDbLine
 10
202.0558
 20
667.8905
 30
0.0
 11
202.0647999999999
 21
676.0016
 31
0.0
  0
LINE
  5
503
330
1E
100
AcDbEntity
  8
0
100
AcDbLine
 10
202.0647999999999
 20
665.2505999999999
 30
0.0
 11
202.0718
 21
664.222
 31
0.0
  0
LINE
  5
504
330
1E
100
AcDbEntity
  8
0
100
AcDbLine
 10
202.0588
 20
666.0789
 30
0.0
 11
202.0647999999999
 21
665.2505999999999
 31
0.0
  0
LINE
  5
505
330
1E
100
AcDbEntity
  8
0
100
AcDbLine
 10
202.0588
 20
666.0789
 30
0.0
 11
202.0588
 21
666.9314
 31
0.0
  0
LINE
  5
506
330
1E
100
AcDbEntity
  8
0
100
AcDbLine
 10
202.0688
 20
663.9904999999999
 30
0.0
 11
202.0788
 21
663.2265
 31
0.0
  0
LINE
  5
507
330
1E
100
AcDbEntity
  8
0
100
AcDbLine
 10
202.0688
 20
663.9904999999999
 30
0.0
 11
202.0718
 21
664.222
 31
0.0
  0
LINE
  5
508
330
1E
100
AcDbEntity
  8
0
100
AcDbLine
 10
202.0738
 20
663.0253
 30
0.0
 11
202.0788
 21
662.8069
 31
0.0
  0
LINE
  5
509
330
1E
100
AcDbEntity
  8
0
100
AcDbLine
 10
202.0738
 20
663.0253
 30
0.0
 11
202.0788
 21
663.2265
 31
0.0
  0
LINE
  5
50A
330
1E
100
AcDbEntity
  8
0
100
AcDbLine
 10
202.0767999999999
 20
662.0540999999999
 30
0.0
 11
202.0788
 21
662.8069
 31
0.0
  0
LINE
  5
50B
330
1E
100
AcDbEntity
  8
0
100
AcDbLine
 10
202.0767999999999
 20
662.0540999999999
 30
0.0
 11
202.0777999999999
 21
661.8708999999999
 31
0.0
  0
LINE
  5
50C
330
1E
100
AcDbEntity
  8
0
100
AcDbLine
 10
202.0777999999999
 20
660.9308999999999
 30
0.0
 11
202.0777999999999
 21
661.8708999999999
 31
0.0
  0
LINE
  5
50D
330
1E
100
AcDbEntity
  8
0
100
AcDbLine
 10
202.1657999999999
 20
676.6607999999999
 30
0.0
 11
202.2998
 21
676.8199
 31
0.0
  0
LINE
  5
50E
330
1E
100
AcDbEntity
  8
0
100
AcDbLine
 10
202.1058
 20
676.5058999999999
 30
0.0
 11
202.1078
 21
676.4423999999999
 31
0.0
  0
LINE
  5
50F
330
1E
100
AcDbEntity
  8
0
100
AcDbLine
 10
202.1058
 20
676.5058999999999
 30
0.0
 11
202.1578
 21
676.6155
 31
0.0
  0
LINE
  5
510
330
1E
100
AcDbEntity
  8
0
100
AcDbLine
 10
202.0777999999999
 20
661.8708999999999
 30
0.0
 11
202.0777999999999
 21
660.9308999999999
 31
0.0
  0
LINE
  5
511
330
1E
100
AcDbEntity
  8
0
100
AcDbLine
 10
202.8968
 20
676.5671999999999
 30
0.0
 11
202.942467267508
 21
676.7263047599969
 31
0.0
  0
LINE
  5
512
330
1E
100
AcDbEntity
  8
0
100
AcDbLine
 10
202.8968
 20
676.5671999999999
 30
0.0
 11
202.9428
 21
676.7473999999999
 31
0.0
  0
LINE
  5
513
330
1E
100
AcDbEntity
  8
0
100
AcDbLine
 10
202.9428
 20
676.7473999999999
 30
0.0
 11
202.9948
 21
677.1751
 31
0.0
  0
LINE
  5
514
330
1E
100
AcDbEntity
  8
0
100
AcDbLine
 10
202.9037999999999
 20
676.6083999999999
 30
0.0
 11
202.920513725009
 21
676.6600959401451
 31
0.0
  0
LINE
  5
515
330
1E
100
AcDbEntity
  8
0
100
AcDbLine
 10
202.2998
 20
676.8199
 30
0.0
 11
202.3417999999999
 21
676.8621
 31
0.0
  0
LINE
  5
516
330
1E
100
AcDbEntity
  8
0
100
AcDbLine
 10
202.9948
 20
677.1751
 30
0.0
 11
203.0098
 21
677.3583
 31
0.0
  0
LINE
  5
517
330
1E
100
AcDbEntity
  8
0
100
AcDbLine
 10
203.0098
 20
677.3583
 30
0.0
 11
203.0587999999999
 21
677.8755999999999
 31
0.0
  0
LINE
  5
518
330
1E
100
AcDbEntity
  8
0
100
AcDbLine
 10
202.7958
 20
677.006
 30
0.0
 11
202.9757451895
 21
677.018374183635
 31
0.0
  0
LINE
  5
519
330
1E
100
AcDbEntity
  8
0
100
AcDbLine
 10
203.0997999999999
 20
678.3618
 30
0.0
 11
203.1168
 21
678.4764
 31
0.0
  0
LINE
  5
51A
330
1E
100
AcDbEntity
  8
0
100
AcDbLine
 10
203.2668
 20
678.8126
 30
0.0
 11
203.4047999999999
 21
678.9908
 31
0.0
  0
LINE
  5
51B
330
1E
100
AcDbEntity
  8
0
100
AcDbLine
 10
203.4047999999999
 20
678.9908
 30
0.0
 11
203.5918
 21
679.1609
 31
0.0
  0
LINE
  5
51C
330
1E
100
AcDbEntity
  8
0
100
AcDbLine
 10
203.5918
 20
679.1609
 30
0.0
 11
203.8778
 21
679.3309999999999
 31
0.0
  0
LINE
  5
51D
330
1E
100
AcDbEntity
  8
0
100
AcDbLine
 10
204.0458
 20
679.4044
 30
0.0
 11
204.5577999999999
 21
679.5916
 31
0.0
  0
LINE
  5
51E
330
1E
100
AcDbEntity
  8
0
100
AcDbLine
 10
203.8778
 20
679.3309999999999
 30
0.0
 11
204.0458
 21
679.4044
 31
0.0
  0
LINE
  5
51F
330
1E
100
AcDbEntity
  8
0
100
AcDbLine
 10
203.1677999999999
 20
678.6355
 30
0.0
 11
203.2668
 21
678.8126
 31
0.0
  0
LINE
  5
520
330
1E
100
AcDbEntity
  8
0
100
AcDbLine
 10
203.1168
 20
678.4764
 30
0.0
 11
203.1677999999999
 21
678.6355
 31
0.0
  0
LINE
  5
521
330
1E
100
AcDbEntity
  8
0
100
AcDbLine
 10
204.5577999999999
 20
679.5916
 30
0.0
 11
205.2557999999999
 21
679.7305
 31
0.0
  0
LINE
  5
522
330
1E
100
AcDbEntity
  8
0
100
AcDbLine
 10
203.0587999999999
 20
677.8755999999999
 30
0.0
 11
203.0997999999999
 21
678.3618
 31
0.0
  0
LINE
  5
523
330
1E
100
AcDbEntity
  8
0
100
AcDbLine
 10
202.7108
 20
677.0019999999999
 30
0.0
 11
202.7958
 21
677.006
 31
0.0
  0
LINE
  5
524
330
1E
100
AcDbEntity
  8
0
100
AcDbLine
 10
202.5218
 20
676.9527
 30
0.0
 11
202.7108
 21
677.0019999999999
 31
0.0
  0
LINE
  5
525
330
1E
100
AcDbEntity
  8
0
100
AcDbLine
 10
202.3417999999999
 20
676.8621
 30
0.0
 11
202.4907999999999
 21
676.9406
 31
0.0
  0
LINE
  5
526
330
1E
100
AcDbEntity
  8
0
100
AcDbLine
 10
202.0767999999999
 20
657.1635999999999
 30
0.0
 11
202.0767999999999
 21
646.304510939962
 31
0.0
  0
LINE
  5
527
330
1E
100
AcDbEntity
  8
0
100
AcDbLine
 10
202.0767999999999
 20
657.1635999999999
 30
0.0
 11
202.0767999999999
 21
659.6747999999999
 31
0.0
  0
LINE
  5
530
330
1E
100
AcDbEntity
  8
0
100
AcDbLine
 10
205.2557999999999
 20
679.7305
 30
0.0
 11
206.0467999999999
 21
679.797
 31
0.0
  0
LINE
  5
531
330
1E
100
AcDbEntity
  8
0
100
AcDbLine
 10
206.0467999999999
 20
679.797
 30
0.0
 11
208.7787999999999
 21
679.9428999999999
 31
0.0
  0
LINE
  5
532
330
1E
100
AcDbEntity
  8
0
100
AcDbLine
 10
211.5318
 20
680.0415
 30
0.0
 11
214.2927999999999
 21
680.0978999999999
 31
0.0
  0
LINE
  5
533
330
1E
100
AcDbEntity
  8
0
100
AcDbLine
 10
208.7787999999999
 20
679.9428999999999
 30
0.0
 11
211.5318
 21
680.0415
 31
0.0
  0
LINE
  5
53B
330
1E
100
AcDbEntity
  8
0
100
AcDbLine
 10
214.2927999999999
 20
680.0978999999999
 30
0.0
 11
217.0558
 21
680.1169999999999
 31
0.0
  0
LINE
  5
561
330
1E
100
AcDbEntity
  8
0
100
AcDbLine
 10
232.0338
 20
660.9308999999999
 30
0.0
 11
232.0338
 21
661.8708999999999
 31
0.0
  0
LINE
  5
562
330
1E
100
AcDbEntity
  8
0
100
AcDbLine
 10
232.0338
 20
660.9308999999999
 30
0.0
 11
232.0348
 21
659.6747999999999
 31
0.0
  0
LINE
  5
564
330
1E
100
AcDbEntity
  8
0
100
AcDbLine
 10
232.0338
 20
661.8708999999999
 30
0.0
 11
232.0338
 21
660.9308999999999
 31
0.0
  0
LINE
  5
565
330
1E
100
AcDbEntity
  8
0
100
AcDbLine
 10
232.0338
 20
661.8708999999999
 30
0.0
 11
232.0348
 21
662.0540999999999
 31
0.0
  0
LINE
  5
566
330
1E
100
AcDbEntity
  8
0
100
AcDbLine
 10
232.0348
 20
659.6747999999999
 30
0.0
 11
232.0348
 21
657.1635999999999
 31
0.0
  0
LINE
  5
567
330
1E
100
AcDbEntity
  8
0
100
AcDbLine
 10
232.0348
 20
657.1635999999999
 30
0.0
 11
232.0348
 21
627.959958333333
 31
0.0
  0
LINE
  5
568
330
1E
100
AcDbEntity
  8
0
100
AcDbLine
 10
232.0348
 20
657.1635999999999
 30
0.0
 11
232.0348
 21
659.6747999999999
 31
0.0
  0
LINE
  5
56F
330
1E
100
AcDbEntity
  8
0
100
AcDbLine
 10
232.0327999999999
 20
663.2265
 30
0.0
 11
232.0378
 21
663.0253
 31
0.0
  0
LINE
  5
570
330
1E
100
AcDbEntity
  8
0
100
AcDbLine
 10
232.0327999999999
 20
663.2265
 30
0.0
 11
232.0428
 21
663.9904999999999
 31
0.0
  0
LINE
  5
571
330
1E
100
AcDbEntity
  8
0
100
AcDbLine
 10
232.0327999999999
 20
662.8069
 30
0.0
 11
232.0378
 21
663.0253
 31
0.0
  0
LINE
  5
572
330
1E
100
AcDbEntity
  8
0
100
AcDbLine
 10
232.0327999999999
 20
662.8069
 30
0.0
 11
232.0348
 21
662.0540999999999
 31
0.0
  0
LINE
  5
583
330
1E
100
AcDbEntity
  8
0
100
AcDbLine
 10
232.0527999999999
 20
666.0789
 30
0.0
 11
232.0527999999999
 21
666.9314
 31
0.0
  0
LINE
  5
584
330
1E
100
AcDbEntity
  8
0
100
AcDbLine
 10
232.0467999999999
 20
665.2505999999999
 30
0.0
 11
232.0527999999999
 21
666.0789
 31
0.0
  0
LINE
  5
585
330
1E
100
AcDbEntity
  8
0
100
AcDbLine
 10
232.0527999999999
 20
666.9314
 30
0.0
 11
232.0558
 21
667.8905
 31
0.0
  0
LINE
  5
586
330
1E
100
AcDbEntity
  8
0
100
AcDbLine
 10
232.0527999999999
 20
666.9314
 30
0.0
 11
232.0527999999999
 21
666.0789
 31
0.0
  0
LINE
  5
587
330
1E
100
AcDbEntity
  8
0
100
AcDbLine
 10
232.0398
 20
664.222
 30
0.0
 11
232.0467999999999
 21
665.2505999999999
 31
0.0
  0
LINE
  5
588
330
1E
100
AcDbEntity
  8
0
100
AcDbLine
 10
232.0398
 20
664.222
 30
0.0
 11
232.0428
 21
663.9904999999999
 31
0.0
  0
LINE
  5
5A0
330
1E
100
AcDbEntity
  8
0
100
AcDbLine
 10
231.1688
 20
676.7473999999999
 30
0.0
 11
231.2148
 21
676.5671999999999
 31
0.0
  0
LINE
  5
5A1
330
1E
100
AcDbEntity
  8
0
100
AcDbLine
 10
231.1910862749909
 20
676.6600959401451
 30
0.0
 11
231.2078
 21
676.6083999999999
 31
0.0
  0
LINE
  5
5A2
330
1E
100
AcDbEntity
  8
0
100
AcDbLine
 10
231.1691327324919
 20
676.7263047599969
 30
0.0
 11
231.2148
 21
676.5671999999999
 31
0.0
  0
LINE
  5
5A4
330
1E
100
AcDbEntity
  8
0
100
AcDbLine
 10
231.3158
 20
677.006
 30
0.0
 11
231.4008
 21
677.0019999999999
 31
0.0
  0
LINE
  5
5A5
330
1E
100
AcDbEntity
  8
0
100
AcDbLine
 10
231.1358548104999
 20
677.018374183635
 30
0.0
 11
231.3158
 21
677.006
 31
0.0
  0
LINE
  5
5A6
330
1E
100
AcDbEntity
  8
0
100
AcDbLine
 10
231.4008
 20
677.0019999999999
 30
0.0
 11
231.5898
 21
676.9527
 31
0.0
  0
LINE
  5
5A7
330
1E
100
AcDbEntity
  8
0
100
AcDbLine
 10
231.6208
 20
676.9406
 30
0.0
 11
231.7698
 21
676.8621
 31
0.0
  0
LINE
  5
5A8
330
1E
100
AcDbEntity
  8
0
100
AcDbLine
 10
232.027510290238
 20
676.2388634300789
 30
0.0
 11
232.0548
 21
676.0045999999999
 31
0.0
  0
LINE
  5
5A9
330
1E
100
AcDbEntity
  8
0
100
AcDbLine
 10
232.0467999999999
 20
676.0016
 30
0.0
 11
232.0558
 21
667.8905
 31
0.0
  0
LINE
  5
5AA
330
1E
100
AcDbEntity
  8
0
100
AcDbLine
 10
232.0038
 20
676.4423999999999
 30
0.0
 11
232.0057999999999
 21
676.5058999999999
 31
0.0
  0
LINE
  5
5AB
330
1E
100
AcDbEntity
  8
0
100
AcDbLine
 10
231.9538
 20
676.6155
 30
0.0
 11
232.0057999999999
 21
676.5058999999999
 31
0.0
  0
LINE
  5
5AC
330
1E
100
AcDbEntity
  8
0
100
AcDbLine
 10
231.8118
 20
676.8199
 30
0.0
 11
231.9458
 21
676.6607999999999
 31
0.0
  0
LINE
  5
5AD
330
1E
100
AcDbEntity
  8
0
100
AcDbLine
 10
231.7698
 20
676.8621
 30
0.0
 11
231.8118
 21
676.8199
 31
0.0
  0
LINE
  5
5B2
330
1E
100
AcDbEntity
  8
0
100
AcDbLine
 10
217.0558
 20
680.1169999999999
 30
0.0
 11
219.8188
 21
680.0978999999999
 31
0.0
  0
LINE
  5
5B7
330
1E
100
AcDbEntity
  8
0
100
AcDbLine
 10
231.1018
 20
677.3583
 30
0.0
 11
231.1168
 21
677.1751
 31
0.0
  0
LINE
  5
5B8
330
1E
100
AcDbEntity
  8
0
100
AcDbLine
 10
231.0528
 20
677.8755999999999
 30
0.0
 11
231.1018
 21
677.3583
 31
0.0
  0
LINE
  5
5B9
330
1E
100
AcDbEntity
  8
0
100
AcDbLine
 10
231.1168
 20
677.1751
 30
0.0
 11
231.1688
 21
676.7473999999999
 31
0.0
  0
LINE
  5
5BA
330
1E
100
AcDbEntity
  8
0
100
AcDbLine
 10
228.0647999999999
 20
679.797
 30
0.0
 11
228.8558
 21
679.7305
 31
0.0
  0
LINE
  5
5BB
330
1E
100
AcDbEntity
  8
0
100
AcDbLine
 10
225.3327999999999
 20
679.9428999999999
 30
0.0
 11
228.0647999999999
 21
679.797
 31
0.0
  0
LINE
  5
5BC
330
1E
100
AcDbEntity
  8
0
100
AcDbLine
 10
230.8447999999999
 20
678.8126
 30
0.0
 11
230.9438
 21
678.6355
 31
0.0
  0
LINE
  5
5BD
330
1E
100
AcDbEntity
  8
0
100
AcDbLine
 10
230.7068
 20
678.9908
 30
0.0
 11
230.8447999999999
 21
678.8126
 31
0.0
  0
LINE
  5
5BE
330
1E
100
AcDbEntity
  8
0
100
AcDbLine
 10
230.9438
 20
678.6355
 30
0.0
 11
230.9947999999999
 21
678.4764
 31
0.0
  0
LINE
  5
5BF
330
1E
100
AcDbEntity
  8
0
100
AcDbLine
 10
230.9947999999999
 20
678.4764
 30
0.0
 11
231.0118
 21
678.3618
 31
0.0
  0
LINE
  5
5C0
330
1E
100
AcDbEntity
  8
0
100
AcDbLine
 10
230.5198
 20
679.1609
 30
0.0
 11
230.7068
 21
678.9908
 31
0.0
  0
LINE
  5
5C1
330
1E
100
AcDbEntity
  8
0
100
AcDbLine
 10
230.2338
 20
679.3309999999999
 30
0.0
 11
230.5198
 21
679.1609
 31
0.0
  0
LINE
  5
5C2
330
1E
100
AcDbEntity
  8
0
100
AcDbLine
 10
230.0657999999999
 20
679.4044
 30
0.0
 11
230.2338
 21
679.3309999999999
 31
0.0
  0
LINE
  5
5C3
330
1E
100
AcDbEntity
  8
0
100
AcDbLine
 10
229.5538
 20
679.5916
 30
0.0
 11
230.0657999999999
 21
679.4044
 31
0.0
  0
LINE
  5
5C4
330
1E
100
AcDbEntity
  8
0
100
AcDbLine
 10
231.0118
 20
678.3618
 30
0.0
 11
231.0528
 21
677.8755999999999
 31
0.0
  0
LINE
  5
5C5
330
1E
100
AcDbEntity
  8
0
100
AcDbLine
 10
228.8558
 20
679.7305
 30
0.0
 11
229.5538
 21
679.5916
 31
0.0
  0
LINE
  5
5C9
330
1E
100
AcDbEntity
  8
0
100
AcDbLine
 10
219.8188
 20
680.0978999999999
 30
0.0
 11
222.5798
 21
680.0415
 31
0.0
  0
LINE
  5
5CA
330
1E
100
AcDbEntity
  8
0
100
AcDbLine
 10
222.5798
 20
680.0415
 30
0.0
 11
225.3327999999999
 21
679.9428999999999
 31
0.0
  0
LINE
  5
8BB
330
1E
100
AcDbEntity
  8
0
100
AcDbLine
 10
11.55353000000002
 20
814.47
 30
0.0
 11
16.34130599999997
 21
811.3599999999999
 31
0.0
  0
LINE
  5
8BC
330
1E
100
AcDbEntity
  8
0
100
AcDbLine
 10
17.63376900000003
 20
810.5199999999999
 30
0.0
 11
16.34130599999997
 21
811.3599999999999
 31
0.0
  0
LINE
  5
8BD
330
1E
100
AcDbEntity
  8
0
100
AcDbLine
 10
30.29520000000002
 20
802.298
 30
0.0
 11
22.58789999999998
 21
807.304
 31
0.0
  0
LINE
  5
8BE
330
1E
100
AcDbEntity
  8
0
100
AcDbLine
 10
78.3854
 20
771.0679999999999
 30
0.0
 11
40.00779999999998
 21
795.9910000000001
 31
0.0
  0
LINE
  5
8BF
330
1E
100
AcDbEntity
  8
0
100
AcDbLine
 10
116.5554999999999
 20
746.2810000000001
 30
0.0
 11
78.3854
 21
771.0679999999999
 31
0.0
  0
LINE
  5
8C0
330
1E
100
AcDbEntity
  8
0
100
AcDbLine
 10
11.11714
 20
717.547
 30
0.0
 11
31.30989999999997
 21
706.681
 31
0.0
  0
LINE
  5
8C1
330
1E
100
AcDbEntity
  8
0
100
AcDbLine
 10
31.94580000000001
 20
706.57
 30
0.0
 11
32.08339999999998
 21
706.7280000000001
 31
0.0
  0
LINE
  5
8C2
330
1E
100
AcDbEntity
  8
0
100
AcDbLine
 10
56.74788002856018
 20
716.9870888038651
 30
0.0
 11
60.19589999999999
 21
717.64
 31
0.0
  0
LINE
  5
8C3
330
1E
100
AcDbEntity
  8
0
100
AcDbLine
 10
63.53071088434359
 20
717.9695460032479
 30
0.0
 11
68.59530000000001
 21
718.2689999999999
 31
0.0
  0
LINE
  5
8C4
330
1E
100
AcDbEntity
  8
0
100
AcDbLine
 10
122.7658
 20
741.837
 30
0.0
 11
125.4178
 21
739.6180000000001
 31
0.0
  0
LINE
  5
8C5
330
1E
100
AcDbEntity
  8
0
100
AcDbLine
 10
125.4178
 20
739.6180000000001
 30
0.0
 11
127.1557999999999
 21
737.9789999999999
 31
0.0
  0
LINE
  5
8C6
330
1E
100
AcDbEntity
  8
0
100
AcDbLine
 10
180.0628
 20
675.2981
 30
0.0
 11
200.0538
 21
650.2836999999999
 31
0.0
  0
LINE
  5
8C7
330
1E
100
AcDbEntity
  8
0
100
AcDbLine
 10
165.8157999999999
 20
693.0909
 30
0.0
 11
180.0628
 21
675.2981
 31
0.0
  0
LINE
  5
8C8
330
1E
100
AcDbEntity
  8
0
100
AcDbLine
 10
238.5457999999999
 20
739.1169999999999
 30
0.0
 11
238.7418
 21
739.1160000000001
 31
0.0
  0
LINE
  5
8C9
330
1E
100
AcDbEntity
  8
0
100
AcDbLine
 10
238.7418
 20
739.1160000000001
 30
0.0
 11
239.4438
 21
739.0819999999999
 31
0.0
  0
LINE
  5
8CA
330
1E
100
AcDbEntity
  8
0
100
AcDbLine
 10
232.8598
 20
739.1160000000001
 30
0.0
 11
234.1749764705899
 21
739.1160000000001
 31
0.0
  0
LINE
  5
8CB
330
1E
100
AcDbEntity
  8
0
100
AcDbLine
 10
232.8598
 20
739.1160000000001
 30
0.0
 11
234.0968
 21
739.1169999999999
 31
0.0
  0
LINE
  5
8CC
330
1E
100
AcDbEntity
  8
0
100
AcDbLine
 10
237.9607999999999
 20
739.1169999999999
 30
0.0
 11
238.5457999999999
 21
739.1169999999999
 31
0.0
  0
LINE
  5
8CD
330
1E
100
AcDbEntity
  8
0
100
AcDbLine
 10
234.0968
 20
739.1169999999999
 30
0.0
 11
236.2012634276219
 21
739.116546940059
 31
0.0
  0
LINE
  5
8CE
330
1E
100
AcDbEntity
  8
0
100
AcDbLine
 10
234.0968
 20
739.1169999999999
 30
0.0
 11
235.2037999999999
 21
739.1169999999999
 31
0.0
  0
LINE
  5
8CF
330
1E
100
AcDbEntity
  8
0
100
AcDbLine
 10
235.2037999999999
 20
739.1169999999999
 30
0.0
 11
236.1738
 21
739.1169999999999
 31
0.0
  0
LINE
  5
8D0
330
1E
100
AcDbEntity
  8
0
100
AcDbLine
 10
236.9968
 20
739.1169999999999
 30
0.0
 11
237.9607999999999
 21
739.1169999999999
 31
0.0
  0
LINE
  5
8D1
330
1E
100
AcDbEntity
  8
0
100
AcDbLine
 10
236.1738
 20
739.1169999999999
 30
0.0
 11
236.9968
 21
739.1169999999999
 31
0.0
  0
LINE
  5
8D2
330
1E
100
AcDbEntity
  8
0
100
AcDbLine
 10
231.5018
 20
739.1160000000001
 30
0.0
 11
232.8598
 21
739.1160000000001
 31
0.0
  0
LINE
  5
8D3
330
1E
100
AcDbEntity
  8
0
100
AcDbLine
 10
231.5018
 20
739.1160000000001
 30
0.0
 11
234.1749764705899
 21
739.1160000000001
 31
0.0
  0
LINE
  5
8D4
330
1E
100
AcDbEntity
  8
0
100
AcDbLine
 10
226.4338
 20
739.1119999999999
 30
0.0
 11
228.334676206583
 21
739.1126177693229
 31
0.0
  0
LINE
  5
8D5
330
1E
100
AcDbEntity
  8
0
100
AcDbLine
 10
226.4338
 20
739.1119999999999
 30
0.0
 11
228.2858
 21
739.113
 31
0.0
  0
LINE
  5
8D6
330
1E
100
AcDbEntity
  8
0
100
AcDbLine
 10
230.0328
 20
739.115
 30
0.0
 11
231.5200430420339
 21
739.115170770816
 31
0.0
  0
LINE
  5
8D7
330
1E
100
AcDbEntity
  8
0
100
AcDbLine
 10
230.0328
 20
739.115
 30
0.0
 11
231.5018
 21
739.1160000000001
 31
0.0
  0
LINE
  5
8D8
330
1E
100
AcDbEntity
  8
0
100
AcDbLine
 10
228.2858
 20
739.113
 30
0.0
 11
230.131585060517
 21
739.1135295863789
 31
0.0
  0
LINE
  5
8D9
330
1E
100
AcDbEntity
  8
0
100
AcDbLine
 10
228.2858
 20
739.113
 30
0.0
 11
230.0328
 21
739.115
 31
0.0
  0
LINE
  5
8DA
330
1E
100
AcDbEntity
  8
0
100
AcDbLine
 10
228.2858
 20
739.113
 30
0.0
 11
230.131585060517
 21
739.1135295863789
 31
0.0
  0
LINE
  5
8DB
330
1E
100
AcDbEntity
  8
0
100
AcDbLine
 10
224.4968
 20
739.1110000000001
 30
0.0
 11
226.4309282670371
 21
739.1116788797009
 31
0.0
  0
LINE
  5
8DC
330
1E
100
AcDbEntity
  8
0
100
AcDbLine
 10
224.4968
 20
739.1110000000001
 30
0.0
 11
226.4338
 21
739.1119999999999
 31
0.0
  0
LINE
  5
8DD
330
1E
100
AcDbEntity
  8
0
100
AcDbLine
 10
222.4897999999999
 20
739.11
 30
0.0
 11
224.4968
 21
739.1110000000001
 31
0.0
  0
LINE
  5
8DE
330
1E
100
AcDbEntity
  8
0
100
AcDbLine
 10
222.4897999999999
 20
739.11
 30
0.0
 11
224.5089588015199
 21
739.1107454438111
 31
0.0
  0
LINE
  5
8DF
330
1E
100
AcDbEntity
  8
0
100
AcDbLine
 10
240.4528
 20
737.7419999999999
 30
0.0
 11
240.94146696369
 21
634.315596615456
 31
0.0
  0
LINE
  5
8E0
330
1E
100
AcDbEntity
  8
0
100
AcDbLine
 10
125.4178
 20
739.6180000000001
 30
0.0
 11
226.2894027572909
 21
739.111925453153
 31
0.0
  0
LINE
  5
8E1
330
1E
100
AcDbEntity
  8
0
100
AcDbLine
 10
240.4067999999999
 20
738.309
 30
0.0
 11
240.4528
 21
737.7419999999999
 31
0.0
  0
LINE
  5
8E2
330
1E
100
AcDbEntity
  8
0
100
AcDbLine
 10
239.4438
 20
739.0819999999999
 30
0.0
 11
239.7337999999999
 21
739.013
 31
0.0
  0
LINE
  5
8E3
330
1E
100
AcDbEntity
  8
0
100
AcDbLine
 10
239.7337999999999
 20
739.013
 30
0.0
 11
240.0857999999999
 21
738.826
 31
0.0
  0
LINE
  5
8E4
330
1E
100
AcDbEntity
  8
0
100
AcDbLine
 10
240.0857999999999
 20
738.826
 30
0.0
 11
240.3197999999999
 21
738.543
 31
0.0
  0
LINE
  5
8E5
330
1E
100
AcDbEntity
  8
0
100
AcDbLine
 10
240.3197999999999
 20
738.543
 30
0.0
 11
240.4067999999999
 21
738.309
 31
0.0
  0
LINE
  5
8E6
330
1E
100
AcDbEntity
  8
0
100
AcDbLine
 10
219.9378
 20
739.1089999999999
 30
0.0
 11
222.4897999999999
 21
739.11
 31
0.0
  0
LINE
  5
8E7
330
1E
100
AcDbEntity
  8
0
100
AcDbLine
 10
219.9378
 20
739.1089999999999
 30
0.0
 11
222.4900338280079
 21
739.1099500976809
 31
0.0
  0
LINE
  5
8E8
330
1E
100
AcDbEntity
  8
0
100
AcDbLine
 10
179.8918
 20
715.4789999999999
 30
0.0
 11
181.8598
 21
714.5169999999999
 31
0.0
  0
LINE
  5
8E9
330
1E
100
AcDbEntity
  8
0
100
AcDbLine
 10
174.1398
 20
717.309
 30
0.0
 11
177.0997999999999
 21
716.526
 31
0.0
  0
LINE
  5
8EA
330
1E
100
AcDbEntity
  8
0
100
AcDbLine
 10
177.0997999999999
 20
716.526
 30
0.0
 11
179.8918
 21
715.4789999999999
 31
0.0
  0
LINE
  5
8EB
330
1E
100
AcDbEntity
  8
0
100
AcDbLine
 10
167.0667999999999
 20
718.205
 30
0.0
 11
169.9697999999999
 21
717.971
 31
0.0
  0
LINE
  5
8EC
330
1E
100
AcDbEntity
  8
0
100
AcDbLine
 10
169.9697999999999
 20
717.971
 30
0.0
 11
174.1398
 21
717.309
 31
0.0
  0
LINE
  5
8ED
330
1E
100
AcDbEntity
  8
0
100
AcDbLine
 10
194.0678
 20
696.0342
 30
0.0
 11
194.2477999999999
 21
694.0466999999999
 31
0.0
  0
LINE
  5
8EE
330
1E
100
AcDbEntity
  8
0
100
AcDbLine
 10
194.2477999999999
 20
694.0466999999999
 30
0.0
 11
194.3147999999999
 21
690.6595
 31
0.0
  0
LINE
  5
8EF
330
1E
100
AcDbEntity
  8
0
100
AcDbLine
 10
187.0008
 20
710.753
 30
0.0
 11
188.4288
 21
709.2369999999999
 31
0.0
  0
LINE
  5
8F0
330
1E
100
AcDbEntity
  8
0
100
AcDbLine
 10
185.4238
 20
712.145
 30
0.0
 11
187.0008
 21
710.753
 31
0.0
  0
LINE
  5
8F1
330
1E
100
AcDbEntity
  8
0
100
AcDbLine
 10
183.7078
 20
713.403
 30
0.0
 11
185.4238
 21
712.145
 31
0.0
  0
LINE
  5
8F2
330
1E
100
AcDbEntity
  8
0
100
AcDbLine
 10
181.8598
 20
714.5169999999999
 30
0.0
 11
183.7078
 21
713.403
 31
0.0
  0
LINE
  5
8F3
330
1E
100
AcDbEntity
  8
0
100
AcDbLine
 10
188.4288
 20
709.2369999999999
 30
0.0
 11
189.6988
 21
707.613
 31
0.0
  0
LINE
  5
8F4
330
1E
100
AcDbEntity
  8
0
100
AcDbLine
 10
189.6988
 20
707.613
 30
0.0
 11
190.8077999999999
 21
705.901
 31
0.0
  0
LINE
  5
8F5
330
1E
100
AcDbEntity
  8
0
100
AcDbLine
 10
190.8077999999999
 20
705.901
 30
0.0
 11
191.7538
 21
704.1189999999999
 31
0.0
  0
LINE
  5
8F6
330
1E
100
AcDbEntity
  8
0
100
AcDbLine
 10
191.7538
 20
704.1189999999999
 30
0.0
 11
192.7598
 21
701.6799999999999
 31
0.0
  0
LINE
  5
8F7
330
1E
100
AcDbEntity
  8
0
100
AcDbLine
 10
192.7598
 20
701.6799999999999
 30
0.0
 11
193.4877999999999
 21
699.2205
 31
0.0
  0
LINE
  5
8F8
330
1E
100
AcDbEntity
  8
0
100
AcDbLine
 10
193.4877999999999
 20
699.2205
 30
0.0
 11
194.0678
 21
696.0342
 31
0.0
  0
LINE
  5
8F9
330
1E
100
AcDbEntity
  8
0
100
AcDbLine
 10
154.1588
 20
706.98
 30
0.0
 11
165.8157999999999
 21
693.0909
 31
0.0
  0
LINE
  5
8FA
330
1E
100
AcDbEntity
  8
0
100
AcDbLine
 10
160.9958
 20
718.338
 30
0.0
 11
167.0667999999999
 21
718.205
 31
0.0
  0
LINE
  5
8FB
330
1E
100
AcDbEntity
  8
0
100
AcDbLine
 10
146.6947999999999
 20
715.7560000000001
 30
0.0
 11
154.1588
 21
706.98
 31
0.0
  0
LINE
  5
8FC
330
1E
100
AcDbEntity
  8
0
100
AcDbLine
 10
139.2307999999999
 20
724.5319999999999
 30
0.0
 11
146.6947999999999
 21
715.7560000000001
 31
0.0
  0
LINE
  5
8FD
330
1E
100
AcDbEntity
  8
0
100
AcDbLine
 10
144.498805469462
 20
718.338
 30
0.0
 11
160.9958
 21
718.338
 31
0.0
  0
LINE
  5
8FE
330
1E
100
AcDbEntity
  8
0
100
AcDbLine
 10
144.4859241949909
 20
718.353145507068
 30
0.0
 11
156.1870540217329
 21
718.3424113533659
 31
0.0
  0
LINE
  5
8FF
330
1E
100
AcDbEntity
  8
0
100
AcDbLine
 10
132.0267999999999
 20
732.627
 30
0.0
 11
139.2307999999999
 21
724.5319999999999
 31
0.0
  0
LINE
  5
900
330
1E
100
AcDbEntity
  8
0
100
AcDbLine
 10
127.1557999999999
 20
737.9789999999999
 30
0.0
 11
132.0267999999999
 21
732.627
 31
0.0
  0
LINE
  5
901
330
1E
100
AcDbEntity
  8
0
100
AcDbLine
 10
127.1637999999999
 20
713.9569999999999
 30
0.0
 11
132.7967999999999
 21
703.7612
 31
0.0
  0
LINE
  5
902
330
1E
100
AcDbEntity
  8
0
100
AcDbLine
 10
148.0328
 20
679.0683999999999
 30
0.0
 11
160.8837999999999
 21
659.9366999999999
 31
0.0
  0
LINE
  5
903
330
1E
100
AcDbEntity
  8
0
100
AcDbLine
 10
139.0258
 20
693.3183999999999
 30
0.0
 11
148.0328
 21
679.0683999999999
 31
0.0
  0
LINE
  5
904
330
1E
100
AcDbEntity
  8
0
100
AcDbLine
 10
132.7967999999999
 20
703.7612
 30
0.0
 11
139.0258
 21
693.3183999999999
 31
0.0
  0
LINE
  5
905
330
1E
100
AcDbEntity
  8
0
100
AcDbLine
 10
160.8837999999999
 20
659.9366999999999
 30
0.0
 11
180.3758
 21
634.5153999999999
 31
0.0
  0
LINE
  5
906
330
1E
100
AcDbEntity
  8
0
100
AcDbLine
 10
199.2777999999999
 20
649.6541999999999
 30
0.0
 11
200.0538
 21
650.2836999999999
 31
0.0
  0
LINE
  5
910
330
1E
100
AcDbEntity
  8
0
100
AcDbLine
 10
205.0947999999999
 20
642.707
 30
0.0
 11
213.9558
 21
632.1169999999999
 31
0.0
  0
LINE
  5
911
330
1E
100
AcDbEntity
  8
0
100
AcDbLine
 10
199.3818
 20
649.5169999999999
 30
0.0
 11
205.0947999999999
 21
642.707
 31
0.0
  0
LINE
  5
912
330
1E
100
AcDbEntity
  8
0
100
AcDbLine
 10
198.4997999999999
 20
649.0249999999999
 30
0.0
 11
199.2777999999999
 21
649.6541999999999
 31
0.0
  0
LINE
  5
913
330
1E
100
AcDbEntity
  8
0
100
AcDbLine
 10
199.2364912615739
 20
649.620791956018
 30
0.0
 11
199.3818
 21
649.5169999999999
 31
0.0
  0
LINE
  5
914
330
1E
100
AcDbEntity
  8
0
100
AcDbLine
 10
194.1557286724399
 20
657.6638568413844
 30
0.0
 11
194.3147999999999
 21
690.6595
 31
0.0
  0
LINE
  5
916
330
1E
100
AcDbEntity
  8
0
100
AcDbLine
 10
262.4438
 20
640.0028999999999
 30
0.0
 11
262.4978
 21
640.7818999999999
 31
0.0
  0
LINE
  5
917
330
1E
100
AcDbEntity
  8
0
100
AcDbLine
 10
250.5908
 20
641.6149
 30
0.0
 11
262.4978
 21
640.7818999999999
 31
0.0
  0
LINE
  5
918
330
1E
100
AcDbEntity
  8
0
100
AcDbLine
 10
247.7687999999999
 20
641.3668999999999
 30
0.0
 11
250.5908
 21
641.6149
 31
0.0
  0
LINE
  5
919
330
1E
100
AcDbEntity
  8
0
100
AcDbLine
 10
245.1617999999999
 20
640.2589
 30
0.0
 11
247.7687999999999
 21
641.3668999999999
 31
0.0
  0
LINE
  5
91A
330
1E
100
AcDbEntity
  8
0
100
AcDbLine
 10
262.3557999999999
 20
638.7419
 30
0.0
 11
262.4438
 21
640.0028999999999
 31
0.0
  0
LINE
  5
91B
330
1E
100
AcDbEntity
  8
0
100
AcDbLine
 10
243.0248
 20
638.3989
 30
0.0
 11
245.1617999999999
 21
640.2589
 31
0.0
  0
LINE
  5
91C
330
1E
100
AcDbEntity
  8
0
100
AcDbLine
 10
242.0557999999999
 20
620.1169999999999
 30
0.0
 11
244.0557999999999
 21
615.1169999999999
 31
0.0
  0
LINE
  5
91D
330
1E
100
AcDbEntity
  8
0
100
AcDbLine
 10
236.0557999999999
 20
626.1169999999999
 30
0.0
 11
242.0557999999999
 21
620.1169999999999
 31
0.0
  0
LINE
  5
91E
330
1E
100
AcDbEntity
  8
0
100
AcDbLine
 10
240.995229627009
 20
622.936724465969
 30
0.0
 11
241.003580699406
 21
621.169219300594
 31
0.0
  0
LINE
  5
91F
330
1E
100
AcDbEntity
  8
0
100
AcDbLine
 10
262.2128
 20
636.7029
 30
0.0
 11
262.2677999999999
 21
637.4819
 31
0.0
  0
LINE
  5
920
330
1E
100
AcDbEntity
  8
0
100
AcDbLine
 10
262.2677999999999
 20
637.4819
 30
0.0
 11
262.3557999999999
 21
638.7419
 31
0.0
  0
LINE
  5
921
330
1E
100
AcDbEntity
  8
0
100
AcDbLine
 10
250.3057999999999
 20
637.5348999999999
 30
0.0
 11
262.2128
 21
636.7029
 31
0.0
  0
LINE
  5
922
330
1E
100
AcDbEntity
  8
0
100
AcDbLine
 10
247.3308
 20
636.7919
 30
0.0
 11
248.7598
 21
637.3999
 31
0.0
  0
LINE
  5
923
330
1E
100
AcDbEntity
  8
0
100
AcDbLine
 10
248.7598
 20
637.3999
 30
0.0
 11
250.3057999999999
 21
637.5348999999999
 31
0.0
  0
LINE
  5
924
330
1E
100
AcDbEntity
  8
0
100
AcDbLine
 10
246.1608
 20
635.7729
 30
0.0
 11
247.3308
 21
636.7919
 31
0.0
  0
LINE
  5
925
330
1E
100
AcDbEntity
  8
0
100
AcDbLine
 10
241.5688
 20
635.9678999999999
 30
0.0
 11
243.0248
 21
638.3989
 31
0.0
  0
LINE
  5
928
330
1E
100
AcDbEntity
  8
0
100
AcDbLine
 10
245.3637999999999
 20
634.4428999999999
 30
0.0
 11
246.1608
 21
635.7729
 31
0.0
  0
LINE
  5
929
330
1E
100
AcDbEntity
  8
0
100
AcDbLine
 10
240.8484474529529
 20
634.070596840977
 30
0.0
 11
241.5688
 21
635.9678999999999
 31
0.0
  0
LINE
  5
92A
330
1E
100
AcDbEntity
  8
0
100
AcDbLine
 10
240.8484474529529
 20
634.070596840977
 30
0.0
 11
240.881926856925
 21
634.1587766901059
 31
0.0
  0
LINE
  5
92B
330
1E
100
AcDbEntity
  8
0
100
AcDbLine
 10
240.926509236408
 20
634.276200151406
 30
0.0
 11
241.5688
 21
635.9678999999999
 31
0.0
  0
LINE
  5
93A
330
1E
100
AcDbEntity
  8
0
100
AcDbLine
 10
240.995229627009
 20
622.936724465969
 30
0.0
 11
245.3637999999999
 21
634.4428999999999
 31
0.0
  0
LINE
  5
93B
330
1E
100
AcDbEntity
  8
0
100
AcDbLine
 10
224.0557999999999
 20
631.6169999999999
 30
0.0
 11
236.0557999999999
 21
626.1169999999999
 31
0.0
  0
LINE
  5
93C
330
1E
100
AcDbEntity
  8
0
100
AcDbLine
 10
217.0557999999999
 20
632.1169999999999
 30
0.0
 11
224.0557999999999
 21
631.6169999999999
 31
0.0
  0
LINE
  5
941
330
1E
100
AcDbEntity
  8
0
100
AcDbLine
 10
213.9558
 20
632.1169999999999
 30
0.0
 11
217.0557999999999
 21
632.1169999999999
 31
0.0
  0
LINE
  5
942
330
1E
100
AcDbEntity
  8
0
100
AcDbLine
 10
213.5557999999999
 20
631.9169999999999
 30
0.0
 11
213.9558
 21
632.1169999999999
 31
0.0
  0
LINE
  5
943
330
1E
100
AcDbEntity
  8
0
100
AcDbLine
 10
186.7097999999999
 20
627.2809999999999
 30
0.0
 11
192.3557999999999
 21
620.5169999999999
 31
0.0
  0
LINE
  5
944
330
1E
100
AcDbEntity
  8
0
100
AcDbLine
 10
210.7558
 20
630.4169999999999
 30
0.0
 11
212.4558
 21
631.317
 31
0.0
  0
LINE
  5
945
330
1E
100
AcDbEntity
  8
0
100
AcDbLine
 10
212.4558
 20
631.317
 30
0.0
 11
213.5557999999999
 21
631.9169999999999
 31
0.0
  0
LINE
  5
948
330
1E
100
AcDbEntity
  8
0
100
AcDbLine
 10
203.1557999999999
 20
626.317
 30
0.0
 11
205.9558
 21
627.817
 31
0.0
  0
LINE
  5
949
330
1E
100
AcDbEntity
  8
0
100
AcDbLine
 10
205.9558
 20
627.817
 30
0.0
 11
208.4558
 21
629.2169999999999
 31
0.0
  0
LINE
  5
94A
330
1E
100
AcDbEntity
  8
0
100
AcDbLine
 10
208.4558
 20
629.2169999999999
 30
0.0
 11
210.7558
 21
630.4169999999999
 31
0.0
  0
LINE
  5
950
330
1E
100
AcDbEntity
  8
0
100
AcDbLine
 10
192.3557999999999
 20
620.5169999999999
 30
0.0
 11
192.7558
 21
620.7169999999999
 31
0.0
  0
LINE
  5
951
330
1E
100
AcDbEntity
  8
0
100
AcDbLine
 10
192.7558
 20
620.7169999999999
 30
0.0
 11
193.7558
 21
621.3169999999999
 31
0.0
  0
LINE
  5
952
330
1E
100
AcDbEntity
  8
0
100
AcDbLine
 10
193.7558
 20
621.3169999999999
 30
0.0
 11
195.4558
 21
622.217
 31
0.0
  0
LINE
  5
953
330
1E
100
AcDbEntity
  8
0
100
AcDbLine
 10
195.4558
 20
622.217
 30
0.0
 11
197.7558
 21
623.4169999999998
 31
0.0
  0
LINE
  5
954
330
1E
100
AcDbEntity
  8
0
100
AcDbLine
 10
197.7558
 20
623.4169999999998
 30
0.0
 11
200.3557999999999
 21
624.817
 31
0.0
  0
LINE
  5
955
330
1E
100
AcDbEntity
  8
0
100
AcDbLine
 10
200.3557999999999
 20
624.817
 30
0.0
 11
203.1557999999999
 21
626.317
 31
0.0
  0
LINE
  5
956
330
1E
100
AcDbEntity
  8
0
100
AcDbLine
 10
190.0557999999999
 20
615.1169999999999
 30
0.0
 11
192.3557999999999
 21
620.5169999999999
 31
0.0
  0
LINE
  5
957
330
1E
100
AcDbEntity
  8
0
100
AcDbLine
 10
208.3557999999999
 20
615.1169999999999
 30
0.0
 11
217.0557999999999
 21
615.1169999999999
 31
0.0
  0
LINE
  5
958
330
1E
100
AcDbEntity
  8
0
100
AcDbLine
 10
200.1558
 20
615.1169999999999
 30
0.0
 11
208.3557999999999
 21
615.1169999999999
 31
0.0
  0
LINE
  5
959
330
1E
100
AcDbEntity
  8
0
100
AcDbLine
 10
208.0557999999999
 20
614.1169999999999
 30
0.0
 11
217.0557999999999
 21
614.1169999999999
 31
0.0
  0
LINE
  5
95A
330
1E
100
AcDbEntity
  8
0
100
AcDbLine
 10
251.0557999999999
 20
615.1169999999999
 30
0.0
 11
252.0557999999999
 21
614.1169999999999
 31
0.0
  0
LINE
  5
95B
330
1E
100
AcDbEntity
  8
0
100
AcDbLine
 10
217.0557999999999
 20
615.1169999999999
 30
0.0
 11
225.7558
 21
615.1169999999999
 31
0.0
  0
LINE
  5
95C
330
1E
100
AcDbEntity
  8
0
100
AcDbLine
 10
225.7558
 20
615.1169999999999
 30
0.0
 11
233.9558
 21
615.1169999999999
 31
0.0
  0
LINE
  5
95D
330
1E
100
AcDbEntity
  8
0
100
AcDbLine
 10
233.9558
 20
615.1169999999999
 30
0.0
 11
241.0557999999999
 21
615.1169999999999
 31
0.0
  0
LINE
  5
95E
330
1E
100
AcDbEntity
  8
0
100
AcDbLine
 10
241.0557999999999
 20
615.1169999999999
 30
0.0
 11
246.4558
 21
615.1169999999999
 31
0.0
  0
LINE
  5
95F
330
1E
100
AcDbEntity
  8
0
100
AcDbLine
 10
246.4558
 20
615.1169999999999
 30
0.0
 11
249.8557999999999
 21
615.1169999999999
 31
0.0
  0
LINE
  5
960
330
1E
100
AcDbEntity
  8
0
100
AcDbLine
 10
249.8557999999999
 20
615.1169999999999
 30
0.0
 11
251.0557999999999
 21
615.1169999999999
 31
0.0
  0
LINE
  5
961
330
1E
100
AcDbEntity
  8
0
100
AcDbLine
 10
208.0557999999999
 20
605.1169999999999
 30
0.0
 11
217.0557999999999
 21
605.1169999999999
 31
0.0
  0
LINE
  5
962
330
1E
100
AcDbEntity
  8
0
100
AcDbLine
 10
242.0557999999999
 20
605.1169999999999
 30
0.0
 11
243.1848
 21
605.1169999999999
 31
0.0
  0
LINE
  5
963
330
1E
100
AcDbEntity
  8
0
100
AcDbLine
 10
242.0557999999999
 20
605.1169999999999
 30
0.0
 11
247.3557999999999
 21
605.1169999999999
 31
0.0
  0
LINE
  5
964
330
1E
100
AcDbEntity
  8
0
100
AcDbLine
 10
252.0557999999999
 20
614.1169999999999
 30
0.0
 11
252.0557999999999
 21
605.1169999999999
 31
0.0
  0
LINE
  5
965
330
1E
100
AcDbEntity
  8
0
100
AcDbLine
 10
217.0557999999999
 20
614.1169999999999
 30
0.0
 11
226.0557999999999
 21
614.1169999999999
 31
0.0
  0
LINE
  5
966
330
1E
100
AcDbEntity
  8
0
100
AcDbLine
 10
226.0557999999999
 20
614.1169999999999
 30
0.0
 11
234.4558
 21
614.1169999999999
 31
0.0
  0
LINE
  5
967
330
1E
100
AcDbEntity
  8
0
100
AcDbLine
 10
234.4558
 20
614.1169999999999
 30
0.0
 11
241.7558
 21
614.1169999999999
 31
0.0
  0
LINE
  5
968
330
1E
100
AcDbEntity
  8
0
100
AcDbLine
 10
241.7558
 20
614.1169999999999
 30
0.0
 11
247.3557999999999
 21
614.1169999999999
 31
0.0
  0
LINE
  5
969
330
1E
100
AcDbEntity
  8
0
100
AcDbLine
 10
247.3557999999999
 20
614.1169999999999
 30
0.0
 11
250.7558
 21
614.1169999999999
 31
0.0
  0
LINE
  5
96A
330
1E
100
AcDbEntity
  8
0
100
AcDbLine
 10
250.7558
 20
614.1169999999999
 30
0.0
 11
252.0557999999999
 21
614.1169999999999
 31
0.0
  0
LINE
  5
96B
330
1E
100
AcDbEntity
  8
0
100
AcDbLine
 10
247.3557999999999
 20
605.1169999999999
 30
0.0
 11
250.7558
 21
605.1169999999999
 31
0.0
  0
LINE
  5
96C
330
1E
100
AcDbEntity
  8
0
100
AcDbLine
 10
250.7558
 20
605.1169999999999
 30
0.0
 11
252.0557999999999
 21
605.1169999999999
 31
0.0
  0
LINE
  5
96D
330
1E
100
AcDbEntity
  8
0
100
AcDbLine
 10
252.0557999999999
 20
605.1169999999999
 30
0.0
 11
252.0557999999999
 21
614.1169999999999
 31
0.0
  0
LINE
  5
96E
330
1E
100
AcDbEntity
  8
0
100
AcDbLine
 10
250.8207999999999
 20
605.1169999999999
 30
0.0
 11
252.0557999999999
 21
605.1169999999999
 31
0.0
  0
LINE
  5
96F
330
1E
100
AcDbEntity
  8
0
100
AcDbLine
 10
217.0557999999999
 20
605.1169999999999
 30
0.0
 11
223.4558
 21
605.1169999999999
 31
0.0
  0
LINE
  5
970
330
1E
100
AcDbEntity
  8
0
100
AcDbLine
 10
217.0557999999999
 20
605.1169999999999
 30
0.0
 11
226.0557999999999
 21
605.1169999999999
 31
0.0
  0
LINE
  5
971
330
1E
100
AcDbEntity
  8
0
100
AcDbLine
 10
226.0557999999999
 20
605.1169999999999
 30
0.0
 11
234.4558
 21
605.1169999999999
 31
0.0
  0
LINE
  5
972
330
1E
100
AcDbEntity
  8
0
100
AcDbLine
 10
234.4558
 20
605.1169999999999
 30
0.0
 11
241.7558
 21
605.1169999999999
 31
0.0
  0
LINE
  5
973
330
1E
100
AcDbEntity
  8
0
100
AcDbLine
 10
241.7558
 20
605.1169999999999
 30
0.0
 11
247.3557999999999
 21
605.1169999999999
 31
0.0
  0
LINE
  5
974
330
1E
100
AcDbEntity
  8
0
100
AcDbLine
 10
247.3207999999999
 20
605.1169999999999
 30
0.0
 11
250.8207999999999
 21
605.1169999999999
 31
0.0
  0
LINE
  5
975
330
1E
100
AcDbEntity
  8
0
100
AcDbLine
 10
247.2177999999999
 20
605.1169999999999
 30
0.0
 11
247.3207999999999
 21
605.1169999999999
 31
0.0
  0
LINE
  5
976
330
1E
100
AcDbEntity
  8
0
100
AcDbLine
 10
246.1657999999999
 20
605.1169999999999
 30
0.0
 11
247.2177999999999
 21
605.1169999999999
 31
0.0
  0
LINE
  5
977
330
1E
100
AcDbEntity
  8
0
100
AcDbLine
 10
243.1848
 20
605.1169999999999
 30
0.0
 11
246.1657999999999
 21
605.1169999999999
 31
0.0
  0
LINE
  5
978
330
1E
100
AcDbEntity
  8
0
100
AcDbLine
 10
229.4558
 20
605.1169999999999
 30
0.0
 11
234.7558
 21
605.1169999999999
 31
0.0
  0
LINE
  5
979
330
1E
100
AcDbEntity
  8
0
100
AcDbLine
 10
234.7558
 20
605.1169999999999
 30
0.0
 11
238.7558
 21
605.1169999999999
 31
0.0
  0
LINE
  5
97A
330
1E
100
AcDbEntity
  8
0
100
AcDbLine
 10
238.7558
 20
605.1169999999999
 30
0.0
 11
241.1557999999999
 21
605.1169999999999
 31
0.0
  0
LINE
  5
97B
330
1E
100
AcDbEntity
  8
0
100
AcDbLine
 10
241.1557999999999
 20
605.1169999999999
 30
0.0
 11
242.0557999999999
 21
605.1169999999999
 31
0.0
  0
LINE
  5
97C
330
1E
100
AcDbEntity
  8
0
100
AcDbLine
 10
223.4558
 20
605.1169999999999
 30
0.0
 11
229.4558
 21
605.1169999999999
 31
0.0
  0
LINE
  5
97D
330
1E
100
AcDbEntity
  8
0
100
AcDbLine
 10
210.6558
 20
605.1169999999999
 30
0.0
 11
217.0557999999999
 21
605.1169999999999
 31
0.0
  0
LINE
  5
97E
330
1E
100
AcDbEntity
  8
0
100
AcDbLine
 10
204.6558
 20
605.1169999999999
 30
0.0
 11
210.6558
 21
605.1169999999999
 31
0.0
  0
LINE
  5
97F
330
1E
100
AcDbEntity
  8
0
100
AcDbLine
 10
193.0557999999999
 20
615.1169999999999
 30
0.0
 11
200.1558
 21
615.1169999999999
 31
0.0
  0
LINE
  5
980
330
1E
100
AcDbEntity
  8
0
100
AcDbLine
 10
199.6558
 20
614.1169999999999
 30
0.0
 11
208.0557999999999
 21
614.1169999999999
 31
0.0
  0
LINE
  5
981
330
1E
100
AcDbEntity
  8
0
100
AcDbLine
 10
192.3557999999999
 20
614.1169999999999
 30
0.0
 11
199.6558
 21
614.1169999999999
 31
0.0
  0
LINE
  5
982
330
1E
100
AcDbEntity
  8
0
100
AcDbLine
 10
199.6558
 20
605.1169999999999
 30
0.0
 11
208.0557999999999
 21
605.1169999999999
 31
0.0
  0
LINE
  5
983
330
1E
100
AcDbEntity
  8
0
100
AcDbLine
 10
192.3557999999999
 20
605.1169999999999
 30
0.0
 11
199.6558
 21
605.1169999999999
 31
0.0
  0
LINE
  5
984
330
1E
100
AcDbEntity
  8
0
100
AcDbLine
 10
199.3557999999999
 20
605.1169999999999
 30
0.0
 11
204.6558
 21
605.1169999999999
 31
0.0
  0
LINE
  5
985
330
1E
100
AcDbEntity
  8
0
100
AcDbLine
 10
195.3557999999999
 20
605.1169999999999
 30
0.0
 11
199.3557999999999
 21
605.1169999999999
 31
0.0
  0
LINE
  5
986
330
1E
100
AcDbEntity
  8
0
100
AcDbLine
 10
190.9267999999999
 20
605.1169999999999
 30
0.0
 11
192.0557999999999
 21
605.1169999999999
 31
0.0
  0
LINE
  5
987
330
1E
100
AcDbEntity
  8
0
100
AcDbLine
 10
192.9558
 20
605.1169999999999
 30
0.0
 11
195.3557999999999
 21
605.1169999999999
 31
0.0
  0
LINE
  5
988
330
1E
100
AcDbEntity
  8
0
100
AcDbLine
 10
192.0557999999999
 20
605.1169999999999
 30
0.0
 11
192.9558
 21
605.1169999999999
 31
0.0
  0
LINE
  5
989
330
1E
100
AcDbEntity
  8
0
100
AcDbLine
 10
182.0557999999999
 20
614.1169999999999
 30
0.0
 11
182.0557999999999
 21
605.1169999999999
 31
0.0
  0
LINE
  5
98A
330
1E
100
AcDbEntity
  8
0
100
AcDbLine
 10
182.0557999999999
 20
614.1169999999999
 30
0.0
 11
183.3557999999999
 21
614.1169999999999
 31
0.0
  0
LINE
  5
98B
330
1E
100
AcDbEntity
  8
0
100
AcDbLine
 10
182.0557999999999
 20
614.1169999999999
 30
0.0
 11
183.0557999999999
 21
615.1169999999999
 31
0.0
  0
LINE
  5
98C
330
1E
100
AcDbEntity
  8
0
100
AcDbLine
 10
187.6557999999999
 20
615.1169999999999
 30
0.0
 11
193.0557999999999
 21
615.1169999999999
 31
0.0
  0
LINE
  5
98D
330
1E
100
AcDbEntity
  8
0
100
AcDbLine
 10
184.2558
 20
615.1169999999999
 30
0.0
 11
187.6557999999999
 21
615.1169999999999
 31
0.0
  0
LINE
  5
98E
330
1E
100
AcDbEntity
  8
0
100
AcDbLine
 10
183.0557999999999
 20
615.1169999999999
 30
0.0
 11
184.2558
 21
615.1169999999999
 31
0.0
  0
LINE
  5
98F
330
1E
100
AcDbEntity
  8
0
100
AcDbLine
 10
186.7558
 20
605.1169999999999
 30
0.0
 11
192.3557999999999
 21
605.1169999999999
 31
0.0
  0
LINE
  5
990
330
1E
100
AcDbEntity
  8
0
100
AcDbLine
 10
186.7558
 20
605.1169999999999
 30
0.0
 11
192.0557999999999
 21
605.1169999999999
 31
0.0
  0
LINE
  5
991
330
1E
100
AcDbEntity
  8
0
100
AcDbLine
 10
186.7907999999999
 20
605.1169999999999
 30
0.0
 11
186.8935
 21
605.1169999999999
 31
0.0
  0
LINE
  5
992
330
1E
100
AcDbEntity
  8
0
100
AcDbLine
 10
187.9456
 20
605.1169999999999
 30
0.0
 11
190.9267999999999
 21
605.1169999999999
 31
0.0
  0
LINE
  5
993
330
1E
100
AcDbEntity
  8
0
100
AcDbLine
 10
186.8935
 20
605.1169999999999
 30
0.0
 11
187.9456
 21
605.1169999999999
 31
0.0
  0
LINE
  5
994
330
1E
100
AcDbEntity
  8
0
100
AcDbLine
 10
183.3557999999999
 20
605.1169999999999
 30
0.0
 11
186.7558
 21
605.1169999999999
 31
0.0
  0
LINE
  5
995
330
1E
100
AcDbEntity
  8
0
100
AcDbLine
 10
186.7558
 20
614.1169999999999
 30
0.0
 11
192.3557999999999
 21
614.1169999999999
 31
0.0
  0
LINE
  5
996
330
1E
100
AcDbEntity
  8
0
100
AcDbLine
 10
183.3557999999999
 20
614.1169999999999
 30
0.0
 11
186.7558
 21
614.1169999999999
 31
0.0
  0
LINE
  5
997
330
1E
100
AcDbEntity
  8
0
100
AcDbLine
 10
182.0557999999999
 20
610.77085
 30
0.0
 11
182.0557999999999
 21
605.1169999999999
 31
0.0
  0
LINE
  5
998
330
1E
100
AcDbEntity
  8
0
100
AcDbLine
 10
182.0557999999999
 20
605.1169999999999
 30
0.0
 11
182.0557999999999
 21
610.77085
 31
0.0
  0
LINE
  5
999
330
1E
100
AcDbEntity
  8
0
100
AcDbLine
 10
182.0557999999999
 20
605.1169999999999
 30
0.0
 11
183.2907999999999
 21
605.1169999999999
 31
0.0
  0
LINE
  5
99A
330
1E
100
AcDbEntity
  8
0
100
AcDbLine
 10
182.0557999999999
 20
605.1169999999999
 30
0.0
 11
183.3557999999999
 21
605.1169999999999
 31
0.0
  0
LINE
  5
99B
330
1E
100
AcDbEntity
  8
0
100
AcDbLine
 10
182.0557999999999
 20
605.1169999999999
 30
0.0
 11
182.0557999999999
 21
614.1169999999999
 31
0.0
  0
LINE
  5
99C
330
1E
100
AcDbEntity
  8
0
100
AcDbLine
 10
183.2907999999999
 20
605.1169999999999
 30
0.0
 11
186.7907999999999
 21
605.1169999999999
 31
0.0
  0
LINE
  5
99D
330
1E
100
AcDbEntity
  8
0
100
AcDbLine
 10
180.3758
 20
634.5153999999999
 30
0.0
 11
180.67724350435
 21
634.7566017221089
 31
0.0
  0
LINE
  5
99E
330
1E
100
AcDbEntity
  8
0
100
AcDbLine
 10
180.3758
 20
634.5153999999999
 30
0.0
 11
180.9647999999999
 21
634.9914
 31
0.0
  0
LINE
  5
99F
330
1E
100
AcDbEntity
  8
0
100
AcDbLine
 10
180.3758
 20
634.5153999999999
 30
0.0
 11
180.676410911224
 21
634.7583385292739
 31
0.0
  0
LINE
  5
9A0
330
1E
100
AcDbEntity
  8
0
100
AcDbLine
 10
180.9647999999999
 20
634.9914
 30
0.0
 11
198.4997999999999
 21
649.0249999999999
 31
0.0
  0
LINE
  5
9A1
330
1E
100
AcDbEntity
  8
0
100
AcDbLine
 10
180.676410911224
 20
634.7583385292739
 30
0.0
 11
180.9967999999999
 21
634.09
 31
0.0
  0
LINE
  5
9A2
330
1E
100
AcDbEntity
  8
0
100
AcDbLine
 10
180.9967999999999
 20
634.09
 30
0.0
 11
186.7097999999999
 21
627.2809999999999
 31
0.0
  0
LINE
  5
9A3
330
1E
100
AcDbEntity
  8
0
100
AcDbLine
 10
115.5364999999999
 20
728.248
 30
0.0
 11
121.5258
 21
721.3819999999999
 31
0.0
  0
LINE
  5
9A4
330
1E
100
AcDbEntity
  8
0
100
AcDbLine
 10
11.42926999999997
 20
814.55
 30
0.0
 11
11.55353000000002
 21
814.47
 31
0.0
  0
LINE
  5
9A5
330
1E
100
AcDbEntity
  8
0
100
AcDbLine
 10
30.29520000000002
 20
802.298
 30
0.0
 11
40.00779999999998
 21
795.9910000000001
 31
0.0
  0
LINE
  5
9A6
330
1E
100
AcDbEntity
  8
0
100
AcDbLine
 10
29.11480301455799
 20
785.649741915011
 30
0.0
 11
30.39100000000002
 21
784.6689999999999
 31
0.0
  0
LINE
  5
9A7
330
1E
100
AcDbEntity
  8
0
100
AcDbLine
 10
54.07428120154719
 20
769.0010034313949
 30
0.0
 11
56.53210000000001
 21
767.375
 31
0.0
  0
LINE
  5
9A8
330
1E
100
AcDbEntity
  8
0
100
AcDbLine
 10
30.39100000000002
 20
784.6689999999999
 30
0.0
 11
34.8915467508686
 21
781.691602128085
 31
0.0
  0
LINE
  5
9A9
330
1E
100
AcDbEntity
  8
0
100
AcDbLine
 10
37.39370470096889
 20
780.036265528285
 30
0.0
 11
43.23177409357692
 21
776.1740113738779
 31
0.0
  0
LINE
  5
9AA
330
1E
100
AcDbEntity
  8
0
100
AcDbLine
 10
30.58539999999999
 20
787.841
 30
0.0
 11
30.78921228504498
 21
788.154840547303
 31
0.0
  0
LINE
  5
9AB
330
1E
100
AcDbEntity
  8
0
100
AcDbLine
 10
30.541
 20
788.5989999999999
 30
0.0
 11
30.9361617010307
 21
789.2071813442919
 31
0.0
  0
LINE
  5
9AC
330
1E
100
AcDbEntity
  8
0
100
AcDbLine
 10
30.541
 20
788.5989999999999
 30
0.0
 11
30.58539999999999
 21
787.841
 31
0.0
  0
LINE
  5
9AD
330
1E
100
AcDbEntity
  8
0
100
AcDbLine
 10
36.27370000000002
 20
781.066
 30
0.0
 11
37.07960000000003
 21
780.3789999999999
 31
0.0
  0
LINE
  5
9AE
330
1E
100
AcDbEntity
  8
0
100
AcDbLine
 10
36.27370000000002
 20
781.066
 30
0.0
 11
36.64917050143799
 21
781.6440645818919
 31
0.0
  0
LINE
  5
9AF
330
1E
100
AcDbEntity
  8
0
100
AcDbLine
 10
36.45609999999999
 20
784.028
 30
0.0
 11
37.16629999999998
 21
784.295
 31
0.0
  0
LINE
  5
9B0
330
1E
100
AcDbEntity
  8
0
100
AcDbLine
 10
36.45609999999999
 20
784.028
 30
0.0
 11
36.7453816550348
 21
784.4734506406269
 31
0.0
  0
LINE
  5
9B1
330
1E
100
AcDbEntity
  8
0
100
AcDbLine
 10
36.45609999999999
 20
784.028
 30
0.0
 11
36.50069999999999
 21
783.271
 31
0.0
  0
LINE
  5
9B2
330
1E
100
AcDbEntity
  8
0
100
AcDbLine
 10
36.50069999999999
 20
783.271
 30
0.0
 11
37.23860000000001
 21
782.4789999999999
 31
0.0
  0
LINE
  5
9B3
330
1E
100
AcDbEntity
  8
0
100
AcDbLine
 10
38.18970000000001
 20
783.9439999999999
 30
0.0
 11
38.92759999999998
 21
783.1519999999999
 31
0.0
  0
LINE
  5
9B4
330
1E
100
AcDbEntity
  8
0
100
AcDbLine
 10
38.18970000000001
 20
783.9439999999999
 30
0.0
 11
38.53070276825161
 21
784.4690934476131
 31
0.0
  0
LINE
  5
9B5
330
1E
100
AcDbEntity
  8
0
100
AcDbLine
 10
37.16629999999998
 20
784.295
 30
0.0
 11
37.65036408301898
 21
785.0408488241569
 31
0.0
  0
LINE
  5
9B6
330
1E
100
AcDbEntity
  8
0
100
AcDbLine
 10
37.16629999999998
 20
784.295
 30
0.0
 11
38.18970000000001
 21
783.9439999999999
 31
0.0
  0
LINE
  5
9B7
330
1E
100
AcDbEntity
  8
0
100
AcDbLine
 10
37.23860000000001
 20
782.4789999999999
 30
0.0
 11
38.26189999999996
 21
782.1269999999999
 31
0.0
  0
LINE
  5
9B8
330
1E
100
AcDbEntity
  8
0
100
AcDbLine
 10
38.26189999999996
 20
782.1269999999999
 30
0.0
 11
38.97219999999999
 21
782.3939999999999
 31
0.0
  0
LINE
  5
9B9
330
1E
100
AcDbEntity
  8
0
100
AcDbLine
 10
38.97219999999999
 20
782.3939999999999
 30
0.0
 11
39.52177575544317
 21
783.2409808131189
 31
0.0
  0
LINE
  5
9BA
330
1E
100
AcDbEntity
  8
0
100
AcDbLine
 10
38.92759999999998
 20
783.1519999999999
 30
0.0
 11
39.2712624497675
 21
783.6812487089109
 31
0.0
  0
LINE
  5
9BB
330
1E
100
AcDbEntity
  8
0
100
AcDbLine
 10
38.92759999999998
 20
783.1519999999999
 30
0.0
 11
38.97219999999999
 21
782.3939999999999
 31
0.0
  0
LINE
  5
9BC
330
1E
100
AcDbEntity
  8
0
100
AcDbLine
 10
37.07960000000003
 20
780.3789999999999
 30
0.0
 11
37.46869748167529
 21
780.9780443249159
 31
0.0
  0
LINE
  5
9BD
330
1E
100
AcDbEntity
  8
0
100
AcDbLine
 10
37.07960000000003
 20
780.3789999999999
 30
0.0
 11
37.28250000000002
 21
779.865
 31
0.0
  0
LINE
  5
9BE
330
1E
100
AcDbEntity
  8
0
100
AcDbLine
 10
34.76650000000001
 20
781.4989999999998
 30
0.0
 11
34.89469961032807
 21
781.6964582913779
 31
0.0
  0
LINE
  5
9BF
330
1E
100
AcDbEntity
  8
0
100
AcDbLine
 10
34.76650000000001
 20
781.4989999999998
 30
0.0
 11
35.31830000000002
 21
781.523
 31
0.0
  0
LINE
  5
9C0
330
1E
100
AcDbEntity
  8
0
100
AcDbLine
 10
34.76650000000001
 20
781.4989999999998
 30
0.0
 11
35.20674732977869
 21
782.177086971553
 31
0.0
  0
LINE
  5
9C1
330
1E
100
AcDbEntity
  8
0
100
AcDbLine
 10
34.76650000000001
 20
781.4989999999998
 30
0.0
 11
34.96980000000002
 21
780.9860000000001
 31
0.0
  0
LINE
  5
9C2
330
1E
100
AcDbEntity
  8
0
100
AcDbLine
 10
35.31830000000002
 20
781.523
 30
0.0
 11
36.27370000000002
 21
781.066
 31
0.0
  0
LINE
  5
9C3
330
1E
100
AcDbEntity
  8
0
100
AcDbLine
 10
35.31830000000002
 20
781.523
 30
0.0
 11
35.82960508336509
 21
782.3101160768589
 31
0.0
  0
LINE
  5
9C4
330
1E
100
AcDbEntity
  8
0
100
AcDbLine
 10
34.96980000000002
 20
780.9860000000001
 30
0.0
 11
35.7756
 21
780.299
 31
0.0
  0
LINE
  5
9C5
330
1E
100
AcDbEntity
  8
0
100
AcDbLine
 10
35.7756
 20
780.299
 30
0.0
 11
36.73090000000001
 21
779.842
 31
0.0
  0
LINE
  5
9C6
330
1E
100
AcDbEntity
  8
0
100
AcDbLine
 10
45.7339892026236
 20
774.5186369598
 30
0.0
 11
51.57206079514248
 21
770.6563813500119
 31
0.0
  0
LINE
  5
9C7
330
1E
100
AcDbEntity
  8
0
100
AcDbLine
 10
45.7339892026236
 20
774.5186369598
 30
0.0
 11
51.57206079514248
 21
770.6563813500119
 31
0.0
  0
LINE
  5
9C8
330
1E
100
AcDbEntity
  8
0
100
AcDbLine
 10
46.57639999999998
 20
778.4969999999999
 30
0.0
 11
47.3143
 21
777.705
 31
0.0
  0
LINE
  5
9C9
330
1E
100
AcDbEntity
  8
0
100
AcDbLine
 10
46.57639999999998
 20
778.4969999999999
 30
0.0
 11
46.91783734234991
 21
779.023088692073
 31
0.0
  0
LINE
  5
9CA
330
1E
100
AcDbEntity
  8
0
100
AcDbLine
 10
46.64870000000002
 20
776.681
 30
0.0
 11
47.3589
 21
776.9479999999999
 31
0.0
  0
LINE
  5
9CB
330
1E
100
AcDbEntity
  8
0
100
AcDbLine
 10
47.3589
 20
776.9479999999999
 30
0.0
 11
47.428385990533
 21
777.054998070769
 31
0.0
  0
LINE
  5
9CC
330
1E
100
AcDbEntity
  8
0
100
AcDbLine
 10
47.3143
 20
777.705
 30
0.0
 11
47.79855220316631
 21
778.4512229141141
 31
0.0
  0
LINE
  5
9CD
330
1E
100
AcDbEntity
  8
0
100
AcDbLine
 10
47.3143
 20
777.705
 30
0.0
 11
47.3589
 21
776.9479999999999
 31
0.0
  0
LINE
  5
9CE
330
1E
100
AcDbEntity
  8
0
100
AcDbLine
 10
53.22960000000001
 20
773.1360000000001
 30
0.0
 11
53.93990000000002
 21
773.403
 31
0.0
  0
LINE
  5
9CF
330
1E
100
AcDbEntity
  8
0
100
AcDbLine
 10
53.22960000000001
 20
773.1360000000001
 30
0.0
 11
53.57908368238241
 21
773.674092045117
 31
0.0
  0
LINE
  5
9D0
330
1E
100
AcDbEntity
  8
0
100
AcDbLine
 10
53.22960000000001
 20
773.1360000000001
 30
0.0
 11
53.2742
 21
772.378
 31
0.0
  0
LINE
  5
9D1
330
1E
100
AcDbEntity
  8
0
100
AcDbLine
 10
53.2742
 20
772.378
 30
0.0
 11
54.01209999999998
 21
771.586
 31
0.0
  0
LINE
  5
9D2
330
1E
100
AcDbEntity
  8
0
100
AcDbLine
 10
54.96320000000003
 20
773.051
 30
0.0
 11
55.70100000000002
 21
772.2589999999999
 31
0.0
  0
LINE
  5
9D3
330
1E
100
AcDbEntity
  8
0
100
AcDbLine
 10
54.96320000000003
 20
773.051
 30
0.0
 11
55.30466416998411
 21
773.576537108952
 31
0.0
  0
LINE
  5
9D4
330
1E
100
AcDbEntity
  8
0
100
AcDbLine
 10
53.93990000000002
 20
773.403
 30
0.0
 11
54.42397576880091
 21
774.1484887079649
 31
0.0
  0
LINE
  5
9D5
330
1E
100
AcDbEntity
  8
0
100
AcDbLine
 10
53.93990000000002
 20
773.403
 30
0.0
 11
54.96320000000003
 21
773.051
 31
0.0
  0
LINE
  5
9D6
330
1E
100
AcDbEntity
  8
0
100
AcDbLine
 10
54.01209999999998
 20
771.586
 30
0.0
 11
55.03550000000001
 21
771.235
 31
0.0
  0
LINE
  5
9D7
330
1E
100
AcDbEntity
  8
0
100
AcDbLine
 10
55.03550000000001
 20
771.235
 30
0.0
 11
55.74560000000002
 21
771.5019999999999
 31
0.0
  0
LINE
  5
9D8
330
1E
100
AcDbEntity
  8
0
100
AcDbLine
 10
55.74560000000002
 20
771.5019999999999
 30
0.0
 11
55.88986164185588
 21
771.724028701275
 31
0.0
  0
LINE
  5
9D9
330
1E
100
AcDbEntity
  8
0
100
AcDbLine
 10
55.70100000000002
 20
772.2589999999999
 30
0.0
 11
56.18524053817242
 21
773.0046582683079
 31
0.0
  0
LINE
  5
9DA
330
1E
100
AcDbEntity
  8
0
100
AcDbLine
 10
55.70100000000002
 20
772.2589999999999
 30
0.0
 11
55.74560000000002
 21
771.5019999999999
 31
0.0
  0
LINE
  5
9DB
330
1E
100
AcDbEntity
  8
0
100
AcDbLine
 10
51.54000000000002
 20
770.6069999999999
 30
0.0
 11
51.57307707827851
 21
770.6579466709289
 31
0.0
  0
LINE
  5
9DC
330
1E
100
AcDbEntity
  8
0
100
AcDbLine
 10
51.54000000000002
 20
770.6069999999999
 30
0.0
 11
52.09159999999997
 21
770.6299999999999
 31
0.0
  0
LINE
  5
9DD
330
1E
100
AcDbEntity
  8
0
100
AcDbLine
 10
51.54000000000002
 20
770.6069999999999
 30
0.0
 11
51.90485901663328
 21
771.1689708034509
 31
0.0
  0
LINE
  5
9DE
330
1E
100
AcDbEntity
  8
0
100
AcDbLine
 10
51.54000000000002
 20
770.6069999999999
 30
0.0
 11
51.7432
 21
770.0939999999999
 31
0.0
  0
LINE
  5
9DF
330
1E
100
AcDbEntity
  8
0
100
AcDbLine
 10
52.09159999999997
 20
770.6299999999999
 30
0.0
 11
53.04700000000003
 21
770.173
 31
0.0
  0
LINE
  5
9E0
330
1E
100
AcDbEntity
  8
0
100
AcDbLine
 10
52.09159999999997
 20
770.6299999999999
 30
0.0
 11
52.68799354507439
 21
771.548501238463
 31
0.0
  0
LINE
  5
9E1
330
1E
100
AcDbEntity
  8
0
100
AcDbLine
 10
51.7432
 20
770.0939999999999
 30
0.0
 11
52.54910000000001
 21
769.4069999999999
 31
0.0
  0
LINE
  5
9E2
330
1E
100
AcDbEntity
  8
0
100
AcDbLine
 10
53.04700000000003
 20
770.173
 30
0.0
 11
53.8528
 21
769.4860000000001
 31
0.0
  0
LINE
  5
9E3
330
1E
100
AcDbEntity
  8
0
100
AcDbLine
 10
53.04700000000003
 20
770.173
 30
0.0
 11
53.50562157576849
 21
770.8793877379069
 31
0.0
  0
LINE
  5
9E4
330
1E
100
AcDbEntity
  8
0
100
AcDbLine
 10
52.54910000000001
 20
769.4069999999999
 30
0.0
 11
53.50439999999998
 21
768.95
 31
0.0
  0
LINE
  5
9E5
330
1E
100
AcDbEntity
  8
0
100
AcDbLine
 10
53.8528
 20
769.4860000000001
 30
0.0
 11
54.32310904938799
 21
770.210389263539
 31
0.0
  0
LINE
  5
9E6
330
1E
100
AcDbEntity
  8
0
100
AcDbLine
 10
53.8528
 20
769.4860000000001
 30
0.0
 11
54.05610000000002
 21
768.973
 31
0.0
  0
LINE
  5
9E7
330
1E
100
AcDbEntity
  8
0
100
AcDbLine
 10
36.73090000000001
 20
779.842
 30
0.0
 11
37.28250000000002
 21
779.865
 31
0.0
  0
LINE
  5
9E8
330
1E
100
AcDbEntity
  8
0
100
AcDbLine
 10
37.28250000000002
 20
779.865
 30
0.0
 11
37.72300915389519
 21
780.5434248534351
 31
0.0
  0
LINE
  5
9E9
330
1E
100
AcDbEntity
  8
0
100
AcDbLine
 10
44.84289999999998
 20
778.582
 30
0.0
 11
45.55309999999997
 21
778.8489999999999
 31
0.0
  0
LINE
  5
9EA
330
1E
100
AcDbEntity
  8
0
100
AcDbLine
 10
44.84289999999998
 20
778.582
 30
0.0
 11
45.11711075262673
 21
779.004243696752
 31
0.0
  0
LINE
  5
9EB
330
1E
100
AcDbEntity
  8
0
100
AcDbLine
 10
44.84289999999998
 20
778.582
 30
0.0
 11
44.88749999999998
 21
777.825
 31
0.0
  0
LINE
  5
9EC
330
1E
100
AcDbEntity
  8
0
100
AcDbLine
 10
44.88749999999998
 20
777.825
 30
0.0
 11
45.62529999999997
 21
777.033
 31
0.0
  0
LINE
  5
9ED
330
1E
100
AcDbEntity
  8
0
100
AcDbLine
 10
45.55309999999997
 20
778.8489999999999
 30
0.0
 11
46.03741116453631
 21
779.594767022384
 31
0.0
  0
LINE
  5
9EE
330
1E
100
AcDbEntity
  8
0
100
AcDbLine
 10
45.55309999999997
 20
778.8489999999999
 30
0.0
 11
46.57639999999998
 21
778.4969999999999
 31
0.0
  0
LINE
  5
9EF
330
1E
100
AcDbEntity
  8
0
100
AcDbLine
 10
45.62529999999997
 20
777.033
 30
0.0
 11
46.64870000000002
 21
776.681
 31
0.0
  0
LINE
  5
9F0
330
1E
100
AcDbEntity
  8
0
100
AcDbLine
 10
45.66930000000001
 20
774.4189999999999
 30
0.0
 11
46.0380204847662
 21
774.9869183948488
 31
0.0
  0
LINE
  5
9F1
330
1E
100
AcDbEntity
  8
0
100
AcDbLine
 10
45.11759999999997
 20
774.3960000000001
 30
0.0
 11
45.66930000000001
 21
774.4189999999999
 31
0.0
  0
LINE
  5
9F2
330
1E
100
AcDbEntity
  8
0
100
AcDbLine
 10
45.46629999999999
 20
774.933
 30
0.0
 11
46.0414157568531
 21
775.8183478539559
 31
0.0
  0
LINE
  5
9F3
330
1E
100
AcDbEntity
  8
0
100
AcDbLine
 10
45.46629999999999
 20
774.933
 30
0.0
 11
45.66930000000001
 21
774.4189999999999
 31
0.0
  0
LINE
  5
9F4
330
1E
100
AcDbEntity
  8
0
100
AcDbLine
 10
43.15319999999997
 20
776.053
 30
0.0
 11
43.23449943656902
 21
776.178208654238
 31
0.0
  0
LINE
  5
9F5
330
1E
100
AcDbEntity
  8
0
100
AcDbLine
 10
43.15319999999997
 20
776.053
 30
0.0
 11
43.70510000000002
 21
776.0769999999999
 31
0.0
  0
LINE
  5
9F6
330
1E
100
AcDbEntity
  8
0
100
AcDbLine
 10
43.15319999999997
 20
776.053
 30
0.0
 11
43.59344116879447
 21
776.7310121315859
 31
0.0
  0
LINE
  5
9F7
330
1E
100
AcDbEntity
  8
0
100
AcDbLine
 10
43.15319999999997
 20
776.053
 30
0.0
 11
43.3564
 21
775.5399999999999
 31
0.0
  0
LINE
  5
9F8
330
1E
100
AcDbEntity
  8
0
100
AcDbLine
 10
43.70510000000002
 20
776.0769999999999
 30
0.0
 11
44.66020000000002
 21
775.6189999999999
 31
0.0
  0
LINE
  5
9F9
330
1E
100
AcDbEntity
  8
0
100
AcDbLine
 10
43.70510000000002
 20
776.0769999999999
 30
0.0
 11
44.06037354825258
 21
776.6239698800339
 31
0.0
  0
LINE
  5
9FA
330
1E
100
AcDbEntity
  8
0
100
AcDbLine
 10
43.3564
 20
775.5399999999999
 30
0.0
 11
44.16239999999999
 21
774.853
 31
0.0
  0
LINE
  5
9FB
330
1E
100
AcDbEntity
  8
0
100
AcDbLine
 10
44.16239999999999
 20
774.853
 30
0.0
 11
45.11759999999997
 21
774.3960000000001
 31
0.0
  0
LINE
  5
9FC
330
1E
100
AcDbEntity
  8
0
100
AcDbLine
 10
44.66020000000002
 20
775.6189999999999
 30
0.0
 11
45.46629999999999
 21
774.933
 31
0.0
  0
LINE
  5
9FD
330
1E
100
AcDbEntity
  8
0
100
AcDbLine
 10
44.66020000000002
 20
775.6189999999999
 30
0.0
 11
45.22130898965293
 21
776.483243051051
 31
0.0
  0
LINE
  5
9FE
330
1E
100
AcDbEntity
  8
0
100
AcDbLine
 10
29.8752
 20
787.5729999999999
 30
0.0
 11
30.58539999999999
 21
787.841
 31
0.0
  0
LINE
  5
9FF
330
1E
100
AcDbEntity
  8
0
100
AcDbLine
 10
29.80290000000002
 20
789.39
 30
0.0
 11
30.14437203540751
 21
789.91575669522
 31
0.0
  0
LINE
  5
A00
330
1E
100
AcDbEntity
  8
0
100
AcDbLine
 10
29.80290000000002
 20
789.39
 30
0.0
 11
30.541
 21
788.5989999999999
 31
0.0
  0
LINE
  5
A01
330
1E
100
AcDbEntity
  8
0
100
AcDbLine
 10
29.80290000000002
 20
789.39
 30
0.0
 11
30.14437203540751
 21
789.91575669522
 31
0.0
  0
LINE
  5
A02
330
1E
100
AcDbEntity
  8
0
100
AcDbLine
 10
117.9737999999999
 20
745.3589999999999
 30
0.0
 11
122.7658
 21
741.837
 31
0.0
  0
LINE
  5
A03
330
1E
100
AcDbEntity
  8
0
100
AcDbLine
 10
116.5554999999999
 20
746.2810000000001
 30
0.0
 11
117.9737999999999
 21
745.3589999999999
 31
0.0
  0
LINE
  5
A04
330
1E
100
AcDbEntity
  8
0
100
AcDbLine
 10
113.4792
 20
730.3069999999999
 30
0.0
 11
115.5364999999999
 21
728.248
 31
0.0
  0
LINE
  5
A05
330
1E
100
AcDbEntity
  8
0
100
AcDbLine
 10
108.5068999999999
 20
734.6689999999999
 30
0.0
 11
113.4792
 21
730.3069999999999
 31
0.0
  0
LINE
  5
A06
330
1E
100
AcDbEntity
  8
0
100
AcDbLine
 10
88.88769999999999
 20
747.316
 30
0.0
 11
93.39522697986462
 21
745.1910743088671
 31
0.0
  0
LINE
  5
A07
330
1E
100
AcDbEntity
  8
0
100
AcDbLine
 10
96.09520424845829
 20
743.8733554335961
 30
0.0
 11
103.2756
 21
738.845
 31
0.0
  0
LINE
  5
A08
330
1E
100
AcDbEntity
  8
0
100
AcDbLine
 10
96.20889999999997
 20
745.008
 30
0.0
 11
96.91930000000002
 21
745.276
 31
0.0
  0
LINE
  5
A09
330
1E
100
AcDbEntity
  8
0
100
AcDbLine
 10
96.91930000000002
 20
745.276
 30
0.0
 11
97.20924283890491
 21
745.722267244715
 31
0.0
  0
LINE
  5
A0A
330
1E
100
AcDbEntity
  8
0
100
AcDbLine
 10
96.8748
 20
746.0329999999999
 30
0.0
 11
96.91930000000002
 21
745.276
 31
0.0
  0
LINE
  5
A0B
330
1E
100
AcDbEntity
  8
0
100
AcDbLine
 10
96.8748
 20
746.0329999999999
 30
0.0
 11
97.12522337925271
 21
746.418440633379
 31
0.0
  0
LINE
  5
A0C
330
1E
100
AcDbEntity
  8
0
100
AcDbLine
 10
96.13659999999999
 20
746.825
 30
0.0
 11
96.8748
 21
746.0329999999999
 31
0.0
  0
LINE
  5
A0D
330
1E
100
AcDbEntity
  8
0
100
AcDbLine
 10
96.13659999999999
 20
746.825
 30
0.0
 11
96.47248004918139
 21
747.34191344588
 31
0.0
  0
LINE
  5
A0E
330
1E
100
AcDbEntity
  8
0
100
AcDbLine
 10
95.18830000000003
 20
743.1699999999999
 30
0.0
 11
95.73779999999999
 21
743.2310000000001
 31
0.0
  0
LINE
  5
A0F
330
1E
100
AcDbEntity
  8
0
100
AcDbLine
 10
95.73779999999999
 20
743.2310000000001
 30
0.0
 11
96.09520424845829
 21
743.8733554335961
 31
0.0
  0
LINE
  5
A10
330
1E
100
AcDbEntity
  8
0
100
AcDbLine
 10
95.73779999999999
 20
743.2310000000001
 30
0.0
 11
96.20709229933892
 21
744.074449566493
 31
0.0
  0
LINE
  5
A11
330
1E
100
AcDbEntity
  8
0
100
AcDbLine
 10
94.2049
 20
743.561
 30
0.0
 11
95.18830000000003
 21
743.1699999999999
 31
0.0
  0
LINE
  5
A12
330
1E
100
AcDbEntity
  8
0
100
AcDbLine
 10
93.35419999999999
 20
744.191
 30
0.0
 11
94.2049
 21
743.561
 31
0.0
  0
LINE
  5
A13
330
1E
100
AcDbEntity
  8
0
100
AcDbLine
 10
93.66559999999997
 20
744.7510000000001
 30
0.0
 11
94.64890000000002
 21
744.3599999999999
 31
0.0
  0
LINE
  5
A14
330
1E
100
AcDbEntity
  8
0
100
AcDbLine
 10
93.66559999999997
 20
744.7510000000001
 30
0.0
 11
93.93419282847947
 21
745.233550708907
 31
0.0
  0
LINE
  5
A15
330
1E
100
AcDbEntity
  8
0
100
AcDbLine
 10
95.1861
 20
745.36
 30
0.0
 11
96.20889999999997
 21
745.008
 31
0.0
  0
LINE
  5
A16
330
1E
100
AcDbEntity
  8
0
100
AcDbLine
 10
94.44790000000001
 20
746.1519999999999
 30
0.0
 11
95.1861
 21
745.36
 31
0.0
  0
LINE
  5
A17
330
1E
100
AcDbEntity
  8
0
100
AcDbLine
 10
94.40340000000004
 20
746.909
 30
0.0
 11
95.11379999999997
 21
747.177
 31
0.0
  0
LINE
  5
A18
330
1E
100
AcDbEntity
  8
0
100
AcDbLine
 10
94.40340000000004
 20
746.909
 30
0.0
 11
94.72185027103227
 21
747.399448629086
 31
0.0
  0
LINE
  5
A19
330
1E
100
AcDbEntity
  8
0
100
AcDbLine
 10
94.40340000000004
 20
746.909
 30
0.0
 11
94.44790000000001
 21
746.1519999999999
 31
0.0
  0
LINE
  5
A1A
330
1E
100
AcDbEntity
  8
0
100
AcDbLine
 10
95.11379999999997
 20
747.177
 30
0.0
 11
96.13659999999999
 21
746.825
 31
0.0
  0
LINE
  5
A1B
330
1E
100
AcDbEntity
  8
0
100
AcDbLine
 10
95.11379999999997
 20
747.177
 30
0.0
 11
95.36368225991891
 21
747.5619987603399
 31
0.0
  0
LINE
  5
A1C
330
1E
100
AcDbEntity
  8
0
100
AcDbLine
 10
94.64890000000002
 20
744.3599999999999
 30
0.0
 11
95.49970000000001
 21
743.7289999999999
 31
0.0
  0
LINE
  5
A1D
330
1E
100
AcDbEntity
  8
0
100
AcDbLine
 10
94.64890000000002
 20
744.3599999999999
 30
0.0
 11
94.8953871851636
 21
744.8024810385949
 31
0.0
  0
LINE
  5
A1E
330
1E
100
AcDbEntity
  8
0
100
AcDbLine
 10
95.49970000000001
 20
743.7289999999999
 30
0.0
 11
95.73779999999999
 21
743.2310000000001
 31
0.0
  0
LINE
  5
A1F
330
1E
100
AcDbEntity
  8
0
100
AcDbLine
 10
95.49970000000001
 20
743.7289999999999
 30
0.0
 11
95.83325112150305
 21
744.3278382761509
 31
0.0
  0
LINE
  5
A20
330
1E
100
AcDbEntity
  8
0
100
AcDbLine
 10
93.11610000000001
 20
744.69
 30
0.0
 11
93.39522697986462
 21
745.1910743088671
 31
0.0
  0
LINE
  5
A21
330
1E
100
AcDbEntity
  8
0
100
AcDbLine
 10
93.11610000000001
 20
744.69
 30
0.0
 11
93.66559999999997
 21
744.7510000000001
 31
0.0
  0
LINE
  5
A22
330
1E
100
AcDbEntity
  8
0
100
AcDbLine
 10
93.11610000000001
 20
744.69
 30
0.0
 11
93.47897413891894
 21
745.3414128747169
 31
0.0
  0
LINE
  5
A23
330
1E
100
AcDbEntity
  8
0
100
AcDbLine
 10
93.11610000000001
 20
744.69
 30
0.0
 11
93.35419999999999
 21
744.191
 31
0.0
  0
LINE
  5
A24
330
1E
100
AcDbEntity
  8
0
100
AcDbLine
 10
87.02444966905943
 20
748.326307757479
 30
0.0
 11
88.88769999999999
 21
747.316
 31
0.0
  0
LINE
  5
A25
330
1E
100
AcDbEntity
  8
0
100
AcDbLine
 10
82.964
 20
750.5279999999999
 30
0.0
 11
84.37913009501841
 21
749.760675884127
 31
0.0
  0
LINE
  5
A26
330
1E
100
AcDbEntity
  8
0
100
AcDbLine
 10
88.29869999999999
 20
750.3610000000001
 30
0.0
 11
88.72499918639448
 21
751.017807963676
 31
0.0
  0
LINE
  5
A27
330
1E
100
AcDbEntity
  8
0
100
AcDbLine
 10
88.25450000000001
 20
751.1189999999999
 30
0.0
 11
88.29869999999999
 21
750.3610000000001
 31
0.0
  0
LINE
  5
A28
330
1E
100
AcDbEntity
  8
0
100
AcDbLine
 10
88.25450000000001
 20
751.1189999999999
 30
0.0
 11
88.73820589806213
 21
751.864508299386
 31
0.0
  0
LINE
  5
A29
330
1E
100
AcDbEntity
  8
0
100
AcDbLine
 10
85.82740000000001
 20
751.238
 30
0.0
 11
86.56459999999999
 21
750.446
 31
0.0
  0
LINE
  5
A2A
330
1E
100
AcDbEntity
  8
0
100
AcDbLine
 10
86.4925
 20
752.263
 30
0.0
 11
87.51609999999999
 21
751.9099999999999
 31
0.0
  0
LINE
  5
A2B
330
1E
100
AcDbEntity
  8
0
100
AcDbLine
 10
86.4925
 20
752.263
 30
0.0
 11
86.88777514028391
 21
752.87152741687
 31
0.0
  0
LINE
  5
A2C
330
1E
100
AcDbEntity
  8
0
100
AcDbLine
 10
87.51609999999999
 20
751.9099999999999
 30
0.0
 11
88.25450000000001
 21
751.1189999999999
 31
0.0
  0
LINE
  5
A2D
330
1E
100
AcDbEntity
  8
0
100
AcDbLine
 10
87.51609999999999
 20
751.9099999999999
 30
0.0
 11
87.85779493147799
 21
752.436307358912
 31
0.0
  0
LINE
  5
A2E
330
1E
100
AcDbEntity
  8
0
100
AcDbLine
 10
85.78289999999999
 20
751.995
 30
0.0
 11
86.4925
 21
752.263
 31
0.0
  0
LINE
  5
A2F
330
1E
100
AcDbEntity
  8
0
100
AcDbLine
 10
85.78289999999999
 20
751.995
 30
0.0
 11
85.98664953734942
 21
752.3089211215911
 31
0.0
  0
LINE
  5
A30
330
1E
100
AcDbEntity
  8
0
100
AcDbLine
 10
85.78289999999999
 20
751.995
 30
0.0
 11
85.82740000000001
 21
751.238
 31
0.0
  0
LINE
  5
A31
330
1E
100
AcDbEntity
  8
0
100
AcDbLine
 10
84.36310000000004
 20
748.9099999999999
 30
0.0
 11
85.16880000000004
 21
748.2230000000001
 31
0.0
  0
LINE
  5
A32
330
1E
100
AcDbEntity
  8
0
100
AcDbLine
 10
84.71179999999998
 20
749.446
 30
0.0
 11
85.6671
 21
748.9889999999999
 31
0.0
  0
LINE
  5
A33
330
1E
100
AcDbEntity
  8
0
100
AcDbLine
 10
84.71179999999998
 20
749.446
 30
0.0
 11
85.16427032701107
 21
750.143316600023
 31
0.0
  0
LINE
  5
A34
330
1E
100
AcDbEntity
  8
0
100
AcDbLine
 10
87.58839999999997
 20
750.0939999999999
 30
0.0
 11
88.29869999999999
 21
750.3610000000001
 31
0.0
  0
LINE
  5
A35
330
1E
100
AcDbEntity
  8
0
100
AcDbLine
 10
86.56459999999999
 20
750.446
 30
0.0
 11
87.58839999999997
 21
750.0939999999999
 31
0.0
  0
LINE
  5
A36
330
1E
100
AcDbEntity
  8
0
100
AcDbLine
 10
85.6671
 20
748.9889999999999
 30
0.0
 11
86.47270000000004
 21
748.303
 31
0.0
  0
LINE
  5
A37
330
1E
100
AcDbEntity
  8
0
100
AcDbLine
 10
85.6671
 20
748.9889999999999
 30
0.0
 11
86.19479745458681
 21
749.802760468593
 31
0.0
  0
LINE
  5
A38
330
1E
100
AcDbEntity
  8
0
100
AcDbLine
 10
84.15999999999996
 20
749.4229999999999
 30
0.0
 11
84.37913009501841
 21
749.760675884127
 31
0.0
  0
LINE
  5
A39
330
1E
100
AcDbEntity
  8
0
100
AcDbLine
 10
84.15999999999996
 20
749.4229999999999
 30
0.0
 11
84.71179999999998
 21
749.446
 31
0.0
  0
LINE
  5
A3A
330
1E
100
AcDbEntity
  8
0
100
AcDbLine
 10
84.15999999999996
 20
749.4229999999999
 30
0.0
 11
84.59994616324189
 21
750.1009498253239
 31
0.0
  0
LINE
  5
A3B
330
1E
100
AcDbEntity
  8
0
100
AcDbLine
 10
84.15999999999996
 20
749.4229999999999
 30
0.0
 11
84.36310000000004
 21
748.9099999999999
 31
0.0
  0
LINE
  5
A3C
330
1E
100
AcDbEntity
  8
0
100
AcDbLine
 10
78.41360169495692
 20
753.4283045655079
 30
0.0
 11
82.964
 21
750.5279999999999
 31
0.0
  0
LINE
  5
A3D
330
1E
100
AcDbEntity
  8
0
100
AcDbLine
 10
61.5478394094714
 20
764.178099216047
 30
0.0
 11
67.45115612485569
 21
760.4154799301049
 31
0.0
  0
LINE
  5
A3E
330
1E
100
AcDbEntity
  8
0
100
AcDbLine
 10
61.5478394094714
 20
764.178099216047
 30
0.0
 11
67.45115612485569
 21
760.4154799301049
 31
0.0
  0
LINE
  5
A3F
330
1E
100
AcDbEntity
  8
0
100
AcDbLine
 10
69.98102060987412
 20
758.803010641893
 30
0.0
 11
75.88377239144882
 21
755.040751429949
 31
0.0
  0
LINE
  5
A40
330
1E
100
AcDbEntity
  8
0
100
AcDbLine
 10
70.815
 20
760.9860000000001
 30
0.0
 11
71.5256
 21
761.2539999999999
 31
0.0
  0
LINE
  5
A41
330
1E
100
AcDbEntity
  8
0
100
AcDbLine
 10
71.5256
 20
761.2539999999999
 30
0.0
 11
71.79990680739161
 21
761.6767256640859
 31
0.0
  0
LINE
  5
A42
330
1E
100
AcDbEntity
  8
0
100
AcDbLine
 10
69.79149999999998
 20
761.3389999999999
 30
0.0
 11
70.815
 21
760.9860000000001
 31
0.0
  0
LINE
  5
A43
330
1E
100
AcDbEntity
  8
0
100
AcDbLine
 10
69.05399999999997
 20
762.1299999999999
 30
0.0
 11
69.79149999999998
 21
761.3389999999999
 31
0.0
  0
LINE
  5
A44
330
1E
100
AcDbEntity
  8
0
100
AcDbLine
 10
69.7192
 20
763.156
 30
0.0
 11
70.743
 21
762.8039999999999
 31
0.0
  0
LINE
  5
A45
330
1E
100
AcDbEntity
  8
0
100
AcDbLine
 10
69.7192
 20
763.156
 30
0.0
 11
70.20365590081429
 21
763.9016531806709
 31
0.0
  0
LINE
  5
A46
330
1E
100
AcDbEntity
  8
0
100
AcDbLine
 10
70.743
 20
762.8039999999999
 30
0.0
 11
71.48109999999997
 21
762.012
 31
0.0
  0
LINE
  5
A47
330
1E
100
AcDbEntity
  8
0
100
AcDbLine
 10
70.743
 20
762.8039999999999
 30
0.0
 11
71.08429616737129
 21
763.3296346622899
 31
0.0
  0
LINE
  5
A48
330
1E
100
AcDbEntity
  8
0
100
AcDbLine
 10
71.48109999999997
 20
762.012
 30
0.0
 11
71.5256
 21
761.2539999999999
 31
0.0
  0
LINE
  5
A49
330
1E
100
AcDbEntity
  8
0
100
AcDbLine
 10
71.48109999999997
 20
762.012
 30
0.0
 11
71.96500918948982
 21
762.7575688856481
 31
0.0
  0
LINE
  5
A4A
330
1E
100
AcDbEntity
  8
0
100
AcDbLine
 10
69.0088
 20
762.8889999999999
 30
0.0
 11
69.7192
 21
763.156
 31
0.0
  0
LINE
  5
A4B
330
1E
100
AcDbEntity
  8
0
100
AcDbLine
 10
69.0088
 20
762.8889999999999
 30
0.0
 11
69.07830609728216
 21
762.995926422794
 31
0.0
  0
LINE
  5
A4C
330
1E
100
AcDbEntity
  8
0
100
AcDbLine
 10
69.0088
 20
762.8889999999999
 30
0.0
 11
69.05399999999997
 21
762.1299999999999
 31
0.0
  0
LINE
  5
A4D
330
1E
100
AcDbEntity
  8
0
100
AcDbLine
 10
62.42809999999997
 20
766.434
 30
0.0
 11
63.13850000000002
 21
766.701
 31
0.0
  0
LINE
  5
A4E
330
1E
100
AcDbEntity
  8
0
100
AcDbLine
 10
63.13850000000002
 20
766.701
 30
0.0
 11
63.48833394246009
 21
767.23917569252
 31
0.0
  0
LINE
  5
A4F
330
1E
100
AcDbEntity
  8
0
100
AcDbLine
 10
63.094
 20
767.458
 30
0.0
 11
63.13850000000002
 21
766.701
 31
0.0
  0
LINE
  5
A50
330
1E
100
AcDbEntity
  8
0
100
AcDbLine
 10
63.094
 20
767.458
 30
0.0
 11
63.5778499975205
 21
768.2041085027289
 31
0.0
  0
LINE
  5
A51
330
1E
100
AcDbEntity
  8
0
100
AcDbLine
 10
62.35579999999998
 20
768.25
 30
0.0
 11
63.094
 21
767.458
 31
0.0
  0
LINE
  5
A52
330
1E
100
AcDbEntity
  8
0
100
AcDbLine
 10
62.35579999999998
 20
768.25
 30
0.0
 11
62.69753866205968
 21
768.775722117819
 31
0.0
  0
LINE
  5
A53
330
1E
100
AcDbEntity
  8
0
100
AcDbLine
 10
68.39539999999999
 20
759.1160000000001
 30
0.0
 11
69.35070000000002
 21
758.659
 31
0.0
  0
LINE
  5
A54
330
1E
100
AcDbEntity
  8
0
100
AcDbLine
 10
68.89300000000003
 20
759.883
 30
0.0
 11
69.69960000000003
 21
759.196
 31
0.0
  0
LINE
  5
A55
330
1E
100
AcDbEntity
  8
0
100
AcDbLine
 10
68.89300000000003
 20
759.883
 30
0.0
 11
69.453927996983
 21
760.7463404117019
 31
0.0
  0
LINE
  5
A56
330
1E
100
AcDbEntity
  8
0
100
AcDbLine
 10
69.69960000000003
 20
759.196
 30
0.0
 11
69.90250000000003
 21
758.682
 31
0.0
  0
LINE
  5
A57
330
1E
100
AcDbEntity
  8
0
100
AcDbLine
 10
69.69960000000003
 20
759.196
 30
0.0
 11
70.05476321100951
 21
759.7431164734079
 31
0.0
  0
LINE
  5
A58
330
1E
100
AcDbEntity
  8
0
100
AcDbLine
 10
67.58979999999997
 20
759.803
 30
0.0
 11
68.39539999999999
 21
759.1160000000001
 31
0.0
  0
LINE
  5
A59
330
1E
100
AcDbEntity
  8
0
100
AcDbLine
 10
67.38659999999999
 20
760.316
 30
0.0
 11
67.45372177985803
 21
760.419433562404
 31
0.0
  0
LINE
  5
A5A
330
1E
100
AcDbEntity
  8
0
100
AcDbLine
 10
67.38659999999999
 20
760.316
 30
0.0
 11
67.93770000000001
 21
760.34
 31
0.0
  0
LINE
  5
A5B
330
1E
100
AcDbEntity
  8
0
100
AcDbLine
 10
67.38659999999999
 20
760.316
 30
0.0
 11
67.7550959755236
 21
760.8838462573641
 31
0.0
  0
LINE
  5
A5C
330
1E
100
AcDbEntity
  8
0
100
AcDbLine
 10
67.38659999999999
 20
760.316
 30
0.0
 11
67.58979999999997
 21
759.803
 31
0.0
  0
LINE
  5
A5D
330
1E
100
AcDbEntity
  8
0
100
AcDbLine
 10
67.93770000000001
 20
760.34
 30
0.0
 11
68.89300000000003
 21
759.883
 31
0.0
  0
LINE
  5
A5E
330
1E
100
AcDbEntity
  8
0
100
AcDbLine
 10
67.93770000000001
 20
760.34
 30
0.0
 11
68.5128088406255
 21
761.2251665559739
 31
0.0
  0
LINE
  5
A5F
330
1E
100
AcDbEntity
  8
0
100
AcDbLine
 10
69.35070000000002
 20
758.659
 30
0.0
 11
69.90250000000003
 21
758.682
 31
0.0
  0
LINE
  5
A60
330
1E
100
AcDbEntity
  8
0
100
AcDbLine
 10
69.90250000000003
 20
758.682
 30
0.0
 11
70.34247479752287
 21
759.360059336909
 31
0.0
  0
LINE
  5
A61
330
1E
100
AcDbEntity
  8
0
100
AcDbLine
 10
76.78160000000002
 20
753.6699999999999
 30
0.0
 11
77.73689999999999
 21
753.2130000000001
 31
0.0
  0
LINE
  5
A62
330
1E
100
AcDbEntity
  8
0
100
AcDbLine
 10
77.2799
 20
754.436
 30
0.0
 11
77.65519635685308
 21
755.013824046875
 31
0.0
  0
LINE
  5
A63
330
1E
100
AcDbEntity
  8
0
100
AcDbLine
 10
77.2799
 20
754.436
 30
0.0
 11
78.0858
 21
753.75
 31
0.0
  0
LINE
  5
A64
330
1E
100
AcDbEntity
  8
0
100
AcDbLine
 10
77.2799
 20
754.436
 30
0.0
 11
77.65519635685308
 21
755.013824046875
 31
0.0
  0
LINE
  5
A65
330
1E
100
AcDbEntity
  8
0
100
AcDbLine
 10
79.20119999999997
 20
755.5399999999999
 30
0.0
 11
79.91160000000002
 21
755.807
 31
0.0
  0
LINE
  5
A66
330
1E
100
AcDbEntity
  8
0
100
AcDbLine
 10
79.91160000000002
 20
755.807
 30
0.0
 11
80.20143164792683
 21
756.2534231543901
 31
0.0
  0
LINE
  5
A67
330
1E
100
AcDbEntity
  8
0
100
AcDbLine
 10
78.17860000000002
 20
755.893
 30
0.0
 11
79.20119999999997
 21
755.5399999999999
 31
0.0
  0
LINE
  5
A68
330
1E
100
AcDbEntity
  8
0
100
AcDbLine
 10
77.4402
 20
756.684
 30
0.0
 11
78.17860000000002
 21
755.893
 31
0.0
  0
LINE
  5
A69
330
1E
100
AcDbEntity
  8
0
100
AcDbLine
 10
78.10630000000003
 20
757.7089999999999
 30
0.0
 11
79.12889999999999
 21
757.357
 31
0.0
  0
LINE
  5
A6A
330
1E
100
AcDbEntity
  8
0
100
AcDbLine
 10
78.10630000000003
 20
757.7089999999999
 30
0.0
 11
78.44972615862241
 21
758.2382433401429
 31
0.0
  0
LINE
  5
A6B
330
1E
100
AcDbEntity
  8
0
100
AcDbLine
 10
79.12889999999999
 20
757.357
 30
0.0
 11
79.8673
 21
756.566
 31
0.0
  0
LINE
  5
A6C
330
1E
100
AcDbEntity
  8
0
100
AcDbLine
 10
79.12889999999999
 20
757.357
 30
0.0
 11
79.47039684061173
 21
757.8825575883948
 31
0.0
  0
LINE
  5
A6D
330
1E
100
AcDbEntity
  8
0
100
AcDbLine
 10
79.8673
 20
756.566
 30
0.0
 11
79.91160000000002
 21
755.807
 31
0.0
  0
LINE
  5
A6E
330
1E
100
AcDbEntity
  8
0
100
AcDbLine
 10
79.8673
 20
756.566
 30
0.0
 11
80.3512946891961
 21
757.3105651934249
 31
0.0
  0
LINE
  5
A6F
330
1E
100
AcDbEntity
  8
0
100
AcDbLine
 10
77.39600000000002
 20
757.4419999999999
 30
0.0
 11
78.10630000000003
 21
757.7089999999999
 31
0.0
  0
LINE
  5
A70
330
1E
100
AcDbEntity
  8
0
100
AcDbLine
 10
77.39600000000002
 20
757.4419999999999
 30
0.0
 11
77.94600591359688
 21
758.2881151921359
 31
0.0
  0
LINE
  5
A71
330
1E
100
AcDbEntity
  8
0
100
AcDbLine
 10
77.39600000000002
 20
757.4419999999999
 30
0.0
 11
77.4402
 21
756.684
 31
0.0
  0
LINE
  5
A72
330
1E
100
AcDbEntity
  8
0
100
AcDbLine
 10
78.0858
 20
753.75
 30
0.0
 11
78.28870000000001
 21
753.2360000000001
 31
0.0
  0
LINE
  5
A73
330
1E
100
AcDbEntity
  8
0
100
AcDbLine
 10
78.0858
 20
753.75
 30
0.0
 11
78.5966895075843
 21
754.536248957899
 31
0.0
  0
LINE
  5
A74
330
1E
100
AcDbEntity
  8
0
100
AcDbLine
 10
75.97599999999999
 20
754.3569999999999
 30
0.0
 11
76.78160000000002
 21
753.6699999999999
 31
0.0
  0
LINE
  5
A75
330
1E
100
AcDbEntity
  8
0
100
AcDbLine
 10
75.77280000000001
 20
754.87
 30
0.0
 11
75.88666399400529
 21
755.0452006921918
 31
0.0
  0
LINE
  5
A76
330
1E
100
AcDbEntity
  8
0
100
AcDbLine
 10
75.77280000000001
 20
754.87
 30
0.0
 11
76.32460000000003
 21
754.893
 31
0.0
  0
LINE
  5
A77
330
1E
100
AcDbEntity
  8
0
100
AcDbLine
 10
75.77280000000001
 20
754.87
 30
0.0
 11
76.21300189251741
 21
755.5473315563639
 31
0.0
  0
LINE
  5
A78
330
1E
100
AcDbEntity
  8
0
100
AcDbLine
 10
75.77280000000001
 20
754.87
 30
0.0
 11
75.97599999999999
 21
754.3569999999999
 31
0.0
  0
LINE
  5
A79
330
1E
100
AcDbEntity
  8
0
100
AcDbLine
 10
76.32460000000003
 20
754.893
 30
0.0
 11
77.2799
 21
754.436
 31
0.0
  0
LINE
  5
A7A
330
1E
100
AcDbEntity
  8
0
100
AcDbLine
 10
76.32460000000003
 20
754.893
 30
0.0
 11
76.71355281270257
 21
755.491475423341
 31
0.0
  0
LINE
  5
A7B
330
1E
100
AcDbEntity
  8
0
100
AcDbLine
 10
56.53210000000001
 20
767.375
 30
0.0
 11
59.01803171559163
 21
765.790532307077
 31
0.0
  0
LINE
  5
A7C
330
1E
100
AcDbEntity
  8
0
100
AcDbLine
 10
56.53210000000001
 20
767.375
 30
0.0
 11
59.01803171559151
 21
765.790532307077
 31
0.0
  0
LINE
  5
A7D
330
1E
100
AcDbEntity
  8
0
100
AcDbLine
 10
60.6671
 20
767.5769999999999
 30
0.0
 11
61.40530000000001
 21
766.7849999999999
 31
0.0
  0
LINE
  5
A7E
330
1E
100
AcDbEntity
  8
0
100
AcDbLine
 10
61.33299999999997
 20
768.602
 30
0.0
 11
62.35579999999998
 21
768.25
 31
0.0
  0
LINE
  5
A7F
330
1E
100
AcDbEntity
  8
0
100
AcDbLine
 10
61.33299999999997
 20
768.602
 30
0.0
 11
61.81689705443989
 21
769.3475501889259
 31
0.0
  0
LINE
  5
A80
330
1E
100
AcDbEntity
  8
0
100
AcDbLine
 10
60.62259999999998
 20
768.335
 30
0.0
 11
61.33299999999997
 21
768.602
 31
0.0
  0
LINE
  5
A81
330
1E
100
AcDbEntity
  8
0
100
AcDbLine
 10
60.62259999999998
 20
768.335
 30
0.0
 11
60.76670595702598
 21
768.55702702517
 31
0.0
  0
LINE
  5
A82
330
1E
100
AcDbEntity
  8
0
100
AcDbLine
 10
60.62259999999998
 20
768.335
 30
0.0
 11
60.6671
 21
767.5769999999999
 31
0.0
  0
LINE
  5
A83
330
1E
100
AcDbEntity
  8
0
100
AcDbLine
 10
53.50439999999998
 20
768.95
 30
0.0
 11
54.05610000000002
 21
768.973
 31
0.0
  0
LINE
  5
A84
330
1E
100
AcDbEntity
  8
0
100
AcDbLine
 10
54.05610000000002
 20
768.973
 30
0.0
 11
54.49615275632311
 21
769.650787281546
 31
0.0
  0
LINE
  5
A85
330
1E
100
AcDbEntity
  8
0
100
AcDbLine
 10
61.40530000000001
 20
766.7849999999999
 30
0.0
 11
62.42809999999997
 21
766.434
 31
0.0
  0
LINE
  5
A86
330
1E
100
AcDbEntity
  8
0
100
AcDbLine
 10
61.51530000000002
 20
764.128
 30
0.0
 11
61.88066251535662
 21
764.6905294339919
 31
0.0
  0
LINE
  5
A87
330
1E
100
AcDbEntity
  8
0
100
AcDbLine
 10
60.96359999999998
 20
764.1049999999999
 30
0.0
 11
61.51530000000002
 21
764.128
 31
0.0
  0
LINE
  5
A88
330
1E
100
AcDbEntity
  8
0
100
AcDbLine
 10
60.00830000000002
 20
764.562
 30
0.0
 11
60.96359999999998
 21
764.1049999999999
 31
0.0
  0
LINE
  5
A89
330
1E
100
AcDbEntity
  8
0
100
AcDbLine
 10
60.50679999999999
 20
765.3289999999999
 30
0.0
 11
61.31240000000002
 21
764.6419999999999
 31
0.0
  0
LINE
  5
A8A
330
1E
100
AcDbEntity
  8
0
100
AcDbLine
 10
60.50679999999999
 20
765.3289999999999
 30
0.0
 11
60.96537151229973
 21
766.0348006024889
 31
0.0
  0
LINE
  5
A8B
330
1E
100
AcDbEntity
  8
0
100
AcDbLine
 10
61.31240000000002
 20
764.6419999999999
 30
0.0
 11
61.51530000000002
 21
764.128
 31
0.0
  0
LINE
  5
A8C
330
1E
100
AcDbEntity
  8
0
100
AcDbLine
 10
61.31240000000002
 20
764.6419999999999
 30
0.0
 11
61.9089454032561
 21
765.560071705695
 31
0.0
  0
LINE
  5
A8D
330
1E
100
AcDbEntity
  8
0
100
AcDbLine
 10
59.20260000000002
 20
765.2489999999999
 30
0.0
 11
60.00830000000002
 21
764.562
 31
0.0
  0
LINE
  5
A8E
330
1E
100
AcDbEntity
  8
0
100
AcDbLine
 10
58.99950000000001
 20
765.7619999999999
 30
0.0
 11
59.55149999999997
 21
765.786
 31
0.0
  0
LINE
  5
A8F
330
1E
100
AcDbEntity
  8
0
100
AcDbLine
 10
58.99950000000001
 20
765.7619999999999
 30
0.0
 11
59.43998279670807
 21
766.440188177223
 31
0.0
  0
LINE
  5
A90
330
1E
100
AcDbEntity
  8
0
100
AcDbLine
 10
58.99950000000001
 20
765.7619999999999
 30
0.0
 11
59.20260000000002
 21
765.2489999999999
 31
0.0
  0
LINE
  5
A91
330
1E
100
AcDbEntity
  8
0
100
AcDbLine
 10
59.55149999999997
 20
765.786
 30
0.0
 11
60.50679999999999
 21
765.3289999999999
 31
0.0
  0
LINE
  5
A92
330
1E
100
AcDbEntity
  8
0
100
AcDbLine
 10
59.55149999999997
 20
765.786
 30
0.0
 11
60.02164137436688
 21
766.5096081099299
 31
0.0
  0
LINE
  5
A93
330
1E
100
AcDbEntity
  8
0
100
AcDbLine
 10
77.73689999999999
 20
753.2130000000001
 30
0.0
 11
78.28870000000001
 21
753.2360000000001
 31
0.0
  0
LINE
  5
A94
330
1E
100
AcDbEntity
  8
0
100
AcDbLine
 10
78.28870000000001
 20
753.2360000000001
 30
0.0
 11
78.72898427316551
 21
753.9138825209731
 31
0.0
  0
LINE
  5
A95
330
1E
100
AcDbEntity
  8
0
100
AcDbLine
 10
86.1241
 20
747.7669999999999
 30
0.0
 11
86.67590000000002
 21
747.7899999999999
 31
0.0
  0
LINE
  5
A96
330
1E
100
AcDbEntity
  8
0
100
AcDbLine
 10
86.67590000000002
 20
747.7899999999999
 30
0.0
 11
87.16114772334572
 21
748.536642850162
 31
0.0
  0
LINE
  5
A97
330
1E
100
AcDbEntity
  8
0
100
AcDbLine
 10
86.47270000000004
 20
748.303
 30
0.0
 11
86.67590000000002
 21
747.7899999999999
 31
0.0
  0
LINE
  5
A98
330
1E
100
AcDbEntity
  8
0
100
AcDbLine
 10
86.47270000000004
 20
748.303
 30
0.0
 11
86.9688370676747
 21
749.0675390878919
 31
0.0
  0
LINE
  5
A99
330
1E
100
AcDbEntity
  8
0
100
AcDbLine
 10
85.16880000000004
 20
748.2230000000001
 30
0.0
 11
86.1241
 21
747.7669999999999
 31
0.0
  0
LINE
  5
A9A
330
1E
100
AcDbEntity
  8
0
100
AcDbLine
 10
103.2756
 20
738.845
 30
0.0
 11
108.5068999999999
 21
734.6689999999999
 31
0.0
  0
LINE
  5
A9B
330
1E
100
AcDbEntity
  8
0
100
AcDbLine
 10
81.0213
 20
739.1160000000001
 30
0.0
 11
102.888617163491
 21
739.1160000000001
 31
0.0
  0
LINE
  5
A9C
330
1E
100
AcDbEntity
  8
0
100
AcDbLine
 10
81.0213
 20
739.1160000000001
 30
0.0
 11
102.888617163491
 21
739.1160000000001
 31
0.0
  0
LINE
  5
A9D
330
1E
100
AcDbEntity
  8
0
100
AcDbLine
 10
53.65409999999997
 20
739.1160000000001
 30
0.0
 11
81.0213
 21
739.1160000000001
 31
0.0
  0
LINE
  5
A9E
330
1E
100
AcDbEntity
  8
0
100
AcDbLine
 10
33.99630000000001
 20
737.766
 30
0.0
 11
38.07690000000002
 21
738.3969999999999
 31
0.0
  0
LINE
  5
A9F
330
1E
100
AcDbEntity
  8
0
100
AcDbLine
 10
38.07690000000002
 20
738.3969999999999
 30
0.0
 11
43.47070000000002
 21
738.8919999999999
 31
0.0
  0
LINE
  5
AA0
330
1E
100
AcDbEntity
  8
0
100
AcDbLine
 10
43.47070000000002
 20
738.8919999999999
 30
0.0
 11
46.98689999999999
 21
739.047
 31
0.0
  0
LINE
  5
AA1
330
1E
100
AcDbEntity
  8
0
100
AcDbLine
 10
46.98689999999999
 20
739.047
 30
0.0
 11
53.65409999999997
 21
739.1160000000001
 31
0.0
  0
LINE
  5
AA2
330
1E
100
AcDbEntity
  8
0
100
AcDbLine
 10
29.93049999999999
 20
736.8769999999999
 30
0.0
 11
33.99630000000001
 21
737.766
 31
0.0
  0
LINE
  5
AA3
330
1E
100
AcDbEntity
  8
0
100
AcDbLine
 10
26.91610000000002
 20
736.0319999999999
 30
0.0
 11
29.93049999999999
 21
736.8769999999999
 31
0.0
  0
LINE
  5
AA4
330
1E
100
AcDbEntity
  8
0
100
AcDbLine
 10
28.06929999999999
 20
789.4739999999999
 30
0.0
 11
28.7799
 21
789.743
 31
0.0
  0
LINE
  5
AA5
330
1E
100
AcDbEntity
  8
0
100
AcDbLine
 10
28.06929999999999
 20
789.4739999999999
 30
0.0
 11
28.49591743482062
 21
790.1313346862289
 31
0.0
  0
LINE
  5
AA6
330
1E
100
AcDbEntity
  8
0
100
AcDbLine
 10
28.06929999999999
 20
789.4739999999999
 30
0.0
 11
28.1139
 21
788.717
 31
0.0
  0
LINE
  5
AA7
330
1E
100
AcDbEntity
  8
0
100
AcDbLine
 10
28.1139
 20
788.717
 30
0.0
 11
28.85180000000002
 21
787.9249999999999
 31
0.0
  0
LINE
  5
AA8
330
1E
100
AcDbEntity
  8
0
100
AcDbLine
 10
28.7799
 20
789.743
 30
0.0
 11
29.2637002259853
 21
790.487686287993
 31
0.0
  0
LINE
  5
AA9
330
1E
100
AcDbEntity
  8
0
100
AcDbLine
 10
28.7799
 20
789.743
 30
0.0
 11
29.80290000000002
 21
789.39
 31
0.0
  0
LINE
  5
AAA
330
1E
100
AcDbEntity
  8
0
100
AcDbLine
 10
28.85180000000002
 20
787.9249999999999
 30
0.0
 11
29.8752
 21
787.5729999999999
 31
0.0
  0
LINE
  5
AAB
330
1E
100
AcDbEntity
  8
0
100
AcDbLine
 10
28.89609999999999
 20
785.313
 30
0.0
 11
29.33547682131637
 21
785.9895183027789
 31
0.0
  0
LINE
  5
AAC
330
1E
100
AcDbEntity
  8
0
100
AcDbLine
 10
28.34410000000002
 20
785.289
 30
0.0
 11
28.89609999999999
 21
785.313
 31
0.0
  0
LINE
  5
AAD
330
1E
100
AcDbEntity
  8
0
100
AcDbLine
 10
28.69279999999998
 20
785.826
 30
0.0
 11
29.14488939313111
 21
786.522259493276
 31
0.0
  0
LINE
  5
AAE
330
1E
100
AcDbEntity
  8
0
100
AcDbLine
 10
28.69279999999998
 20
785.826
 30
0.0
 11
28.89609999999999
 21
785.313
 31
0.0
  0
LINE
  5
AAF
330
1E
100
AcDbEntity
  8
0
100
AcDbLine
 10
27.3888
 20
785.745
 30
0.0
 11
28.34410000000002
 21
785.289
 31
0.0
  0
LINE
  5
AB0
330
1E
100
AcDbEntity
  8
0
100
AcDbLine
 10
27.887
 20
786.513
 30
0.0
 11
28.69279999999998
 21
785.826
 31
0.0
  0
LINE
  5
AB1
330
1E
100
AcDbEntity
  8
0
100
AcDbLine
 10
27.887
 20
786.513
 30
0.0
 11
28.41495640383527
 21
787.3259062639078
 31
0.0
  0
LINE
  5
AB2
330
1E
100
AcDbEntity
  8
0
100
AcDbLine
 10
26.93164999999999
 20
786.9689999999999
 30
0.0
 11
27.887
 21
786.513
 31
0.0
  0
LINE
  5
AB3
330
1E
100
AcDbEntity
  8
0
100
AcDbLine
 10
26.93164999999999
 20
786.9689999999999
 30
0.0
 11
27.42786774793302
 21
787.73300071675
 31
0.0
  0
LINE
  5
AB4
330
1E
100
AcDbEntity
  8
0
100
AcDbLine
 10
21.27292392768657
 20
792.0279056194329
 30
0.0
 11
25.04804000000001
 21
788.7749999999999
 31
0.0
  0
LINE
  5
AB5
330
1E
100
AcDbEntity
  8
0
100
AcDbLine
 10
25.04804000000001
 20
788.7749999999999
 30
0.0
 11
26.72895291519347
 21
787.4832387983839
 31
0.0
  0
LINE
  5
AB6
330
1E
100
AcDbEntity
  8
0
100
AcDbLine
 10
25.04804000000001
 20
788.7749999999999
 30
0.0
 11
26.72895291519347
 21
787.4832387983839
 31
0.0
  0
LINE
  5
AB7
330
1E
100
AcDbEntity
  8
0
100
AcDbLine
 10
21.72264999999999
 20
793.3799999999999
 30
0.0
 11
22.43283000000002
 21
793.6469999999999
 31
0.0
  0
LINE
  5
AB8
330
1E
100
AcDbEntity
  8
0
100
AcDbLine
 10
22.43283000000002
 20
793.6469999999999
 30
0.0
 11
22.75118486684169
 21
794.1375396878089
 31
0.0
  0
LINE
  5
AB9
330
1E
100
AcDbEntity
  8
0
100
AcDbLine
 10
22.38848999999999
 20
794.4060000000001
 30
0.0
 11
22.6382598867512
 21
794.7904522994
 31
0.0
  0
LINE
  5
ABA
330
1E
100
AcDbEntity
  8
0
100
AcDbLine
 10
22.38848999999999
 20
794.4060000000001
 30
0.0
 11
22.43283000000002
 21
793.6469999999999
 31
0.0
  0
LINE
  5
ABB
330
1E
100
AcDbEntity
  8
0
100
AcDbLine
 10
21.65035999999997
 20
795.197
 30
0.0
 11
22.38848999999999
 21
794.4060000000001
 31
0.0
  0
LINE
  5
ABC
330
1E
100
AcDbEntity
  8
0
100
AcDbLine
 10
21.65035999999997
 20
795.197
 30
0.0
 11
21.98611355322509
 21
795.7139695853779
 31
0.0
  0
LINE
  5
ABD
330
1E
100
AcDbEntity
  8
0
100
AcDbLine
 10
23.5729
 20
734.8739999999999
 30
0.0
 11
23.9461
 21
735.0239999999999
 31
0.0
  0
LINE
  5
ABE
330
1E
100
AcDbEntity
  8
0
100
AcDbLine
 10
23.9461
 20
735.0239999999999
 30
0.0
 11
26.91610000000002
 21
736.0319999999999
 31
0.0
  0
LINE
  5
ABF
330
1E
100
AcDbEntity
  8
0
100
AcDbLine
 10
26.37999999999999
 20
786.946
 30
0.0
 11
26.93164999999999
 21
786.9689999999999
 31
0.0
  0
LINE
  5
AC0
330
1E
100
AcDbEntity
  8
0
100
AcDbLine
 10
26.37999999999999
 20
786.946
 30
0.0
 11
26.86119433635929
 21
787.6868342380849
 31
0.0
  0
LINE
  5
AC1
330
1E
100
AcDbEntity
  8
0
100
AcDbLine
 10
26.37999999999999
 20
786.946
 30
0.0
 11
26.58296999999999
 21
786.432
 31
0.0
  0
LINE
  5
AC2
330
1E
100
AcDbEntity
  8
0
100
AcDbLine
 10
26.58296999999999
 20
786.432
 30
0.0
 11
27.3888
 21
785.745
 31
0.0
  0
LINE
  5
AC3
330
1E
100
AcDbEntity
  8
0
100
AcDbLine
 10
21.27292392768657
 20
792.0279056194329
 30
0.0
 11
25.04804000000001
 21
788.7749999999999
 31
0.0
  0
LINE
  5
AC4
330
1E
100
AcDbEntity
  8
0
100
AcDbLine
 10
20.76121999999998
 20
792.095
 30
0.0
 11
21.09314599939551
 21
792.537335801923
 31
0.0
  0
LINE
  5
AC5
330
1E
100
AcDbEntity
  8
0
100
AcDbLine
 10
20.76121999999998
 20
792.095
 30
0.0
 11
20.92916999999999
 21
791.5700000000001
 31
0.0
  0
LINE
  5
AC6
330
1E
100
AcDbEntity
  8
0
100
AcDbLine
 10
20.69950999999997
 20
793.7330000000001
 30
0.0
 11
21.72264999999999
 21
793.3799999999999
 31
0.0
  0
LINE
  5
AC7
330
1E
100
AcDbEntity
  8
0
100
AcDbLine
 10
20.62732
 20
795.5499999999999
 30
0.0
 11
20.87699363935837
 21
795.934304152912
 31
0.0
  0
LINE
  5
AC8
330
1E
100
AcDbEntity
  8
0
100
AcDbLine
 10
20.62732
 20
795.5499999999999
 30
0.0
 11
21.65035999999997
 21
795.197
 31
0.0
  0
LINE
  5
AC9
330
1E
100
AcDbEntity
  8
0
100
AcDbLine
 10
21.0353
 20
733.8539999999999
 30
0.0
 11
23.5729
 21
734.8739999999999
 31
0.0
  0
LINE
  5
ACA
330
1E
100
AcDbEntity
  8
0
100
AcDbLine
 10
20.92916999999999
 20
791.5700000000001
 30
0.0
 11
21.37031794508101
 21
792.157641643583
 31
0.0
  0
LINE
  5
ACB
330
1E
100
AcDbEntity
  8
0
100
AcDbLine
 10
17.63376900000003
 20
810.5199999999999
 30
0.0
 11
19.17860999999999
 21
809.5169999999999
 31
0.0
  0
LINE
  5
ACC
330
1E
100
AcDbEntity
  8
0
100
AcDbLine
 10
14.00535000000002
 20
798.4889999999999
 30
0.0
 11
18.9963999275676
 21
793.991917800814
 31
0.0
  0
LINE
  5
ACD
330
1E
100
AcDbEntity
  8
0
100
AcDbLine
 10
19.17860999999999
 20
809.5169999999999
 30
0.0
 11
22.58789999999998
 21
807.304
 31
0.0
  0
LINE
  5
ACE
330
1E
100
AcDbEntity
  8
0
100
AcDbLine
 10
20.37691999999998
 20
791.583
 30
0.0
 11
20.92916999999999
 21
791.5700000000001
 31
0.0
  0
LINE
  5
ACF
330
1E
100
AcDbEntity
  8
0
100
AcDbLine
 10
15.43439
 20
731.043
 30
0.0
 11
18.19499999999999
 21
732.5249999999999
 31
0.0
  0
LINE
  5
AD0
330
1E
100
AcDbEntity
  8
0
100
AcDbLine
 10
18.55799999999999
 20
732.696
 30
0.0
 11
21.0353
 21
733.8539999999999
 31
0.0
  0
LINE
  5
AD1
330
1E
100
AcDbEntity
  8
0
100
AcDbLine
 10
19.45505000000002
 20
792.105
 30
0.0
 11
20.37691999999998
 21
791.583
 31
0.0
  0
LINE
  5
AD2
330
1E
100
AcDbEntity
  8
0
100
AcDbLine
 10
20.00380999999998
 20
792.835
 30
0.0
 11
20.76121999999998
 21
792.095
 31
0.0
  0
LINE
  5
AD3
330
1E
100
AcDbEntity
  8
0
100
AcDbLine
 10
20.00380999999998
 20
792.835
 30
0.0
 11
20.30801161905287
 21
793.2403574547619
 31
0.0
  0
LINE
  5
AD4
330
1E
100
AcDbEntity
  8
0
100
AcDbLine
 10
19.08168
 20
793.356
 30
0.0
 11
20.00380999999998
 21
792.835
 31
0.0
  0
LINE
  5
AD5
330
1E
100
AcDbEntity
  8
0
100
AcDbLine
 10
19.08168
 20
793.356
 30
0.0
 11
19.49294108264251
 21
793.9040652068901
 31
0.0
  0
LINE
  5
AD6
330
1E
100
AcDbEntity
  8
0
100
AcDbLine
 10
19.91678000000001
 20
795.281
 30
0.0
 11
20.62732
 21
795.5499999999999
 31
0.0
  0
LINE
  5
AD7
330
1E
100
AcDbEntity
  8
0
100
AcDbLine
 10
19.91678000000001
 20
795.281
 30
0.0
 11
20.20715855949572
 21
795.728104377789
 31
0.0
  0
LINE
  5
AD8
330
1E
100
AcDbEntity
  8
0
100
AcDbLine
 10
19.91678000000001
 20
795.281
 30
0.0
 11
19.96138000000001
 21
794.5239999999999
 31
0.0
  0
LINE
  5
AD9
330
1E
100
AcDbEntity
  8
0
100
AcDbLine
 10
19.96138000000001
 20
794.5239999999999
 30
0.0
 11
20.69950999999997
 21
793.7330000000001
 31
0.0
  0
LINE
  5
ADA
330
1E
100
AcDbEntity
  8
0
100
AcDbLine
 10
18.52967999999998
 20
793.3699999999999
 30
0.0
 11
18.9963999275676
 21
793.991917800814
 31
0.0
  0
LINE
  5
ADB
330
1E
100
AcDbEntity
  8
0
100
AcDbLine
 10
18.52967999999998
 20
793.3699999999999
 30
0.0
 11
19.08168
 21
793.356
 31
0.0
  0
LINE
  5
ADC
330
1E
100
AcDbEntity
  8
0
100
AcDbLine
 10
18.52967999999998
 20
793.3699999999999
 30
0.0
 11
19.10929700623859
 21
794.142356423076
 31
0.0
  0
LINE
  5
ADD
330
1E
100
AcDbEntity
  8
0
100
AcDbLine
 10
18.52967999999998
 20
793.3699999999999
 30
0.0
 11
18.69747000000001
 21
792.8439999999999
 31
0.0
  0
LINE
  5
ADE
330
1E
100
AcDbEntity
  8
0
100
AcDbLine
 10
18.69747000000001
 20
792.8439999999999
 30
0.0
 11
19.45505000000002
 21
792.105
 31
0.0
  0
LINE
  5
ADF
330
1E
100
AcDbEntity
  8
0
100
AcDbLine
 10
18.19499999999999
 20
732.5249999999999
 30
0.0
 11
18.55799999999999
 21
732.696
 31
0.0
  0
LINE
  5
AE0
330
1E
100
AcDbEntity
  8
0
100
AcDbLine
 10
14.31848000000002
 20
799.513
 30
0.0
 11
14.42847302875327
 21
799.6824836536379
 31
0.0
  0
LINE
  5
AE1
330
1E
100
AcDbEntity
  8
0
100
AcDbLine
 10
14.27388000000002
 20
800.271
 30
0.0
 11
14.45862048891501
 21
800.555450344723
 31
0.0
  0
LINE
  5
AE2
330
1E
100
AcDbEntity
  8
0
100
AcDbLine
 10
14.27388000000002
 20
800.271
 30
0.0
 11
14.31848000000002
 21
799.513
 31
0.0
  0
LINE
  5
AE3
330
1E
100
AcDbEntity
  8
0
100
AcDbLine
 10
13.72692635525987
 20
798.762955565733
 30
0.0
 11
14.00535000000002
 21
798.4889999999999
 31
0.0
  0
LINE
  5
AE4
330
1E
100
AcDbEntity
  8
0
100
AcDbLine
 10
11.88513999999997
 20
798.808
 30
0.0
 11
12.80727000000001
 21
798.288
 31
0.0
  0
LINE
  5
AE5
330
1E
100
AcDbEntity
  8
0
100
AcDbLine
 10
13.19148000000001
 20
798.7999999999999
 30
0.0
 11
13.52384935146687
 21
799.242891772802
 31
0.0
  0
LINE
  5
AE6
330
1E
100
AcDbEntity
  8
0
100
AcDbLine
 10
13.19148000000001
 20
798.7999999999999
 30
0.0
 11
13.35926999999998
 21
798.273
 31
0.0
  0
LINE
  5
AE7
330
1E
100
AcDbEntity
  8
0
100
AcDbLine
 10
12.43416000000002
 20
799.54
 30
0.0
 11
13.19148000000001
 21
798.7999999999999
 31
0.0
  0
LINE
  5
AE8
330
1E
100
AcDbEntity
  8
0
100
AcDbLine
 10
12.43416000000002
 20
799.54
 30
0.0
 11
12.52558079528842
 21
799.661778186038
 31
0.0
  0
LINE
  5
AE9
330
1E
100
AcDbEntity
  8
0
100
AcDbLine
 10
12.58499999999997
 20
799.5980000000001
 30
0.0
 11
13.60829999999998
 21
799.2460000000001
 31
0.0
  0
LINE
  5
AEA
330
1E
100
AcDbEntity
  8
0
100
AcDbLine
 10
13.53611
 20
801.063
 30
0.0
 11
14.27388000000002
 21
800.271
 31
0.0
  0
LINE
  5
AEB
330
1E
100
AcDbEntity
  8
0
100
AcDbLine
 10
13.53611
 20
801.063
 30
0.0
 11
13.68293030642371
 21
801.2890890501619
 31
0.0
  0
LINE
  5
AEC
330
1E
100
AcDbEntity
  8
0
100
AcDbLine
 10
12.51271000000002
 20
801.4149999999998
 30
0.0
 11
12.72057048851297
 21
801.735052498512
 31
0.0
  0
LINE
  5
AED
330
1E
100
AcDbEntity
  8
0
100
AcDbLine
 10
12.51271000000002
 20
801.4149999999998
 30
0.0
 11
13.53611
 21
801.063
 31
0.0
  0
LINE
  5
AEE
330
1E
100
AcDbEntity
  8
0
100
AcDbLine
 10
13.60829999999998
 20
799.2460000000001
 30
0.0
 11
14.31848000000002
 21
799.513
 31
0.0
  0
LINE
  5
AEF
330
1E
100
AcDbEntity
  8
0
100
AcDbLine
 10
11.51202999999998
 20
800.06
 30
0.0
 11
11.8407620798946
 21
800.498083307618
 31
0.0
  0
LINE
  5
AF0
330
1E
100
AcDbEntity
  8
0
100
AcDbLine
 10
11.51202999999998
 20
800.06
 30
0.0
 11
12.43416000000002
 21
799.54
 31
0.0
  0
LINE
  5
AF1
330
1E
100
AcDbEntity
  8
0
100
AcDbLine
 10
11.51202999999998
 20
800.06
 30
0.0
 11
11.8407620798946
 21
800.498083307618
 31
0.0
  0
LINE
  5
AF2
330
1E
100
AcDbEntity
  8
0
100
AcDbLine
 10
11.80252999999999
 20
801.1469999999999
 30
0.0
 11
12.51271000000002
 21
801.4149999999998
 31
0.0
  0
LINE
  5
AF3
330
1E
100
AcDbEntity
  8
0
100
AcDbLine
 10
11.80252999999999
 20
801.1469999999999
 30
0.0
 11
12.08337642085018
 21
801.5797933486799
 31
0.0
  0
LINE
  5
AF4
330
1E
100
AcDbEntity
  8
0
100
AcDbLine
 10
11.80252999999999
 20
801.1469999999999
 30
0.0
 11
11.84712999999999
 21
800.3899999999999
 31
0.0
  0
LINE
  5
AF5
330
1E
100
AcDbEntity
  8
0
100
AcDbLine
 10
11.84712999999999
 20
800.3899999999999
 30
0.0
 11
12.58499999999997
 21
799.5980000000001
 31
0.0
  0
LINE
  5
AF6
330
1E
100
AcDbEntity
  8
0
100
AcDbLine
 10
12.76479999999998
 20
729.415
 30
0.0
 11
15.43439
 21
731.043
 31
0.0
  0
LINE
  5
AF7
330
1E
100
AcDbEntity
  8
0
100
AcDbLine
 10
12.80727000000001
 20
798.288
 30
0.0
 11
13.35926999999998
 21
798.273
 31
0.0
  0
LINE
  5
AF8
330
1E
100
AcDbEntity
  8
0
100
AcDbLine
 10
13.35926999999998
 20
798.273
 30
0.0
 11
13.83413287964521
 21
798.905823851712
 31
0.0
  0
LINE
  5
AF9
330
1E
100
AcDbEntity
  8
0
100
AcDbLine
 10
4.455400000000054
 20
817.862
 30
0.0
 11
11.42926999999997
 21
814.55
 31
0.0
  0
LINE
  5
AFA
330
1E
100
AcDbEntity
  8
0
100
AcDbLine
 10
1.012000000000057
 20
818.8830000000001
 30
0.0
 11
4.455400000000054
 21
817.862
 31
0.0
  0
LINE
  5
AFB
330
1E
100
AcDbEntity
  8
0
100
AcDbLine
 10
0.1676000000000499
 20
818.2869999999999
 30
0.0
 11
1.012000000000057
 21
818.8830000000001
 31
0.0
  0
LINE
  5
AFC
330
1E
100
AcDbEntity
  8
0
100
AcDbLine
 10
8.30487000000005
 20
804.0980000000001
 30
0.0
 11
11.56903122491172
 21
800.8862212882901
 31
0.0
  0
LINE
  5
AFD
330
1E
100
AcDbEntity
  8
0
100
AcDbLine
 10
10.96003999999999
 20
800.075
 30
0.0
 11
11.56903122491172
 21
800.8862212882901
 31
0.0
  0
LINE
  5
AFE
330
1E
100
AcDbEntity
  8
0
100
AcDbLine
 10
10.96003999999999
 20
800.075
 30
0.0
 11
11.51202999999998
 21
800.06
 31
0.0
  0
LINE
  5
AFF
330
1E
100
AcDbEntity
  8
0
100
AcDbLine
 10
10.96003999999999
 20
800.075
 30
0.0
 11
11.65462604683091
 21
801.000239912644
 31
0.0
  0
LINE
  5
B00
330
1E
100
AcDbEntity
  8
0
100
AcDbLine
 10
10.96003999999999
 20
800.075
 30
0.0
 11
11.12772999999998
 21
799.548
 31
0.0
  0
LINE
  5
B01
330
1E
100
AcDbEntity
  8
0
100
AcDbLine
 10
11.12772999999998
 20
799.548
 30
0.0
 11
11.88513999999997
 21
798.808
 31
0.0
  0
LINE
  5
B02
330
1E
100
AcDbEntity
  8
0
100
AcDbLine
 10
0.9507000000000402
 20
813.3269999999999
 30
0.0
 11
2.89530000000002
 21
810.156
 31
0.0
  0
LINE
  5
B03
330
1E
100
AcDbEntity
  8
0
100
AcDbLine
 10
-0.0557999999999765
 20
815.8879999999999
 30
0.0
 11
0.1676000000000499
 21
818.2869999999999
 31
0.0
  0
LINE
  5
B04
330
1E
100
AcDbEntity
  8
0
100
AcDbLine
 10
-0.0557999999999765
 20
815.8879999999999
 30
0.0
 11
0.9507000000000402
 21
813.3269999999999
 31
0.0
  0
LINE
  5
B05
330
1E
100
AcDbEntity
  8
0
100
AcDbLine
 10
5.131500000000016
 20
807.432
 30
0.0
 11
8.30487000000005
 21
804.0980000000001
 31
0.0
  0
LINE
  5
B06
330
1E
100
AcDbEntity
  8
0
100
AcDbLine
 10
2.89530000000002
 20
810.156
 30
0.0
 11
5.131500000000016
 21
807.432
 31
0.0
  0
LINE
  5
B07
330
1E
100
AcDbEntity
  8
0
100
AcDbLine
 10
121.5258
 20
721.3819999999999
 30
0.0
 11
127.1637999999999
 21
713.9569999999999
 31
0.0
  0
LINE
  5
B08
330
1E
100
AcDbEntity
  8
0
100
AcDbLine
 10
81.05579999999998
 20
718.338
 30
0.0
 11
123.8371901683499
 21
718.338
 31
0.0
  0
LINE
  5
B09
330
1E
100
AcDbEntity
  8
0
100
AcDbLine
 10
10.19193999999998
 20
727.6539999999999
 30
0.0
 11
12.76479999999998
 21
729.415
 31
0.0
  0
LINE
  5
B0A
330
1E
100
AcDbEntity
  8
0
100
AcDbLine
 10
11.86014999999997
 20
721.715
 30
0.0
 11
12.37903999999997
 21
721.457
 31
0.0
  0
LINE
  5
B0B
330
1E
100
AcDbEntity
  8
0
100
AcDbLine
 10
11.68718000000001
 20
721.801
 30
0.0
 11
11.86014999999997
 21
721.715
 31
0.0
  0
LINE
  5
B0C
330
1E
100
AcDbEntity
  8
0
100
AcDbLine
 10
12.37903999999997
 20
721.457
 30
0.0
 11
13.22680000000002
 21
721.03
 31
0.0
  0
LINE
  5
B0D
330
1E
100
AcDbEntity
  8
0
100
AcDbLine
 10
12.37903999999997
 20
721.457
 30
0.0
 11
12.6811645942393
 21
721.304825797702
 31
0.0
  0
LINE
  5
B0E
330
1E
100
AcDbEntity
  8
0
100
AcDbLine
 10
15.54590000000001
 20
719.829
 30
0.0
 11
17.16520000000002
 21
718.9619999999999
 31
0.0
  0
LINE
  5
B0F
330
1E
100
AcDbEntity
  8
0
100
AcDbLine
 10
14.27141999999997
 20
720.493
 30
0.0
 11
15.54590000000001
 21
719.829
 31
0.0
  0
LINE
  5
B10
330
1E
100
AcDbEntity
  8
0
100
AcDbLine
 10
13.22680000000002
 20
721.03
 30
0.0
 11
14.27141999999997
 21
720.493
 31
0.0
  0
LINE
  5
B11
330
1E
100
AcDbEntity
  8
0
100
AcDbLine
 10
17.16520000000002
 20
718.9619999999999
 30
0.0
 11
18.96649999999999
 21
717.9719999999999
 31
0.0
  0
LINE
  5
B12
330
1E
100
AcDbEntity
  8
0
100
AcDbLine
 10
8.341660000000047
 20
726.246
 30
0.0
 11
10.19193999999998
 21
727.6539999999999
 31
0.0
  0
LINE
  5
B13
330
1E
100
AcDbEntity
  8
0
100
AcDbLine
 10
7.723770000000001
 20
725.7749999999999
 30
0.0
 11
8.341660000000047
 21
726.246
 31
0.0
  0
LINE
  5
B14
330
1E
100
AcDbEntity
  8
0
100
AcDbLine
 10
7.852350000000001
 20
724.1210000000001
 30
0.0
 11
11.68718000000001
 21
721.801
 31
0.0
  0
LINE
  5
B15
330
1E
100
AcDbEntity
  8
0
100
AcDbLine
 10
7.171870000000012
 20
724.6310000000001
 30
0.0
 11
7.347110000000043
 21
724.458
 31
0.0
  0
LINE
  5
B16
330
1E
100
AcDbEntity
  8
0
100
AcDbLine
 10
7.084249999999997
 20
724.7869999999998
 30
0.0
 11
7.171870000000012
 21
724.6310000000001
 31
0.0
  0
LINE
  5
B17
330
1E
100
AcDbEntity
  8
0
100
AcDbLine
 10
7.273150000000043
 20
725.38
 30
0.0
 11
7.669150000000001
 21
725.727
 31
0.0
  0
LINE
  5
B18
330
1E
100
AcDbEntity
  8
0
100
AcDbLine
 10
7.669150000000001
 20
725.727
 30
0.0
 11
7.723770000000001
 21
725.7749999999999
 31
0.0
  0
LINE
  5
B19
330
1E
100
AcDbEntity
  8
0
100
AcDbLine
 10
7.144560000000012
 20
725.2080000000001
 30
0.0
 11
7.273150000000043
 21
725.38
 31
0.0
  0
LINE
  5
B1A
330
1E
100
AcDbEntity
  8
0
100
AcDbLine
 10
7.055800000000033
 20
724.995
 30
0.0
 11
7.144560000000012
 21
725.2080000000001
 31
0.0
  0
LINE
  5
B1B
330
1E
100
AcDbEntity
  8
0
100
AcDbLine
 10
7.055800000000033
 20
724.995
 30
0.0
 11
7.084249999999997
 21
724.7869999999998
 31
0.0
  0
LINE
  5
B1C
330
1E
100
AcDbEntity
  8
0
100
AcDbLine
 10
7.347110000000043
 20
724.458
 30
0.0
 11
7.852350000000001
 21
724.1210000000001
 31
0.0
  0
LINE
  5
B1D
330
1E
100
AcDbEntity
  8
0
100
AcDbLine
 10
77.10590000000002
 20
718.338
 30
0.0
 11
81.05579999999998
 21
718.338
 31
0.0
  0
LINE
  5
B1E
330
1E
100
AcDbEntity
  8
0
100
AcDbLine
 10
33.29734406215277
 20
708.969713074848
 30
0.0
 11
33.6834
 21
708.699
 31
0.0
  0
LINE
  5
B1F
330
1E
100
AcDbEntity
  8
0
100
AcDbLine
 10
50.46330000000001
 20
714.796
 30
0.0
 11
54.04099999999999
 21
716.242
 31
0.0
  0
LINE
  5
B20
330
1E
100
AcDbEntity
  8
0
100
AcDbLine
 10
68.59530000000001
 20
718.2689999999999
 30
0.0
 11
77.10590000000002
 21
718.338
 31
0.0
  0
LINE
  5
B21
330
1E
100
AcDbEntity
  8
0
100
AcDbLine
 10
60.19589999999999
 20
717.64
 30
0.0
 11
63.53071088434359
 21
717.9695460032479
 31
0.0
  0
LINE
  5
B22
330
1E
100
AcDbEntity
  8
0
100
AcDbLine
 10
54.04099999999999
 20
716.242
 30
0.0
 11
56.74788002856018
 21
716.9870888038651
 31
0.0
  0
LINE
  5
B23
330
1E
100
AcDbEntity
  8
0
100
AcDbLine
 10
44.17279999999999
 20
710.5809999999999
 30
0.0
 11
47.04783864218529
 21
712.7935169499969
 31
0.0
  0
LINE
  5
B24
330
1E
100
AcDbEntity
  8
0
100
AcDbLine
 10
47.04783864218529
 20
712.7935169499969
 30
0.0
 11
50.46330000000001
 21
714.796
 31
0.0
  0
LINE
  5
B25
330
1E
100
AcDbEntity
  8
0
100
AcDbLine
 10
26.34829999999999
 20
713.595
 30
0.0
 11
28.08929999999998
 21
712.485
 31
0.0
  0
LINE
  5
B26
330
1E
100
AcDbEntity
  8
0
100
AcDbLine
 10
25.00319999999999
 20
714.432
 30
0.0
 11
26.34829999999999
 21
713.595
 31
0.0
  0
LINE
  5
B27
330
1E
100
AcDbEntity
  8
0
100
AcDbLine
 10
23.62979999999998
 20
715.2669999999999
 30
0.0
 11
25.00319999999999
 21
714.432
 31
0.0
  0
LINE
  5
B28
330
1E
100
AcDbEntity
  8
0
100
AcDbLine
 10
18.96649999999999
 20
717.9719999999999
 30
0.0
 11
20.89300000000002
 21
716.8789999999999
 31
0.0
  0
LINE
  5
B29
330
1E
100
AcDbEntity
  8
0
100
AcDbLine
 10
22.25630000000001
 20
716.085
 30
0.0
 11
23.62979999999998
 21
715.2669999999999
 31
0.0
  0
LINE
  5
B2A
330
1E
100
AcDbEntity
  8
0
100
AcDbLine
 10
20.89300000000002
 20
716.8789999999999
 30
0.0
 11
22.25630000000001
 21
716.085
 31
0.0
  0
LINE
  5
B2B
330
1E
100
AcDbEntity
  8
0
100
AcDbLine
 10
10.95526000000001
 20
718.098
 30
0.0
 11
12.6811645942393
 21
721.304825797702
 31
0.0
  0
LINE
  5
B2C
330
1E
100
AcDbEntity
  8
0
100
AcDbLine
 10
10.96507000000002
 20
717.691
 30
0.0
 11
11.11714
 21
717.547
 31
0.0
  0
LINE
  5
B2D
330
1E
100
AcDbEntity
  8
0
100
AcDbLine
 10
10.90550999999999
 20
717.893
 30
0.0
 11
10.95526000000001
 21
718.098
 31
0.0
  0
LINE
  5
B2E
330
1E
100
AcDbEntity
  8
0
100
AcDbLine
 10
10.90550999999999
 20
717.893
 30
0.0
 11
10.96507000000002
 21
717.691
 31
0.0
  0
LINE
  5
B2F
330
1E
100
AcDbEntity
  8
0
100
AcDbLine
 10
28.08929999999998
 20
712.485
 30
0.0
 11
29.71309999999999
 21
711.4199999999999
 31
0.0
  0
LINE
  5
B30
330
1E
100
AcDbEntity
  8
0
100
AcDbLine
 10
29.71309999999999
 20
711.4199999999999
 30
0.0
 11
31.1868
 21
710.431
 31
0.0
  0
LINE
  5
B31
330
1E
100
AcDbEntity
  8
0
100
AcDbLine
 10
31.1868
 20
710.431
 30
0.0
 11
32.55110000000001
 21
709.493
 31
0.0
  0
LINE
  5
B32
330
1E
100
AcDbEntity
  8
0
100
AcDbLine
 10
32.55110000000001
 20
709.493
 30
0.0
 11
33.6834
 21
708.699
 31
0.0
  0
LINE
  5
B33
330
1E
100
AcDbEntity
  8
0
100
AcDbLine
 10
37.92560000000003
 20
705.927
 30
0.0
 11
38.39670000000001
 21
705.6689999999999
 31
0.0
  0
LINE
  5
B34
330
1E
100
AcDbEntity
  8
0
100
AcDbLine
 10
41.988
 20
708.5269999999999
 30
0.0
 11
44.17279999999999
 21
710.5809999999999
 31
0.0
  0
LINE
  5
B35
330
1E
100
AcDbEntity
  8
0
100
AcDbLine
 10
39.80549999999999
 20
706.1989999999999
 30
0.0
 11
41.988
 21
708.5269999999999
 31
0.0
  0
LINE
  5
B36
330
1E
100
AcDbEntity
  8
0
100
AcDbLine
 10
39.43900000000002
 20
705.821
 30
0.0
 11
39.80549999999999
 21
706.1989999999999
 31
0.0
  0
LINE
  5
B37
330
1E
100
AcDbEntity
  8
0
100
AcDbLine
 10
38.62200000000001
 20
705.592
 30
0.0
 11
38.94519999999999
 21
705.574
 31
0.0
  0
LINE
  5
B38
330
1E
100
AcDbEntity
  8
0
100
AcDbLine
 10
39.24790000000001
 20
705.684
 30
0.0
 11
39.43900000000002
 21
705.821
 31
0.0
  0
LINE
  5
B39
330
1E
100
AcDbEntity
  8
0
100
AcDbLine
 10
38.94519999999999
 20
705.574
 30
0.0
 11
39.24790000000001
 21
705.684
 31
0.0
  0
LINE
  5
B3A
330
1E
100
AcDbEntity
  8
0
100
AcDbLine
 10
38.39670000000001
 20
705.6689999999999
 30
0.0
 11
38.62200000000001
 21
705.592
 31
0.0
  0
LINE
  5
B3B
330
1E
100
AcDbEntity
  8
0
100
AcDbLine
 10
35.25599999999997
 20
707.57
 30
0.0
 11
35.49270000000001
 21
707.3989999999999
 31
0.0
  0
LINE
  5
B3C
330
1E
100
AcDbEntity
  8
0
100
AcDbLine
 10
34.55729999999999
 20
708.075
 30
0.0
 11
35.25599999999997
 21
707.57
 31
0.0
  0
LINE
  5
B3D
330
1E
100
AcDbEntity
  8
0
100
AcDbLine
 10
33.6834
 20
708.699
 30
0.0
 11
34.55729999999999
 21
708.075
 31
0.0
  0
LINE
  5
B3E
330
1E
100
AcDbEntity
  8
0
100
AcDbLine
 10
35.49270000000001
 20
707.3989999999999
 30
0.0
 11
37.92560000000003
 21
705.927
 31
0.0
  0
LINE
  5
B3F
330
1E
100
AcDbEntity
  8
0
100
AcDbLine
 10
32.08339999999998
 20
706.7280000000001
 30
0.0
 11
33.29191867649729
 21
708.973517504956
 31
0.0
  0
LINE
  5
B40
330
1E
100
AcDbEntity
  8
0
100
AcDbLine
 10
31.54059999999998
 20
706.557
 30
0.0
 11
31.74450000000001
 21
706.5089999999998
 31
0.0
  0
LINE
  5
B41
330
1E
100
AcDbEntity
  8
0
100
AcDbLine
 10
31.74450000000001
 20
706.5089999999998
 30
0.0
 11
31.94580000000001
 21
706.57
 31
0.0
  0
LINE
  5
B42
330
1E
100
AcDbEntity
  8
0
100
AcDbLine
 10
31.47149999999999
 20
706.5939999999999
 30
0.0
 11
31.54059999999998
 21
706.557
 31
0.0
  0
LINE
  5
B43
330
1E
100
AcDbEntity
  8
0
100
AcDbLine
 10
31.30989999999997
 20
706.681
 30
0.0
 11
31.47149999999999
 21
706.5939999999999
 31
0.0
  0
ENDSEC
  0
SECTION
  2
OBJECTS
  0
DICTIONARY
  5
C
330
0
100
AcDbDictionary
281
     1
  3
ACAD_GROUP
350
D
  3
ACAD_LAYOUT
350
19
  3
ACAD_MLINESTYLE
350
16
  3
ACAD_PLOTSETTINGS
350
18
  3
ACAD_PLOTSTYLENAME
350
E
  3
AcDbVariableDictionary
350
B45
  0
DICTIONARY
  5
D
102
{ACAD_REACTORS
330
C
102
}
330
C
100
AcDbDictionary
281
     1
  0
DICTIONARY
  5
19
102
{ACAD_REACTORS
330
C
102
}
330
C
100
AcDbDictionary
281
     1
  3
Layout1
350
1D
  3
Model
350
21
  0
DICTIONARY
  5
16
102
{ACAD_REACTORS
330
C
102
}
330
C
100
AcDbDictionary
281
     1
  3
Standard
350
17
  0
DICTIONARY
  5
18
102
{ACAD_REACTORS
330
C
102
}
330
C
100
AcDbDictionary
281
     1
  0
ACDBDICTIONARYWDFLT
  5
E
102
{ACAD_REACTORS
330
C
102
}
330
C
100
AcDbDictionary
281
     1
  3
Normal
350
F
100
AcDbDictionaryWithDefault
340
F
  0
DICTIONARY
  5
B45
102
{ACAD_REACTORS
330
C
102
}
330
C
100
AcDbDictionary
281
     1
  3
DIMASSOC
350
B46
  0
LAYOUT
  5
1D
102
{ACAD_REACTORS
330
19
102
}
330
19
100
AcDbPlotSettings
  1

  2
C:\Programme\AutoCAD LT 2002 Deu\plotters\DWF ePlot (optimized for plotting).pc3
  4

  6

 40
0.0
 41
0.0
 42
0.0
 43
0.0
 44
0.0
 45
0.0
 46
0.0
 47
0.0
 48
0.0
 49
0.0
140
0.0
141
0.0
142
1.0
143
1.0
 70
   688
 72
     0
 73
     0
 74
     5
  7

 75
    16
147
1.0
148
0.0
149
0.0
100
AcDbLayout
  1
Layout1
 70
     1
 71
     1
 10
0.0
 20
0.0
 11
12.0
 21
9.0
 12
0.0
 22
0.0
 32
0.0
 14
1.000000000000000E+20
 24
1.000000000000000E+20
 34
1.000000000000000E+20
 15
-1.000000000000000E+20
 25
-1.000000000000000E+20
 35
-1.000000000000000E+20
146
0.0
 13
0.0
 23
0.0
 33
0.0
 16
1.0
 26
0.0
 36
0.0
 17
0.0
 27
1.0
 37
0.0
 76
     0
330
1A
  0
LAYOUT
  5
21
102
{ACAD_REACTORS
330
19
102
}
330
19
100
AcDbPlotSettings
  1

  2
C:\Programme\AutoCAD LT 2002 Deu\plotters\DWF ePlot (optimized for plotting).pc3
  4

  6

 40
0.0
 41
0.0
 42
0.0
 43
0.0
 44
0.0
 45
0.0
 46
0.0
 47
0.0
 48
0.0
 49
0.0
140
0.0
141
0.0
142
1.0
143
1.0
 70
  1712
 72
     0
 73
     0
 74
     0
  7

 75
     0
147
1.0
148
0.0
149
0.0
100
AcDbLayout
  1
Model
 70
     1
 71
     0
 10
0.0
 20
0.0
 11
12.0
 21
9.0
 12
0.0
 22
0.0
 32
0.0
 14
0.0
 24
0.0
 34
0.0
 15
0.0
 25
0.0
 35
0.0
146
0.0
 13
0.0
 23
0.0
 33
0.0
 16
1.0
 26
0.0
 36
0.0
 17
0.0
 27
1.0
 37
0.0
 76
     0
330
1E
  0
MLINESTYLE
  5
17
102
{ACAD_REACTORS
330
16
102
}
330
16
100
AcDbMlineStyle
  2
STANDARD
 70
     0
  3

 62
   256
 51
90.0
 52
90.0
 71
     2
 49
0.5
 62
   256
  6
BYLAYER
 49
-0.5
 62
   256
  6
BYLAYER
  0
ACDBPLACEHOLDER
  5
F
102
{ACAD_REACTORS
330
E
102
}
330
E
  0
DICTIONARYVAR
  5
B46
102
{ACAD_REACTORS
330
B45
102
}
330
B45
100
DictionaryVariables
280
     0
  1
1
  0
ENDSEC
  0
EOF
