  0
SECTION
  2
HEADER
  9
$ACADVER
  1
AC1015
  9
$ACADMAINTVER
 70
    13
  9
$DWGCODEPAGE
  3
ANSI_1252
  9
$INSBASE
 10
0.0
 20
0.0
 30
0.0
  9
$EXTMIN
 10
115.0
 20
604.7959999999999
 30
0.0
  9
$EXTMAX
 10
550.0
 20
818.8830000000001
 30
0.0
  9
$LIMMIN
 10
0.0
 20
0.0
  9
$LIMMAX
 10
12.0
 20
9.0
  9
$ORTHOMODE
 70
     0
  9
$REGENMODE
 70
     1
  9
$FILLMODE
 70
     1
  9
$QTEXTMODE
 70
     0
  9
$MIRRTEXT
 70
     1
  9
$LTSCALE
 40
1.0
  9
$ATTMODE
 70
     1
  9
$TEXTSIZE
 40
0.2
  9
$TRACEWID
 40
0.05
  9
$TEXTSTYLE
  7
Standard
  9
$CLAYER
  8
0
  9
$CELTYPE
  6
Continuous
  9
$CECOLOR
 62
   256
  9
$CELTSCALE
 40
1.0
  9
$DISPSILH
 70
     0
  9
$DIMSCALE
 40
1.0
  9
$DIMASZ
 40
0.18
  9
$DIMEXO
 40
0.0625
  9
$DIMDLI
 40
0.38
  9
$DIMRND
 40
0.0
  9
$DIMDLE
 40
0.0
  9
$DIMEXE
 40
0.18
  9
$DIMTP
 40
0.0
  9
$DIMTM
 40
0.0
  9
$DIMTXT
 40
0.18
  9
$DIMCEN
 40
0.09
  9
$DIMTSZ
 40
0.0
  9
$DIMTOL
 70
     0
  9
$DIMLIM
 70
     0
  9
$DIMTIH
 70
     1
  9
$DIMTOH
 70
     1
  9
$DIMSE1
 70
     0
  9
$DIMSE2
 70
     0
  9
$DIMTAD
 70
     0
  9
$DIMZIN
 70
     0
  9
$DIMBLK
  1

  9
$DIMASO
 70
     1
  9
$DIMSHO
 70
     1
  9
$DIMPOST
  1

  9
$DIMAPOST
  1

  9
$DIMALT
 70
     0
  9
$DIMALTD
 70
     2
  9
$DIMALTF
 40
25.4
  9
$DIMLFAC
 40
1.0
  9
$DIMTOFL
 70
     0
  9
$DIMTVP
 40
0.0
  9
$DIMTIX
 70
     0
  9
$DIMSOXD
 70
     0
  9
$DIMSAH
 70
     0
  9
$DIMBLK1
  1

  9
$DIMBLK2
  1

  9
$DIMSTYLE
  2
Standard
  9
$DIMCLRD
 70
     0
  9
$DIMCLRE
 70
     0
  9
$DIMCLRT
 70
     0
  9
$DIMTFAC
 40
1.0
  9
$DIMGAP
 40
0.09
  9
$DIMJUST
 70
     0
  9
$DIMSD1
 70
     0
  9
$DIMSD2
 70
     0
  9
$DIMTOLJ
 70
     1
  9
$DIMTZIN
 70
     0
  9
$DIMALTZ
 70
     0
  9
$DIMALTTZ
 70
     0
  9
$DIMUPT
 70
     0
  9
$DIMDEC
 70
     4
  9
$DIMTDEC
 70
     4
  9
$DIMALTU
 70
     2
  9
$DIMALTTD
 70
     2
  9
$DIMTXSTY
  7
Standard
  9
$DIMAUNIT
 70
     0
  9
$DIMADEC
 70
     0
  9
$DIMALTRND
 40
0.0
  9
$DIMAZIN
 70
     0
  9
$DIMDSEP
 70
    46
  9
$DIMATFIT
 70
     3
  9
$DIMFRAC
 70
     0
  9
$DIMLDRBLK
  1

  9
$DIMLUNIT
 70
     2
  9
$DIMLWD
 70
    -2
  9
$DIMLWE
 70
    -2
  9
$DIMTMOVE
 70
     0
  9
$LUNITS
 70
     2
  9
$LUPREC
 70
     4
  9
$SKETCHINC
 40
0.1
  9
$FILLETRAD
 40
0.0
  9
$AUNITS
 70
     0
  9
$AUPREC
 70
     0
  9
$MENU
  1
.
  9
$ELEVATION
 40
0.0
  9
$PELEVATION
 40
0.0
  9
$THICKNESS
 40
0.0
  9
$LIMCHECK
 70
     0
  9
$CHAMFERA
 40
0.0
  9
$CHAMFERB
 40
0.0
  9
$CHAMFERC
 40
0.0
  9
$CHAMFERD
 40
0.0
  9
$SKPOLY
 70
     0
  9
$TDCREATE
 40
2455654.971512939
  9
$TDUCREATE
 40
2455654.888179606
  9
$TDUPDATE
 40
2455654.973495729
  9
$TDUUPDATE
 40
2455654.890162395
  9
$TDINDWG
 40
0.0019827894
  9
$TDUSRTIMER
 40
0.0019827894
  9
$USRTIMER
 70
     1
  9
$ANGBASE
 50
0.0
  9
$ANGDIR
 70
     0
  9
$PDMODE
 70
     0
  9
$PDSIZE
 40
0.0
  9
$PLINEWID
 40
0.0
  9
$SPLFRAME
 70
     0
  9
$SPLINETYPE
 70
     6
  9
$SPLINESEGS
 70
     8
  9
$HANDSEED
  5
1D16
  9
$SURFTAB1
 70
     6
  9
$SURFTAB2
 70
     6
  9
$SURFTYPE
 70
     6
  9
$SURFU
 70
     6
  9
$SURFV
 70
     6
  9
$UCSBASE
  2

  9
$UCSNAME
  2

  9
$UCSORG
 10
0.0
 20
0.0
 30
0.0
  9
$UCSXDIR
 10
1.0
 20
0.0
 30
0.0
  9
$UCSYDIR
 10
0.0
 20
1.0
 30
0.0
  9
$UCSORTHOREF
  2

  9
$UCSORTHOVIEW
 70
     1
  9
$UCSORGTOP
 10
0.0
 20
0.0
 30
0.0
  9
$UCSORGBOTTOM
 10
0.0
 20
0.0
 30
0.0
  9
$UCSORGLEFT
 10
0.0
 20
0.0
 30
0.0
  9
$UCSORGRIGHT
 10
0.0
 20
0.0
 30
0.0
  9
$UCSORGFRONT
 10
0.0
 20
0.0
 30
0.0
  9
$UCSORGBACK
 10
0.0
 20
0.0
 30
0.0
  9
$PUCSBASE
  2

  9
$PUCSNAME
  2

  9
$PUCSORG
 10
0.0
 20
0.0
 30
0.0
  9
$PUCSXDIR
 10
1.0
 20
0.0
 30
0.0
  9
$PUCSYDIR
 10
0.0
 20
1.0
 30
0.0
  9
$PUCSORTHOREF
  2

  9
$PUCSORTHOVIEW
 70
     0
  9
$PUCSORGTOP
 10
0.0
 20
0.0
 30
0.0
  9
$PUCSORGBOTTOM
 10
0.0
 20
0.0
 30
0.0
  9
$PUCSORGLEFT
 10
0.0
 20
0.0
 30
0.0
  9
$PUCSORGRIGHT
 10
0.0
 20
0.0
 30
0.0
  9
$PUCSORGFRONT
 10
0.0
 20
0.0
 30
0.0
  9
$PUCSORGBACK
 10
0.0
 20
0.0
 30
0.0
  9
$USERI1
 70
     0
  9
$USERI2
 70
     0
  9
$USERI3
 70
     0
  9
$USERI4
 70
     0
  9
$USERI5
 70
     0
  9
$USERR1
 40
0.0
  9
$USERR2
 40
0.0
  9
$USERR3
 40
0.0
  9
$USERR4
 40
0.0
  9
$USERR5
 40
0.0
  9
$WORLDVIEW
 70
     1
  9
$SHADEDGE
 70
     3
  9
$SHADEDIF
 70
    70
  9
$TILEMODE
 70
     1
  9
$MAXACTVP
 70
    64
  9
$PINSBASE
 10
0.0
 20
0.0
 30
0.0
  9
$PLIMCHECK
 70
     0
  9
$PEXTMIN
 10
1.000000000000000E+20
 20
1.000000000000000E+20
 30
1.000000000000000E+20
  9
$PEXTMAX
 10
-1.000000000000000E+20
 20
-1.000000000000000E+20
 30
-1.000000000000000E+20
  9
$PLIMMIN
 10
0.0
 20
0.0
  9
$PLIMMAX
 10
12.0
 20
9.0
  9
$UNITMODE
 70
     0
  9
$VISRETAIN
 70
     1
  9
$PLINEGEN
 70
     0
  9
$PSLTSCALE
 70
     1
  9
$TREEDEPTH
 70
  3020
  9
$CMLSTYLE
  2
Standard
  9
$CMLJUST
 70
     0
  9
$CMLSCALE
 40
1.0
  9
$PROXYGRAPHICS
 70
     1
  9
$MEASUREMENT
 70
     0
  9
$CELWEIGHT
370
    -1
  9
$ENDCAPS
280
     0
  9
$JOINSTYLE
280
     0
  9
$LWDISPLAY
290
     0
  9
$INSUNITS
 70
     0
  9
$HYPERLINKBASE
  1

  9
$STYLESHEET
  1

  9
$XEDIT
290
     1
  9
$CEPSNTYPE
380
     0
  9
$PSTYLEMODE
290
     1
  9
$FINGERPRINTGUID
  2
{ED66C957-FE25-4E41-9488-7E11F4D5842E}
  9
$VERSIONGUID
  2
{D2514802-6637-47E8-8A18-D4FA77FA790E}
  9
$EXTNAMES
290
     1
  9
$PSVPSCALE
 40
0.0
  9
$OLESTARTUP
290
     0
  0
ENDSEC
  0
SECTION
  2
CLASSES
  0
CLASS
  1
ACDBDICTIONARYWDFLT
  2
AcDbDictionaryWithDefault
  3
AutoCAD 2000
 90
        0
280
     0
281
     0
  0
CLASS
  1
ACDBPLACEHOLDER
  2
AcDbPlaceHolder
  3
AutoCAD 2000
 90
        0
280
     0
281
     0
  0
CLASS
  1
LAYOUT
  2
AcDbLayout
  3
AutoCAD 2000
 90
        0
280
     0
281
     0
  0
CLASS
  1
DICTIONARYVAR
  2
AcDbDictionaryVar
  3
AutoCAD 2000
 90
        0
280
     0
281
     0
  0
ENDSEC
  0
SECTION
  2
TABLES
  0
TABLE
  2
VPORT
  5
8
330
0
100
AcDbSymbolTable
 70
     4
  0
VPORT
  5
1D15
330
8
100
AcDbSymbolTableRecord
100
AcDbViewportTableRecord
  2
*Active
 70
     0
 10
0.0
 20
0.0
 11
1.0
 21
1.0
 12
332.5
 22
711.8395
 13
0.0
 23
0.0
 14
1.0
 24
1.0
 15
0.0
 25
0.0
 16
0.0
 26
0.0
 36
1.0
 17
0.0
 27
0.0
 37
0.0
 40
215.5351645997746
 41
2.073363431151241
 42
50.0
 43
0.0
 44
0.0
 50
0.0
 51
0.0
 71
     0
 72
   100
 73
     1
 74
     3
 75
     0
 76
     0
 77
     0
 78
     0
281
     0
 65
     1
110
0.0
120
0.0
130
0.0
111
1.0
121
0.0
131
0.0
112
0.0
122
1.0
132
0.0
 79
     1
146
0.0
  0
ENDTAB
  0
TABLE
  2
LTYPE
  5
5
330
0
100
AcDbSymbolTable
 70
     1
  0
LTYPE
  5
13
330
5
100
AcDbSymbolTableRecord
100
AcDbLinetypeTableRecord
  2
ByBlock
 70
     0
  3

 72
    65
 73
     0
 40
0.0
  0
LTYPE
  5
14
330
5
100
AcDbSymbolTableRecord
100
AcDbLinetypeTableRecord
  2
ByLayer
 70
     0
  3

 72
    65
 73
     0
 40
0.0
  0
LTYPE
  5
15
330
5
100
AcDbSymbolTableRecord
100
AcDbLinetypeTableRecord
  2
Continuous
 70
     0
  3
Solid line
 72
    65
 73
     0
 40
0.0
  0
ENDTAB
  0
TABLE
  2
LAYER
  5
2
330
0
100
AcDbSymbolTable
 70
     1
  0
LAYER
  5
10
330
2
100
AcDbSymbolTableRecord
100
AcDbLayerTableRecord
  2
0
 70
     0
 62
     7
  6
Continuous
370
    -3
390
F
  0
ENDTAB
  0
TABLE
  2
STYLE
  5
3
330
0
100
AcDbSymbolTable
 70
     1
  0
STYLE
  5
11
330
3
100
AcDbSymbolTableRecord
100
AcDbTextStyleTableRecord
  2
Standard
 70
     0
 40
0.0
 41
1.0
 50
0.0
 71
     0
 42
0.2
  3
txt
  4

  0
ENDTAB
  0
TABLE
  2
VIEW
  5
6
330
0
100
AcDbSymbolTable
 70
     0
  0
ENDTAB
  0
TABLE
  2
UCS
  5
7
330
0
100
AcDbSymbolTable
 70
     0
  0
ENDTAB
  0
TABLE
  2
APPID
  5
9
330
0
100
AcDbSymbolTable
 70
     1
  0
APPID
  5
12
330
9
100
AcDbSymbolTableRecord
100
AcDbRegAppTableRecord
  2
ACAD
 70
     0
  0
ENDTAB
  0
TABLE
  2
DIMSTYLE
  5
A
330
0
100
AcDbSymbolTable
 70
     1
100
AcDbDimStyleTable
 71
     0
  0
DIMSTYLE
105
107D
330
A
100
AcDbSymbolTableRecord
100
AcDbDimStyleTableRecord
  2
Standard
 70
     0
340
11
  0
ENDTAB
  0
TABLE
  2
BLOCK_RECORD
  5
1
330
0
100
AcDbSymbolTable
 70
     1
  0
BLOCK_RECORD
  5
1E
330
1
100
AcDbSymbolTableRecord
100
AcDbBlockTableRecord
  2
*Model_Space
340
21
  0
BLOCK_RECORD
  5
1A
330
1
100
AcDbSymbolTableRecord
100
AcDbBlockTableRecord
  2
*Paper_Space
340
1D
  0
ENDTAB
  0
ENDSEC
  0
SECTION
  2
BLOCKS
  0
BLOCK
  5
1F
330
1E
100
AcDbEntity
  8
0
100
AcDbBlockBegin
  2
*Model_Space
 70
     0
 10
0.0
 20
0.0
 30
0.0
  3
*Model_Space
  1

  0
ENDBLK
  5
20
330
1E
100
AcDbEntity
  8
0
100
AcDbBlockEnd
  0
BLOCK
  5
1B
330
1A
100
AcDbEntity
 67
     1
  8
0
100
AcDbBlockBegin
  2
*Paper_Space
 70
     0
 10
0.0
 20
0.0
 30
0.0
  3
*Paper_Space
  1

  0
ENDBLK
  5
1C
330
1A
100
AcDbEntity
 67
     1
  8
0
100
AcDbBlockEnd
  0
ENDSEC
  0
SECTION
  2
ENTITIES
  0
LINE
  5
129
330
1E
100
AcDbEntity
  8
0
100
AcDbLine
 10
165.5359999999999
 20
605.1169999999999
 30
0.0
 11
166.1899999999999
 21
605.1169999999999
 31
0.0
  0
LINE
  5
12A
330
1E
100
AcDbEntity
  8
0
100
AcDbLine
 10
166.1899999999999
 20
605.1169999999999
 30
0.0
 11
168.148
 21
605.1169999999999
 31
0.0
  0
LINE
  5
12B
330
1E
100
AcDbEntity
  8
0
100
AcDbLine
 10
168.148
 20
605.1169999999999
 30
0.0
 11
171.2809999999999
 21
605.1169999999999
 31
0.0
  0
LINE
  5
12C
330
1E
100
AcDbEntity
  8
0
100
AcDbLine
 10
171.2809999999999
 20
605.1169999999999
 30
0.0
 11
175.2659999999999
 21
605.1169999999999
 31
0.0
  0
LINE
  5
12E
330
1E
100
AcDbEntity
  8
0
100
AcDbLine
 10
175.2659999999999
 20
605.1169999999999
 30
0.0
 11
179.9479999999999
 21
605.1169999999999
 31
0.0
  0
LINE
  5
131
330
1E
100
AcDbEntity
  8
0
100
AcDbLine
 10
163.8239999999999
 20
605.1169999999999
 30
0.0
 11
170.0879999999999
 21
605.1169999999999
 31
0.0
  0
LINE
  5
132
330
1E
100
AcDbEntity
  8
0
100
AcDbLine
 10
163.8239999999999
 20
605.1169999999999
 30
0.0
 11
165.5359999999999
 21
605.1169999999999
 31
0.0
  0
LINE
  5
133
330
1E
100
AcDbEntity
  8
0
100
AcDbLine
 10
170.0879999999999
 20
605.1169999999999
 30
0.0
 11
177.324
 21
605.1169999999999
 31
0.0
  0
LINE
  5
1AB
330
1E
100
AcDbEntity
  8
0
100
AcDbLine
 10
189.981
 20
605.1169999999999
 30
0.0
 11
194.73
 21
605.1169999999999
 31
0.0
  0
LINE
  5
1AC
330
1E
100
AcDbEntity
  8
0
100
AcDbLine
 10
185.002
 20
605.1169999999999
 30
0.0
 11
189.981
 21
605.1169999999999
 31
0.0
  0
LINE
  5
1AD
330
1E
100
AcDbEntity
  8
0
100
AcDbLine
 10
179.9479999999999
 20
605.1169999999999
 30
0.0
 11
185.002
 21
605.1169999999999
 31
0.0
  0
LINE
  5
219
330
1E
100
AcDbEntity
  8
0
100
AcDbLine
 10
194.73
 20
605.1169999999999
 30
0.0
 11
198.799
 21
605.1169999999999
 31
0.0
  0
LINE
  5
21C
330
1E
100
AcDbEntity
  8
0
100
AcDbLine
 10
198.799
 20
605.1169999999999
 30
0.0
 11
201.8549999999999
 21
605.1169999999999
 31
0.0
  0
LINE
  5
21D
330
1E
100
AcDbEntity
  8
0
100
AcDbLine
 10
201.8549999999999
 20
605.1169999999999
 30
0.0
 11
203.8549999999999
 21
605.1169999999999
 31
0.0
  0
LINE
  5
21E
330
1E
100
AcDbEntity
  8
0
100
AcDbLine
 10
202.298
 20
604.7959999999999
 30
0.0
 11
204.319
 21
604.7959999999999
 31
0.0
  0
LINE
  5
224
330
1E
100
AcDbEntity
  8
0
100
AcDbLine
 10
203.8549999999999
 20
605.1169999999999
 30
0.0
 11
204.464
 21
605.1169999999999
 31
0.0
  0
LINE
  5
245
330
1E
100
AcDbEntity
  8
0
100
AcDbLine
 10
204.319
 20
604.7959999999999
 30
0.0
 11
204.9479999999999
 21
604.7959999999999
 31
0.0
  0
LINE
  5
246
330
1E
100
AcDbEntity
  8
0
100
AcDbLine
 10
204.464
 20
605.1169999999999
 30
0.0
 11
206.176
 21
605.1169999999999
 31
0.0
  0
LINE
  5
247
330
1E
100
AcDbEntity
  8
0
100
AcDbLine
 10
204.464
 20
605.1169999999999
 30
0.0
 11
204.9479999999999
 21
604.7959999999999
 31
0.0
  0
LINE
  5
249
330
1E
100
AcDbEntity
  8
0
100
AcDbLine
 10
206.176
 20
605.1169999999999
 30
0.0
 11
210.9409999999999
 21
605.1169999999999
 31
0.0
  0
LINE
  5
24A
330
1E
100
AcDbEntity
  8
0
100
AcDbLine
 10
210.9409999999999
 20
605.1169999999999
 30
0.0
 11
213.9409999999999
 21
605.1169999999999
 31
0.0
  0
LINE
  5
2D0
330
1E
100
AcDbEntity
  8
0
100
AcDbLine
 10
213.9409999999999
 20
605.1169999999999
 30
0.0
 11
215.0
 21
605.1169999999999
 31
0.0
  0
LINE
  5
2D1
330
1E
100
AcDbEntity
  8
0
100
AcDbLine
 10
199.9119999999999
 20
605.1169999999999
 30
0.0
 11
206.176
 21
605.1169999999999
 31
0.0
  0
LINE
  5
2D2
330
1E
100
AcDbEntity
  8
0
100
AcDbLine
 10
192.6759999999999
 20
605.1169999999999
 30
0.0
 11
199.9119999999999
 21
605.1169999999999
 31
0.0
  0
LINE
  5
2D3
330
1E
100
AcDbEntity
  8
0
100
AcDbLine
 10
185.0
 20
605.1169999999999
 30
0.0
 11
192.6759999999999
 21
605.1169999999999
 31
0.0
  0
LINE
  5
2D4
330
1E
100
AcDbEntity
  8
0
100
AcDbLine
 10
177.324
 20
605.1169999999999
 30
0.0
 11
185.0
 21
605.1169999999999
 31
0.0
  0
LINE
  5
2D5
330
1E
100
AcDbEntity
  8
0
100
AcDbLine
 10
159.0589999999999
 20
605.1169999999999
 30
0.0
 11
163.8239999999999
 21
605.1169999999999
 31
0.0
  0
LINE
  5
2D6
330
1E
100
AcDbEntity
  8
0
100
AcDbLine
 10
156.0589999999999
 20
605.1169999999999
 30
0.0
 11
159.0589999999999
 21
605.1169999999999
 31
0.0
  0
LINE
  5
2D7
330
1E
100
AcDbEntity
  8
0
100
AcDbLine
 10
155.0
 20
605.1169999999999
 30
0.0
 11
156.0589999999999
 21
605.1169999999999
 31
0.0
  0
LINE
  5
3C5
330
1E
100
AcDbEntity
  8
0
100
AcDbLine
 10
275.304
 20
604.7959999999999
 30
0.0
 11
276.9019999999999
 21
604.7959999999999
 31
0.0
  0
LINE
  5
3C7
330
1E
100
AcDbEntity
  8
0
100
AcDbLine
 10
276.9019999999999
 20
604.7959999999999
 30
0.0
 11
279.6259999999999
 21
604.7959999999999
 31
0.0
  0
LINE
  5
3C9
330
1E
100
AcDbEntity
  8
0
100
AcDbLine
 10
279.6259999999999
 20
604.7959999999999
 30
0.0
 11
283.5139999999999
 21
604.7959999999999
 31
0.0
  0
LINE
  5
3CB
330
1E
100
AcDbEntity
  8
0
100
AcDbLine
 10
283.5139999999999
 20
604.7959999999999
 30
0.0
 11
288.245
 21
604.7959999999999
 31
0.0
  0
LINE
  5
3D1
330
1E
100
AcDbEntity
  8
0
100
AcDbLine
 10
275.7769999999999
 20
605.1169999999999
 30
0.0
 11
277.361
 21
605.1169999999999
 31
0.0
  0
LINE
  5
3D2
330
1E
100
AcDbEntity
  8
0
100
AcDbLine
 10
277.361
 20
605.1169999999999
 30
0.0
 11
280.057
 21
605.1169999999999
 31
0.0
  0
LINE
  5
3D3
330
1E
100
AcDbEntity
  8
0
100
AcDbLine
 10
280.057
 20
605.1169999999999
 30
0.0
 11
283.8379999999999
 21
605.1169999999999
 31
0.0
  0
LINE
  5
3D4
330
1E
100
AcDbEntity
  8
0
100
AcDbLine
 10
283.8379999999999
 20
605.1169999999999
 30
0.0
 11
288.3979999999999
 21
605.1169999999999
 31
0.0
  0
LINE
  5
3D5
330
1E
100
AcDbEntity
  8
0
100
AcDbLine
 10
275.6099999999999
 20
605.1169999999999
 30
0.0
 11
275.7769999999999
 21
605.1169999999999
 31
0.0
  0
LINE
  5
3D6
330
1E
100
AcDbEntity
  8
0
100
AcDbLine
 10
275.124
 20
604.7959999999999
 30
0.0
 11
275.6099999999999
 21
605.1169999999999
 31
0.0
  0
LINE
  5
3D7
330
1E
100
AcDbEntity
  8
0
100
AcDbLine
 10
275.124
 20
604.7959999999999
 30
0.0
 11
275.304
 21
604.7959999999999
 31
0.0
  0
LINE
  5
3D9
330
1E
100
AcDbEntity
  8
0
100
AcDbLine
 10
270.294
 20
605.1169999999999
 30
0.0
 11
277.6029999999999
 21
605.1169999999999
 31
0.0
  0
LINE
  5
3DA
330
1E
100
AcDbEntity
  8
0
100
AcDbLine
 10
270.294
 20
605.1169999999999
 30
0.0
 11
275.6099999999999
 21
605.1169999999999
 31
0.0
  0
LINE
  5
3DB
330
1E
100
AcDbEntity
  8
0
100
AcDbLine
 10
277.6029999999999
 20
605.1169999999999
 30
0.0
 11
286.044
 21
605.1169999999999
 31
0.0
  0
LINE
  5
45E
330
1E
100
AcDbEntity
  8
0
100
AcDbLine
 10
288.245
 20
604.7959999999999
 30
0.0
 11
293.3059999999999
 21
604.7959999999999
 31
0.0
  0
LINE
  5
45F
330
1E
100
AcDbEntity
  8
0
100
AcDbLine
 10
288.3979999999999
 20
605.1169999999999
 30
0.0
 11
293.3009999999999
 21
605.1169999999999
 31
0.0
  0
LINE
  5
460
330
1E
100
AcDbEntity
  8
0
100
AcDbLine
 10
293.3009999999999
 20
605.1169999999999
 30
0.0
 11
298.3899999999999
 21
605.1169999999999
 31
0.0
  0
LINE
  5
461
330
1E
100
AcDbEntity
  8
0
100
AcDbLine
 10
298.3899999999999
 20
605.1169999999999
 30
0.0
 11
303.228
 21
605.1169999999999
 31
0.0
  0
LINE
  5
462
330
1E
100
AcDbEntity
  8
0
100
AcDbLine
 10
293.3059999999999
 20
604.7959999999999
 30
0.0
 11
298.473
 21
604.7959999999999
 31
0.0
  0
LINE
  5
463
330
1E
100
AcDbEntity
  8
0
100
AcDbLine
 10
303.228
 20
605.1169999999999
 30
0.0
 11
307.464
 21
605.1169999999999
 31
0.0
  0
LINE
  5
464
330
1E
100
AcDbEntity
  8
0
100
AcDbLine
 10
303.39
 20
604.7959999999999
 30
0.0
 11
307.784
 21
604.7959999999999
 31
0.0
  0
LINE
  5
465
330
1E
100
AcDbEntity
  8
0
100
AcDbLine
 10
298.473
 20
604.7959999999999
 30
0.0
 11
303.39
 21
604.7959999999999
 31
0.0
  0
LINE
  5
499
330
1E
100
AcDbEntity
  8
0
100
AcDbLine
 10
307.464
 20
605.1169999999999
 30
0.0
 11
310.9399999999999
 21
605.1169999999999
 31
0.0
  0
LINE
  5
49A
330
1E
100
AcDbEntity
  8
0
100
AcDbLine
 10
307.784
 20
604.7959999999999
 30
0.0
 11
311.404
 21
604.7959999999999
 31
0.0
  0
LINE
  5
50C
330
1E
100
AcDbEntity
  8
0
100
AcDbLine
 10
310.9399999999999
 20
605.1169999999999
 30
0.0
 11
313.304
 21
605.1169999999999
 31
0.0
  0
LINE
  5
50E
330
1E
100
AcDbEntity
  8
0
100
AcDbLine
 10
313.304
 20
605.1169999999999
 30
0.0
 11
314.3899999999999
 21
605.1169999999999
 31
0.0
  0
LINE
  5
50F
330
1E
100
AcDbEntity
  8
0
100
AcDbLine
 10
313.819
 20
604.7959999999999
 30
0.0
 11
314.8759999999999
 21
604.7959999999999
 31
0.0
  0
LINE
  5
510
330
1E
100
AcDbEntity
  8
0
100
AcDbLine
 10
311.404
 20
604.7959999999999
 30
0.0
 11
313.819
 21
604.7959999999999
 31
0.0
  0
LINE
  5
514
330
1E
100
AcDbEntity
  8
0
100
AcDbLine
 10
314.3899999999999
 20
605.1169999999999
 30
0.0
 11
314.8759999999999
 21
604.7959999999999
 31
0.0
  0
LINE
  5
61A
330
1E
100
AcDbEntity
  8
0
100
AcDbLine
 10
385.6809999999999
 20
604.7959999999999
 30
0.0
 11
387.7019999999999
 21
604.7959999999999
 31
0.0
  0
LINE
  5
61C
330
1E
100
AcDbEntity
  8
0
100
AcDbLine
 10
387.7019999999999
 20
604.7959999999999
 30
0.0
 11
390.799
 21
604.7959999999999
 31
0.0
  0
LINE
  5
622
330
1E
100
AcDbEntity
  8
0
100
AcDbLine
 10
386.1449999999999
 20
605.1169999999999
 30
0.0
 11
388.145
 21
605.1169999999999
 31
0.0
  0
LINE
  5
623
330
1E
100
AcDbEntity
  8
0
100
AcDbLine
 10
388.145
 20
605.1169999999999
 30
0.0
 11
391.2009999999999
 21
605.1169999999999
 31
0.0
  0
LINE
  5
624
330
1E
100
AcDbEntity
  8
0
100
AcDbLine
 10
385.536
 20
605.1169999999999
 30
0.0
 11
386.1449999999999
 21
605.1169999999999
 31
0.0
  0
LINE
  5
625
330
1E
100
AcDbEntity
  8
0
100
AcDbLine
 10
385.0519999999999
 20
604.7959999999999
 30
0.0
 11
385.536
 21
605.1169999999999
 31
0.0
  0
LINE
  5
626
330
1E
100
AcDbEntity
  8
0
100
AcDbLine
 10
385.0519999999999
 20
604.7959999999999
 30
0.0
 11
385.6809999999999
 21
604.7959999999999
 31
0.0
  0
LINE
  5
628
330
1E
100
AcDbEntity
  8
0
100
AcDbLine
 10
379.059
 20
605.1169999999999
 30
0.0
 11
383.824
 21
605.1169999999999
 31
0.0
  0
LINE
  5
629
330
1E
100
AcDbEntity
  8
0
100
AcDbLine
 10
376.059
 20
605.1169999999999
 30
0.0
 11
379.059
 21
605.1169999999999
 31
0.0
  0
LINE
  5
62A
330
1E
100
AcDbEntity
  8
0
100
AcDbLine
 10
375.0
 20
605.1169999999999
 30
0.0
 11
376.059
 21
605.1169999999999
 31
0.0
  0
LINE
  5
62B
330
1E
100
AcDbEntity
  8
0
100
AcDbLine
 10
375.0
 20
605.1169999999999
 30
0.0
 11
375.0
 21
610.77085
 31
0.0
  0
LINE
  5
62C
330
1E
100
AcDbEntity
  8
0
100
AcDbLine
 10
383.824
 20
605.1169999999999
 30
0.0
 11
390.088
 21
605.1169999999999
 31
0.0
  0
LINE
  5
62D
330
1E
100
AcDbEntity
  8
0
100
AcDbLine
 10
383.824
 20
605.1169999999999
 30
0.0
 11
385.536
 21
605.1169999999999
 31
0.0
  0
LINE
  5
656
330
1E
100
AcDbEntity
  8
0
100
AcDbLine
 10
390.799
 20
604.7959999999999
 30
0.0
 11
394.9869999999999
 21
604.7959999999999
 31
0.0
  0
LINE
  5
66E
330
1E
100
AcDbEntity
  8
0
100
AcDbLine
 10
394.9869999999999
 20
604.7959999999999
 30
0.0
 11
399.9109999999999
 21
604.7959999999999
 31
0.0
  0
LINE
  5
687
330
1E
100
AcDbEntity
  8
0
100
AcDbLine
 10
399.9109999999999
 20
604.7959999999999
 30
0.0
 11
405.044
 21
604.7959999999999
 31
0.0
  0
LINE
  5
69B
330
1E
100
AcDbEntity
  8
0
100
AcDbLine
 10
410.1759999999999
 20
604.7959999999999
 30
0.0
 11
414.9359999999999
 21
604.7959999999999
 31
0.0
  0
LINE
  5
69D
330
1E
100
AcDbEntity
  8
0
100
AcDbLine
 10
391.2009999999999
 20
605.1169999999999
 30
0.0
 11
395.27
 21
605.1169999999999
 31
0.0
  0
LINE
  5
69E
330
1E
100
AcDbEntity
  8
0
100
AcDbLine
 10
395.27
 20
605.1169999999999
 30
0.0
 11
400.0189999999999
 21
605.1169999999999
 31
0.0
  0
LINE
  5
69F
330
1E
100
AcDbEntity
  8
0
100
AcDbLine
 10
400.0189999999999
 20
605.1169999999999
 30
0.0
 11
404.998
 21
605.1169999999999
 31
0.0
  0
LINE
  5
6A0
330
1E
100
AcDbEntity
  8
0
100
AcDbLine
 10
410.0519999999999
 20
605.1169999999999
 30
0.0
 11
414.734
 21
605.1169999999999
 31
0.0
  0
LINE
  5
6A1
330
1E
100
AcDbEntity
  8
0
100
AcDbLine
 10
404.998
 20
605.1169999999999
 30
0.0
 11
410.0519999999999
 21
605.1169999999999
 31
0.0
  0
LINE
  5
6A2
330
1E
100
AcDbEntity
  8
0
100
AcDbLine
 10
405.044
 20
604.7959999999999
 30
0.0
 11
410.1759999999999
 21
604.7959999999999
 31
0.0
  0
LINE
  5
6A3
330
1E
100
AcDbEntity
  8
0
100
AcDbLine
 10
390.088
 20
605.1169999999999
 30
0.0
 11
397.324
 21
605.1169999999999
 31
0.0
  0
LINE
  5
6A4
330
1E
100
AcDbEntity
  8
0
100
AcDbLine
 10
397.324
 20
605.1169999999999
 30
0.0
 11
405.0
 21
605.1169999999999
 31
0.0
  0
LINE
  5
712
330
1E
100
AcDbEntity
  8
0
100
AcDbLine
 10
414.734
 20
605.1169999999999
 30
0.0
 11
418.719
 21
605.1169999999999
 31
0.0
  0
LINE
  5
713
330
1E
100
AcDbEntity
  8
0
100
AcDbLine
 10
424.336
 20
604.7959999999999
 30
0.0
 11
424.948
 21
604.7959999999999
 31
0.0
  0
LINE
  5
714
330
1E
100
AcDbEntity
  8
0
100
AcDbLine
 10
422.3419999999999
 20
604.7959999999999
 30
0.0
 11
424.336
 21
604.7959999999999
 31
0.0
  0
LINE
  5
715
330
1E
100
AcDbEntity
  8
0
100
AcDbLine
 10
423.81
 20
605.1169999999999
 30
0.0
 11
424.464
 21
605.1169999999999
 31
0.0
  0
LINE
  5
716
330
1E
100
AcDbEntity
  8
0
100
AcDbLine
 10
421.8519999999999
 20
605.1169999999999
 30
0.0
 11
423.81
 21
605.1169999999999
 31
0.0
  0
LINE
  5
717
330
1E
100
AcDbEntity
  8
0
100
AcDbLine
 10
418.719
 20
605.1169999999999
 30
0.0
 11
421.8519999999999
 21
605.1169999999999
 31
0.0
  0
LINE
  5
718
330
1E
100
AcDbEntity
  8
0
100
AcDbLine
 10
419.0749999999999
 20
604.7959999999999
 30
0.0
 11
422.3419999999999
 21
604.7959999999999
 31
0.0
  0
LINE
  5
719
330
1E
100
AcDbEntity
  8
0
100
AcDbLine
 10
414.9359999999999
 20
604.7959999999999
 30
0.0
 11
419.0749999999999
 21
604.7959999999999
 31
0.0
  0
LINE
  5
731
330
1E
100
AcDbEntity
  8
0
100
AcDbLine
 10
424.464
 20
605.1169999999999
 30
0.0
 11
426.1759999999999
 21
605.1169999999999
 31
0.0
  0
LINE
  5
732
330
1E
100
AcDbEntity
  8
0
100
AcDbLine
 10
424.464
 20
605.1169999999999
 30
0.0
 11
424.948
 21
604.7959999999999
 31
0.0
  0
LINE
  5
733
330
1E
100
AcDbEntity
  8
0
100
AcDbLine
 10
419.9119999999999
 20
605.1169999999999
 30
0.0
 11
426.1759999999999
 21
605.1169999999999
 31
0.0
  0
LINE
  5
734
330
1E
100
AcDbEntity
  8
0
100
AcDbLine
 10
412.6759999999999
 20
605.1169999999999
 30
0.0
 11
419.9119999999999
 21
605.1169999999999
 31
0.0
  0
LINE
  5
735
330
1E
100
AcDbEntity
  8
0
100
AcDbLine
 10
405.0
 20
605.1169999999999
 30
0.0
 11
412.6759999999999
 21
605.1169999999999
 31
0.0
  0
LINE
  5
739
330
1E
100
AcDbEntity
  8
0
100
AcDbLine
 10
426.1759999999999
 20
605.1169999999999
 30
0.0
 11
430.9409999999999
 21
605.1169999999999
 31
0.0
  0
LINE
  5
73A
330
1E
100
AcDbEntity
  8
0
100
AcDbLine
 10
430.9409999999999
 20
605.1169999999999
 30
0.0
 11
433.9409999999999
 21
605.1169999999999
 31
0.0
  0
LINE
  5
7F6
330
1E
100
AcDbEntity
  8
0
100
AcDbLine
 10
435.0
 20
605.1169999999999
 30
0.0
 11
435.0
 21
610.77085
 31
0.0
  0
LINE
  5
7F7
330
1E
100
AcDbEntity
  8
0
100
AcDbLine
 10
433.9409999999999
 20
605.1169999999999
 30
0.0
 11
435.0
 21
605.1169999999999
 31
0.0
  0
LINE
  5
7FB
330
1E
100
AcDbEntity
  8
0
100
AcDbLine
 10
303.9559999999999
 20
605.1169999999999
 30
0.0
 11
312.3969999999999
 21
605.1169999999999
 31
0.0
  0
LINE
  5
7FC
330
1E
100
AcDbEntity
  8
0
100
AcDbLine
 10
295.0
 20
605.1169999999999
 30
0.0
 11
303.9559999999999
 21
605.1169999999999
 31
0.0
  0
LINE
  5
7FD
330
1E
100
AcDbEntity
  8
0
100
AcDbLine
 10
286.044
 20
605.1169999999999
 30
0.0
 11
295.0
 21
605.1169999999999
 31
0.0
  0
LINE
  5
7FE
330
1E
100
AcDbEntity
  8
0
100
AcDbLine
 10
264.735
 20
605.1169999999999
 30
0.0
 11
270.294
 21
605.1169999999999
 31
0.0
  0
LINE
  5
7FF
330
1E
100
AcDbEntity
  8
0
100
AcDbLine
 10
261.235
 20
605.1169999999999
 30
0.0
 11
264.735
 21
605.1169999999999
 31
0.0
  0
LINE
  5
800
330
1E
100
AcDbEntity
  8
0
100
AcDbLine
 10
260.0
 20
605.1169999999999
 30
0.0
 11
261.235
 21
605.1169999999999
 31
0.0
  0
LINE
  5
801
330
1E
100
AcDbEntity
  8
0
100
AcDbLine
 10
260.0
 20
605.1169999999999
 30
0.0
 11
260.0
 21
610.77085
 31
0.0
  0
LINE
  5
802
330
1E
100
AcDbEntity
  8
0
100
AcDbLine
 10
481.3
 20
605.1169999999999
 30
0.0
 11
484.7
 21
605.1169999999999
 31
0.0
  0
LINE
  5
82A
330
1E
100
AcDbEntity
  8
0
100
AcDbLine
 10
260.0
 20
610.77085
 30
0.0
 11
260.0
 21
605.1169999999999
 31
0.0
  0
LINE
  5
82F
330
1E
100
AcDbEntity
  8
0
100
AcDbLine
 10
379.059
 20
610.77085
 30
0.0
 11
383.824
 21
610.77085
 31
0.0
  0
LINE
  5
830
330
1E
100
AcDbEntity
  8
0
100
AcDbLine
 10
376.059
 20
610.77085
 30
0.0
 11
379.059
 21
610.77085
 31
0.0
  0
LINE
  5
831
330
1E
100
AcDbEntity
  8
0
100
AcDbLine
 10
375.0
 20
610.77085
 30
0.0
 11
376.059
 21
610.77085
 31
0.0
  0
LINE
  5
832
330
1E
100
AcDbEntity
  8
0
100
AcDbLine
 10
375.0
 20
610.77085
 30
0.0
 11
375.441
 21
611.0016099999999
 31
0.0
  0
LINE
  5
833
330
1E
100
AcDbEntity
  8
0
100
AcDbLine
 10
375.0
 20
610.77085
 30
0.0
 11
375.0
 21
605.1169999999999
 31
0.0
  0
LINE
  5
834
330
1E
100
AcDbEntity
  8
0
100
AcDbLine
 10
383.824
 20
610.77085
 30
0.0
 11
390.088
 21
610.77085
 31
0.0
  0
LINE
  5
835
330
1E
100
AcDbEntity
  8
0
100
AcDbLine
 10
390.088
 20
610.77085
 30
0.0
 11
397.324
 21
610.77085
 31
0.0
  0
LINE
  5
836
330
1E
100
AcDbEntity
  8
0
100
AcDbLine
 10
397.324
 20
610.77085
 30
0.0
 11
405.0
 21
610.77085
 31
0.0
  0
LINE
  5
837
330
1E
100
AcDbEntity
  8
0
100
AcDbLine
 10
419.9119999999999
 20
610.77085
 30
0.0
 11
426.1759999999999
 21
610.77085
 31
0.0
  0
LINE
  5
838
330
1E
100
AcDbEntity
  8
0
100
AcDbLine
 10
412.6759999999999
 20
610.77085
 30
0.0
 11
419.9119999999999
 21
610.77085
 31
0.0
  0
LINE
  5
839
330
1E
100
AcDbEntity
  8
0
100
AcDbLine
 10
405.0
 20
610.77085
 30
0.0
 11
412.6759999999999
 21
610.77085
 31
0.0
  0
LINE
  5
83A
330
1E
100
AcDbEntity
  8
0
100
AcDbLine
 10
426.1759999999999
 20
610.77085
 30
0.0
 11
430.9409999999999
 21
610.77085
 31
0.0
  0
LINE
  5
83B
330
1E
100
AcDbEntity
  8
0
100
AcDbLine
 10
430.9409999999999
 20
610.77085
 30
0.0
 11
433.9409999999999
 21
610.77085
 31
0.0
  0
LINE
  5
83C
330
1E
100
AcDbEntity
  8
0
100
AcDbLine
 10
433.9409999999999
 20
610.77085
 30
0.0
 11
435.0
 21
610.77085
 31
0.0
  0
LINE
  5
83D
330
1E
100
AcDbEntity
  8
0
100
AcDbLine
 10
435.0
 20
610.77085
 30
0.0
 11
435.0
 21
605.1169999999999
 31
0.0
  0
LINE
  5
84A
330
1E
100
AcDbEntity
  8
0
100
AcDbLine
 10
375.441
 20
611.0016099999999
 30
0.0
 11
376.324
 21
611.1169999999999
 31
0.0
  0
LINE
  5
84B
330
1E
100
AcDbEntity
  8
0
100
AcDbLine
 10
380.2059999999999
 20
611.1169999999999
 30
0.0
 11
384.7059999999999
 21
611.1169999999999
 31
0.0
  0
LINE
  5
84C
330
1E
100
AcDbEntity
  8
0
100
AcDbLine
 10
377.3819999999999
 20
611.1169999999999
 30
0.0
 11
380.2059999999999
 21
611.1169999999999
 31
0.0
  0
LINE
  5
84D
330
1E
100
AcDbEntity
  8
0
100
AcDbLine
 10
376.324
 20
611.1169999999999
 30
0.0
 11
377.3819999999999
 21
611.1169999999999
 31
0.0
  0
LINE
  5
84E
330
1E
100
AcDbEntity
  8
0
100
AcDbLine
 10
384.7059999999999
 20
611.1169999999999
 30
0.0
 11
390.7059999999999
 21
611.1169999999999
 31
0.0
  0
LINE
  5
84F
330
1E
100
AcDbEntity
  8
0
100
AcDbLine
 10
390.7059999999999
 20
611.1169999999999
 30
0.0
 11
397.588
 21
611.1169999999999
 31
0.0
  0
LINE
  5
850
330
1E
100
AcDbEntity
  8
0
100
AcDbLine
 10
397.588
 20
611.1169999999999
 30
0.0
 11
405.0
 21
611.1169999999999
 31
0.0
  0
LINE
  5
851
330
1E
100
AcDbEntity
  8
0
100
AcDbLine
 10
419.294
 20
611.1169999999999
 30
0.0
 11
425.294
 21
611.1169999999999
 31
0.0
  0
LINE
  5
852
330
1E
100
AcDbEntity
  8
0
100
AcDbLine
 10
412.4119999999999
 20
611.1169999999999
 30
0.0
 11
419.294
 21
611.1169999999999
 31
0.0
  0
LINE
  5
853
330
1E
100
AcDbEntity
  8
0
100
AcDbLine
 10
405.0
 20
611.1169999999999
 30
0.0
 11
412.4119999999999
 21
611.1169999999999
 31
0.0
  0
LINE
  5
854
330
1E
100
AcDbEntity
  8
0
100
AcDbLine
 10
425.294
 20
611.1169999999999
 30
0.0
 11
429.794
 21
611.1169999999999
 31
0.0
  0
LINE
  5
855
330
1E
100
AcDbEntity
  8
0
100
AcDbLine
 10
429.794
 20
611.1169999999999
 30
0.0
 11
432.618
 21
611.1169999999999
 31
0.0
  0
LINE
  5
856
330
1E
100
AcDbEntity
  8
0
100
AcDbLine
 10
432.618
 20
611.1169999999999
 30
0.0
 11
433.6759999999999
 21
611.1169999999999
 31
0.0
  0
LINE
  5
857
330
1E
100
AcDbEntity
  8
0
100
AcDbLine
 10
433.6759999999999
 20
611.1169999999999
 30
0.0
 11
434.559
 21
611.0016099999999
 31
0.0
  0
LINE
  5
858
330
1E
100
AcDbEntity
  8
0
100
AcDbLine
 10
434.559
 20
611.0016099999999
 30
0.0
 11
435.0
 21
610.77085
 31
0.0
  0
LINE
  5
859
330
1E
100
AcDbEntity
  8
0
100
AcDbLine
 10
390.0
 20
611.1169999999999
 30
0.0
 11
390.0
 21
657.1635999999999
 31
0.0
  0
LINE
  5
85A
330
1E
100
AcDbEntity
  8
0
100
AcDbLine
 10
418.883
 20
611.1169999999999
 30
0.0
 11
418.883
 21
657.1635999999999
 31
0.0
  0
LINE
  5
862
330
1E
100
AcDbEntity
  8
0
100
AcDbLine
 10
480.0
 20
605.1169999999999
 30
0.0
 11
481.3
 21
605.1169999999999
 31
0.0
  0
LINE
  5
863
330
1E
100
AcDbEntity
  8
0
100
AcDbLine
 10
480.0
 20
605.1169999999999
 30
0.0
 11
480.0
 21
614.1169999999999
 31
0.0
  0
LINE
  5
871
330
1E
100
AcDbEntity
  8
0
100
AcDbLine
 10
480.0
 20
614.1169999999999
 30
0.0
 11
480.0
 21
605.1169999999999
 31
0.0
  0
LINE
  5
885
330
1E
100
AcDbEntity
  8
0
100
AcDbLine
 10
484.7
 20
605.1169999999999
 30
0.0
 11
490.3
 21
605.1169999999999
 31
0.0
  0
LINE
  5
886
330
1E
100
AcDbEntity
  8
0
100
AcDbLine
 10
484.7
 20
605.1169999999999
 30
0.0
 11
485.72
 21
605.1169999999999
 31
0.0
  0
LINE
  5
8A8
330
1E
100
AcDbEntity
  8
0
100
AcDbLine
 10
486.08
 20
604.7959999999999
 30
0.0
 11
488.9599999999999
 21
604.7959999999999
 31
0.0
  0
LINE
  5
8AD
330
1E
100
AcDbEntity
  8
0
100
AcDbLine
 10
485.72
 20
605.1169999999999
 30
0.0
 11
486.8
 21
605.1169999999999
 31
0.0
  0
LINE
  5
8AE
330
1E
100
AcDbEntity
  8
0
100
AcDbLine
 10
486.8
 20
605.1169999999999
 30
0.0
 11
489.6799999999999
 21
605.1169999999999
 31
0.0
  0
LINE
  5
8AF
330
1E
100
AcDbEntity
  8
0
100
AcDbLine
 10
485.0
 20
604.7959999999999
 30
0.0
 11
485.72
 21
605.1169999999999
 31
0.0
  0
LINE
  5
8B1
330
1E
100
AcDbEntity
  8
0
100
AcDbLine
 10
485.0
 20
604.7959999999999
 30
0.0
 11
486.08
 21
604.7959999999999
 31
0.0
  0
LINE
  5
9A0
330
1E
100
AcDbEntity
  8
0
100
AcDbLine
 10
418.883
 20
657.1635999999999
 30
0.0
 11
418.892
 21
657.5103
 31
0.0
  0
LINE
  5
9A1
330
1E
100
AcDbEntity
  8
0
100
AcDbLine
 10
418.883
 20
657.1635999999999
 30
0.0
 11
418.883
 21
611.1169999999999
 31
0.0
  0
LINE
  5
9A2
330
1E
100
AcDbEntity
  8
0
100
AcDbLine
 10
390.0
 20
676.1686999999999
 30
0.0
 11
390.0
 21
657.1635999999999
 31
0.0
  0
LINE
  5
9A3
330
1E
100
AcDbEntity
  8
0
100
AcDbLine
 10
390.0
 20
676.1686999999999
 30
0.0
 11
390.0249999999999
 21
676.6014
 31
0.0
  0
LINE
  5
9A4
330
1E
100
AcDbEntity
  8
0
100
AcDbLine
 10
390.212
 20
676.9759
 30
0.0
 11
390.4269999999999
 21
677.1056999999999
 31
0.0
  0
LINE
  5
9A5
330
1E
100
AcDbEntity
  8
0
100
AcDbLine
 10
390.074
 20
676.7735
 30
0.0
 11
390.212
 21
676.9759
 31
0.0
  0
LINE
  5
9A6
330
1E
100
AcDbEntity
  8
0
100
AcDbLine
 10
390.0249999999999
 20
676.6014
 30
0.0
 11
390.074
 21
676.7735
 31
0.0
  0
LINE
  5
9A7
330
1E
100
AcDbEntity
  8
0
100
AcDbLine
 10
418.892
 20
657.5103
 30
0.0
 11
418.9509999999999
 21
659.7744
 31
0.0
  0
LINE
  5
9A8
330
1E
100
AcDbEntity
  8
0
100
AcDbLine
 10
418.9509999999999
 20
659.7744
 30
0.0
 11
419.233
 21
662.3469
 31
0.0
  0
LINE
  5
9A9
330
1E
100
AcDbEntity
  8
0
100
AcDbLine
 10
390.61
 20
677.1519999999999
 30
0.0
 11
391.0699999999999
 21
677.1751
 31
0.0
  0
LINE
  5
9AB
330
1E
100
AcDbEntity
  8
0
100
AcDbLine
 10
419.233
 20
662.3469
 30
0.0
 11
419.4069999999999
 21
663.3080999999999
 31
0.0
  0
LINE
  5
9AF
330
1E
100
AcDbEntity
  8
0
100
AcDbLine
 10
420.6669999999999
 20
666.2741999999999
 30
0.0
 11
421.1719999999999
 21
666.8819999999999
 31
0.0
  0
LINE
  5
9B0
330
1E
100
AcDbEntity
  8
0
100
AcDbLine
 10
420.235
 20
665.6138999999999
 30
0.0
 11
420.6669999999999
 21
666.2741999999999
 31
0.0
  0
LINE
  5
9B1
330
1E
100
AcDbEntity
  8
0
100
AcDbLine
 10
419.879
 20
664.9034
 30
0.0
 11
420.235
 21
665.6138999999999
 31
0.0
  0
LINE
  5
9B2
330
1E
100
AcDbEntity
  8
0
100
AcDbLine
 10
419.608
 20
664.1394
 30
0.0
 11
419.879
 21
664.9034
 31
0.0
  0
LINE
  5
9B3
330
1E
100
AcDbEntity
  8
0
100
AcDbLine
 10
419.4069999999999
 20
663.3080999999999
 30
0.0
 11
419.608
 21
664.1394
 31
0.0
  0
LINE
  5
9BB
330
1E
100
AcDbEntity
  8
0
100
AcDbLine
 10
390.4269999999999
 20
677.1056999999999
 30
0.0
 11
390.61
 21
677.1519999999999
 31
0.0
  0
LINE
  5
9BC
330
1E
100
AcDbEntity
  8
0
100
AcDbLine
 10
391.0699999999999
 20
677.1751
 30
0.0
 11
437.073
 21
677.1751
 31
0.0
  0
LINE
  5
9BD
330
1E
100
AcDbEntity
  8
0
100
AcDbLine
 10
423.8069999999999
 20
668.8274999999999
 30
0.0
 11
425.4209999999999
 21
669.5189999999999
 31
0.0
  0
LINE
  5
9C1
330
1E
100
AcDbEntity
  8
0
100
AcDbLine
 10
426.5719999999999
 20
669.8822999999999
 30
0.0
 11
427.7639999999999
 21
670.1742
 31
0.0
  0
LINE
  5
9C2
330
1E
100
AcDbEntity
  8
0
100
AcDbLine
 10
429.389
 20
670.4639999999999
 30
0.0
 11
430.4719999999999
 21
670.6038999999999
 31
0.0
  0
LINE
  5
9C3
330
1E
100
AcDbEntity
  8
0
100
AcDbLine
 10
437.4909999999999
 20
671.0939999999999
 30
0.0
 11
440.857
 21
671.2400999999999
 31
0.0
  0
LINE
  5
9C4
330
1E
100
AcDbEntity
  8
0
100
AcDbLine
 10
447.51
 20
671.4714999999999
 30
0.0
 11
451.906
 21
671.6426
 31
0.0
  0
LINE
  5
9C9
330
1E
100
AcDbEntity
  8
0
100
AcDbLine
 10
451.906
 20
671.6426
 30
0.0
 11
454.388
 21
671.7775
 31
0.0
  0
LINE
  5
9CB
330
1E
100
AcDbEntity
  8
0
100
AcDbLine
 10
440.857
 20
671.2400999999999
 30
0.0
 11
447.51
 21
671.4714999999999
 31
0.0
  0
LINE
  5
9CC
330
1E
100
AcDbEntity
  8
0
100
AcDbLine
 10
433.2041793521299
 20
670.8330139033099
 30
0.0
 11
437.4909999999999
 21
671.0939999999999
 31
0.0
  0
LINE
  5
9CD
330
1E
100
AcDbEntity
  8
0
100
AcDbLine
 10
430.4719999999999
 20
670.6038999999999
 30
0.0
 11
433.2041793521299
 21
670.8330139033099
 31
0.0
  0
LINE
  5
9CE
330
1E
100
AcDbEntity
  8
0
100
AcDbLine
 10
427.7639999999999
 20
670.1742
 30
0.0
 11
429.389
 21
670.4639999999999
 31
0.0
  0
LINE
  5
9D6
330
1E
100
AcDbEntity
  8
0
100
AcDbLine
 10
425.4209999999999
 20
669.5189999999999
 30
0.0
 11
426.5719999999999
 21
669.8822999999999
 31
0.0
  0
LINE
  5
9D8
330
1E
100
AcDbEntity
  8
0
100
AcDbLine
 10
422.3759999999999
 20
667.9518999999999
 30
0.0
 11
423.8069999999999
 21
668.8274999999999
 31
0.0
  0
LINE
  5
9D9
330
1E
100
AcDbEntity
  8
0
100
AcDbLine
 10
421.743
 20
667.4415999999999
 30
0.0
 11
422.3759999999999
 21
667.9518999999999
 31
0.0
  0
LINE
  5
9DA
330
1E
100
AcDbEntity
  8
0
100
AcDbLine
 10
458.356
 20
672.1055999999999
 30
0.0
 11
461.4679999999999
 21
672.5121999999999
 31
0.0
  0
LINE
  5
9DF
330
1E
100
AcDbEntity
  8
0
100
AcDbLine
 10
454.388
 20
671.7775
 30
0.0
 11
458.356
 21
672.1055999999999
 31
0.0
  0
LINE
  5
9E2
330
1E
100
AcDbEntity
  8
0
100
AcDbLine
 10
461.4679999999999
 20
672.5121999999999
 30
0.0
 11
463.4599999999999
 21
672.8916
 31
0.0
  0
LINE
  5
9E3
330
1E
100
AcDbEntity
  8
0
100
AcDbLine
 10
467.8469999999999
 20
674.0218999999999
 30
0.0
 11
469.491
 21
674.6237999999999
 31
0.0
  0
LINE
  5
9E4
330
1E
100
AcDbEntity
  8
0
100
AcDbLine
 10
467.05
 20
673.7884
 30
0.0
 11
467.8469999999999
 21
674.0218999999999
 31
0.0
  0
LINE
  5
9E6
330
1E
100
AcDbEntity
  8
0
100
AcDbLine
 10
464.644
 20
673.1251
 30
0.0
 11
467.05
 21
673.7884
 31
0.0
  0
LINE
  5
9E7
330
1E
100
AcDbEntity
  8
0
100
AcDbLine
 10
464.644
 20
673.1251
 30
0.0
 11
465.253
 21
673.2931999999999
 31
0.0
  0
LINE
  5
9E8
330
1E
100
AcDbEntity
  8
0
100
AcDbLine
 10
437.073
 20
677.1751
 30
0.0
 11
443.214
 21
677.1811
 31
0.0
  0
LINE
  5
9E9
330
1E
100
AcDbEntity
  8
0
100
AcDbLine
 10
443.214
 20
677.1811
 30
0.0
 11
446.44
 21
677.2033
 31
0.0
  0
LINE
  5
9EA
330
1E
100
AcDbEntity
  8
0
100
AcDbLine
 10
452.315
 20
677.3350999999999
 30
0.0
 11
456.484
 21
677.5465
 31
0.0
  0
LINE
  5
9EB
330
1E
100
AcDbEntity
  8
0
100
AcDbLine
 10
446.44
 20
677.2033
 30
0.0
 11
452.315
 21
677.3350999999999
 31
0.0
  0
LINE
  5
9EC
330
1E
100
AcDbEntity
  8
0
100
AcDbLine
 10
460.889
 20
677.9199
 30
0.0
 11
465.552
 21
678.5218
 31
0.0
  0
LINE
  5
9ED
330
1E
100
AcDbEntity
  8
0
100
AcDbLine
 10
456.484
 20
677.5465
 30
0.0
 11
460.889
 21
677.9199
 31
0.0
  0
LINE
  5
9F0
330
1E
100
AcDbEntity
  8
0
100
AcDbLine
 10
474.324
 20
677.1702
 30
0.0
 11
474.723
 21
677.4831
 31
0.0
  0
LINE
  5
9F2
330
1E
100
AcDbEntity
  8
0
100
AcDbLine
 10
474.1819999999999
 20
677.0584
 30
0.0
 11
474.324
 21
677.1702
 31
0.0
  0
LINE
  5
9F3
330
1E
100
AcDbEntity
  8
0
100
AcDbLine
 10
472.6619999999999
 20
676.1344
 30
0.0
 11
474.1819999999999
 21
677.0584
 31
0.0
  0
LINE
  5
9F4
330
1E
100
AcDbEntity
  8
0
100
AcDbLine
 10
471.1249999999999
 20
675.3392999999999
 30
0.0
 11
472.6619999999999
 21
676.1344
 31
0.0
  0
LINE
  5
9F5
330
1E
100
AcDbEntity
  8
0
100
AcDbLine
 10
469.491
 20
674.6237999999999
 30
0.0
 11
471.1249999999999
 21
675.3392999999999
 31
0.0
  0
LINE
  5
9F6
330
1E
100
AcDbEntity
  8
0
100
AcDbLine
 10
474.723
 20
677.4831
 30
0.0
 11
474.893
 21
677.7197
 31
0.0
  0
LINE
  5
9FC
330
1E
100
AcDbEntity
  8
0
100
AcDbLine
 10
469.229
 20
679.1699999999999
 30
0.0
 11
473.069
 21
680.0273999999999
 31
0.0
  0
LINE
  5
9FD
330
1E
100
AcDbEntity
  8
0
100
AcDbLine
 10
474.3349999999999
 20
679.5472999999999
 30
0.0
 11
474.614
 21
679.1074999999999
 31
0.0
  0
LINE
  5
9FE
330
1E
100
AcDbEntity
  8
0
100
AcDbLine
 10
474.614
 20
679.1074999999999
 30
0.0
 11
474.9259999999999
 21
678.5349
 31
0.0
  0
LINE
  5
9FF
330
1E
100
AcDbEntity
  8
0
100
AcDbLine
 10
473.069
 20
680.0273999999999
 30
0.0
 11
473.557
 21
680.1169999999999
 31
0.0
  0
LINE
  5
A00
330
1E
100
AcDbEntity
  8
0
100
AcDbLine
 10
473.557
 20
680.1169999999999
 30
0.0
 11
473.801
 21
680.0857999999999
 31
0.0
  0
LINE
  5
A01
330
1E
100
AcDbEntity
  8
0
100
AcDbLine
 10
473.801
 20
680.0857999999999
 30
0.0
 11
474.0059999999999
 21
679.9700999999999
 31
0.0
  0
LINE
  5
A02
330
1E
100
AcDbEntity
  8
0
100
AcDbLine
 10
474.0059999999999
 20
679.9700999999999
 30
0.0
 11
474.3349999999999
 21
679.5472999999999
 31
0.0
  0
LINE
  5
A03
330
1E
100
AcDbEntity
  8
0
100
AcDbLine
 10
465.552
 20
678.5218
 30
0.0
 11
469.229
 21
679.1699999999999
 31
0.0
  0
LINE
  5
A05
330
1E
100
AcDbEntity
  8
0
100
AcDbLine
 10
474.9259999999999
 20
678.5349
 30
0.0
 11
475.0
 21
678.1132
 31
0.0
  0
LINE
  5
A09
330
1E
100
AcDbEntity
  8
0
100
AcDbLine
 10
474.893
 20
677.7197
 30
0.0
 11
475.0
 21
678.1132
 31
0.0
  0
LINE
  5
A0E
330
1E
100
AcDbEntity
  8
0
100
AcDbLine
 10
463.4599999999999
 20
672.8916
 30
0.0
 11
464.644
 21
673.1251
 31
0.0
  0
LINE
  5
A0F
330
1E
100
AcDbEntity
  8
0
100
AcDbLine
 10
421.1719999999999
 20
666.8819999999999
 30
0.0
 11
421.743
 21
667.4415999999999
 31
0.0
  0
LINE
  5
A10
330
1E
100
AcDbEntity
  8
0
100
AcDbLine
 10
390.0
 20
657.1635999999999
 30
0.0
 11
390.0
 21
611.1169999999999
 31
0.0
  0
LINE
  5
A11
330
1E
100
AcDbEntity
  8
0
100
AcDbLine
 10
390.0
 20
657.1635999999999
 30
0.0
 11
390.0
 21
676.1686999999999
 31
0.0
  0
LINE
  5
C85
330
1E
100
AcDbEntity
  8
0
100
AcDbLine
 10
489.6799999999999
 20
605.1169999999999
 30
0.0
 11
494.3599999999999
 21
605.1169999999999
 31
0.0
  0
LINE
  5
C86
330
1E
100
AcDbEntity
  8
0
100
AcDbLine
 10
488.9599999999999
 20
604.7959999999999
 30
0.0
 11
493.7599999999999
 21
604.7959999999999
 31
0.0
  0
LINE
  5
C8C
330
1E
100
AcDbEntity
  8
0
100
AcDbLine
 10
490.3
 20
605.1169999999999
 30
0.0
 11
497.5999999999999
 21
605.1169999999999
 31
0.0
  0
LINE
  5
C93
330
1E
100
AcDbEntity
  8
0
100
AcDbLine
 10
493.7599999999999
 20
604.7959999999999
 30
0.0
 11
500.1199999999999
 21
604.7959999999999
 31
0.0
  0
LINE
  5
CA4
330
1E
100
AcDbEntity
  8
0
100
AcDbLine
 10
494.3599999999999
 20
605.1169999999999
 30
0.0
 11
500.48
 21
605.1169999999999
 31
0.0
  0
LINE
  5
CA7
330
1E
100
AcDbEntity
  8
0
100
AcDbLine
 10
497.5999999999999
 20
605.1169999999999
 30
0.0
 11
506.0
 21
605.1169999999999
 31
0.0
  0
LINE
  5
CB1
330
1E
100
AcDbEntity
  8
0
100
AcDbLine
 10
500.48
 20
605.1169999999999
 30
0.0
 11
507.4399999999999
 21
605.1169999999999
 31
0.0
  0
LINE
  5
CB2
330
1E
100
AcDbEntity
  8
0
100
AcDbLine
 10
500.1199999999999
 20
604.7959999999999
 30
0.0
 11
507.3199999999999
 21
604.7959999999999
 31
0.0
  0
LINE
  5
CFE
330
1E
100
AcDbEntity
  8
0
100
AcDbLine
 10
506.0
 20
605.1169999999999
 30
0.0
 11
515.0
 21
605.1169999999999
 31
0.0
  0
LINE
  5
D0E
330
1E
100
AcDbEntity
  8
0
100
AcDbLine
 10
507.4399999999999
 20
605.1169999999999
 30
0.0
 11
515.0
 21
605.1169999999999
 31
0.0
  0
LINE
  5
D0F
330
1E
100
AcDbEntity
  8
0
100
AcDbLine
 10
507.3199999999999
 20
604.7959999999999
 30
0.0
 11
515.0
 21
604.7959999999999
 31
0.0
  0
LINE
  5
D2B
330
1E
100
AcDbEntity
  8
0
100
AcDbLine
 10
515.0
 20
604.7959999999999
 30
0.0
 11
522.6799999999999
 21
604.7959999999999
 31
0.0
  0
LINE
  5
D2D
330
1E
100
AcDbEntity
  8
0
100
AcDbLine
 10
515.0
 20
605.1169999999999
 30
0.0
 11
524.0
 21
605.1169999999999
 31
0.0
  0
LINE
  5
D2E
330
1E
100
AcDbEntity
  8
0
100
AcDbLine
 10
515.0
 20
605.1169999999999
 30
0.0
 11
522.5599999999999
 21
605.1169999999999
 31
0.0
  0
LINE
  5
D3F
330
1E
100
AcDbEntity
  8
0
100
AcDbLine
 10
522.5599999999999
 20
605.1169999999999
 30
0.0
 11
529.52
 21
605.1169999999999
 31
0.0
  0
LINE
  5
D40
330
1E
100
AcDbEntity
  8
0
100
AcDbLine
 10
522.6799999999999
 20
604.7959999999999
 30
0.0
 11
529.8799999999999
 21
604.7959999999999
 31
0.0
  0
LINE
  5
D44
330
1E
100
AcDbEntity
  8
0
100
AcDbLine
 10
524.0
 20
605.1169999999999
 30
0.0
 11
532.3999999999999
 21
605.1169999999999
 31
0.0
  0
LINE
  5
D5E
330
1E
100
AcDbEntity
  8
0
100
AcDbLine
 10
529.52
 20
605.1169999999999
 30
0.0
 11
535.6399999999999
 21
605.1169999999999
 31
0.0
  0
LINE
  5
D5F
330
1E
100
AcDbEntity
  8
0
100
AcDbLine
 10
529.8799999999999
 20
604.7959999999999
 30
0.0
 11
536.24
 21
604.7959999999999
 31
0.0
  0
LINE
  5
D63
330
1E
100
AcDbEntity
  8
0
100
AcDbLine
 10
532.3999999999999
 20
605.1169999999999
 30
0.0
 11
539.7
 21
605.1169999999999
 31
0.0
  0
LINE
  5
D75
330
1E
100
AcDbEntity
  8
0
100
AcDbLine
 10
535.6399999999999
 20
605.1169999999999
 30
0.0
 11
540.32
 21
605.1169999999999
 31
0.0
  0
LINE
  5
D76
330
1E
100
AcDbEntity
  8
0
100
AcDbLine
 10
536.24
 20
604.7959999999999
 30
0.0
 11
541.04
 21
604.7959999999999
 31
0.0
  0
LINE
  5
D89
330
1E
100
AcDbEntity
  8
0
100
AcDbLine
 10
539.7
 20
605.1169999999999
 30
0.0
 11
545.2999999999999
 21
605.1169999999999
 31
0.0
  0
LINE
  5
DBA
330
1E
100
AcDbEntity
  8
0
100
AcDbLine
 10
540.32
 20
605.1169999999999
 30
0.0
 11
543.2
 21
605.1169999999999
 31
0.0
  0
LINE
  5
DBB
330
1E
100
AcDbEntity
  8
0
100
AcDbLine
 10
543.2
 20
605.1169999999999
 30
0.0
 11
544.28
 21
605.1169999999999
 31
0.0
  0
LINE
  5
DBC
330
1E
100
AcDbEntity
  8
0
100
AcDbLine
 10
543.9199999999999
 20
604.7959999999999
 30
0.0
 11
545.0
 21
604.7959999999999
 31
0.0
  0
LINE
  5
DBD
330
1E
100
AcDbEntity
  8
0
100
AcDbLine
 10
541.04
 20
604.7959999999999
 30
0.0
 11
543.9199999999999
 21
604.7959999999999
 31
0.0
  0
LINE
  5
DC1
330
1E
100
AcDbEntity
  8
0
100
AcDbLine
 10
544.28
 20
605.1169999999999
 30
0.0
 11
545.2999999999999
 21
605.1169999999999
 31
0.0
  0
LINE
  5
DC2
330
1E
100
AcDbEntity
  8
0
100
AcDbLine
 10
544.28
 20
605.1169999999999
 30
0.0
 11
545.0
 21
604.7959999999999
 31
0.0
  0
LINE
  5
DCA
330
1E
100
AcDbEntity
  8
0
100
AcDbLine
 10
545.2999999999999
 20
605.1169999999999
 30
0.0
 11
548.7
 21
605.1169999999999
 31
0.0
  0
LINE
  5
DE9
330
1E
100
AcDbEntity
  8
0
100
AcDbLine
 10
548.7
 20
605.1169999999999
 30
0.0
 11
550.0
 21
605.1169999999999
 31
0.0
  0
LINE
  5
169A
330
1E
100
AcDbEntity
  8
0
100
AcDbLine
 10
514.7684171334698
 20
634.936325906442
 30
0.0
 11
518.089462107488
 21
635.153223411588
 31
0.0
  0
LINE
  5
169B
330
1E
100
AcDbEntity
  8
0
100
AcDbLine
 10
511.9105378925119
 20
635.153223411588
 30
0.0
 11
514.7684171334698
 21
634.936325906442
 31
0.0
  0
LINE
  5
169C
330
1E
100
AcDbEntity
  8
0
100
AcDbLine
 10
502.226
 20
739.48
 30
0.0
 11
502.3649999999999
 21
737.345
 31
0.0
  0
LINE
  5
169D
330
1E
100
AcDbEntity
  8
0
100
AcDbLine
 10
502.3649999999999
 20
737.345
 30
0.0
 11
502.4799999999999
 21
735.7380000000001
 31
0.0
  0
LINE
  5
169E
330
1E
100
AcDbEntity
  8
0
100
AcDbLine
 10
512.0719999999998
 20
818.7809999999998
 30
0.0
 11
515.0
 21
818.8830000000001
 31
0.0
  0
LINE
  5
169F
330
1E
100
AcDbEntity
  8
0
100
AcDbLine
 10
528.9459999999999
 20
768.781
 30
0.0
 11
529.0
 21
777.3889999999998
 31
0.0
  0
LINE
  5
16A0
330
1E
100
AcDbEntity
  8
0
100
AcDbLine
 10
528.9459999999999
 20
768.83
 30
0.0
 11
529.0
 21
777.4379999999999
 31
0.0
  0
LINE
  5
16A1
330
1E
100
AcDbEntity
  8
0
100
AcDbLine
 10
515.0
 20
818.2869999999997
 30
0.0
 11
517.95
 21
818.1299999999998
 31
0.0
  0
LINE
  5
16A2
330
1E
100
AcDbEntity
  8
0
100
AcDbLine
 10
515.0
 20
818.8830000000001
 30
0.0
 11
517.9280000000001
 21
818.7809999999998
 31
0.0
  0
LINE
  5
16A3
330
1E
100
AcDbEntity
  8
0
100
AcDbLine
 10
517.9280000000001
 20
818.7809999999998
 30
0.0
 11
520.4829999999999
 21
818.677
 31
0.0
  0
LINE
  5
16A4
330
1E
100
AcDbEntity
  8
0
100
AcDbLine
 10
520.4829999999999
 20
818.677
 30
0.0
 11
522.749
 21
818.1979999999999
 31
0.0
  0
LINE
  5
16A5
330
1E
100
AcDbEntity
  8
0
100
AcDbLine
 10
517.95
 20
818.1299999999998
 30
0.0
 11
520.5249999999998
 21
817.9730000000001
 31
0.0
  0
LINE
  5
16A6
330
1E
100
AcDbEntity
  8
0
100
AcDbLine
 10
520.5249999999998
 20
817.9730000000001
 30
0.0
 11
522.8289999999999
 21
817.5389999999998
 31
0.0
  0
LINE
  5
16A7
330
1E
100
AcDbEntity
  8
0
100
AcDbLine
 10
522.749
 20
818.1979999999999
 30
0.0
 11
524.476
 21
817.8039999999999
 31
0.0
  0
LINE
  5
16A8
330
1E
100
AcDbEntity
  8
0
100
AcDbLine
 10
522.8289999999999
 20
817.5389999999998
 30
0.0
 11
524.5359999999998
 21
817.176
 31
0.0
  0
LINE
  5
16A9
330
1E
100
AcDbEntity
  8
0
100
AcDbLine
 10
524.5359999999998
 20
817.176
 30
0.0
 11
525.6529999999997
 21
816.8139999999999
 31
0.0
  0
LINE
  5
16AA
330
1E
100
AcDbEntity
  8
0
100
AcDbLine
 10
524.476
 20
817.8039999999999
 30
0.0
 11
525.6169999999998
 21
817.5019999999998
 31
0.0
  0
LINE
  5
16AB
330
1E
100
AcDbEntity
  8
0
100
AcDbLine
 10
525.6169999999998
 20
817.5019999999998
 30
0.0
 11
526.249
 21
817.1689999999998
 31
0.0
  0
LINE
  5
16AC
330
1E
100
AcDbEntity
  8
0
100
AcDbLine
 10
525.6529999999997
 20
816.8139999999999
 30
0.0
 11
526.3199999999998
 21
816.4979999999999
 31
0.0
  0
LINE
  5
16AD
330
1E
100
AcDbEntity
  8
0
100
AcDbLine
 10
526.3199999999998
 20
816.4979999999999
 30
0.0
 11
526.878
 21
816.0889999999998
 31
0.0
  0
LINE
  5
16AE
330
1E
100
AcDbEntity
  8
0
100
AcDbLine
 10
526.249
 20
817.1689999999998
 30
0.0
 11
526.804
 21
816.7460000000001
 31
0.0
  0
LINE
  5
16AF
330
1E
100
AcDbEntity
  8
0
100
AcDbLine
 10
526.804
 20
816.7460000000001
 30
0.0
 11
527.221
 21
816.0809999999999
 31
0.0
  0
LINE
  5
16B0
330
1E
100
AcDbEntity
  8
0
100
AcDbLine
 10
526.878
 20
816.0889999999998
 30
0.0
 11
527.313
 21
815.4099999999997
 31
0.0
  0
LINE
  5
16B1
330
1E
100
AcDbEntity
  8
0
100
AcDbLine
 10
527.313
 20
815.4099999999997
 30
0.0
 11
527.7129999999999
 21
814.5299999999998
 31
0.0
  0
LINE
  5
16B2
330
1E
100
AcDbEntity
  8
0
100
AcDbLine
 10
527.221
 20
816.0809999999999
 30
0.0
 11
527.6209999999999
 21
815.1749999999998
 31
0.0
  0
LINE
  5
16B3
330
1E
100
AcDbEntity
  8
0
100
AcDbLine
 10
528.9459999999999
 20
786.046
 30
0.0
 11
529.0
 21
777.4379999999999
 31
0.0
  0
LINE
  5
16B4
330
1E
100
AcDbEntity
  8
0
100
AcDbLine
 10
528.893
 20
793.5589999999998
 30
0.0
 11
528.9459999999999
 21
786.046
 31
0.0
  0
LINE
  5
16B5
330
1E
100
AcDbEntity
  8
0
100
AcDbLine
 10
528.744
 20
800.281
 30
0.0
 11
528.893
 21
793.5589999999998
 31
0.0
  0
LINE
  5
16B6
330
1E
100
AcDbEntity
  8
0
100
AcDbLine
 10
528.62
 20
805.2610000000001
 30
0.0
 11
528.744
 21
800.281
 31
0.0
  0
LINE
  5
16B7
330
1E
100
AcDbEntity
  8
0
100
AcDbLine
 10
528.495
 20
808.5199999999998
 30
0.0
 11
528.62
 21
805.2610000000001
 31
0.0
  0
LINE
  5
16B8
330
1E
100
AcDbEntity
  8
0
100
AcDbLine
 10
528.3869999999998
 20
810.4669999999998
 30
0.0
 11
528.495
 21
808.5199999999998
 31
0.0
  0
LINE
  5
16B9
330
1E
100
AcDbEntity
  8
0
100
AcDbLine
 10
528.2469999999998
 20
812.0959999999998
 30
0.0
 11
528.3869999999998
 21
810.4669999999998
 31
0.0
  0
LINE
  5
16BA
330
1E
100
AcDbEntity
  8
0
100
AcDbLine
 10
528.014
 20
813.3630000000001
 30
0.0
 11
528.2469999999998
 21
812.0959999999998
 31
0.0
  0
LINE
  5
16BB
330
1E
100
AcDbEntity
  8
0
100
AcDbLine
 10
527.7129999999999
 20
814.5299999999998
 30
0.0
 11
528.014
 21
813.3630000000001
 31
0.0
  0
LINE
  5
16BC
330
1E
100
AcDbEntity
  8
0
100
AcDbLine
 10
527.899
 20
814.1160000000001
 30
0.0
 11
528.1609999999998
 21
812.8469999999998
 31
0.0
  0
LINE
  5
16BD
330
1E
100
AcDbEntity
  8
0
100
AcDbLine
 10
527.313
 20
815.361
 30
0.0
 11
527.7129999999999
 21
814.4800000000001
 31
0.0
  0
LINE
  5
16BE
330
1E
100
AcDbEntity
  8
0
100
AcDbLine
 10
527.6209999999999
 20
815.1749999999998
 30
0.0
 11
527.899
 21
814.1160000000001
 31
0.0
  0
LINE
  5
16BF
330
1E
100
AcDbEntity
  8
0
100
AcDbLine
 10
527.7129999999999
 20
814.4800000000001
 30
0.0
 11
528.014
 21
813.3139999999999
 31
0.0
  0
LINE
  5
16C0
330
1E
100
AcDbEntity
  8
0
100
AcDbLine
 10
528.1609999999998
 20
812.8469999999998
 30
0.0
 11
528.2469999999998
 21
812.0460000000001
 31
0.0
  0
LINE
  5
16C1
330
1E
100
AcDbEntity
  8
0
100
AcDbLine
 10
528.1609999999998
 20
812.8469999999998
 30
0.0
 11
528.1971480315869
 21
812.3670834505528
 31
0.0
  0
LINE
  5
16C2
330
1E
100
AcDbEntity
  8
0
100
AcDbLine
 10
528.2469999999998
 20
812.0460000000001
 30
0.0
 11
528.3869999999998
 21
810.4169999999998
 31
0.0
  0
LINE
  5
16C3
330
1E
100
AcDbEntity
  8
0
100
AcDbLine
 10
528.014
 20
813.3139999999999
 30
0.0
 11
528.2469999999998
 21
812.0460000000001
 31
0.0
  0
LINE
  5
16C4
330
1E
100
AcDbEntity
  8
0
100
AcDbLine
 10
528.495
 20
808.4699999999999
 30
0.0
 11
528.62
 21
805.211
 31
0.0
  0
LINE
  5
16C5
330
1E
100
AcDbEntity
  8
0
100
AcDbLine
 10
528.3869999999998
 20
810.4169999999998
 30
0.0
 11
528.495
 21
808.4699999999999
 31
0.0
  0
LINE
  5
16C6
330
1E
100
AcDbEntity
  8
0
100
AcDbLine
 10
528.744
 20
800.2319999999999
 30
0.0
 11
528.893
 21
793.51
 31
0.0
  0
LINE
  5
16C7
330
1E
100
AcDbEntity
  8
0
100
AcDbLine
 10
528.62
 20
805.211
 30
0.0
 11
528.744
 21
800.2319999999999
 31
0.0
  0
LINE
  5
16C8
330
1E
100
AcDbEntity
  8
0
100
AcDbLine
 10
528.9459999999999
 20
785.9969999999998
 30
0.0
 11
529.0
 21
777.3889999999998
 31
0.0
  0
LINE
  5
16C9
330
1E
100
AcDbEntity
  8
0
100
AcDbLine
 10
528.893
 20
793.51
 30
0.0
 11
528.9459999999999
 21
785.9969999999998
 31
0.0
  0
LINE
  5
16CA
330
1E
100
AcDbEntity
  8
0
100
AcDbLine
 10
526.3199999999998
 20
816.4469999999999
 30
0.0
 11
526.878
 21
816.0399999999999
 31
0.0
  0
LINE
  5
16CB
330
1E
100
AcDbEntity
  8
0
100
AcDbLine
 10
526.878
 20
816.0399999999999
 30
0.0
 11
527.313
 21
815.361
 31
0.0
  0
LINE
  5
16CC
330
1E
100
AcDbEntity
  8
0
100
AcDbLine
 10
524.5359999999998
 20
817.1269999999998
 30
0.0
 11
525.6529999999997
 21
816.7639999999998
 31
0.0
  0
LINE
  5
16CD
330
1E
100
AcDbEntity
  8
0
100
AcDbLine
 10
525.6529999999997
 20
816.7639999999998
 30
0.0
 11
526.3199999999998
 21
816.4469999999999
 31
0.0
  0
LINE
  5
16CE
330
1E
100
AcDbEntity
  8
0
100
AcDbLine
 10
524.343748143429
 20
769.129614718525
 30
0.0
 11
524.794
 21
768.602
 31
0.0
  0
LINE
  5
16CF
330
1E
100
AcDbEntity
  8
0
100
AcDbLine
 10
523.0869999999998
 20
794.5239999999999
 30
0.0
 11
523.9409999999998
 21
795.281
 31
0.0
  0
LINE
  5
16D0
330
1E
100
AcDbEntity
  8
0
100
AcDbLine
 10
523.600227967235
 20
795.6803239284288
 30
0.0
 11
523.9409999999998
 21
795.281
 31
0.0
  0
LINE
  5
16D1
330
1E
100
AcDbEntity
  8
0
100
AcDbLine
 10
524.6099099991968
 20
795.841607183072
 30
0.0
 11
525.16
 21
795.197
 31
0.0
  0
LINE
  5
16D2
330
1E
100
AcDbEntity
  8
0
100
AcDbLine
 10
524.794
 20
800.271
 30
0.0
 11
525.16
 21
801.063
 31
0.0
  0
LINE
  5
16D3
330
1E
100
AcDbEntity
  8
0
100
AcDbLine
 10
525.016123690602
 20
801.2315973247579
 30
0.0
 11
525.16
 21
801.063
 31
0.0
  0
LINE
  5
16D4
330
1E
100
AcDbEntity
  8
0
100
AcDbLine
 10
524.794
 20
801.4149999999998
 30
0.0
 11
525.16
 21
801.063
 31
0.0
  0
LINE
  5
16D5
330
1E
100
AcDbEntity
  8
0
100
AcDbLine
 10
524.4640161469619
 20
795.936398618291
 30
0.0
 11
524.794
 21
795.5499999999998
 31
0.0
  0
LINE
  5
16D6
330
1E
100
AcDbEntity
  8
0
100
AcDbLine
 10
523.6340911225938
 20
801.5069060289167
 30
0.0
 11
523.9409999999998
 21
801.1469999999999
 31
0.0
  0
LINE
  5
16D7
330
1E
100
AcDbEntity
  8
0
100
AcDbLine
 10
523.9409999999998
 20
799.513
 30
0.0
 11
524.794
 21
800.271
 31
0.0
  0
LINE
  5
16D8
330
1E
100
AcDbEntity
  8
0
100
AcDbLine
 10
524.4942996852358
 20
801.7661952142089
 30
0.0
 11
524.794
 21
801.4149999999998
 31
0.0
  0
LINE
  5
16D9
330
1E
100
AcDbEntity
  8
0
100
AcDbLine
 10
523.9409999999998
 20
801.1469999999999
 30
0.0
 11
524.794
 21
801.4149999999998
 31
0.0
  0
LINE
  5
16DA
330
1E
100
AcDbEntity
  8
0
100
AcDbLine
 10
523.9409999999998
 20
793.6469999999998
 30
0.0
 11
524.794
 21
794.4060000000001
 31
0.0
  0
LINE
  5
16DB
330
1E
100
AcDbEntity
  8
0
100
AcDbLine
 10
524.794
 20
794.4060000000001
 30
0.0
 11
525.16
 21
795.197
 31
0.0
  0
LINE
  5
16DC
330
1E
100
AcDbEntity
  8
0
100
AcDbLine
 10
524.794
 20
795.5499999999998
 30
0.0
 11
525.16
 21
795.197
 31
0.0
  0
LINE
  5
16DD
330
1E
100
AcDbEntity
  8
0
100
AcDbLine
 10
524.794
 20
788.5989999999998
 30
0.0
 11
525.16
 21
789.3899999999998
 31
0.0
  0
LINE
  5
16DE
330
1E
100
AcDbEntity
  8
0
100
AcDbLine
 10
524.876892291127
 20
784.2757516451048
 30
0.0
 11
525.16
 21
783.9439999999998
 31
0.0
  0
LINE
  5
16DF
330
1E
100
AcDbEntity
  8
0
100
AcDbLine
 10
524.912776222283
 20
778.786914481602
 30
0.0
 11
525.16
 21
778.4969999999998
 31
0.0
  0
LINE
  5
16E0
330
1E
100
AcDbEntity
  8
0
100
AcDbLine
 10
524.9440387117759
 20
773.3038825050251
 30
0.0
 11
525.16
 21
773.051
 31
0.0
  0
LINE
  5
16E1
330
1E
100
AcDbEntity
  8
0
100
AcDbLine
 10
524.7672270484058
 20
789.8502597130361
 30
0.0
 11
525.16
 21
789.3899999999998
 31
0.0
  0
LINE
  5
16E2
330
1E
100
AcDbEntity
  8
0
100
AcDbLine
 10
524.794
 20
789.7430000000001
 30
0.0
 11
525.16
 21
789.3899999999998
 31
0.0
  0
LINE
  5
16E3
330
1E
100
AcDbEntity
  8
0
100
AcDbLine
 10
524.794
 20
783.1519999999998
 30
0.0
 11
525.16
 21
783.9439999999998
 31
0.0
  0
LINE
  5
16E4
330
1E
100
AcDbEntity
  8
0
100
AcDbLine
 10
524.794
 20
784.2949999999998
 30
0.0
 11
525.16
 21
783.9439999999998
 31
0.0
  0
LINE
  5
16E5
330
1E
100
AcDbEntity
  8
0
100
AcDbLine
 10
524.794
 20
777.705
 30
0.0
 11
525.16
 21
778.4969999999998
 31
0.0
  0
LINE
  5
16E6
330
1E
100
AcDbEntity
  8
0
100
AcDbLine
 10
524.794
 20
778.8489999999998
 30
0.0
 11
525.16
 21
778.4969999999998
 31
0.0
  0
LINE
  5
16E7
330
1E
100
AcDbEntity
  8
0
100
AcDbLine
 10
524.794
 20
772.2589999999999
 30
0.0
 11
525.16
 21
773.051
 31
0.0
  0
LINE
  5
16E8
330
1E
100
AcDbEntity
  8
0
100
AcDbLine
 10
524.794
 20
773.403
 30
0.0
 11
525.16
 21
773.051
 31
0.0
  0
LINE
  5
16E9
330
1E
100
AcDbEntity
  8
0
100
AcDbLine
 10
523.9409999999998
 20
795.281
 30
0.0
 11
524.794
 21
795.5499999999998
 31
0.0
  0
LINE
  5
16EA
330
1E
100
AcDbEntity
  8
0
100
AcDbLine
 10
523.112334841806
 20
790.445759399429
 30
0.0
 11
523.9409999999998
 21
789.4739999999998
 31
0.0
  0
LINE
  5
16EB
330
1E
100
AcDbEntity
  8
0
100
AcDbLine
 10
523.9409999999998
 20
787.8409999999998
 30
0.0
 11
524.794
 21
788.5989999999998
 31
0.0
  0
LINE
  5
16EC
330
1E
100
AcDbEntity
  8
0
100
AcDbLine
 10
523.9409999999998
 20
789.4739999999998
 30
0.0
 11
524.794
 21
789.7430000000001
 31
0.0
  0
LINE
  5
16ED
330
1E
100
AcDbEntity
  8
0
100
AcDbLine
 10
523.9409999999998
 20
782.3939999999996
 30
0.0
 11
524.794
 21
783.1519999999998
 31
0.0
  0
LINE
  5
16EE
330
1E
100
AcDbEntity
  8
0
100
AcDbLine
 10
523.9409999999998
 20
784.028
 30
0.0
 11
524.794
 21
784.2949999999998
 31
0.0
  0
LINE
  5
16EF
330
1E
100
AcDbEntity
  8
0
100
AcDbLine
 10
523.9409999999998
 20
776.9479999999998
 30
0.0
 11
524.794
 21
777.705
 31
0.0
  0
LINE
  5
16F0
330
1E
100
AcDbEntity
  8
0
100
AcDbLine
 10
523.9409999999998
 20
778.582
 30
0.0
 11
524.794
 21
778.8489999999998
 31
0.0
  0
LINE
  5
16F1
330
1E
100
AcDbEntity
  8
0
100
AcDbLine
 10
523.9409999999998
 20
771.5019999999998
 30
0.0
 11
524.794
 21
772.2589999999999
 31
0.0
  0
LINE
  5
16F2
330
1E
100
AcDbEntity
  8
0
100
AcDbLine
 10
523.9409999999998
 20
773.1360000000001
 30
0.0
 11
524.794
 21
773.403
 31
0.0
  0
LINE
  5
16F3
330
1E
100
AcDbEntity
  8
0
100
AcDbLine
 10
523.0869999999998
 20
793.3799999999998
 30
0.0
 11
523.9409999999998
 21
793.6469999999998
 31
0.0
  0
LINE
  5
16F4
330
1E
100
AcDbEntity
  8
0
100
AcDbLine
 10
523.0869999999998
 20
800.3899999999998
 30
0.0
 11
523.9409999999998
 21
801.1469999999999
 31
0.0
  0
LINE
  5
16F5
330
1E
100
AcDbEntity
  8
0
100
AcDbLine
 10
523.0869999999998
 20
799.2460000000002
 30
0.0
 11
523.9409999999998
 21
799.513
 31
0.0
  0
LINE
  5
16F6
330
1E
100
AcDbEntity
  8
0
100
AcDbLine
 10
523.0869999999998
 20
788.717
 30
0.0
 11
523.9409999999998
 21
789.4739999999998
 31
0.0
  0
LINE
  5
16F7
330
1E
100
AcDbEntity
  8
0
100
AcDbLine
 10
523.0869999999998
 20
787.5729999999999
 30
0.0
 11
523.9409999999998
 21
787.8409999999998
 31
0.0
  0
LINE
  5
16F8
330
1E
100
AcDbEntity
  8
0
100
AcDbLine
 10
523.0869999999998
 20
783.271
 30
0.0
 11
523.9409999999998
 21
784.028
 31
0.0
  0
LINE
  5
16F9
330
1E
100
AcDbEntity
  8
0
100
AcDbLine
 10
523.0869999999998
 20
782.1269999999998
 30
0.0
 11
523.9409999999998
 21
782.3939999999996
 31
0.0
  0
LINE
  5
16FA
330
1E
100
AcDbEntity
  8
0
100
AcDbLine
 10
523.0869999999998
 20
777.825
 30
0.0
 11
523.9409999999998
 21
778.582
 31
0.0
  0
LINE
  5
16FB
330
1E
100
AcDbEntity
  8
0
100
AcDbLine
 10
523.0869999999998
 20
776.681
 30
0.0
 11
523.9409999999998
 21
776.9479999999998
 31
0.0
  0
LINE
  5
16FC
330
1E
100
AcDbEntity
  8
0
100
AcDbLine
 10
523.0869999999998
 20
772.378
 30
0.0
 11
523.9409999999998
 21
773.1360000000001
 31
0.0
  0
LINE
  5
16FD
330
1E
100
AcDbEntity
  8
0
100
AcDbLine
 10
523.0869999999998
 20
771.2349999999998
 30
0.0
 11
523.9409999999998
 21
771.5019999999998
 31
0.0
  0
LINE
  5
16FE
330
1E
100
AcDbEntity
  8
0
100
AcDbLine
 10
520.5249999999998
 20
817.9239999999998
 30
0.0
 11
522.8289999999999
 21
817.49
 31
0.0
  0
LINE
  5
16FF
330
1E
100
AcDbEntity
  8
0
100
AcDbLine
 10
522.8289999999999
 20
817.49
 30
0.0
 11
524.5359999999998
 21
817.1269999999998
 31
0.0
  0
LINE
  5
1700
330
1E
100
AcDbEntity
  8
0
100
AcDbLine
 10
518.339205844578
 20
793.6218201522327
 30
0.0
 11
518.4400000000001
 21
793.3699999999999
 31
0.0
  0
LINE
  5
1701
330
1E
100
AcDbEntity
  8
0
100
AcDbLine
 10
518.4400000000001
 20
791.5700000000001
 30
0.0
 11
519.44
 21
792.095
 31
0.0
  0
LINE
  5
1702
330
1E
100
AcDbEntity
  8
0
100
AcDbLine
 10
519.44
 20
792.095
 30
0.0
 11
519.868
 21
792.835
 31
0.0
  0
LINE
  5
1703
330
1E
100
AcDbEntity
  8
0
100
AcDbLine
 10
519.6475771261648
 20
793.386600098069
 30
0.0
 11
519.868
 21
792.835
 31
0.0
  0
LINE
  5
1704
330
1E
100
AcDbEntity
  8
0
100
AcDbLine
 10
522.789273123227
 20
794.872882697525
 30
0.0
 11
523.0869999999998
 21
794.5239999999999
 31
0.0
  0
LINE
  5
1705
330
1E
100
AcDbEntity
  8
0
100
AcDbLine
 10
522.721
 20
793.7330000000001
 30
0.0
 11
523.0869999999998
 21
793.3799999999998
 31
0.0
  0
LINE
  5
1706
330
1E
100
AcDbEntity
  8
0
100
AcDbLine
 10
522.721
 20
793.7330000000001
 30
0.0
 11
523.0869999999998
 21
794.5239999999999
 31
0.0
  0
LINE
  5
1707
330
1E
100
AcDbEntity
  8
0
100
AcDbLine
 10
522.362806685544
 20
794.1524308312738
 30
0.0
 11
522.721
 21
793.7330000000001
 31
0.0
  0
LINE
  5
1708
330
1E
100
AcDbEntity
  8
0
100
AcDbLine
 10
522.5271180001128
 20
801.0460816562249
 30
0.0
 11
523.0869999999998
 21
800.3899999999998
 31
0.0
  0
LINE
  5
1709
330
1E
100
AcDbEntity
  8
0
100
AcDbLine
 10
522.721
 20
799.5980000000001
 30
0.0
 11
523.0869999999998
 21
799.2460000000002
 31
0.0
  0
LINE
  5
170A
330
1E
100
AcDbEntity
  8
0
100
AcDbLine
 10
522.721
 20
799.5980000000001
 30
0.0
 11
523.0869999999998
 21
800.3899999999998
 31
0.0
  0
LINE
  5
170B
330
1E
100
AcDbEntity
  8
0
100
AcDbLine
 10
519.756977614551
 20
799.8176471150071
 30
0.0
 11
519.868
 21
799.54
 31
0.0
  0
LINE
  5
170C
330
1E
100
AcDbEntity
  8
0
100
AcDbLine
 10
522.239901502683
 20
800.1617614693639
 30
0.0
 11
522.721
 21
799.5980000000001
 31
0.0
  0
LINE
  5
170D
330
1E
100
AcDbEntity
  8
0
100
AcDbLine
 10
519.44
 20
793.356
 30
0.0
 11
519.868
 21
792.835
 31
0.0
  0
LINE
  5
170E
330
1E
100
AcDbEntity
  8
0
100
AcDbLine
 10
519.2147717955728
 20
793.918701284504
 30
0.0
 11
519.44
 21
793.356
 31
0.0
  0
LINE
  5
170F
330
1E
100
AcDbEntity
  8
0
100
AcDbLine
 10
519.44
 20
798.7999999999998
 30
0.0
 11
519.868
 21
799.54
 31
0.0
  0
LINE
  5
1710
330
1E
100
AcDbEntity
  8
0
100
AcDbLine
 10
519.44
 20
800.0599999999998
 30
0.0
 11
519.868
 21
799.54
 31
0.0
  0
LINE
  5
1711
330
1E
100
AcDbEntity
  8
0
100
AcDbLine
 10
518.4400000000001
 20
793.3699999999999
 30
0.0
 11
519.44
 21
793.356
 31
0.0
  0
LINE
  5
1712
330
1E
100
AcDbEntity
  8
0
100
AcDbLine
 10
518.4400000000001
 20
798.273
 30
0.0
 11
519.44
 21
798.7999999999998
 31
0.0
  0
LINE
  5
1713
330
1E
100
AcDbEntity
  8
0
100
AcDbLine
 10
519.2051130780931
 20
800.646832244241
 30
0.0
 11
519.44
 21
800.0599999999998
 31
0.0
  0
LINE
  5
1714
330
1E
100
AcDbEntity
  8
0
100
AcDbLine
 10
518.4400000000001
 20
800.075
 30
0.0
 11
519.44
 21
800.0599999999998
 31
0.0
  0
LINE
  5
1715
330
1E
100
AcDbEntity
  8
0
100
AcDbLine
 10
522.5675109071769
 20
789.3257483871227
 30
0.0
 11
523.0869999999998
 21
788.717
 31
0.0
  0
LINE
  5
1716
330
1E
100
AcDbEntity
  8
0
100
AcDbLine
 10
522.721
 20
787.9249999999999
 30
0.0
 11
523.0869999999998
 21
787.5729999999999
 31
0.0
  0
LINE
  5
1717
330
1E
100
AcDbEntity
  8
0
100
AcDbLine
 10
522.721
 20
787.9249999999999
 30
0.0
 11
523.0869999999998
 21
788.717
 31
0.0
  0
LINE
  5
1718
330
1E
100
AcDbEntity
  8
0
100
AcDbLine
 10
522.671970904421
 20
783.7573399367439
 30
0.0
 11
523.0869999999998
 21
783.271
 31
0.0
  0
LINE
  5
1719
330
1E
100
AcDbEntity
  8
0
100
AcDbLine
 10
522.721
 20
782.4789999999998
 30
0.0
 11
523.0869999999998
 21
782.1269999999998
 31
0.0
  0
LINE
  5
171A
330
1E
100
AcDbEntity
  8
0
100
AcDbLine
 10
522.721
 20
782.4789999999998
 30
0.0
 11
523.0869999999998
 21
783.271
 31
0.0
  0
LINE
  5
171B
330
1E
100
AcDbEntity
  8
0
100
AcDbLine
 10
522.734532870865
 20
778.2377256847167
 30
0.0
 11
523.0869999999998
 21
777.825
 31
0.0
  0
LINE
  5
171C
330
1E
100
AcDbEntity
  8
0
100
AcDbLine
 10
522.7634764235518
 20
772.7571118198241
 30
0.0
 11
523.0869999999998
 21
772.378
 31
0.0
  0
LINE
  5
171D
330
1E
100
AcDbEntity
  8
0
100
AcDbLine
 10
522.721
 20
777.033
 30
0.0
 11
523.0869999999998
 21
776.681
 31
0.0
  0
LINE
  5
171E
330
1E
100
AcDbEntity
  8
0
100
AcDbLine
 10
522.721
 20
777.033
 30
0.0
 11
523.0869999999998
 21
777.825
 31
0.0
  0
LINE
  5
171F
330
1E
100
AcDbEntity
  8
0
100
AcDbLine
 10
522.721
 20
771.586
 30
0.0
 11
523.0869999999998
 21
771.2349999999998
 31
0.0
  0
LINE
  5
1720
330
1E
100
AcDbEntity
  8
0
100
AcDbLine
 10
522.721
 20
771.586
 30
0.0
 11
523.0869999999998
 21
772.378
 31
0.0
  0
LINE
  5
1721
330
1E
100
AcDbEntity
  8
0
100
AcDbLine
 10
522.1563235806329
 20
788.5866998591209
 30
0.0
 11
522.721
 21
787.9249999999999
 31
0.0
  0
LINE
  5
1722
330
1E
100
AcDbEntity
  8
0
100
AcDbLine
 10
518.4400000000001
 20
785.313
 30
0.0
 11
519.44
 21
785.826
 31
0.0
  0
LINE
  5
1723
330
1E
100
AcDbEntity
  8
0
100
AcDbLine
 10
519.44
 20
785.826
 30
0.0
 11
519.868
 21
786.513
 31
0.0
  0
LINE
  5
1724
330
1E
100
AcDbEntity
  8
0
100
AcDbLine
 10
519.5557527435559
 20
787.3318158760928
 30
0.0
 11
519.868
 21
786.513
 31
0.0
  0
LINE
  5
1725
330
1E
100
AcDbEntity
  8
0
100
AcDbLine
 10
519.44
 20
786.9689999999998
 30
0.0
 11
519.868
 21
786.513
 31
0.0
  0
LINE
  5
1726
330
1E
100
AcDbEntity
  8
0
100
AcDbLine
 10
519.1282824569909
 20
787.7850867478448
 30
0.0
 11
519.44
 21
786.9689999999998
 31
0.0
  0
LINE
  5
1727
330
1E
100
AcDbEntity
  8
0
100
AcDbLine
 10
519.44
 20
780.3789999999998
 30
0.0
 11
519.868
 21
781.066
 31
0.0
  0
LINE
  5
1728
330
1E
100
AcDbEntity
  8
0
100
AcDbLine
 10
519.7674121566408
 20
781.3297746893998
 30
0.0
 11
519.868
 21
781.066
 31
0.0
  0
LINE
  5
1729
330
1E
100
AcDbEntity
  8
0
100
AcDbLine
 10
519.4644441758259
 20
771.2319198801808
 30
0.0
 11
519.868
 21
770.173
 31
0.0
  0
LINE
  5
172A
330
1E
100
AcDbEntity
  8
0
100
AcDbLine
 10
519.44
 20
781.523
 30
0.0
 11
519.868
 21
781.066
 31
0.0
  0
LINE
  5
172B
330
1E
100
AcDbEntity
  8
0
100
AcDbLine
 10
519.1291242469708
 20
782.336882914078
 30
0.0
 11
519.44
 21
781.523
 31
0.0
  0
LINE
  5
172C
330
1E
100
AcDbEntity
  8
0
100
AcDbLine
 10
519.44
 20
774.9329999999998
 30
0.0
 11
519.868
 21
775.6189999999998
 31
0.0
  0
LINE
  5
172D
330
1E
100
AcDbEntity
  8
0
100
AcDbLine
 10
519.345482029869
 20
776.99007342573
 30
0.0
 11
519.868
 21
775.6189999999998
 31
0.0
  0
LINE
  5
172E
330
1E
100
AcDbEntity
  8
0
100
AcDbLine
 10
519.44
 20
776.0769999999999
 30
0.0
 11
519.868
 21
775.6189999999998
 31
0.0
  0
LINE
  5
172F
330
1E
100
AcDbEntity
  8
0
100
AcDbLine
 10
519.1708238156079
 20
776.781712076186
 30
0.0
 11
519.44
 21
776.0769999999999
 31
0.0
  0
LINE
  5
1730
330
1E
100
AcDbEntity
  8
0
100
AcDbLine
 10
519.44
 20
770.6299999999998
 30
0.0
 11
519.868
 21
770.173
 31
0.0
  0
LINE
  5
1731
330
1E
100
AcDbEntity
  8
0
100
AcDbLine
 10
518.4400000000001
 20
786.946
 30
0.0
 11
519.44
 21
786.9689999999998
 31
0.0
  0
LINE
  5
1732
330
1E
100
AcDbEntity
  8
0
100
AcDbLine
 10
518.4400000000001
 20
779.865
 30
0.0
 11
519.44
 21
780.3789999999998
 31
0.0
  0
LINE
  5
1733
330
1E
100
AcDbEntity
  8
0
100
AcDbLine
 10
518.4400000000001
 20
781.4989999999998
 30
0.0
 11
519.44
 21
781.523
 31
0.0
  0
LINE
  5
1734
330
1E
100
AcDbEntity
  8
0
100
AcDbLine
 10
518.4400000000001
 20
774.4189999999998
 30
0.0
 11
519.44
 21
774.9329999999998
 31
0.0
  0
LINE
  5
1735
330
1E
100
AcDbEntity
  8
0
100
AcDbLine
 10
518.4400000000001
 20
776.053
 30
0.0
 11
519.44
 21
776.0769999999999
 31
0.0
  0
LINE
  5
1736
330
1E
100
AcDbEntity
  8
0
100
AcDbLine
 10
518.4400000000001
 20
770.6069999999998
 30
0.0
 11
519.44
 21
770.6299999999998
 31
0.0
  0
LINE
  5
1737
330
1E
100
AcDbEntity
  8
0
100
AcDbLine
 10
518.1672675627738
 20
787.6600224627049
 30
0.0
 11
518.4400000000001
 21
786.946
 31
0.0
  0
LINE
  5
1738
330
1E
100
AcDbEntity
  8
0
100
AcDbLine
 10
518.2963754117078
 20
781.8752493312948
 30
0.0
 11
518.4400000000001
 21
781.4989999999998
 31
0.0
  0
LINE
  5
1739
330
1E
100
AcDbEntity
  8
0
100
AcDbLine
 10
518.2976192558539
 20
776.4259908674517
 30
0.0
 11
518.4400000000001
 21
776.053
 31
0.0
  0
LINE
  5
173A
330
1E
100
AcDbEntity
  8
0
100
AcDbLine
 10
518.4400000000001
 20
768.9730000000001
 30
0.0
 11
519.44
 21
769.4860000000001
 31
0.0
  0
LINE
  5
173B
330
1E
100
AcDbEntity
  8
0
100
AcDbLine
 10
519.44
 20
769.4860000000001
 30
0.0
 11
519.868
 21
770.173
 31
0.0
  0
LINE
  5
173C
330
1E
100
AcDbEntity
  8
0
100
AcDbLine
 10
515.0
 20
818.2369999999998
 30
0.0
 11
517.95
 21
818.0810000000001
 31
0.0
  0
LINE
  5
173D
330
1E
100
AcDbEntity
  8
0
100
AcDbLine
 10
517.95
 20
818.0810000000001
 30
0.0
 11
520.5249999999998
 21
817.9239999999998
 31
0.0
  0
LINE
  5
173E
330
1E
100
AcDbEntity
  8
0
100
AcDbLine
 10
517.44
 20
792.8439999999998
 30
0.0
 11
518.4400000000001
 21
793.3699999999999
 31
0.0
  0
LINE
  5
173F
330
1E
100
AcDbEntity
  8
0
100
AcDbLine
 10
517.0700689662508
 20
793.768221140055
 30
0.0
 11
517.44
 21
792.8439999999998
 31
0.0
  0
LINE
  5
1740
330
1E
100
AcDbEntity
  8
0
100
AcDbLine
 10
517.44
 20
799.5479999999998
 30
0.0
 11
518.4400000000001
 21
800.075
 31
0.0
  0
LINE
  5
1741
330
1E
100
AcDbEntity
  8
0
100
AcDbLine
 10
517.9069201690278
 20
801.4059517747059
 30
0.0
 11
518.4400000000001
 21
800.075
 31
0.0
  0
LINE
  5
1742
330
1E
100
AcDbEntity
  8
0
100
AcDbLine
 10
517.44
 20
798.2879999999998
 30
0.0
 11
518.4400000000001
 21
798.273
 31
0.0
  0
LINE
  5
1743
330
1E
100
AcDbEntity
  8
0
100
AcDbLine
 10
516.4010000000001
 20
793.628
 30
0.0
 11
517.0109999999998
 21
792.105
 31
0.0
  0
LINE
  5
1744
330
1E
100
AcDbEntity
  8
0
100
AcDbLine
 10
516.8549006359628
 20
801.0097892308072
 30
0.0
 11
517.44
 21
799.5479999999998
 31
0.0
  0
LINE
  5
1745
330
1E
100
AcDbEntity
  8
0
100
AcDbLine
 10
517.0109999999998
 20
798.808
 30
0.0
 11
517.44
 21
798.2879999999998
 31
0.0
  0
LINE
  5
1746
330
1E
100
AcDbEntity
  8
0
100
AcDbLine
 10
517.0109999999998
 20
798.808
 30
0.0
 11
517.44
 21
799.5479999999998
 31
0.0
  0
LINE
  5
1747
330
1E
100
AcDbEntity
  8
0
100
AcDbLine
 10
516.7315110445838
 20
799.5062642099249
 30
0.0
 11
517.0109999999998
 21
798.808
 31
0.0
  0
LINE
  5
1748
330
1E
100
AcDbEntity
  8
0
100
AcDbLine
 10
512.5599999999999
 20
799.5479999999998
 30
0.0
 11
512.989
 21
798.808
 31
0.0
  0
LINE
  5
1749
330
1E
100
AcDbEntity
  8
0
100
AcDbLine
 10
512.5599999999999
 20
799.5479999999998
 30
0.0
 11
513.145099364037
 21
801.0097892308072
 31
0.0
  0
LINE
  5
174A
330
1E
100
AcDbEntity
  8
0
100
AcDbLine
 10
512.989
 20
798.808
 30
0.0
 11
513.268488955416
 21
799.5062642099249
 31
0.0
  0
LINE
  5
174B
330
1E
100
AcDbEntity
  8
0
100
AcDbLine
 10
512.5599999999999
 20
798.2879999999998
 30
0.0
 11
512.989
 21
798.808
 31
0.0
  0
LINE
  5
174C
330
1E
100
AcDbEntity
  8
0
100
AcDbLine
 10
517.0109999999998
 20
792.105
 30
0.0
 11
517.44
 21
791.583
 31
0.0
  0
LINE
  5
174D
330
1E
100
AcDbEntity
  8
0
100
AcDbLine
 10
517.0109999999998
 20
792.105
 30
0.0
 11
517.44
 21
792.8439999999998
 31
0.0
  0
LINE
  5
174E
330
1E
100
AcDbEntity
  8
0
100
AcDbLine
 10
517.44
 20
791.583
 30
0.0
 11
518.4400000000001
 21
791.5700000000001
 31
0.0
  0
LINE
  5
174F
330
1E
100
AcDbEntity
  8
0
100
AcDbLine
 10
517.44
 20
786.432
 30
0.0
 11
518.4400000000001
 21
786.946
 31
0.0
  0
LINE
  5
1750
330
1E
100
AcDbEntity
  8
0
100
AcDbLine
 10
517.1482905129888
 20
787.196183213515
 30
0.0
 11
517.44
 21
786.432
 31
0.0
  0
LINE
  5
1751
330
1E
100
AcDbEntity
  8
0
100
AcDbLine
 10
517.44
 20
785.2889999999998
 30
0.0
 11
518.4400000000001
 21
785.313
 31
0.0
  0
LINE
  5
1752
330
1E
100
AcDbEntity
  8
0
100
AcDbLine
 10
517.44
 20
780.9860000000001
 30
0.0
 11
518.4400000000001
 21
781.4989999999998
 31
0.0
  0
LINE
  5
1753
330
1E
100
AcDbEntity
  8
0
100
AcDbLine
 10
517.1141641478827
 20
781.8395831011198
 30
0.0
 11
517.44
 21
780.9860000000001
 31
0.0
  0
LINE
  5
1754
330
1E
100
AcDbEntity
  8
0
100
AcDbLine
 10
517.44
 20
779.842
 30
0.0
 11
518.4400000000001
 21
779.865
 31
0.0
  0
LINE
  5
1755
330
1E
100
AcDbEntity
  8
0
100
AcDbLine
 10
517.44
 20
775.5399999999999
 30
0.0
 11
518.4400000000001
 21
776.053
 31
0.0
  0
LINE
  5
1756
330
1E
100
AcDbEntity
  8
0
100
AcDbLine
 10
517.44
 20
774.3960000000001
 30
0.0
 11
518.4400000000001
 21
774.4189999999998
 31
0.0
  0
LINE
  5
1757
330
1E
100
AcDbEntity
  8
0
100
AcDbLine
 10
517.44
 20
770.0939999999998
 30
0.0
 11
518.4400000000001
 21
770.6069999999998
 31
0.0
  0
LINE
  5
1758
330
1E
100
AcDbEntity
  8
0
100
AcDbLine
 10
517.3061890004277
 20
770.4443215841259
 30
0.0
 11
517.44
 21
770.0939999999998
 31
0.0
  0
LINE
  5
1759
330
1E
100
AcDbEntity
  8
0
100
AcDbLine
 10
517.44
 20
768.95
 30
0.0
 11
518.4400000000001
 21
768.9730000000001
 31
0.0
  0
LINE
  5
175A
330
1E
100
AcDbEntity
  8
0
100
AcDbLine
 10
517.0109999999998
 20
785.745
 30
0.0
 11
517.44
 21
785.2889999999998
 31
0.0
  0
LINE
  5
175B
330
1E
100
AcDbEntity
  8
0
100
AcDbLine
 10
517.0109999999998
 20
785.745
 30
0.0
 11
517.44
 21
786.432
 31
0.0
  0
LINE
  5
175C
330
1E
100
AcDbEntity
  8
0
100
AcDbLine
 10
516.6485177819169
 20
786.694584564749
 30
0.0
 11
517.0109999999998
 21
785.745
 31
0.0
  0
LINE
  5
175D
330
1E
100
AcDbEntity
  8
0
100
AcDbLine
 10
512.5599999999999
 20
786.432
 30
0.0
 11
512.989
 21
785.745
 31
0.0
  0
LINE
  5
175E
330
1E
100
AcDbEntity
  8
0
100
AcDbLine
 10
512.5599999999999
 20
786.432
 30
0.0
 11
512.851709487011
 21
787.196183213515
 31
0.0
  0
LINE
  5
175F
330
1E
100
AcDbEntity
  8
0
100
AcDbLine
 10
512.5599999999999
 20
792.8439999999998
 30
0.0
 11
512.989
 21
792.105
 31
0.0
  0
LINE
  5
1760
330
1E
100
AcDbEntity
  8
0
100
AcDbLine
 10
512.5599999999999
 20
792.8439999999998
 30
0.0
 11
512.9299310337489
 21
793.768221140055
 31
0.0
  0
LINE
  5
1761
330
1E
100
AcDbEntity
  8
0
100
AcDbLine
 10
512.989
 20
792.105
 30
0.0
 11
513.5989999999998
 21
793.628
 31
0.0
  0
LINE
  5
1762
330
1E
100
AcDbEntity
  8
0
100
AcDbLine
 10
512.5599999999999
 20
791.583
 30
0.0
 11
512.989
 21
792.105
 31
0.0
  0
LINE
  5
1763
330
1E
100
AcDbEntity
  8
0
100
AcDbLine
 10
517.0109999999998
 20
780.2989999999998
 30
0.0
 11
517.44
 21
779.842
 31
0.0
  0
LINE
  5
1764
330
1E
100
AcDbEntity
  8
0
100
AcDbLine
 10
517.0109999999998
 20
780.2989999999998
 30
0.0
 11
517.44
 21
780.9860000000001
 31
0.0
  0
LINE
  5
1765
330
1E
100
AcDbEntity
  8
0
100
AcDbLine
 10
516.7363280675719
 20
781.0185504065899
 30
0.0
 11
517.0109999999998
 21
780.2989999999998
 31
0.0
  0
LINE
  5
1766
330
1E
100
AcDbEntity
  8
0
100
AcDbLine
 10
517.0109999999998
 20
774.853
 30
0.0
 11
517.44
 21
774.3960000000001
 31
0.0
  0
LINE
  5
1767
330
1E
100
AcDbEntity
  8
0
100
AcDbLine
 10
517.0109999999998
 20
774.853
 30
0.0
 11
517.44
 21
775.5399999999999
 31
0.0
  0
LINE
  5
1768
330
1E
100
AcDbEntity
  8
0
100
AcDbLine
 10
516.8455671832551
 20
775.2863797396027
 30
0.0
 11
517.0109999999998
 21
774.853
 31
0.0
  0
LINE
  5
1769
330
1E
100
AcDbEntity
  8
0
100
AcDbLine
 10
517.0109999999998
 20
769.4069999999998
 30
0.0
 11
517.44
 21
768.95
 31
0.0
  0
LINE
  5
176A
330
1E
100
AcDbEntity
  8
0
100
AcDbLine
 10
517.0109999999998
 20
769.4069999999998
 30
0.0
 11
517.44
 21
770.0939999999998
 31
0.0
  0
LINE
  5
176B
330
1E
100
AcDbEntity
  8
0
100
AcDbLine
 10
516.8621119403458
 20
769.7967938217487
 30
0.0
 11
517.0109999999998
 21
769.4069999999998
 31
0.0
  0
LINE
  5
176C
330
1E
100
AcDbEntity
  8
0
100
AcDbLine
 10
512.989
 20
785.745
 30
0.0
 11
513.3514822180829
 21
786.694584564749
 31
0.0
  0
LINE
  5
176D
330
1E
100
AcDbEntity
  8
0
100
AcDbLine
 10
512.5599999999999
 20
785.2889999999998
 30
0.0
 11
512.989
 21
785.745
 31
0.0
  0
LINE
  5
176E
330
1E
100
AcDbEntity
  8
0
100
AcDbLine
 10
512.5599999999999
 20
780.9860000000001
 30
0.0
 11
512.989
 21
780.2989999999998
 31
0.0
  0
LINE
  5
176F
330
1E
100
AcDbEntity
  8
0
100
AcDbLine
 10
512.5599999999999
 20
780.9860000000001
 30
0.0
 11
512.885835852117
 21
781.8395831011198
 31
0.0
  0
LINE
  5
1770
330
1E
100
AcDbEntity
  8
0
100
AcDbLine
 10
512.989
 20
780.2989999999998
 30
0.0
 11
513.2636719324279
 21
781.0185504065899
 31
0.0
  0
LINE
  5
1771
330
1E
100
AcDbEntity
  8
0
100
AcDbLine
 10
512.989
 20
769.4069999999998
 30
0.0
 11
513.1378880596539
 21
769.7967938217487
 31
0.0
  0
LINE
  5
1772
330
1E
100
AcDbEntity
  8
0
100
AcDbLine
 10
512.989
 20
774.853
 30
0.0
 11
513.1544328167448
 21
775.2863797396027
 31
0.0
  0
LINE
  5
1773
330
1E
100
AcDbEntity
  8
0
100
AcDbLine
 10
512.5599999999999
 20
779.842
 30
0.0
 11
512.989
 21
780.2989999999998
 31
0.0
  0
LINE
  5
1774
330
1E
100
AcDbEntity
  8
0
100
AcDbLine
 10
512.5599999999999
 20
770.0939999999998
 30
0.0
 11
512.989
 21
769.4069999999998
 31
0.0
  0
LINE
  5
1775
330
1E
100
AcDbEntity
  8
0
100
AcDbLine
 10
512.5599999999999
 20
770.0939999999998
 30
0.0
 11
512.6938109995719
 21
770.4443215841259
 31
0.0
  0
LINE
  5
1776
330
1E
100
AcDbEntity
  8
0
100
AcDbLine
 10
512.5599999999999
 20
768.95
 30
0.0
 11
512.989
 21
769.4069999999998
 31
0.0
  0
LINE
  5
1777
330
1E
100
AcDbEntity
  8
0
100
AcDbLine
 10
512.5599999999999
 20
775.5399999999999
 30
0.0
 11
512.989
 21
774.853
 31
0.0
  0
LINE
  5
1778
330
1E
100
AcDbEntity
  8
0
100
AcDbLine
 10
512.5599999999999
 20
774.3960000000001
 30
0.0
 11
512.989
 21
774.853
 31
0.0
  0
LINE
  5
1779
330
1E
100
AcDbEntity
  8
0
100
AcDbLine
 10
528.893
 20
761.2689999999998
 30
0.0
 11
528.9459999999999
 21
768.781
 31
0.0
  0
LINE
  5
177A
330
1E
100
AcDbEntity
  8
0
100
AcDbLine
 10
528.744
 20
754.5449999999998
 30
0.0
 11
528.893
 21
761.2689999999998
 31
0.0
  0
LINE
  5
177B
330
1E
100
AcDbEntity
  8
0
100
AcDbLine
 10
528.893
 20
761.3179999999999
 30
0.0
 11
528.9459999999999
 21
768.83
 31
0.0
  0
LINE
  5
177C
330
1E
100
AcDbEntity
  8
0
100
AcDbLine
 10
528.744
 20
754.596
 30
0.0
 11
528.893
 21
761.3179999999999
 31
0.0
  0
LINE
  5
177D
330
1E
100
AcDbEntity
  8
0
100
AcDbLine
 10
523.0869999999998
 20
760.9860000000001
 30
0.0
 11
523.9409999999998
 21
761.2539999999998
 31
0.0
  0
LINE
  5
177E
330
1E
100
AcDbEntity
  8
0
100
AcDbLine
 10
523.0869999999998
 20
762.1299999999998
 30
0.0
 11
523.9409999999998
 21
762.8889999999999
 31
0.0
  0
LINE
  5
177F
330
1E
100
AcDbEntity
  8
0
100
AcDbLine
 10
523.9409999999998
 20
762.8889999999999
 30
0.0
 11
524.794
 21
763.156
 31
0.0
  0
LINE
  5
1780
330
1E
100
AcDbEntity
  8
0
100
AcDbLine
 10
524.591484752162
 20
763.3933116821748
 30
0.0
 11
524.794
 21
763.156
 31
0.0
  0
LINE
  5
1781
330
1E
100
AcDbEntity
  8
0
100
AcDbLine
 10
524.794
 20
763.156
 30
0.0
 11
525.16
 21
762.8039999999998
 31
0.0
  0
LINE
  5
1782
330
1E
100
AcDbEntity
  8
0
100
AcDbLine
 10
524.611755107016
 20
763.44597404565
 30
0.0
 11
525.16
 21
762.8039999999998
 31
0.0
  0
LINE
  5
1783
330
1E
100
AcDbEntity
  8
0
100
AcDbLine
 10
524.794
 20
768.602
 30
0.0
 11
525.16
 21
768.25
 31
0.0
  0
LINE
  5
1784
330
1E
100
AcDbEntity
  8
0
100
AcDbLine
 10
524.9409917206628
 20
768.5064504164398
 30
0.0
 11
525.16
 21
768.25
 31
0.0
  0
LINE
  5
1785
330
1E
100
AcDbEntity
  8
0
100
AcDbLine
 10
524.794
 20
767.458
 30
0.0
 11
525.16
 21
768.25
 31
0.0
  0
LINE
  5
1786
330
1E
100
AcDbEntity
  8
0
100
AcDbLine
 10
523.9409999999998
 20
768.335
 30
0.0
 11
524.794
 21
768.602
 31
0.0
  0
LINE
  5
1787
330
1E
100
AcDbEntity
  8
0
100
AcDbLine
 10
523.9409999999998
 20
766.701
 30
0.0
 11
524.794
 21
767.458
 31
0.0
  0
LINE
  5
1788
330
1E
100
AcDbEntity
  8
0
100
AcDbLine
 10
524.794
 20
762.0119999999998
 30
0.0
 11
525.16
 21
762.8039999999998
 31
0.0
  0
LINE
  5
1789
330
1E
100
AcDbEntity
  8
0
100
AcDbLine
 10
523.9409999999998
 20
761.2539999999998
 30
0.0
 11
524.794
 21
762.0119999999998
 31
0.0
  0
LINE
  5
178A
330
1E
100
AcDbEntity
  8
0
100
AcDbLine
 10
523.0869999999998
 20
766.4339999999998
 30
0.0
 11
523.9409999999998
 21
766.701
 31
0.0
  0
LINE
  5
178B
330
1E
100
AcDbEntity
  8
0
100
AcDbLine
 10
523.0869999999998
 20
767.5769999999999
 30
0.0
 11
523.9409999999998
 21
768.335
 31
0.0
  0
LINE
  5
178C
330
1E
100
AcDbEntity
  8
0
100
AcDbLine
 10
523.0869999999998
 20
755.5399999999998
 30
0.0
 11
523.9409999999998
 21
755.807
 31
0.0
  0
LINE
  5
178D
330
1E
100
AcDbEntity
  8
0
100
AcDbLine
 10
523.9409999999998
 20
757.4419999999999
 30
0.0
 11
524.794
 21
757.7089999999998
 31
0.0
  0
LINE
  5
178E
330
1E
100
AcDbEntity
  8
0
100
AcDbLine
 10
524.3128114059597
 20
758.272867046625
 30
0.0
 11
524.794
 21
757.7089999999998
 31
0.0
  0
LINE
  5
178F
330
1E
100
AcDbEntity
  8
0
100
AcDbLine
 10
524.794
 20
757.7089999999998
 30
0.0
 11
525.16
 21
757.3569999999998
 31
0.0
  0
LINE
  5
1790
330
1E
100
AcDbEntity
  8
0
100
AcDbLine
 10
524.7198474326778
 20
757.8727801562088
 30
0.0
 11
525.16
 21
757.3569999999998
 31
0.0
  0
LINE
  5
1791
330
1E
100
AcDbEntity
  8
0
100
AcDbLine
 10
524.794
 20
756.566
 30
0.0
 11
525.16
 21
757.3569999999998
 31
0.0
  0
LINE
  5
1792
330
1E
100
AcDbEntity
  8
0
100
AcDbLine
 10
523.9409999999998
 20
755.807
 30
0.0
 11
524.794
 21
756.566
 31
0.0
  0
LINE
  5
1793
330
1E
100
AcDbEntity
  8
0
100
AcDbLine
 10
523.0869999999998
 20
756.684
 30
0.0
 11
523.9409999999998
 21
757.4419999999999
 31
0.0
  0
LINE
  5
1794
330
1E
100
AcDbEntity
  8
0
100
AcDbLine
 10
522.721
 20
761.3389999999998
 30
0.0
 11
523.0869999999998
 21
762.1299999999998
 31
0.0
  0
LINE
  5
1795
330
1E
100
AcDbEntity
  8
0
100
AcDbLine
 10
522.721
 20
761.3389999999998
 30
0.0
 11
523.0869999999998
 21
760.9860000000001
 31
0.0
  0
LINE
  5
1796
330
1E
100
AcDbEntity
  8
0
100
AcDbLine
 10
522.0716471075288
 20
762.099367691098
 30
0.0
 11
522.721
 21
761.3389999999998
 31
0.0
  0
LINE
  5
1797
330
1E
100
AcDbEntity
  8
0
100
AcDbLine
 10
522.740825359503
 20
762.535654819277
 30
0.0
 11
523.0869999999998
 21
762.1299999999998
 31
0.0
  0
LINE
  5
1798
330
1E
100
AcDbEntity
  8
0
100
AcDbLine
 10
522.721
 20
766.7849999999998
 30
0.0
 11
523.0869999999998
 21
767.5769999999999
 31
0.0
  0
LINE
  5
1799
330
1E
100
AcDbEntity
  8
0
100
AcDbLine
 10
522.721
 20
766.7849999999998
 30
0.0
 11
523.0869999999998
 21
766.4339999999998
 31
0.0
  0
LINE
  5
179A
330
1E
100
AcDbEntity
  8
0
100
AcDbLine
 10
522.768638239091
 20
767.949789587731
 30
0.0
 11
523.0869999999998
 21
767.5769999999999
 31
0.0
  0
LINE
  5
179B
330
1E
100
AcDbEntity
  8
0
100
AcDbLine
 10
522.075041232851
 20
767.542503193435
 30
0.0
 11
522.721
 21
766.7849999999998
 31
0.0
  0
LINE
  5
179C
330
1E
100
AcDbEntity
  8
0
100
AcDbLine
 10
517.44
 20
764.1049999999999
 30
0.0
 11
518.4400000000001
 21
764.128
 31
0.0
  0
LINE
  5
179D
330
1E
100
AcDbEntity
  8
0
100
AcDbLine
 10
517.0109999999998
 20
764.562
 30
0.0
 11
517.44
 21
765.2489999999998
 31
0.0
  0
LINE
  5
179E
330
1E
100
AcDbEntity
  8
0
100
AcDbLine
 10
517.0109999999998
 20
764.562
 30
0.0
 11
517.44
 21
764.1049999999999
 31
0.0
  0
LINE
  5
179F
330
1E
100
AcDbEntity
  8
0
100
AcDbLine
 10
518.094351216803
 20
766.6674864845068
 30
0.0
 11
518.4400000000001
 21
765.7619999999998
 31
0.0
  0
LINE
  5
17A0
330
1E
100
AcDbEntity
  8
0
100
AcDbLine
 10
518.4400000000001
 20
765.7619999999998
 30
0.0
 11
519.44
 21
765.786
 31
0.0
  0
LINE
  5
17A1
330
1E
100
AcDbEntity
  8
0
100
AcDbLine
 10
519.6476776208799
 20
765.906758357068
 30
0.0
 11
519.868
 21
765.3289999999998
 31
0.0
  0
LINE
  5
17A2
330
1E
100
AcDbEntity
  8
0
100
AcDbLine
 10
519.44
 20
765.786
 30
0.0
 11
519.868
 21
765.3289999999998
 31
0.0
  0
LINE
  5
17A3
330
1E
100
AcDbEntity
  8
0
100
AcDbLine
 10
517.44
 20
765.2489999999998
 30
0.0
 11
518.4400000000001
 21
765.7619999999998
 31
0.0
  0
LINE
  5
17A4
330
1E
100
AcDbEntity
  8
0
100
AcDbLine
 10
519.44
 20
764.6419999999998
 30
0.0
 11
519.868
 21
765.3289999999998
 31
0.0
  0
LINE
  5
17A5
330
1E
100
AcDbEntity
  8
0
100
AcDbLine
 10
518.4400000000001
 20
764.128
 30
0.0
 11
519.44
 21
764.6419999999998
 31
0.0
  0
LINE
  5
17A6
330
1E
100
AcDbEntity
  8
0
100
AcDbLine
 10
516.8611203679708
 20
764.9546354950529
 30
0.0
 11
517.0109999999998
 21
764.562
 31
0.0
  0
LINE
  5
17A7
330
1E
100
AcDbEntity
  8
0
100
AcDbLine
 10
512.5599999999999
 20
765.2489999999998
 30
0.0
 11
512.989
 21
764.562
 31
0.0
  0
LINE
  5
17A8
330
1E
100
AcDbEntity
  8
0
100
AcDbLine
 10
512.989
 20
764.562
 30
0.0
 11
513.138879632029
 21
764.9546354950518
 31
0.0
  0
LINE
  5
17A9
330
1E
100
AcDbEntity
  8
0
100
AcDbLine
 10
512.5599999999999
 20
764.1049999999999
 30
0.0
 11
512.989
 21
764.562
 31
0.0
  0
LINE
  5
17AA
330
1E
100
AcDbEntity
  8
0
100
AcDbLine
 10
517.44
 20
758.659
 30
0.0
 11
518.4400000000001
 21
758.682
 31
0.0
  0
LINE
  5
17AB
330
1E
100
AcDbEntity
  8
0
100
AcDbLine
 10
518.4400000000001
 20
760.316
 30
0.0
 11
519.44
 21
760.34
 31
0.0
  0
LINE
  5
17AC
330
1E
100
AcDbEntity
  8
0
100
AcDbLine
 10
519.2549822150679
 20
760.8243826271091
 30
0.0
 11
519.44
 21
760.34
 31
0.0
  0
LINE
  5
17AD
330
1E
100
AcDbEntity
  8
0
100
AcDbLine
 10
519.4075345461401
 20
761.0904931524049
 30
0.0
 11
519.868
 21
759.883
 31
0.0
  0
LINE
  5
17AE
330
1E
100
AcDbEntity
  8
0
100
AcDbLine
 10
519.44
 20
760.34
 30
0.0
 11
519.868
 21
759.883
 31
0.0
  0
LINE
  5
17AF
330
1E
100
AcDbEntity
  8
0
100
AcDbLine
 10
519.44
 20
759.196
 30
0.0
 11
519.868
 21
759.883
 31
0.0
  0
LINE
  5
17B0
330
1E
100
AcDbEntity
  8
0
100
AcDbLine
 10
522.721
 20
755.893
 30
0.0
 11
523.0869999999998
 21
756.684
 31
0.0
  0
LINE
  5
17B1
330
1E
100
AcDbEntity
  8
0
100
AcDbLine
 10
522.721
 20
755.893
 30
0.0
 11
523.0869999999998
 21
755.5399999999998
 31
0.0
  0
LINE
  5
17B2
330
1E
100
AcDbEntity
  8
0
100
AcDbLine
 10
522.672665803252
 20
755.9495975173261
 30
0.0
 11
522.721
 21
755.893
 31
0.0
  0
LINE
  5
17B3
330
1E
100
AcDbEntity
  8
0
100
AcDbLine
 10
522.693697905707
 20
757.1448797737247
 30
0.0
 11
523.0869999999998
 21
756.684
 31
0.0
  0
LINE
  5
17B4
330
1E
100
AcDbEntity
  8
0
100
AcDbLine
 10
518.4400000000001
 20
758.682
 30
0.0
 11
519.44
 21
759.196
 31
0.0
  0
LINE
  5
17B5
330
1E
100
AcDbEntity
  8
0
100
AcDbLine
 10
519.44
 20
754.893
 30
0.0
 11
519.868
 21
754.436
 31
0.0
  0
LINE
  5
17B6
330
1E
100
AcDbEntity
  8
0
100
AcDbLine
 10
518.4400000000001
 20
754.87
 30
0.0
 11
519.44
 21
754.893
 31
0.0
  0
LINE
  5
17B7
330
1E
100
AcDbEntity
  8
0
100
AcDbLine
 10
517.0109999999998
 20
759.1160000000001
 30
0.0
 11
517.44
 21
759.8029999999998
 31
0.0
  0
LINE
  5
17B8
330
1E
100
AcDbEntity
  8
0
100
AcDbLine
 10
517.0109999999998
 20
759.1160000000001
 30
0.0
 11
517.44
 21
758.659
 31
0.0
  0
LINE
  5
17B9
330
1E
100
AcDbEntity
  8
0
100
AcDbLine
 10
516.843170700266
 20
759.555657739304
 30
0.0
 11
517.0109999999998
 21
759.1160000000001
 31
0.0
  0
LINE
  5
17BA
330
1E
100
AcDbEntity
  8
0
100
AcDbLine
 10
517.0836661378168
 20
760.7364778881461
 30
0.0
 11
517.44
 21
759.8029999999998
 31
0.0
  0
LINE
  5
17BB
330
1E
100
AcDbEntity
  8
0
100
AcDbLine
 10
517.44
 20
759.8029999999998
 30
0.0
 11
518.4400000000001
 21
760.316
 31
0.0
  0
LINE
  5
17BC
330
1E
100
AcDbEntity
  8
0
100
AcDbLine
 10
512.5599999999999
 20
759.8029999999998
 30
0.0
 11
512.916333862183
 21
760.7364778881461
 31
0.0
  0
LINE
  5
17BD
330
1E
100
AcDbEntity
  8
0
100
AcDbLine
 10
512.5599999999999
 20
759.8029999999998
 30
0.0
 11
512.989
 21
759.1160000000001
 31
0.0
  0
LINE
  5
17BE
330
1E
100
AcDbEntity
  8
0
100
AcDbLine
 10
512.5599999999999
 20
758.659
 30
0.0
 11
512.989
 21
759.1160000000001
 31
0.0
  0
LINE
  5
17BF
330
1E
100
AcDbEntity
  8
0
100
AcDbLine
 10
512.989
 20
759.1160000000001
 30
0.0
 11
513.1568292997338
 21
759.5556577393027
 31
0.0
  0
LINE
  5
17C0
330
1E
100
AcDbEntity
  8
0
100
AcDbLine
 10
528.62
 20
749.566
 30
0.0
 11
528.744
 21
754.5449999999998
 31
0.0
  0
LINE
  5
17C1
330
1E
100
AcDbEntity
  8
0
100
AcDbLine
 10
528.495
 20
746.307
 30
0.0
 11
528.62
 21
749.566
 31
0.0
  0
LINE
  5
17C2
330
1E
100
AcDbEntity
  8
0
100
AcDbLine
 10
528.62
 20
749.6169999999998
 30
0.0
 11
528.744
 21
754.596
 31
0.0
  0
LINE
  5
17C3
330
1E
100
AcDbEntity
  8
0
100
AcDbLine
 10
528.495
 20
746.3560000000001
 30
0.0
 11
528.62
 21
749.6169999999998
 31
0.0
  0
LINE
  5
17C4
330
1E
100
AcDbEntity
  8
0
100
AcDbLine
 10
522.7053339552238
 20
746.598916511194
 30
0.0
 11
523.0869999999998
 21
746.1519999999998
 31
0.0
  0
LINE
  5
17C5
330
1E
100
AcDbEntity
  8
0
100
AcDbLine
 10
523.9409999999998
 20
746.9089999999998
 30
0.0
 11
524.794
 21
747.177
 31
0.0
  0
LINE
  5
17C6
330
1E
100
AcDbEntity
  8
0
100
AcDbLine
 10
524.6383329874809
 20
747.359413921886
 30
0.0
 11
524.794
 21
747.177
 31
0.0
  0
LINE
  5
17C7
330
1E
100
AcDbEntity
  8
0
100
AcDbLine
 10
524.794
 20
747.177
 30
0.0
 11
525.16
 21
746.825
 31
0.0
  0
LINE
  5
17C8
330
1E
100
AcDbEntity
  8
0
100
AcDbLine
 10
524.6408121822169
 20
747.4333953466119
 30
0.0
 11
525.16
 21
746.825
 31
0.0
  0
LINE
  5
17C9
330
1E
100
AcDbEntity
  8
0
100
AcDbLine
 10
524.794
 20
752.263
 30
0.0
 11
525.16
 21
751.9099999999999
 31
0.0
  0
LINE
  5
17CA
330
1E
100
AcDbEntity
  8
0
100
AcDbLine
 10
524.7644233440451
 20
752.3738849960298
 30
0.0
 11
525.16
 21
751.9099999999999
 31
0.0
  0
LINE
  5
17CB
330
1E
100
AcDbEntity
  8
0
100
AcDbLine
 10
524.794
 20
751.1189999999998
 30
0.0
 11
525.16
 21
751.9099999999999
 31
0.0
  0
LINE
  5
17CC
330
1E
100
AcDbEntity
  8
0
100
AcDbLine
 10
523.0869999999998
 20
750.0939999999998
 30
0.0
 11
523.9409999999998
 21
750.3610000000001
 31
0.0
  0
LINE
  5
17CD
330
1E
100
AcDbEntity
  8
0
100
AcDbLine
 10
522.721
 20
750.446
 30
0.0
 11
523.0869999999998
 21
751.238
 31
0.0
  0
LINE
  5
17CE
330
1E
100
AcDbEntity
  8
0
100
AcDbLine
 10
522.721
 20
750.446
 30
0.0
 11
523.0869999999998
 21
750.0939999999998
 31
0.0
  0
LINE
  5
17CF
330
1E
100
AcDbEntity
  8
0
100
AcDbLine
 10
523.0869999999998
 20
751.238
 30
0.0
 11
523.9409999999998
 21
751.9949999999998
 31
0.0
  0
LINE
  5
17D0
330
1E
100
AcDbEntity
  8
0
100
AcDbLine
 10
523.9409999999998
 20
751.9949999999998
 30
0.0
 11
524.794
 21
752.263
 31
0.0
  0
LINE
  5
17D1
330
1E
100
AcDbEntity
  8
0
100
AcDbLine
 10
524.5637573422079
 20
752.532803251915
 30
0.0
 11
524.794
 21
752.263
 31
0.0
  0
LINE
  5
17D2
330
1E
100
AcDbEntity
  8
0
100
AcDbLine
 10
523.9409999999998
 20
750.3610000000001
 30
0.0
 11
524.794
 21
751.1189999999998
 31
0.0
  0
LINE
  5
17D3
330
1E
100
AcDbEntity
  8
0
100
AcDbLine
 10
517.44
 20
747.7669999999998
 30
0.0
 11
518.4400000000001
 21
747.7899999999999
 31
0.0
  0
LINE
  5
17D4
330
1E
100
AcDbEntity
  8
0
100
AcDbLine
 10
517.0109999999998
 20
748.2230000000001
 30
0.0
 11
517.44
 21
748.9099999999998
 31
0.0
  0
LINE
  5
17D5
330
1E
100
AcDbEntity
  8
0
100
AcDbLine
 10
517.0109999999998
 20
748.2230000000001
 30
0.0
 11
517.44
 21
747.7669999999998
 31
0.0
  0
LINE
  5
17D6
330
1E
100
AcDbEntity
  8
0
100
AcDbLine
 10
517.44
 20
748.9099999999998
 30
0.0
 11
518.4400000000001
 21
749.4229999999999
 31
0.0
  0
LINE
  5
17D7
330
1E
100
AcDbEntity
  8
0
100
AcDbLine
 10
518.1163229391079
 20
750.2709277759101
 30
0.0
 11
518.4400000000001
 21
749.4229999999999
 31
0.0
  0
LINE
  5
17D8
330
1E
100
AcDbEntity
  8
0
100
AcDbLine
 10
518.4400000000001
 20
749.4229999999999
 30
0.0
 11
519.44
 21
749.446
 31
0.0
  0
LINE
  5
17D9
330
1E
100
AcDbEntity
  8
0
100
AcDbLine
 10
519.2895287839631
 20
749.8401852511928
 30
0.0
 11
519.44
 21
749.446
 31
0.0
  0
LINE
  5
17DA
330
1E
100
AcDbEntity
  8
0
100
AcDbLine
 10
519.658390414045
 20
749.5393542330727
 30
0.0
 11
519.868
 21
748.9889999999998
 31
0.0
  0
LINE
  5
17DB
330
1E
100
AcDbEntity
  8
0
100
AcDbLine
 10
522.572891706435
 20
750.6195564539718
 30
0.0
 11
522.721
 21
750.446
 31
0.0
  0
LINE
  5
17DC
330
1E
100
AcDbEntity
  8
0
100
AcDbLine
 10
522.5961357258309
 20
751.8132052147477
 30
0.0
 11
523.0869999999998
 21
751.238
 31
0.0
  0
LINE
  5
17DD
330
1E
100
AcDbEntity
  8
0
100
AcDbLine
 10
519.842298904552
 20
754.5034389992198
 30
0.0
 11
519.868
 21
754.436
 31
0.0
  0
LINE
  5
17DE
330
1E
100
AcDbEntity
  8
0
100
AcDbLine
 10
519.44
 20
753.7499999999998
 30
0.0
 11
519.868
 21
754.436
 31
0.0
  0
LINE
  5
17DF
330
1E
100
AcDbEntity
  8
0
100
AcDbLine
 10
519.44
 20
749.446
 30
0.0
 11
519.868
 21
748.9889999999998
 31
0.0
  0
LINE
  5
17E0
330
1E
100
AcDbEntity
  8
0
100
AcDbLine
 10
518.4400000000001
 20
753.2360000000001
 30
0.0
 11
519.44
 21
753.7499999999998
 31
0.0
  0
LINE
  5
17E1
330
1E
100
AcDbEntity
  8
0
100
AcDbLine
 10
517.44
 20
753.2130000000001
 30
0.0
 11
518.4400000000001
 21
753.2360000000001
 31
0.0
  0
LINE
  5
17E2
330
1E
100
AcDbEntity
  8
0
100
AcDbLine
 10
517.44
 20
754.3569999999999
 30
0.0
 11
518.4400000000001
 21
754.87
 31
0.0
  0
LINE
  5
17E3
330
1E
100
AcDbEntity
  8
0
100
AcDbLine
 10
519.44
 20
748.303
 30
0.0
 11
519.868
 21
748.9889999999998
 31
0.0
  0
LINE
  5
17E4
330
1E
100
AcDbEntity
  8
0
100
AcDbLine
 10
518.4400000000001
 20
747.7899999999999
 30
0.0
 11
519.44
 21
748.303
 31
0.0
  0
LINE
  5
17E5
330
1E
100
AcDbEntity
  8
0
100
AcDbLine
 10
516.4010000000001
 20
749.82
 30
0.0
 11
517.0109999999998
 21
748.2230000000001
 31
0.0
  0
LINE
  5
17E6
330
1E
100
AcDbEntity
  8
0
100
AcDbLine
 10
516.971904288802
 20
750.135489919316
 30
0.0
 11
517.44
 21
748.9099999999998
 31
0.0
  0
LINE
  5
17E7
330
1E
100
AcDbEntity
  8
0
100
AcDbLine
 10
517.0109999999998
 20
753.6699999999998
 30
0.0
 11
517.44
 21
754.3569999999999
 31
0.0
  0
LINE
  5
17E8
330
1E
100
AcDbEntity
  8
0
100
AcDbLine
 10
517.0109999999998
 20
753.6699999999998
 30
0.0
 11
517.44
 21
753.2130000000001
 31
0.0
  0
LINE
  5
17E9
330
1E
100
AcDbEntity
  8
0
100
AcDbLine
 10
516.792680522955
 20
754.241567548921
 30
0.0
 11
517.0109999999998
 21
753.6699999999998
 31
0.0
  0
LINE
  5
17EA
330
1E
100
AcDbEntity
  8
0
100
AcDbLine
 10
512.5599999999999
 20
754.3569999999999
 30
0.0
 11
512.989
 21
753.6699999999998
 31
0.0
  0
LINE
  5
17EB
330
1E
100
AcDbEntity
  8
0
100
AcDbLine
 10
512.5599999999999
 20
753.2130000000001
 30
0.0
 11
512.989
 21
753.6699999999998
 31
0.0
  0
LINE
  5
17EC
330
1E
100
AcDbEntity
  8
0
100
AcDbLine
 10
512.989
 20
753.6699999999998
 30
0.0
 11
513.2073194770458
 21
754.241567548921
 31
0.0
  0
LINE
  5
17ED
330
1E
100
AcDbEntity
  8
0
100
AcDbLine
 10
512.989
 20
748.2230000000001
 30
0.0
 11
513.5989999999998
 21
749.82
 31
0.0
  0
LINE
  5
17EE
330
1E
100
AcDbEntity
  8
0
100
AcDbLine
 10
512.5599999999999
 20
748.9099999999998
 30
0.0
 11
513.0280957111978
 21
750.135489919316
 31
0.0
  0
LINE
  5
17EF
330
1E
100
AcDbEntity
  8
0
100
AcDbLine
 10
512.5599999999999
 20
748.9099999999998
 30
0.0
 11
512.989
 21
748.2230000000001
 31
0.0
  0
LINE
  5
17F0
330
1E
100
AcDbEntity
  8
0
100
AcDbLine
 10
512.5599999999999
 20
747.7669999999998
 30
0.0
 11
512.989
 21
748.2230000000001
 31
0.0
  0
LINE
  5
17F1
330
1E
100
AcDbEntity
  8
0
100
AcDbLine
 10
528.3869999999998
 20
744.3610000000001
 30
0.0
 11
528.495
 21
746.307
 31
0.0
  0
LINE
  5
17F2
330
1E
100
AcDbEntity
  8
0
100
AcDbLine
 10
528.2469999999998
 20
742.7310000000001
 30
0.0
 11
528.3869999999998
 21
744.3610000000001
 31
0.0
  0
LINE
  5
17F3
330
1E
100
AcDbEntity
  8
0
100
AcDbLine
 10
528.3869999999998
 20
744.4099999999998
 30
0.0
 11
528.495
 21
746.3560000000001
 31
0.0
  0
LINE
  5
17F4
330
1E
100
AcDbEntity
  8
0
100
AcDbLine
 10
528.2469999999998
 20
742.7799999999998
 30
0.0
 11
528.3869999999998
 21
744.4099999999998
 31
0.0
  0
LINE
  5
17F5
330
1E
100
AcDbEntity
  8
0
100
AcDbLine
 10
528.1708486536888
 20
742.9409781624561
 30
0.0
 11
528.19
 21
743.108
 31
0.0
  0
LINE
  5
17F6
330
1E
100
AcDbEntity
  8
0
100
AcDbLine
 10
517.44
 20
743.1699999999998
 30
0.0
 11
518.4400000000001
 21
743.2310000000001
 31
0.0
  0
LINE
  5
17F7
330
1E
100
AcDbEntity
  8
0
100
AcDbLine
 10
517.0109999999998
 20
743.561
 30
0.0
 11
517.44
 21
744.191
 31
0.0
  0
LINE
  5
17F8
330
1E
100
AcDbEntity
  8
0
100
AcDbLine
 10
517.0109999999998
 20
743.561
 30
0.0
 11
517.44
 21
743.1699999999998
 31
0.0
  0
LINE
  5
17F9
330
1E
100
AcDbEntity
  8
0
100
AcDbLine
 10
517.031749566911
 20
745.305322903432
 30
0.0
 11
517.44
 21
744.191
 31
0.0
  0
LINE
  5
17FA
330
1E
100
AcDbEntity
  8
0
100
AcDbLine
 10
522.721
 20
745.3599999999998
 30
0.0
 11
523.0869999999998
 21
746.1519999999998
 31
0.0
  0
LINE
  5
17FB
330
1E
100
AcDbEntity
  8
0
100
AcDbLine
 10
522.721
 20
745.3599999999998
 30
0.0
 11
523.0869999999998
 21
745.008
 31
0.0
  0
LINE
  5
17FC
330
1E
100
AcDbEntity
  8
0
100
AcDbLine
 10
523.0869999999998
 20
746.1519999999998
 30
0.0
 11
523.9409999999998
 21
746.9089999999998
 31
0.0
  0
LINE
  5
17FD
330
1E
100
AcDbEntity
  8
0
100
AcDbLine
 10
524.794
 20
746.0329999999999
 30
0.0
 11
525.16
 21
746.825
 31
0.0
  0
LINE
  5
17FE
330
1E
100
AcDbEntity
  8
0
100
AcDbLine
 10
522.3755545671511
 20
745.7648003182177
 30
0.0
 11
522.721
 21
745.3599999999998
 31
0.0
  0
LINE
  5
17FF
330
1E
100
AcDbEntity
  8
0
100
AcDbLine
 10
517.44
 20
744.191
 30
0.0
 11
518.4400000000001
 21
744.69
 31
0.0
  0
LINE
  5
1800
330
1E
100
AcDbEntity
  8
0
100
AcDbLine
 10
518.4400000000001
 20
744.69
 30
0.0
 11
519.44
 21
744.7510000000002
 31
0.0
  0
LINE
  5
1801
330
1E
100
AcDbEntity
  8
0
100
AcDbLine
 10
519.2834279518039
 20
745.178108013441
 30
0.0
 11
519.44
 21
744.7510000000002
 31
0.0
  0
LINE
  5
1802
330
1E
100
AcDbEntity
  8
0
100
AcDbLine
 10
519.6517726851539
 20
744.9511633484698
 30
0.0
 11
519.868
 21
744.3599999999999
 31
0.0
  0
LINE
  5
1803
330
1E
100
AcDbEntity
  8
0
100
AcDbLine
 10
523.0869999999998
 20
745.008
 30
0.0
 11
523.9409999999998
 21
745.276
 31
0.0
  0
LINE
  5
1804
330
1E
100
AcDbEntity
  8
0
100
AcDbLine
 10
523.9409999999998
 20
745.276
 30
0.0
 11
524.794
 21
746.0329999999999
 31
0.0
  0
LINE
  5
1805
330
1E
100
AcDbEntity
  8
0
100
AcDbLine
 10
519.44
 20
744.7510000000002
 30
0.0
 11
519.868
 21
744.3599999999999
 31
0.0
  0
LINE
  5
1806
330
1E
100
AcDbEntity
  8
0
100
AcDbLine
 10
519.44
 20
743.7289999999998
 30
0.0
 11
519.868
 21
744.3599999999999
 31
0.0
  0
LINE
  5
1807
330
1E
100
AcDbEntity
  8
0
100
AcDbLine
 10
518.4400000000001
 20
743.2310000000001
 30
0.0
 11
519.44
 21
743.7289999999998
 31
0.0
  0
LINE
  5
1808
330
1E
100
AcDbEntity
  8
0
100
AcDbLine
 10
516.8173889125268
 20
744.0894630502319
 30
0.0
 11
517.0109999999998
 21
743.561
 31
0.0
  0
LINE
  5
1809
330
1E
100
AcDbEntity
  8
0
100
AcDbLine
 10
512.5599999999999
 20
744.191
 30
0.0
 11
512.9682504330889
 21
745.305322903432
 31
0.0
  0
LINE
  5
180A
330
1E
100
AcDbEntity
  8
0
100
AcDbLine
 10
512.5599999999999
 20
744.191
 30
0.0
 11
512.989
 21
743.561
 31
0.0
  0
LINE
  5
180B
330
1E
100
AcDbEntity
  8
0
100
AcDbLine
 10
512.989
 20
743.561
 30
0.0
 11
513.182611087473
 21
744.0894630502319
 31
0.0
  0
LINE
  5
180C
330
1E
100
AcDbEntity
  8
0
100
AcDbLine
 10
512.5599999999999
 20
743.1699999999998
 30
0.0
 11
512.989
 21
743.561
 31
0.0
  0
LINE
  5
180D
330
1E
100
AcDbEntity
  8
0
100
AcDbLine
 10
528.014
 20
741.4639999999998
 30
0.0
 11
528.2469999999998
 21
742.7310000000001
 31
0.0
  0
LINE
  5
180E
330
1E
100
AcDbEntity
  8
0
100
AcDbLine
 10
527.9914824154738
 20
741.3766976041789
 30
0.0
 11
528.014
 21
741.4639999999998
 31
0.0
  0
LINE
  5
180F
330
1E
100
AcDbEntity
  8
0
100
AcDbLine
 10
528.014
 20
741.513
 30
0.0
 11
528.2469999999998
 21
742.7799999999998
 31
0.0
  0
LINE
  5
1810
330
1E
100
AcDbEntity
  8
0
100
AcDbLine
 10
527.452085994158
 20
739.1980230755499
 30
0.0
 11
527.725
 21
740.2610000000001
 31
0.0
  0
LINE
  5
1811
330
1E
100
AcDbEntity
  8
0
100
AcDbLine
 10
527.725
 20
740.2610000000001
 30
0.0
 11
528.014
 21
741.513
 31
0.0
  0
LINE
  5
1812
330
1E
100
AcDbEntity
  8
0
100
AcDbLine
 10
527.7739999999998
 20
739.48
 30
0.0
 11
528.059391733718
 21
741.9689452161758
 31
0.0
  0
LINE
  5
1813
330
1E
100
AcDbEntity
  8
0
100
AcDbLine
 10
509.5169999999998
 20
818.677
 30
0.0
 11
512.0719999999998
 21
818.7809999999998
 31
0.0
  0
LINE
  5
1814
330
1E
100
AcDbEntity
  8
0
100
AcDbLine
 10
507.2509999999998
 20
818.1979999999999
 30
0.0
 11
509.5169999999998
 21
818.677
 31
0.0
  0
LINE
  5
1815
330
1E
100
AcDbEntity
  8
0
100
AcDbLine
 10
512.0499999999999
 20
818.0810000000001
 30
0.0
 11
515.0
 21
818.2369999999998
 31
0.0
  0
LINE
  5
1816
330
1E
100
AcDbEntity
  8
0
100
AcDbLine
 10
512.0499999999999
 20
818.1299999999998
 30
0.0
 11
515.0
 21
818.2869999999997
 31
0.0
  0
LINE
  5
1817
330
1E
100
AcDbEntity
  8
0
100
AcDbLine
 10
509.475
 20
817.9239999999998
 30
0.0
 11
512.0499999999999
 21
818.0810000000001
 31
0.0
  0
LINE
  5
1818
330
1E
100
AcDbEntity
  8
0
100
AcDbLine
 10
511.5599999999998
 20
781.4989999999998
 30
0.0
 11
511.703624588292
 21
781.8752493312948
 31
0.0
  0
LINE
  5
1819
330
1E
100
AcDbEntity
  8
0
100
AcDbLine
 10
511.5599999999998
 20
781.4989999999998
 30
0.0
 11
512.5599999999999
 21
780.9860000000001
 31
0.0
  0
LINE
  5
181A
330
1E
100
AcDbEntity
  8
0
100
AcDbLine
 10
510.5599999999999
 20
781.523
 30
0.0
 11
511.5599999999998
 21
781.4989999999998
 31
0.0
  0
LINE
  5
181B
330
1E
100
AcDbEntity
  8
0
100
AcDbLine
 10
510.5599999999999
 20
781.523
 30
0.0
 11
510.8708757530289
 21
782.336882914078
 31
0.0
  0
LINE
  5
181C
330
1E
100
AcDbEntity
  8
0
100
AcDbLine
 10
511.5599999999998
 20
800.075
 30
0.0
 11
512.093079830972
 21
801.4059517747059
 31
0.0
  0
LINE
  5
181D
330
1E
100
AcDbEntity
  8
0
100
AcDbLine
 10
511.5599999999998
 20
800.075
 30
0.0
 11
512.5599999999999
 21
799.5479999999998
 31
0.0
  0
LINE
  5
181E
330
1E
100
AcDbEntity
  8
0
100
AcDbLine
 10
511.5599999999998
 20
798.273
 30
0.0
 11
512.5599999999999
 21
798.2879999999998
 31
0.0
  0
LINE
  5
181F
330
1E
100
AcDbEntity
  8
0
100
AcDbLine
 10
511.5599999999998
 20
786.946
 30
0.0
 11
511.832732437226
 21
787.6600224627049
 31
0.0
  0
LINE
  5
1820
330
1E
100
AcDbEntity
  8
0
100
AcDbLine
 10
511.5599999999998
 20
786.946
 30
0.0
 11
512.5599999999999
 21
786.432
 31
0.0
  0
LINE
  5
1821
330
1E
100
AcDbEntity
  8
0
100
AcDbLine
 10
511.5599999999998
 20
793.3699999999999
 30
0.0
 11
511.6607941554209
 21
793.6218201522327
 31
0.0
  0
LINE
  5
1822
330
1E
100
AcDbEntity
  8
0
100
AcDbLine
 10
511.5599999999998
 20
793.3699999999999
 30
0.0
 11
512.5599999999999
 21
792.8439999999998
 31
0.0
  0
LINE
  5
1823
330
1E
100
AcDbEntity
  8
0
100
AcDbLine
 10
511.5599999999998
 20
791.5700000000001
 30
0.0
 11
512.5599999999999
 21
791.583
 31
0.0
  0
LINE
  5
1824
330
1E
100
AcDbEntity
  8
0
100
AcDbLine
 10
511.5599999999998
 20
785.313
 30
0.0
 11
512.5599999999999
 21
785.2889999999998
 31
0.0
  0
LINE
  5
1825
330
1E
100
AcDbEntity
  8
0
100
AcDbLine
 10
510.5599999999999
 20
798.7999999999998
 30
0.0
 11
511.5599999999998
 21
798.273
 31
0.0
  0
LINE
  5
1826
330
1E
100
AcDbEntity
  8
0
100
AcDbLine
 10
510.1319999999998
 20
799.54
 30
0.0
 11
510.5599999999999
 21
800.0599999999998
 31
0.0
  0
LINE
  5
1827
330
1E
100
AcDbEntity
  8
0
100
AcDbLine
 10
510.1319999999998
 20
799.54
 30
0.0
 11
510.2430223854488
 21
799.8176471150079
 31
0.0
  0
LINE
  5
1828
330
1E
100
AcDbEntity
  8
0
100
AcDbLine
 10
510.1319999999998
 20
799.54
 30
0.0
 11
510.5599999999999
 21
798.7999999999998
 31
0.0
  0
LINE
  5
1829
330
1E
100
AcDbEntity
  8
0
100
AcDbLine
 10
510.5599999999999
 20
800.0599999999998
 30
0.0
 11
511.5599999999998
 21
800.075
 31
0.0
  0
LINE
  5
182A
330
1E
100
AcDbEntity
  8
0
100
AcDbLine
 10
510.5599999999999
 20
800.0599999999998
 30
0.0
 11
510.7948869219069
 21
800.6468322442401
 31
0.0
  0
LINE
  5
182B
330
1E
100
AcDbEntity
  8
0
100
AcDbLine
 10
510.5599999999999
 20
785.826
 30
0.0
 11
511.5599999999998
 21
785.313
 31
0.0
  0
LINE
  5
182C
330
1E
100
AcDbEntity
  8
0
100
AcDbLine
 10
510.1319999999998
 20
786.513
 30
0.0
 11
510.5599999999999
 21
786.9689999999998
 31
0.0
  0
LINE
  5
182D
330
1E
100
AcDbEntity
  8
0
100
AcDbLine
 10
510.1319999999998
 20
786.513
 30
0.0
 11
510.4440467232168
 21
787.331290011457
 31
0.0
  0
LINE
  5
182E
330
1E
100
AcDbEntity
  8
0
100
AcDbLine
 10
510.1319999999998
 20
786.513
 30
0.0
 11
510.5599999999999
 21
785.826
 31
0.0
  0
LINE
  5
182F
330
1E
100
AcDbEntity
  8
0
100
AcDbLine
 10
510.5599999999999
 20
786.9689999999998
 30
0.0
 11
511.5599999999998
 21
786.946
 31
0.0
  0
LINE
  5
1830
330
1E
100
AcDbEntity
  8
0
100
AcDbLine
 10
510.5599999999999
 20
786.9689999999998
 30
0.0
 11
510.8720329582049
 21
787.78591251517
 31
0.0
  0
LINE
  5
1831
330
1E
100
AcDbEntity
  8
0
100
AcDbLine
 10
510.5599999999999
 20
792.095
 30
0.0
 11
511.5599999999998
 21
791.5700000000001
 31
0.0
  0
LINE
  5
1832
330
1E
100
AcDbEntity
  8
0
100
AcDbLine
 10
510.1319999999998
 20
792.835
 30
0.0
 11
510.5599999999999
 21
793.356
 31
0.0
  0
LINE
  5
1833
330
1E
100
AcDbEntity
  8
0
100
AcDbLine
 10
510.1319999999998
 20
792.835
 30
0.0
 11
510.3524228738349
 21
793.386600098069
 31
0.0
  0
LINE
  5
1834
330
1E
100
AcDbEntity
  8
0
100
AcDbLine
 10
510.1319999999998
 20
792.835
 30
0.0
 11
510.5599999999999
 21
792.095
 31
0.0
  0
LINE
  5
1835
330
1E
100
AcDbEntity
  8
0
100
AcDbLine
 10
510.5599999999999
 20
793.356
 30
0.0
 11
511.5599999999998
 21
793.3699999999999
 31
0.0
  0
LINE
  5
1836
330
1E
100
AcDbEntity
  8
0
100
AcDbLine
 10
510.5599999999999
 20
793.356
 30
0.0
 11
510.785228204427
 21
793.918701284504
 31
0.0
  0
LINE
  5
1837
330
1E
100
AcDbEntity
  8
0
100
AcDbLine
 10
511.5599999999998
 20
779.865
 30
0.0
 11
512.5599999999999
 21
779.842
 31
0.0
  0
LINE
  5
1838
330
1E
100
AcDbEntity
  8
0
100
AcDbLine
 10
510.5599999999999
 20
780.3789999999998
 30
0.0
 11
511.5599999999998
 21
779.865
 31
0.0
  0
LINE
  5
1839
330
1E
100
AcDbEntity
  8
0
100
AcDbLine
 10
510.1319999999998
 20
781.066
 30
0.0
 11
510.5599999999999
 21
781.523
 31
0.0
  0
LINE
  5
183A
330
1E
100
AcDbEntity
  8
0
100
AcDbLine
 10
510.1319999999998
 20
781.066
 30
0.0
 11
510.2325878433589
 21
781.3297746893998
 31
0.0
  0
LINE
  5
183B
330
1E
100
AcDbEntity
  8
0
100
AcDbLine
 10
510.1319999999998
 20
781.066
 30
0.0
 11
510.5599999999999
 21
780.3789999999998
 31
0.0
  0
LINE
  5
183C
330
1E
100
AcDbEntity
  8
0
100
AcDbLine
 10
511.5599999999998
 20
770.6069999999998
 30
0.0
 11
512.5599999999999
 21
770.0939999999998
 31
0.0
  0
LINE
  5
183D
330
1E
100
AcDbEntity
  8
0
100
AcDbLine
 10
511.5599999999998
 20
768.9730000000001
 30
0.0
 11
512.5599999999999
 21
768.95
 31
0.0
  0
LINE
  5
183E
330
1E
100
AcDbEntity
  8
0
100
AcDbLine
 10
510.5599999999999
 20
769.4860000000001
 30
0.0
 11
511.5599999999998
 21
768.9730000000001
 31
0.0
  0
LINE
  5
183F
330
1E
100
AcDbEntity
  8
0
100
AcDbLine
 10
511.5599999999998
 20
776.053
 30
0.0
 11
511.7023807441459
 21
776.4259908674517
 31
0.0
  0
LINE
  5
1840
330
1E
100
AcDbEntity
  8
0
100
AcDbLine
 10
511.5599999999998
 20
776.053
 30
0.0
 11
512.5599999999999
 21
775.5399999999999
 31
0.0
  0
LINE
  5
1841
330
1E
100
AcDbEntity
  8
0
100
AcDbLine
 10
511.5599999999998
 20
774.4189999999998
 30
0.0
 11
512.5599999999999
 21
774.3960000000001
 31
0.0
  0
LINE
  5
1842
330
1E
100
AcDbEntity
  8
0
100
AcDbLine
 10
510.1319999999998
 20
770.173
 30
0.0
 11
510.5599999999999
 21
770.6299999999998
 31
0.0
  0
LINE
  5
1843
330
1E
100
AcDbEntity
  8
0
100
AcDbLine
 10
510.1319999999998
 20
770.173
 30
0.0
 11
510.5355558241739
 21
771.2319198801808
 31
0.0
  0
LINE
  5
1844
330
1E
100
AcDbEntity
  8
0
100
AcDbLine
 10
510.1319999999998
 20
770.173
 30
0.0
 11
510.5599999999999
 21
769.4860000000001
 31
0.0
  0
LINE
  5
1845
330
1E
100
AcDbEntity
  8
0
100
AcDbLine
 10
510.5599999999999
 20
770.6299999999998
 30
0.0
 11
511.5599999999998
 21
770.6069999999998
 31
0.0
  0
LINE
  5
1846
330
1E
100
AcDbEntity
  8
0
100
AcDbLine
 10
510.5599999999999
 20
774.9329999999998
 30
0.0
 11
511.5599999999998
 21
774.4189999999998
 31
0.0
  0
LINE
  5
1847
330
1E
100
AcDbEntity
  8
0
100
AcDbLine
 10
510.1319999999998
 20
775.6189999999998
 30
0.0
 11
510.5599999999999
 21
776.0769999999999
 31
0.0
  0
LINE
  5
1848
330
1E
100
AcDbEntity
  8
0
100
AcDbLine
 10
510.1319999999998
 20
775.6189999999998
 30
0.0
 11
510.6545179701308
 21
776.99007342573
 31
0.0
  0
LINE
  5
1849
330
1E
100
AcDbEntity
  8
0
100
AcDbLine
 10
510.1319999999998
 20
775.6189999999998
 30
0.0
 11
510.5599999999999
 21
774.9329999999998
 31
0.0
  0
LINE
  5
184A
330
1E
100
AcDbEntity
  8
0
100
AcDbLine
 10
510.5599999999999
 20
776.0769999999999
 30
0.0
 11
511.5599999999998
 21
776.053
 31
0.0
  0
LINE
  5
184B
330
1E
100
AcDbEntity
  8
0
100
AcDbLine
 10
510.5599999999999
 20
776.0769999999999
 30
0.0
 11
510.829176184392
 21
776.781712076186
 31
0.0
  0
LINE
  5
184C
330
1E
100
AcDbEntity
  8
0
100
AcDbLine
 10
511.5599999999998
 20
764.128
 30
0.0
 11
512.5599999999999
 21
764.1049999999999
 31
0.0
  0
LINE
  5
184D
330
1E
100
AcDbEntity
  8
0
100
AcDbLine
 10
511.5599999999998
 20
765.7619999999998
 30
0.0
 11
511.9056487831969
 21
766.6674864845068
 31
0.0
  0
LINE
  5
184E
330
1E
100
AcDbEntity
  8
0
100
AcDbLine
 10
511.5599999999998
 20
765.7619999999998
 30
0.0
 11
512.5599999999999
 21
765.2489999999998
 31
0.0
  0
LINE
  5
184F
330
1E
100
AcDbEntity
  8
0
100
AcDbLine
 10
510.5599999999999
 20
765.786
 30
0.0
 11
511.5599999999998
 21
765.7619999999998
 31
0.0
  0
LINE
  5
1850
330
1E
100
AcDbEntity
  8
0
100
AcDbLine
 10
510.1319999999998
 20
765.3289999999998
 30
0.0
 11
510.5599999999999
 21
764.6419999999998
 31
0.0
  0
LINE
  5
1851
330
1E
100
AcDbEntity
  8
0
100
AcDbLine
 10
510.1319999999998
 20
765.3289999999998
 30
0.0
 11
510.5599999999999
 21
765.786
 31
0.0
  0
LINE
  5
1852
330
1E
100
AcDbEntity
  8
0
100
AcDbLine
 10
510.1319999999998
 20
765.3289999999998
 30
0.0
 11
510.35232237912
 21
765.906758357068
 31
0.0
  0
LINE
  5
1853
330
1E
100
AcDbEntity
  8
0
100
AcDbLine
 10
510.5599999999999
 20
764.6419999999998
 30
0.0
 11
511.5599999999998
 21
764.128
 31
0.0
  0
LINE
  5
1854
330
1E
100
AcDbEntity
  8
0
100
AcDbLine
 10
511.5599999999998
 20
753.2360000000001
 30
0.0
 11
512.5599999999999
 21
753.2130000000001
 31
0.0
  0
LINE
  5
1855
330
1E
100
AcDbEntity
  8
0
100
AcDbLine
 10
511.5599999999998
 20
754.87
 30
0.0
 11
512.5599999999999
 21
754.3569999999999
 31
0.0
  0
LINE
  5
1856
330
1E
100
AcDbEntity
  8
0
100
AcDbLine
 10
510.5599999999999
 20
754.893
 30
0.0
 11
511.5599999999998
 21
754.87
 31
0.0
  0
LINE
  5
1857
330
1E
100
AcDbEntity
  8
0
100
AcDbLine
 10
511.5599999999998
 20
758.682
 30
0.0
 11
512.5599999999999
 21
758.659
 31
0.0
  0
LINE
  5
1858
330
1E
100
AcDbEntity
  8
0
100
AcDbLine
 10
511.5599999999998
 20
760.316
 30
0.0
 11
512.5599999999999
 21
759.8029999999998
 31
0.0
  0
LINE
  5
1859
330
1E
100
AcDbEntity
  8
0
100
AcDbLine
 10
510.5599999999999
 20
760.34
 30
0.0
 11
510.7450177849321
 21
760.8243826271091
 31
0.0
  0
LINE
  5
185A
330
1E
100
AcDbEntity
  8
0
100
AcDbLine
 10
510.5599999999999
 20
760.34
 30
0.0
 11
511.5599999999998
 21
760.316
 31
0.0
  0
LINE
  5
185B
330
1E
100
AcDbEntity
  8
0
100
AcDbLine
 10
510.5599999999999
 20
759.196
 30
0.0
 11
511.5599999999998
 21
758.682
 31
0.0
  0
LINE
  5
185C
330
1E
100
AcDbEntity
  8
0
100
AcDbLine
 10
510.5599999999999
 20
753.7499999999998
 30
0.0
 11
511.5599999999998
 21
753.2360000000001
 31
0.0
  0
LINE
  5
185D
330
1E
100
AcDbEntity
  8
0
100
AcDbLine
 10
511.5599999999998
 20
747.7899999999999
 30
0.0
 11
512.5599999999999
 21
747.7669999999998
 31
0.0
  0
LINE
  5
185E
330
1E
100
AcDbEntity
  8
0
100
AcDbLine
 10
511.5599999999998
 20
749.4229999999999
 30
0.0
 11
511.88290514053
 21
750.268905597651
 31
0.0
  0
LINE
  5
185F
330
1E
100
AcDbEntity
  8
0
100
AcDbLine
 10
511.5599999999998
 20
749.4229999999999
 30
0.0
 11
512.5599999999999
 21
748.9099999999998
 31
0.0
  0
LINE
  5
1860
330
1E
100
AcDbEntity
  8
0
100
AcDbLine
 10
511.5599999999998
 20
743.2310000000001
 30
0.0
 11
512.5599999999999
 21
743.1699999999998
 31
0.0
  0
LINE
  5
1861
330
1E
100
AcDbEntity
  8
0
100
AcDbLine
 10
511.5599999999998
 20
744.69
 30
0.0
 11
512.5599999999999
 21
744.191
 31
0.0
  0
LINE
  5
1862
330
1E
100
AcDbEntity
  8
0
100
AcDbLine
 10
510.5599999999999
 20
749.446
 30
0.0
 11
510.710761943528
 21
749.8409468618969
 31
0.0
  0
LINE
  5
1863
330
1E
100
AcDbEntity
  8
0
100
AcDbLine
 10
510.5599999999999
 20
749.446
 30
0.0
 11
511.5599999999998
 21
749.4229999999999
 31
0.0
  0
LINE
  5
1864
330
1E
100
AcDbEntity
  8
0
100
AcDbLine
 10
510.5599999999999
 20
748.303
 30
0.0
 11
511.5599999999998
 21
747.7899999999999
 31
0.0
  0
LINE
  5
1865
330
1E
100
AcDbEntity
  8
0
100
AcDbLine
 10
510.5599999999999
 20
744.7510000000002
 30
0.0
 11
510.7165720481959
 21
745.178108013441
 31
0.0
  0
LINE
  5
1866
330
1E
100
AcDbEntity
  8
0
100
AcDbLine
 10
510.5599999999999
 20
744.7510000000002
 30
0.0
 11
511.5599999999998
 21
744.69
 31
0.0
  0
LINE
  5
1867
330
1E
100
AcDbEntity
  8
0
100
AcDbLine
 10
510.5599999999999
 20
743.7289999999998
 30
0.0
 11
511.5599999999998
 21
743.2310000000001
 31
0.0
  0
LINE
  5
1868
330
1E
100
AcDbEntity
  8
0
100
AcDbLine
 10
510.1319999999998
 20
754.436
 30
0.0
 11
510.5599999999999
 21
753.7499999999998
 31
0.0
  0
LINE
  5
1869
330
1E
100
AcDbEntity
  8
0
100
AcDbLine
 10
510.1319999999998
 20
754.436
 30
0.0
 11
510.5599999999999
 21
754.893
 31
0.0
  0
LINE
  5
186A
330
1E
100
AcDbEntity
  8
0
100
AcDbLine
 10
510.1319999999998
 20
754.436
 30
0.0
 11
510.157701095447
 21
754.5034389992198
 31
0.0
  0
LINE
  5
186B
330
1E
100
AcDbEntity
  8
0
100
AcDbLine
 10
510.1319999999998
 20
759.883
 30
0.0
 11
510.5599999999999
 21
759.196
 31
0.0
  0
LINE
  5
186C
330
1E
100
AcDbEntity
  8
0
100
AcDbLine
 10
510.1319999999998
 20
759.883
 30
0.0
 11
510.5599999999999
 21
760.34
 31
0.0
  0
LINE
  5
186D
330
1E
100
AcDbEntity
  8
0
100
AcDbLine
 10
510.1319999999998
 20
759.883
 30
0.0
 11
510.5924654538598
 21
761.0904931524049
 31
0.0
  0
LINE
  5
186E
330
1E
100
AcDbEntity
  8
0
100
AcDbLine
 10
510.1319999999998
 20
748.9889999999998
 30
0.0
 11
510.5599999999999
 21
748.303
 31
0.0
  0
LINE
  5
186F
330
1E
100
AcDbEntity
  8
0
100
AcDbLine
 10
510.1319999999998
 20
748.9889999999998
 30
0.0
 11
510.5599999999999
 21
749.446
 31
0.0
  0
LINE
  5
1870
330
1E
100
AcDbEntity
  8
0
100
AcDbLine
 10
510.1319999999998
 20
748.9889999999998
 30
0.0
 11
510.3418209084838
 21
749.5399090848358
 31
0.0
  0
LINE
  5
1871
330
1E
100
AcDbEntity
  8
0
100
AcDbLine
 10
510.1319999999998
 20
744.3599999999999
 30
0.0
 11
510.5599999999999
 21
743.7289999999998
 31
0.0
  0
LINE
  5
1872
330
1E
100
AcDbEntity
  8
0
100
AcDbLine
 10
510.1319999999998
 20
744.3599999999999
 30
0.0
 11
510.5599999999999
 21
744.7510000000002
 31
0.0
  0
LINE
  5
1873
330
1E
100
AcDbEntity
  8
0
100
AcDbLine
 10
510.1319999999998
 20
744.3599999999999
 30
0.0
 11
510.3481172993278
 21
744.9508625671291
 31
0.0
  0
LINE
  5
1874
330
1E
100
AcDbEntity
  8
0
100
AcDbLine
 10
509.475
 20
817.9730000000001
 30
0.0
 11
512.0499999999999
 21
818.1299999999998
 31
0.0
  0
LINE
  5
1875
330
1E
100
AcDbEntity
  8
0
100
AcDbLine
 10
507.2789999999997
 20
766.7849999999998
 30
0.0
 11
507.9249587671488
 21
767.542503193435
 31
0.0
  0
LINE
  5
1876
330
1E
100
AcDbEntity
  8
0
100
AcDbLine
 10
507.2789999999997
 20
799.5980000000001
 30
0.0
 11
507.760098497316
 21
800.1617614693639
 31
0.0
  0
LINE
  5
1877
330
1E
100
AcDbEntity
  8
0
100
AcDbLine
 10
507.2789999999997
 20
787.9249999999999
 30
0.0
 11
507.844151698075
 21
788.5872568008369
 31
0.0
  0
LINE
  5
1878
330
1E
100
AcDbEntity
  8
0
100
AcDbLine
 10
507.2789999999997
 20
793.7330000000001
 30
0.0
 11
507.6371922737751
 21
794.1524296126768
 31
0.0
  0
LINE
  5
1879
330
1E
100
AcDbEntity
  8
0
100
AcDbLine
 10
507.2789999999997
 20
761.3389999999998
 30
0.0
 11
507.928352892471
 21
762.099367691098
 31
0.0
  0
LINE
  5
187A
330
1E
100
AcDbEntity
  8
0
100
AcDbLine
 10
507.2789999999997
 20
755.893
 30
0.0
 11
507.3273341967478
 21
755.9495975173261
 31
0.0
  0
LINE
  5
187B
330
1E
100
AcDbEntity
  8
0
100
AcDbLine
 10
507.2789999999997
 20
750.446
 30
0.0
 11
507.4280009810508
 21
750.6206025241868
 31
0.0
  0
LINE
  5
187C
330
1E
100
AcDbEntity
  8
0
100
AcDbLine
 10
507.2789999999997
 20
745.3599999999998
 30
0.0
 11
507.6244454328489
 21
745.7648003182177
 31
0.0
  0
LINE
  5
187D
330
1E
100
AcDbEntity
  8
0
100
AcDbLine
 10
505.5239999999998
 20
817.8039999999999
 30
0.0
 11
507.2509999999998
 21
818.1979999999999
 31
0.0
  0
LINE
  5
187E
330
1E
100
AcDbEntity
  8
0
100
AcDbLine
 10
504.383
 20
817.5019999999998
 30
0.0
 11
505.5239999999998
 21
817.8039999999999
 31
0.0
  0
LINE
  5
187F
330
1E
100
AcDbEntity
  8
0
100
AcDbLine
 10
507.1709999999998
 20
817.49
 30
0.0
 11
509.475
 21
817.9239999999998
 31
0.0
  0
LINE
  5
1880
330
1E
100
AcDbEntity
  8
0
100
AcDbLine
 10
507.1709999999998
 20
817.5389999999998
 30
0.0
 11
509.475
 21
817.9730000000001
 31
0.0
  0
LINE
  5
1881
330
1E
100
AcDbEntity
  8
0
100
AcDbLine
 10
505.4639999999999
 20
817.1269999999998
 30
0.0
 11
507.1709999999998
 21
817.49
 31
0.0
  0
LINE
  5
1882
330
1E
100
AcDbEntity
  8
0
100
AcDbLine
 10
506.0589999999999
 20
784.028
 30
0.0
 11
506.913
 21
783.271
 31
0.0
  0
LINE
  5
1883
330
1E
100
AcDbEntity
  8
0
100
AcDbLine
 10
506.0589999999999
 20
801.1469999999999
 30
0.0
 11
506.365908877406
 21
801.5069060289167
 31
0.0
  0
LINE
  5
1884
330
1E
100
AcDbEntity
  8
0
100
AcDbLine
 10
506.0589999999999
 20
801.1469999999999
 30
0.0
 11
506.913
 21
800.3899999999998
 31
0.0
  0
LINE
  5
1885
330
1E
100
AcDbEntity
  8
0
100
AcDbLine
 10
506.913
 20
800.3899999999998
 30
0.0
 11
507.2789999999997
 21
799.5980000000001
 31
0.0
  0
LINE
  5
1886
330
1E
100
AcDbEntity
  8
0
100
AcDbLine
 10
506.913
 20
800.3899999999998
 30
0.0
 11
507.472881999887
 21
801.0460816562249
 31
0.0
  0
LINE
  5
1887
330
1E
100
AcDbEntity
  8
0
100
AcDbLine
 10
506.913
 20
799.2460000000002
 30
0.0
 11
507.2789999999997
 21
799.5980000000001
 31
0.0
  0
LINE
  5
1888
330
1E
100
AcDbEntity
  8
0
100
AcDbLine
 10
506.0589999999999
 20
799.513
 30
0.0
 11
506.913
 21
799.2460000000002
 31
0.0
  0
LINE
  5
1889
330
1E
100
AcDbEntity
  8
0
100
AcDbLine
 10
506.0589999999999
 20
789.4739999999998
 30
0.0
 11
506.8881336392369
 21
790.446308777971
 31
0.0
  0
LINE
  5
188A
330
1E
100
AcDbEntity
  8
0
100
AcDbLine
 10
506.0589999999999
 20
789.4739999999998
 30
0.0
 11
506.913
 21
788.717
 31
0.0
  0
LINE
  5
188B
330
1E
100
AcDbEntity
  8
0
100
AcDbLine
 10
506.913
 20
788.717
 30
0.0
 11
507.2789999999997
 21
787.9249999999999
 31
0.0
  0
LINE
  5
188C
330
1E
100
AcDbEntity
  8
0
100
AcDbLine
 10
506.913
 20
788.717
 30
0.0
 11
507.4335050909909
 21
789.3269389554229
 31
0.0
  0
LINE
  5
188D
330
1E
100
AcDbEntity
  8
0
100
AcDbLine
 10
506.913
 20
794.5239999999999
 30
0.0
 11
507.2789999999997
 21
793.7330000000001
 31
0.0
  0
LINE
  5
188E
330
1E
100
AcDbEntity
  8
0
100
AcDbLine
 10
506.913
 20
794.5239999999999
 30
0.0
 11
507.2106092830619
 21
794.872744898708
 31
0.0
  0
LINE
  5
188F
330
1E
100
AcDbEntity
  8
0
100
AcDbLine
 10
506.913
 20
793.3799999999998
 30
0.0
 11
507.2789999999997
 21
793.7330000000001
 31
0.0
  0
LINE
  5
1890
330
1E
100
AcDbEntity
  8
0
100
AcDbLine
 10
506.913
 20
787.5729999999999
 30
0.0
 11
507.2789999999997
 21
787.9249999999999
 31
0.0
  0
LINE
  5
1891
330
1E
100
AcDbEntity
  8
0
100
AcDbLine
 10
506.0589999999999
 20
787.8409999999998
 30
0.0
 11
506.913
 21
787.5729999999999
 31
0.0
  0
LINE
  5
1892
330
1E
100
AcDbEntity
  8
0
100
AcDbLine
 10
506.0589999999999
 20
795.281
 30
0.0
 11
506.399401873835
 21
795.6798901683078
 31
0.0
  0
LINE
  5
1893
330
1E
100
AcDbEntity
  8
0
100
AcDbLine
 10
506.0589999999999
 20
795.281
 30
0.0
 11
506.913
 21
794.5239999999999
 31
0.0
  0
LINE
  5
1894
330
1E
100
AcDbEntity
  8
0
100
AcDbLine
 10
506.0589999999999
 20
793.6469999999998
 30
0.0
 11
506.913
 21
793.3799999999998
 31
0.0
  0
LINE
  5
1895
330
1E
100
AcDbEntity
  8
0
100
AcDbLine
 10
506.913
 20
783.271
 30
0.0
 11
507.2789999999997
 21
782.4789999999998
 31
0.0
  0
LINE
  5
1896
330
1E
100
AcDbEntity
  8
0
100
AcDbLine
 10
506.913
 20
783.271
 30
0.0
 11
507.3280290955787
 21
783.7573399367439
 31
0.0
  0
LINE
  5
1897
330
1E
100
AcDbEntity
  8
0
100
AcDbLine
 10
506.913
 20
782.1269999999998
 30
0.0
 11
507.2789999999997
 21
782.4789999999998
 31
0.0
  0
LINE
  5
1898
330
1E
100
AcDbEntity
  8
0
100
AcDbLine
 10
506.0589999999999
 20
782.3939999999996
 30
0.0
 11
506.913
 21
782.1269999999998
 31
0.0
  0
LINE
  5
1899
330
1E
100
AcDbEntity
  8
0
100
AcDbLine
 10
506.0589999999999
 20
773.1360000000001
 30
0.0
 11
506.913
 21
772.378
 31
0.0
  0
LINE
  5
189A
330
1E
100
AcDbEntity
  8
0
100
AcDbLine
 10
506.913
 20
772.378
 30
0.0
 11
507.2789999999997
 21
771.586
 31
0.0
  0
LINE
  5
189B
330
1E
100
AcDbEntity
  8
0
100
AcDbLine
 10
506.913
 20
772.378
 30
0.0
 11
507.236523576448
 21
772.7571118198241
 31
0.0
  0
LINE
  5
189C
330
1E
100
AcDbEntity
  8
0
100
AcDbLine
 10
506.913
 20
777.825
 30
0.0
 11
507.2789999999997
 21
777.033
 31
0.0
  0
LINE
  5
189D
330
1E
100
AcDbEntity
  8
0
100
AcDbLine
 10
506.913
 20
777.825
 30
0.0
 11
507.2654671291348
 21
778.2377256847167
 31
0.0
  0
LINE
  5
189E
330
1E
100
AcDbEntity
  8
0
100
AcDbLine
 10
506.913
 20
776.681
 30
0.0
 11
507.2789999999997
 21
777.033
 31
0.0
  0
LINE
  5
189F
330
1E
100
AcDbEntity
  8
0
100
AcDbLine
 10
506.913
 20
771.2349999999998
 30
0.0
 11
507.2789999999997
 21
771.586
 31
0.0
  0
LINE
  5
18A0
330
1E
100
AcDbEntity
  8
0
100
AcDbLine
 10
506.913
 20
766.4339999999998
 30
0.0
 11
507.2789999999997
 21
766.7849999999998
 31
0.0
  0
LINE
  5
18A1
330
1E
100
AcDbEntity
  8
0
100
AcDbLine
 10
506.913
 20
767.5769999999999
 30
0.0
 11
507.2313617609088
 21
767.949789587731
 31
0.0
  0
LINE
  5
18A2
330
1E
100
AcDbEntity
  8
0
100
AcDbLine
 10
506.913
 20
767.5769999999999
 30
0.0
 11
507.2789999999997
 21
766.7849999999998
 31
0.0
  0
LINE
  5
18A3
330
1E
100
AcDbEntity
  8
0
100
AcDbLine
 10
506.913
 20
760.9860000000001
 30
0.0
 11
507.2789999999997
 21
761.3389999999998
 31
0.0
  0
LINE
  5
18A4
330
1E
100
AcDbEntity
  8
0
100
AcDbLine
 10
506.913
 20
762.1299999999998
 30
0.0
 11
507.2591746404979
 21
762.535654819277
 31
0.0
  0
LINE
  5
18A5
330
1E
100
AcDbEntity
  8
0
100
AcDbLine
 10
506.913
 20
762.1299999999998
 30
0.0
 11
507.2789999999997
 21
761.3389999999998
 31
0.0
  0
LINE
  5
18A6
330
1E
100
AcDbEntity
  8
0
100
AcDbLine
 10
506.913
 20
755.5399999999998
 30
0.0
 11
507.2789999999997
 21
755.893
 31
0.0
  0
LINE
  5
18A7
330
1E
100
AcDbEntity
  8
0
100
AcDbLine
 10
506.913
 20
756.684
 30
0.0
 11
507.3063020942929
 21
757.1448797737247
 31
0.0
  0
LINE
  5
18A8
330
1E
100
AcDbEntity
  8
0
100
AcDbLine
 10
506.913
 20
756.684
 30
0.0
 11
507.2789999999997
 21
755.893
 31
0.0
  0
LINE
  5
18A9
330
1E
100
AcDbEntity
  8
0
100
AcDbLine
 10
506.913
 20
750.0939999999998
 30
0.0
 11
507.2789999999997
 21
750.446
 31
0.0
  0
LINE
  5
18AA
330
1E
100
AcDbEntity
  8
0
100
AcDbLine
 10
506.913
 20
751.238
 30
0.0
 11
507.4044228734989
 21
751.8138597933438
 31
0.0
  0
LINE
  5
18AB
330
1E
100
AcDbEntity
  8
0
100
AcDbLine
 10
506.913
 20
751.238
 30
0.0
 11
507.2789999999997
 21
750.446
 31
0.0
  0
LINE
  5
18AC
330
1E
100
AcDbEntity
  8
0
100
AcDbLine
 10
506.913
 20
745.008
 30
0.0
 11
507.2789999999997
 21
745.3599999999998
 31
0.0
  0
LINE
  5
18AD
330
1E
100
AcDbEntity
  8
0
100
AcDbLine
 10
506.913
 20
746.1519999999998
 30
0.0
 11
507.294666044776
 21
746.598916511194
 31
0.0
  0
LINE
  5
18AE
330
1E
100
AcDbEntity
  8
0
100
AcDbLine
 10
506.913
 20
746.1519999999998
 30
0.0
 11
507.2789999999997
 21
745.3599999999998
 31
0.0
  0
LINE
  5
18AF
330
1E
100
AcDbEntity
  8
0
100
AcDbLine
 10
506.0589999999999
 20
771.5019999999998
 30
0.0
 11
506.913
 21
771.2349999999998
 31
0.0
  0
LINE
  5
18B0
330
1E
100
AcDbEntity
  8
0
100
AcDbLine
 10
506.0589999999999
 20
778.582
 30
0.0
 11
506.913
 21
777.825
 31
0.0
  0
LINE
  5
18B1
330
1E
100
AcDbEntity
  8
0
100
AcDbLine
 10
506.0589999999999
 20
776.9479999999998
 30
0.0
 11
506.913
 21
776.681
 31
0.0
  0
LINE
  5
18B2
330
1E
100
AcDbEntity
  8
0
100
AcDbLine
 10
506.0589999999999
 20
766.701
 30
0.0
 11
506.913
 21
766.4339999999998
 31
0.0
  0
LINE
  5
18B3
330
1E
100
AcDbEntity
  8
0
100
AcDbLine
 10
506.0589999999999
 20
768.335
 30
0.0
 11
506.913
 21
767.5769999999999
 31
0.0
  0
LINE
  5
18B4
330
1E
100
AcDbEntity
  8
0
100
AcDbLine
 10
506.0589999999999
 20
761.2539999999998
 30
0.0
 11
506.913
 21
760.9860000000001
 31
0.0
  0
LINE
  5
18B5
330
1E
100
AcDbEntity
  8
0
100
AcDbLine
 10
506.0589999999999
 20
762.8889999999999
 30
0.0
 11
506.913
 21
762.1299999999998
 31
0.0
  0
LINE
  5
18B6
330
1E
100
AcDbEntity
  8
0
100
AcDbLine
 10
506.0589999999999
 20
755.807
 30
0.0
 11
506.913
 21
755.5399999999998
 31
0.0
  0
LINE
  5
18B7
330
1E
100
AcDbEntity
  8
0
100
AcDbLine
 10
506.0589999999999
 20
757.4419999999999
 30
0.0
 11
506.913
 21
756.684
 31
0.0
  0
LINE
  5
18B8
330
1E
100
AcDbEntity
  8
0
100
AcDbLine
 10
506.0589999999999
 20
750.3610000000001
 30
0.0
 11
506.913
 21
750.0939999999998
 31
0.0
  0
LINE
  5
18B9
330
1E
100
AcDbEntity
  8
0
100
AcDbLine
 10
506.0589999999999
 20
751.9949999999998
 30
0.0
 11
506.913
 21
751.238
 31
0.0
  0
LINE
  5
18BA
330
1E
100
AcDbEntity
  8
0
100
AcDbLine
 10
506.0589999999999
 20
745.276
 30
0.0
 11
506.913
 21
745.008
 31
0.0
  0
LINE
  5
18BB
330
1E
100
AcDbEntity
  8
0
100
AcDbLine
 10
506.0589999999999
 20
746.9089999999998
 30
0.0
 11
506.913
 21
746.1519999999998
 31
0.0
  0
LINE
  5
18BC
330
1E
100
AcDbEntity
  8
0
100
AcDbLine
 10
505.4639999999999
 20
817.176
 30
0.0
 11
507.1709999999998
 21
817.5389999999998
 31
0.0
  0
LINE
  5
18BD
330
1E
100
AcDbEntity
  8
0
100
AcDbLine
 10
505.2059999999999
 20
783.1519999999998
 30
0.0
 11
506.0589999999999
 21
782.3939999999996
 31
0.0
  0
LINE
  5
18BE
330
1E
100
AcDbEntity
  8
0
100
AcDbLine
 10
504.8399999999999
 20
783.9439999999998
 30
0.0
 11
505.2059999999999
 21
784.2949999999998
 31
0.0
  0
LINE
  5
18BF
330
1E
100
AcDbEntity
  8
0
100
AcDbLine
 10
504.8399999999999
 20
783.9439999999998
 30
0.0
 11
505.1231077088728
 21
784.2757516451048
 31
0.0
  0
LINE
  5
18C0
330
1E
100
AcDbEntity
  8
0
100
AcDbLine
 10
504.8399999999999
 20
783.9439999999998
 30
0.0
 11
505.2059999999999
 21
783.1519999999998
 31
0.0
  0
LINE
  5
18C1
330
1E
100
AcDbEntity
  8
0
100
AcDbLine
 10
505.2059999999999
 20
784.2949999999998
 30
0.0
 11
506.0589999999999
 21
784.028
 31
0.0
  0
LINE
  5
18C2
330
1E
100
AcDbEntity
  8
0
100
AcDbLine
 10
505.2059999999999
 20
800.271
 30
0.0
 11
506.0589999999999
 21
799.513
 31
0.0
  0
LINE
  5
18C3
330
1E
100
AcDbEntity
  8
0
100
AcDbLine
 10
504.8399999999999
 20
801.063
 30
0.0
 11
505.2059999999999
 21
801.4149999999998
 31
0.0
  0
LINE
  5
18C4
330
1E
100
AcDbEntity
  8
0
100
AcDbLine
 10
504.8399999999999
 20
801.063
 30
0.0
 11
504.9838763093978
 21
801.2315973247579
 31
0.0
  0
LINE
  5
18C5
330
1E
100
AcDbEntity
  8
0
100
AcDbLine
 10
504.8399999999999
 20
801.063
 30
0.0
 11
505.2059999999999
 21
800.271
 31
0.0
  0
LINE
  5
18C6
330
1E
100
AcDbEntity
  8
0
100
AcDbLine
 10
505.2059999999999
 20
801.4149999999998
 30
0.0
 11
506.0589999999999
 21
801.1469999999999
 31
0.0
  0
LINE
  5
18C7
330
1E
100
AcDbEntity
  8
0
100
AcDbLine
 10
505.2059999999999
 20
801.4149999999998
 30
0.0
 11
505.505700314764
 21
801.7661952142081
 31
0.0
  0
LINE
  5
18C8
330
1E
100
AcDbEntity
  8
0
100
AcDbLine
 10
505.2059999999999
 20
788.5989999999998
 30
0.0
 11
506.0589999999999
 21
787.8409999999998
 31
0.0
  0
LINE
  5
18C9
330
1E
100
AcDbEntity
  8
0
100
AcDbLine
 10
504.8399999999999
 20
789.3899999999998
 30
0.0
 11
505.2059999999999
 21
789.7430000000001
 31
0.0
  0
LINE
  5
18CA
330
1E
100
AcDbEntity
  8
0
100
AcDbLine
 10
504.8399999999999
 20
789.3899999999998
 30
0.0
 11
505.232772951594
 21
789.8502597130361
 31
0.0
  0
LINE
  5
18CB
330
1E
100
AcDbEntity
  8
0
100
AcDbLine
 10
504.8399999999999
 20
789.3899999999998
 30
0.0
 11
505.2059999999999
 21
788.5989999999998
 31
0.0
  0
LINE
  5
18CC
330
1E
100
AcDbEntity
  8
0
100
AcDbLine
 10
505.2059999999999
 20
789.7430000000001
 30
0.0
 11
506.0589999999999
 21
789.4739999999998
 31
0.0
  0
LINE
  5
18CD
330
1E
100
AcDbEntity
  8
0
100
AcDbLine
 10
505.2059999999999
 20
794.4060000000001
 30
0.0
 11
506.0589999999999
 21
793.6469999999998
 31
0.0
  0
LINE
  5
18CE
330
1E
100
AcDbEntity
  8
0
100
AcDbLine
 10
504.8399999999999
 20
795.197
 30
0.0
 11
505.2059999999999
 21
795.5499999999998
 31
0.0
  0
LINE
  5
18CF
330
1E
100
AcDbEntity
  8
0
100
AcDbLine
 10
504.8399999999999
 20
795.197
 30
0.0
 11
505.3900900008029
 21
795.841607183072
 31
0.0
  0
LINE
  5
18D0
330
1E
100
AcDbEntity
  8
0
100
AcDbLine
 10
504.8399999999999
 20
795.197
 30
0.0
 11
505.2059999999999
 21
794.4060000000001
 31
0.0
  0
LINE
  5
18D1
330
1E
100
AcDbEntity
  8
0
100
AcDbLine
 10
505.2059999999999
 20
795.5499999999998
 30
0.0
 11
506.0589999999999
 21
795.281
 31
0.0
  0
LINE
  5
18D2
330
1E
100
AcDbEntity
  8
0
100
AcDbLine
 10
505.2059999999999
 20
795.5499999999998
 30
0.0
 11
505.535983853038
 21
795.936398618291
 31
0.0
  0
LINE
  5
18D3
330
1E
100
AcDbEntity
  8
0
100
AcDbLine
 10
505.2059999999999
 20
772.2589999999999
 30
0.0
 11
506.0589999999999
 21
771.5019999999998
 31
0.0
  0
LINE
  5
18D4
330
1E
100
AcDbEntity
  8
0
100
AcDbLine
 10
504.8399999999999
 20
773.051
 30
0.0
 11
505.2059999999999
 21
773.403
 31
0.0
  0
LINE
  5
18D5
330
1E
100
AcDbEntity
  8
0
100
AcDbLine
 10
504.8399999999999
 20
773.051
 30
0.0
 11
505.0559612882239
 21
773.3038825050251
 31
0.0
  0
LINE
  5
18D6
330
1E
100
AcDbEntity
  8
0
100
AcDbLine
 10
504.8399999999999
 20
773.051
 30
0.0
 11
505.2059999999999
 21
772.2589999999999
 31
0.0
  0
LINE
  5
18D7
330
1E
100
AcDbEntity
  8
0
100
AcDbLine
 10
505.2059999999999
 20
773.403
 30
0.0
 11
506.0589999999999
 21
773.1360000000001
 31
0.0
  0
LINE
  5
18D8
330
1E
100
AcDbEntity
  8
0
100
AcDbLine
 10
505.2059999999999
 20
777.705
 30
0.0
 11
506.0589999999999
 21
776.9479999999998
 31
0.0
  0
LINE
  5
18D9
330
1E
100
AcDbEntity
  8
0
100
AcDbLine
 10
504.8399999999999
 20
778.4969999999998
 30
0.0
 11
505.2059999999999
 21
778.8489999999998
 31
0.0
  0
LINE
  5
18DA
330
1E
100
AcDbEntity
  8
0
100
AcDbLine
 10
504.8399999999999
 20
778.4969999999998
 30
0.0
 11
505.0872237777168
 21
778.786914481601
 31
0.0
  0
LINE
  5
18DB
330
1E
100
AcDbEntity
  8
0
100
AcDbLine
 10
504.8399999999999
 20
778.4969999999998
 30
0.0
 11
505.2059999999999
 21
777.705
 31
0.0
  0
LINE
  5
18DC
330
1E
100
AcDbEntity
  8
0
100
AcDbLine
 10
505.2059999999999
 20
778.8489999999998
 30
0.0
 11
506.0589999999999
 21
778.582
 31
0.0
  0
LINE
  5
18DD
330
1E
100
AcDbEntity
  8
0
100
AcDbLine
 10
505.2059999999999
 20
768.602
 30
0.0
 11
505.6562518565709
 21
769.129614718525
 31
0.0
  0
LINE
  5
18DE
330
1E
100
AcDbEntity
  8
0
100
AcDbLine
 10
505.2059999999999
 20
768.602
 30
0.0
 11
506.0589999999999
 21
768.335
 31
0.0
  0
LINE
  5
18DF
330
1E
100
AcDbEntity
  8
0
100
AcDbLine
 10
504.8399999999999
 20
768.25
 30
0.0
 11
505.2059999999999
 21
767.458
 31
0.0
  0
LINE
  5
18E0
330
1E
100
AcDbEntity
  8
0
100
AcDbLine
 10
504.8399999999999
 20
768.25
 30
0.0
 11
505.0590082793369
 21
768.5064504164398
 31
0.0
  0
LINE
  5
18E1
330
1E
100
AcDbEntity
  8
0
100
AcDbLine
 10
504.8399999999999
 20
768.25
 30
0.0
 11
505.2059999999999
 21
768.602
 31
0.0
  0
LINE
  5
18E2
330
1E
100
AcDbEntity
  8
0
100
AcDbLine
 10
505.2059999999999
 20
767.458
 30
0.0
 11
506.0589999999999
 21
766.701
 31
0.0
  0
LINE
  5
18E3
330
1E
100
AcDbEntity
  8
0
100
AcDbLine
 10
505.2059999999999
 20
763.156
 30
0.0
 11
505.4085152478379
 21
763.393311682174
 31
0.0
  0
LINE
  5
18E4
330
1E
100
AcDbEntity
  8
0
100
AcDbLine
 10
505.2059999999999
 20
763.156
 30
0.0
 11
506.0589999999999
 21
762.8889999999999
 31
0.0
  0
LINE
  5
18E5
330
1E
100
AcDbEntity
  8
0
100
AcDbLine
 10
504.8399999999999
 20
762.8039999999998
 30
0.0
 11
505.2059999999999
 21
762.0119999999998
 31
0.0
  0
LINE
  5
18E6
330
1E
100
AcDbEntity
  8
0
100
AcDbLine
 10
504.8399999999999
 20
762.8039999999998
 30
0.0
 11
505.3882448929838
 21
763.44597404565
 31
0.0
  0
LINE
  5
18E7
330
1E
100
AcDbEntity
  8
0
100
AcDbLine
 10
504.8399999999999
 20
762.8039999999998
 30
0.0
 11
505.2059999999999
 21
763.156
 31
0.0
  0
LINE
  5
18E8
330
1E
100
AcDbEntity
  8
0
100
AcDbLine
 10
505.2059999999999
 20
762.0119999999998
 30
0.0
 11
506.0589999999999
 21
761.2539999999998
 31
0.0
  0
LINE
  5
18E9
330
1E
100
AcDbEntity
  8
0
100
AcDbLine
 10
505.2059999999999
 20
757.7089999999998
 30
0.0
 11
505.6871885940402
 21
758.272867046625
 31
0.0
  0
LINE
  5
18EA
330
1E
100
AcDbEntity
  8
0
100
AcDbLine
 10
505.2059999999999
 20
757.7089999999998
 30
0.0
 11
506.0589999999999
 21
757.4419999999999
 31
0.0
  0
LINE
  5
18EB
330
1E
100
AcDbEntity
  8
0
100
AcDbLine
 10
505.2059999999999
 20
756.566
 30
0.0
 11
506.0589999999999
 21
755.807
 31
0.0
  0
LINE
  5
18EC
330
1E
100
AcDbEntity
  8
0
100
AcDbLine
 10
505.2059999999999
 20
752.263
 30
0.0
 11
505.436288781567
 21
752.5328573007359
 31
0.0
  0
LINE
  5
18ED
330
1E
100
AcDbEntity
  8
0
100
AcDbLine
 10
505.2059999999999
 20
752.263
 30
0.0
 11
506.0589999999999
 21
751.9949999999998
 31
0.0
  0
LINE
  5
18EE
330
1E
100
AcDbEntity
  8
0
100
AcDbLine
 10
505.2059999999999
 20
751.1189999999998
 30
0.0
 11
506.0589999999999
 21
750.3610000000001
 31
0.0
  0
LINE
  5
18EF
330
1E
100
AcDbEntity
  8
0
100
AcDbLine
 10
505.2059999999999
 20
747.177
 30
0.0
 11
505.3616670125189
 21
747.359413921886
 31
0.0
  0
LINE
  5
18F0
330
1E
100
AcDbEntity
  8
0
100
AcDbLine
 10
505.2059999999999
 20
747.177
 30
0.0
 11
506.0589999999999
 21
746.9089999999998
 31
0.0
  0
LINE
  5
18F1
330
1E
100
AcDbEntity
  8
0
100
AcDbLine
 10
505.2059999999999
 20
746.0329999999999
 30
0.0
 11
506.0589999999999
 21
745.276
 31
0.0
  0
LINE
  5
18F2
330
1E
100
AcDbEntity
  8
0
100
AcDbLine
 10
504.8399999999999
 20
757.3569999999998
 30
0.0
 11
505.2059999999999
 21
756.566
 31
0.0
  0
LINE
  5
18F3
330
1E
100
AcDbEntity
  8
0
100
AcDbLine
 10
504.8399999999999
 20
757.3569999999998
 30
0.0
 11
505.280152567322
 21
757.8727801562088
 31
0.0
  0
LINE
  5
18F4
330
1E
100
AcDbEntity
  8
0
100
AcDbLine
 10
504.8399999999999
 20
757.3569999999998
 30
0.0
 11
505.2059999999999
 21
757.7089999999998
 31
0.0
  0
LINE
  5
18F5
330
1E
100
AcDbEntity
  8
0
100
AcDbLine
 10
504.8399999999999
 20
751.9099999999999
 30
0.0
 11
505.2059999999999
 21
751.1189999999998
 31
0.0
  0
LINE
  5
18F6
330
1E
100
AcDbEntity
  8
0
100
AcDbLine
 10
504.8399999999999
 20
751.9099999999999
 30
0.0
 11
505.2355766559558
 21
752.3738849960298
 31
0.0
  0
LINE
  5
18F7
330
1E
100
AcDbEntity
  8
0
100
AcDbLine
 10
504.8399999999999
 20
751.9099999999999
 30
0.0
 11
505.2059999999999
 21
752.263
 31
0.0
  0
LINE
  5
18F8
330
1E
100
AcDbEntity
  8
0
100
AcDbLine
 10
504.8399999999999
 20
746.825
 30
0.0
 11
505.2059999999999
 21
746.0329999999999
 31
0.0
  0
LINE
  5
18F9
330
1E
100
AcDbEntity
  8
0
100
AcDbLine
 10
504.8399999999999
 20
746.825
 30
0.0
 11
505.3591878177829
 21
747.4333953466119
 31
0.0
  0
LINE
  5
18FA
330
1E
100
AcDbEntity
  8
0
100
AcDbLine
 10
504.8399999999999
 20
746.825
 30
0.0
 11
505.2059999999999
 21
747.177
 31
0.0
  0
LINE
  5
18FB
330
1E
100
AcDbEntity
  8
0
100
AcDbLine
 10
503.7509999999998
 20
817.1689999999998
 30
0.0
 11
504.383
 21
817.5019999999998
 31
0.0
  0
LINE
  5
18FC
330
1E
100
AcDbEntity
  8
0
100
AcDbLine
 10
503.1959999999998
 20
816.7460000000001
 30
0.0
 11
503.7509999999998
 21
817.1689999999998
 31
0.0
  0
LINE
  5
18FD
330
1E
100
AcDbEntity
  8
0
100
AcDbLine
 10
504.347
 20
816.7639999999998
 30
0.0
 11
505.4639999999999
 21
817.1269999999998
 31
0.0
  0
LINE
  5
18FE
330
1E
100
AcDbEntity
  8
0
100
AcDbLine
 10
504.347
 20
816.8139999999999
 30
0.0
 11
505.4639999999999
 21
817.176
 31
0.0
  0
LINE
  5
18FF
330
1E
100
AcDbEntity
  8
0
100
AcDbLine
 10
503.68
 20
816.4469999999999
 30
0.0
 11
504.347
 21
816.7639999999998
 31
0.0
  0
LINE
  5
1900
330
1E
100
AcDbEntity
  8
0
100
AcDbLine
 10
503.68
 20
816.4979999999999
 30
0.0
 11
504.347
 21
816.8139999999999
 31
0.0
  0
LINE
  5
1901
330
1E
100
AcDbEntity
  8
0
100
AcDbLine
 10
502.78
 20
816.0809999999999
 30
0.0
 11
503.1959999999998
 21
816.7460000000001
 31
0.0
  0
LINE
  5
1902
330
1E
100
AcDbEntity
  8
0
100
AcDbLine
 10
503.1219999999998
 20
816.0889999999998
 30
0.0
 11
503.68
 21
816.4979999999999
 31
0.0
  0
LINE
  5
1903
330
1E
100
AcDbEntity
  8
0
100
AcDbLine
 10
502.3789999999999
 20
815.1749999999998
 30
0.0
 11
502.78
 21
816.0809999999999
 31
0.0
  0
LINE
  5
1904
330
1E
100
AcDbEntity
  8
0
100
AcDbLine
 10
503.1219999999998
 20
816.0399999999999
 30
0.0
 11
503.68
 21
816.4469999999999
 31
0.0
  0
LINE
  5
1905
330
1E
100
AcDbEntity
  8
0
100
AcDbLine
 10
502.6869999999998
 20
815.361
 30
0.0
 11
503.1219999999998
 21
816.0399999999999
 31
0.0
  0
LINE
  5
1906
330
1E
100
AcDbEntity
  8
0
100
AcDbLine
 10
502.6869999999998
 20
815.4099999999997
 30
0.0
 11
503.1219999999998
 21
816.0889999999998
 31
0.0
  0
LINE
  5
1907
330
1E
100
AcDbEntity
  8
0
100
AcDbLine
 10
502.2869999999998
 20
814.4800000000001
 30
0.0
 11
502.6869999999998
 21
815.361
 31
0.0
  0
LINE
  5
1908
330
1E
100
AcDbEntity
  8
0
100
AcDbLine
 10
502.2869999999998
 20
814.5299999999998
 30
0.0
 11
502.6869999999998
 21
815.4099999999997
 31
0.0
  0
LINE
  5
1909
330
1E
100
AcDbEntity
  8
0
100
AcDbLine
 10
502.2749999999998
 20
740.2610000000001
 30
0.0
 11
502.5479140058418
 21
739.198023075549
 31
0.0
  0
LINE
  5
190A
330
1E
100
AcDbEntity
  8
0
100
AcDbLine
 10
503.0
 20
648.3957
 30
0.0
 11
503.4319999999998
 21
644.3477
 31
0.0
  0
LINE
  5
190B
330
1E
100
AcDbEntity
  8
0
100
AcDbLine
 10
503.0
 20
648.3957
 30
0.0
 11
503.0
 21
673.4116
 31
0.0
  0
LINE
  5
190C
330
1E
100
AcDbEntity
  8
0
100
AcDbLine
 10
503.4319999999998
 20
644.3477
 30
0.0
 11
503.5566874636388
 21
644.004463120927
 31
0.0
  0
LINE
  5
190D
330
1E
100
AcDbEntity
  8
0
100
AcDbLine
 10
527.0
 20
673.4116
 30
0.0
 11
527.0
 21
691.2060999999998
 31
0.0
  0
LINE
  5
190E
330
1E
100
AcDbEntity
  8
0
100
AcDbLine
 10
527.0
 20
673.4116
 30
0.0
 11
527.0
 21
648.3957
 31
0.0
  0
LINE
  5
190F
330
1E
100
AcDbEntity
  8
0
100
AcDbLine
 10
527.1959999999999
 20
730.6110000000001
 30
0.0
 11
527.5199999999999
 21
735.7380000000001
 31
0.0
  0
LINE
  5
1910
330
1E
100
AcDbEntity
  8
0
100
AcDbLine
 10
527.6349999999999
 20
737.345
 30
0.0
 11
527.7739999999998
 21
739.48
 31
0.0
  0
LINE
  5
1911
330
1E
100
AcDbEntity
  8
0
100
AcDbLine
 10
527.5199999999999
 20
735.7380000000001
 30
0.0
 11
527.6349999999999
 21
737.345
 31
0.0
  0
LINE
  5
1912
330
1E
100
AcDbEntity
  8
0
100
AcDbLine
 10
527.0
 20
705.0968
 30
0.0
 11
527.0
 21
691.2060999999998
 31
0.0
  0
LINE
  5
1913
330
1E
100
AcDbEntity
  8
0
100
AcDbLine
 10
527.0
 20
705.0968
 30
0.0
 11
527.0
 21
713.8710000000001
 31
0.0
  0
LINE
  5
1914
330
1E
100
AcDbEntity
  8
0
100
AcDbLine
 10
527.0
 20
713.8710000000001
 30
0.0
 11
527.0
 21
722.6439999999999
 31
0.0
  0
LINE
  5
1915
330
1E
100
AcDbEntity
  8
0
100
AcDbLine
 10
527.0
 20
713.8710000000001
 30
0.0
 11
527.0
 21
705.0968
 31
0.0
  0
LINE
  5
1916
330
1E
100
AcDbEntity
  8
0
100
AcDbLine
 10
527.0
 20
722.6439999999999
 30
0.0
 11
527.1959999999999
 21
730.6110000000001
 31
0.0
  0
LINE
  5
1917
330
1E
100
AcDbEntity
  8
0
100
AcDbLine
 10
527.0
 20
722.6439999999999
 30
0.0
 11
527.0
 21
713.8710000000001
 31
0.0
  0
LINE
  5
1918
330
1E
100
AcDbEntity
  8
0
100
AcDbLine
 10
527.0
 20
691.2060999999998
 30
0.0
 11
527.0
 21
673.4116
 31
0.0
  0
LINE
  5
1919
330
1E
100
AcDbEntity
  8
0
100
AcDbLine
 10
527.0
 20
691.2060999999998
 30
0.0
 11
527.0
 21
705.0968
 31
0.0
  0
LINE
  5
191A
330
1E
100
AcDbEntity
  8
0
100
AcDbLine
 10
527.0
 20
648.3957
 30
0.0
 11
527.0
 21
673.4116
 31
0.0
  0
LINE
  5
191B
330
1E
100
AcDbEntity
  8
0
100
AcDbLine
 10
526.3569999999998
 20
644.3979999999998
 30
0.0
 11
526.5709999999999
 21
643.7869999999998
 31
0.0
  0
LINE
  5
191C
330
1E
100
AcDbEntity
  8
0
100
AcDbLine
 10
526.3569999999998
 20
644.3979999999998
 30
0.0
 11
526.7859999999997
 21
642.442
 31
0.0
  0
LINE
  5
191D
330
1E
100
AcDbEntity
  8
0
100
AcDbLine
 10
526.5679999999999
 20
644.3477
 30
0.0
 11
527.0
 21
648.3957
 31
0.0
  0
LINE
  5
191E
330
1E
100
AcDbEntity
  8
0
100
AcDbLine
 10
526.4433125363609
 20
644.004463120927
 30
0.0
 11
526.5679999999999
 21
644.3477
 31
0.0
  0
LINE
  5
191F
330
1E
100
AcDbEntity
  8
0
100
AcDbLine
 10
527.0
 20
628.6779756097558
 30
0.0
 11
534.0
 21
626.1169999999999
 31
0.0
  0
LINE
  5
1920
330
1E
100
AcDbEntity
  8
0
100
AcDbLine
 10
527.0
 20
634.994
 30
0.0
 11
527.0
 21
641.8029999999999
 31
0.0
  0
LINE
  5
1921
330
1E
100
AcDbEntity
  8
0
100
AcDbLine
 10
527.0
 20
634.994
 30
0.0
 11
527.0
 21
626.3169999999998
 31
0.0
  0
LINE
  5
1922
330
1E
100
AcDbEntity
  8
0
100
AcDbLine
 10
527.0
 20
641.8029999999999
 30
0.0
 11
527.0
 21
634.994
 31
0.0
  0
LINE
  5
1923
330
1E
100
AcDbEntity
  8
0
100
AcDbLine
 10
526.5709999999999
 20
643.7869999999998
 30
0.0
 11
527.0
 21
641.8029999999999
 31
0.0
  0
LINE
  5
1924
330
1E
100
AcDbEntity
  8
0
100
AcDbLine
 10
540.0
 20
620.1169999999998
 30
0.0
 11
542.0
 21
615.1169999999998
 31
0.0
  0
LINE
  5
1925
330
1E
100
AcDbEntity
  8
0
100
AcDbLine
 10
534.0
 20
626.1169999999999
 30
0.0
 11
540.0
 21
620.1169999999998
 31
0.0
  0
LINE
  5
1926
330
1E
100
AcDbEntity
  8
0
100
AcDbLine
 10
547.7999999999998
 20
615.1169999999998
 30
0.0
 11
549.0
 21
615.1169999999998
 31
0.0
  0
LINE
  5
1927
330
1E
100
AcDbEntity
  8
0
100
AcDbLine
 10
548.7
 20
614.1169999999998
 30
0.0
 11
550.0
 21
614.1169999999998
 31
0.0
  0
LINE
  5
1928
330
1E
100
AcDbEntity
  8
0
100
AcDbLine
 10
549.0
 20
615.1169999999998
 30
0.0
 11
550.0
 21
614.1169999999998
 31
0.0
  0
LINE
  5
1929
330
1E
100
AcDbEntity
  8
0
100
AcDbLine
 10
550.0
 20
605.1169999999999
 30
0.0
 11
550.0
 21
614.1169999999998
 31
0.0
  0
LINE
  5
192A
330
1E
100
AcDbEntity
  8
0
100
AcDbLine
 10
548.7
 20
605.1169999999999
 30
0.0
 11
550.0
 21
605.1169999999999
 31
0.0
  0
LINE
  5
192B
330
1E
100
AcDbEntity
  8
0
100
AcDbLine
 10
550.0
 20
614.1169999999998
 30
0.0
 11
550.0
 21
605.1169999999999
 31
0.0
  0
LINE
  5
192C
330
1E
100
AcDbEntity
  8
0
100
AcDbLine
 10
544.3999999999999
 20
615.1169999999998
 30
0.0
 11
547.7999999999998
 21
615.1169999999998
 31
0.0
  0
LINE
  5
192D
330
1E
100
AcDbEntity
  8
0
100
AcDbLine
 10
539.0
 20
615.1169999999998
 30
0.0
 11
544.3999999999999
 21
615.1169999999998
 31
0.0
  0
LINE
  5
192E
330
1E
100
AcDbEntity
  8
0
100
AcDbLine
 10
545.2999999999999
 20
614.1169999999998
 30
0.0
 11
548.7
 21
614.1169999999998
 31
0.0
  0
LINE
  5
192F
330
1E
100
AcDbEntity
  8
0
100
AcDbLine
 10
539.7
 20
614.1169999999998
 30
0.0
 11
545.2999999999999
 21
614.1169999999998
 31
0.0
  0
LINE
  5
1930
330
1E
100
AcDbEntity
  8
0
100
AcDbLine
 10
545.2999999999999
 20
605.1169999999999
 30
0.0
 11
548.7
 21
605.1169999999999
 31
0.0
  0
LINE
  5
1931
330
1E
100
AcDbEntity
  8
0
100
AcDbLine
 10
540.0
 20
605.1169999999999
 30
0.0
 11
545.2999999999999
 21
605.1169999999999
 31
0.0
  0
LINE
  5
1932
330
1E
100
AcDbEntity
  8
0
100
AcDbLine
 10
539.7
 20
605.1169999999999
 30
0.0
 11
545.2999999999999
 21
605.1169999999999
 31
0.0
  0
LINE
  5
1933
330
1E
100
AcDbEntity
  8
0
100
AcDbLine
 10
539.1
 20
605.1169999999999
 30
0.0
 11
540.0
 21
605.1169999999999
 31
0.0
  0
LINE
  5
1934
330
1E
100
AcDbEntity
  8
0
100
AcDbLine
 10
531.8999999999999
 20
615.1169999999998
 30
0.0
 11
539.0
 21
615.1169999999998
 31
0.0
  0
LINE
  5
1935
330
1E
100
AcDbEntity
  8
0
100
AcDbLine
 10
532.3999999999999
 20
614.1169999999998
 30
0.0
 11
539.7
 21
614.1169999999998
 31
0.0
  0
LINE
  5
1936
330
1E
100
AcDbEntity
  8
0
100
AcDbLine
 10
536.7
 20
605.1169999999999
 30
0.0
 11
539.1
 21
605.1169999999999
 31
0.0
  0
LINE
  5
1937
330
1E
100
AcDbEntity
  8
0
100
AcDbLine
 10
532.7
 20
605.1169999999999
 30
0.0
 11
536.7
 21
605.1169999999999
 31
0.0
  0
LINE
  5
1938
330
1E
100
AcDbEntity
  8
0
100
AcDbLine
 10
532.3999999999999
 20
605.1169999999999
 30
0.0
 11
539.7
 21
605.1169999999999
 31
0.0
  0
LINE
  5
1939
330
1E
100
AcDbEntity
  8
0
100
AcDbLine
 10
527.4
 20
605.1169999999999
 30
0.0
 11
532.7
 21
605.1169999999999
 31
0.0
  0
LINE
  5
193A
330
1E
100
AcDbEntity
  8
0
100
AcDbLine
 10
526.6
 20
624.817
 30
0.0
 11
527.0
 21
626.3169999999998
 31
0.0
  0
LINE
  5
193B
330
1E
100
AcDbEntity
  8
0
100
AcDbLine
 10
527.0
 20
626.3169999999998
 30
0.0
 11
527.0
 21
634.994
 31
0.0
  0
LINE
  5
193C
330
1E
100
AcDbEntity
  8
0
100
AcDbLine
 10
526.3569999999998
 20
640.486
 30
0.0
 11
526.7859999999997
 21
642.442
 31
0.0
  0
LINE
  5
193D
330
1E
100
AcDbEntity
  8
0
100
AcDbLine
 10
525.1999999999998
 20
638.6669999999997
 30
0.0
 11
526.3569999999998
 21
640.486
 31
0.0
  0
LINE
  5
193E
330
1E
100
AcDbEntity
  8
0
100
AcDbLine
 10
523.314
 20
637.0969999999998
 30
0.0
 11
525.1999999999998
 21
638.6669999999997
 31
0.0
  0
LINE
  5
193F
330
1E
100
AcDbEntity
  8
0
100
AcDbLine
 10
518.089462107488
 20
635.153223411588
 30
0.0
 11
520.8709999999999
 21
635.8849999999998
 31
0.0
  0
LINE
  5
1940
330
1E
100
AcDbEntity
  8
0
100
AcDbLine
 10
520.8709999999999
 20
635.8849999999998
 30
0.0
 11
523.314
 21
637.0969999999998
 31
0.0
  0
LINE
  5
1941
330
1E
100
AcDbEntity
  8
0
100
AcDbLine
 10
515.0
 20
620.5169999999998
 30
0.0
 11
518.1
 21
620.7169999999998
 31
0.0
  0
LINE
  5
1942
330
1E
100
AcDbEntity
  8
0
100
AcDbLine
 10
518.1
 20
620.7169999999998
 30
0.0
 11
521.0
 21
621.3169999999999
 31
0.0
  0
LINE
  5
1943
330
1E
100
AcDbEntity
  8
0
100
AcDbLine
 10
521.0
 20
621.3169999999999
 30
0.0
 11
523.5
 21
622.217
 31
0.0
  0
LINE
  5
1944
330
1E
100
AcDbEntity
  8
0
100
AcDbLine
 10
523.5
 20
622.217
 30
0.0
 11
525.3999999999998
 21
623.4169999999997
 31
0.0
  0
LINE
  5
1945
330
1E
100
AcDbEntity
  8
0
100
AcDbLine
 10
525.3999999999998
 20
623.4169999999997
 30
0.0
 11
526.6
 21
624.817
 31
0.0
  0
LINE
  5
1946
330
1E
100
AcDbEntity
  8
0
100
AcDbLine
 10
523.7
 20
615.1169999999998
 30
0.0
 11
531.8999999999999
 21
615.1169999999998
 31
0.0
  0
LINE
  5
1947
330
1E
100
AcDbEntity
  8
0
100
AcDbLine
 10
524.0
 20
614.1169999999998
 30
0.0
 11
532.3999999999999
 21
614.1169999999998
 31
0.0
  0
LINE
  5
1948
330
1E
100
AcDbEntity
  8
0
100
AcDbLine
 10
524.0
 20
605.1169999999999
 30
0.0
 11
532.3999999999999
 21
605.1169999999999
 31
0.0
  0
LINE
  5
1949
330
1E
100
AcDbEntity
  8
0
100
AcDbLine
 10
521.3999999999998
 20
605.1169999999999
 30
0.0
 11
527.4
 21
605.1169999999999
 31
0.0
  0
LINE
  5
194A
330
1E
100
AcDbEntity
  8
0
100
AcDbLine
 10
515.0
 20
615.1169999999998
 30
0.0
 11
523.7
 21
615.1169999999998
 31
0.0
  0
LINE
  5
194B
330
1E
100
AcDbEntity
  8
0
100
AcDbLine
 10
515.0
 20
614.1169999999998
 30
0.0
 11
524.0
 21
614.1169999999998
 31
0.0
  0
LINE
  5
194C
330
1E
100
AcDbEntity
  8
0
100
AcDbLine
 10
515.0
 20
605.1169999999999
 30
0.0
 11
524.0
 21
605.1169999999999
 31
0.0
  0
LINE
  5
194D
330
1E
100
AcDbEntity
  8
0
100
AcDbLine
 10
515.0
 20
605.1169999999999
 30
0.0
 11
521.3999999999998
 21
605.1169999999999
 31
0.0
  0
LINE
  5
194E
330
1E
100
AcDbEntity
  8
0
100
AcDbLine
 10
511.8999999999998
 20
620.7169999999998
 30
0.0
 11
515.0
 21
620.5169999999998
 31
0.0
  0
LINE
  5
194F
330
1E
100
AcDbEntity
  8
0
100
AcDbLine
 10
509.0
 20
621.3169999999999
 30
0.0
 11
511.8999999999998
 21
620.7169999999998
 31
0.0
  0
LINE
  5
1950
330
1E
100
AcDbEntity
  8
0
100
AcDbLine
 10
509.1289999999999
 20
635.8849999999998
 30
0.0
 11
511.9105378925119
 21
635.153223411588
 31
0.0
  0
LINE
  5
1951
330
1E
100
AcDbEntity
  8
0
100
AcDbLine
 10
506.4999999999997
 20
622.217
 30
0.0
 11
509.0
 21
621.3169999999999
 31
0.0
  0
LINE
  5
1952
330
1E
100
AcDbEntity
  8
0
100
AcDbLine
 10
504.6
 20
623.4169999999997
 30
0.0
 11
506.4999999999997
 21
622.217
 31
0.0
  0
LINE
  5
1953
330
1E
100
AcDbEntity
  8
0
100
AcDbLine
 10
504.8
 20
638.6669999999997
 30
0.0
 11
506.6859999999999
 21
637.0969999999998
 31
0.0
  0
LINE
  5
1954
330
1E
100
AcDbEntity
  8
0
100
AcDbLine
 10
506.6859999999999
 20
637.0969999999998
 30
0.0
 11
509.1289999999999
 21
635.8849999999998
 31
0.0
  0
LINE
  5
1955
330
1E
100
AcDbEntity
  8
0
100
AcDbLine
 10
503.3999999999998
 20
624.817
 30
0.0
 11
504.6
 21
623.4169999999997
 31
0.0
  0
LINE
  5
1956
330
1E
100
AcDbEntity
  8
0
100
AcDbLine
 10
503.2139999999999
 20
642.442
 30
0.0
 11
503.643
 21
644.3979999999998
 31
0.0
  0
LINE
  5
1957
330
1E
100
AcDbEntity
  8
0
100
AcDbLine
 10
503.2139999999999
 20
642.442
 30
0.0
 11
503.643
 21
640.486
 31
0.0
  0
LINE
  5
1958
330
1E
100
AcDbEntity
  8
0
100
AcDbLine
 10
503.643
 20
640.486
 30
0.0
 11
504.8
 21
638.6669999999997
 31
0.0
  0
LINE
  5
1959
330
1E
100
AcDbEntity
  8
0
100
AcDbLine
 10
503.4290000000001
 20
643.7869999999998
 30
0.0
 11
503.643
 21
644.3979999999998
 31
0.0
  0
LINE
  5
195A
330
1E
100
AcDbEntity
  8
0
100
AcDbLine
 10
506.2999999999998
 20
615.1169999999998
 30
0.0
 11
515.0
 21
615.1169999999998
 31
0.0
  0
LINE
  5
195B
330
1E
100
AcDbEntity
  8
0
100
AcDbLine
 10
508.6
 20
605.1169999999999
 30
0.0
 11
515.0
 21
605.1169999999999
 31
0.0
  0
LINE
  5
195C
330
1E
100
AcDbEntity
  8
0
100
AcDbLine
 10
506.0
 20
614.1169999999998
 30
0.0
 11
515.0
 21
614.1169999999998
 31
0.0
  0
LINE
  5
195D
330
1E
100
AcDbEntity
  8
0
100
AcDbLine
 10
506.0
 20
605.1169999999999
 30
0.0
 11
515.0
 21
605.1169999999999
 31
0.0
  0
LINE
  5
195E
330
1E
100
AcDbEntity
  8
0
100
AcDbLine
 10
503.0
 20
673.4116
 30
0.0
 11
503.0
 21
648.3957
 31
0.0
  0
LINE
  5
195F
330
1E
100
AcDbEntity
  8
0
100
AcDbLine
 10
503.0
 20
673.4116
 30
0.0
 11
503.0
 21
691.2060999999998
 31
0.0
  0
LINE
  5
1960
330
1E
100
AcDbEntity
  8
0
100
AcDbLine
 10
503.0
 20
691.2060999999998
 30
0.0
 11
503.0
 21
673.4116
 31
0.0
  0
LINE
  5
1961
330
1E
100
AcDbEntity
  8
0
100
AcDbLine
 10
503.0
 20
691.2060999999998
 30
0.0
 11
503.0
 21
705.0968
 31
0.0
  0
LINE
  5
1962
330
1E
100
AcDbEntity
  8
0
100
AcDbLine
 10
503.0
 20
705.0968
 30
0.0
 11
503.0
 21
691.2060999999998
 31
0.0
  0
LINE
  5
1963
330
1E
100
AcDbEntity
  8
0
100
AcDbLine
 10
503.0
 20
705.0968
 30
0.0
 11
503.0
 21
713.8710000000001
 31
0.0
  0
LINE
  5
1964
330
1E
100
AcDbEntity
  8
0
100
AcDbLine
 10
503.0
 20
713.8710000000001
 30
0.0
 11
503.0
 21
705.0968
 31
0.0
  0
LINE
  5
1965
330
1E
100
AcDbEntity
  8
0
100
AcDbLine
 10
503.0
 20
713.8710000000001
 30
0.0
 11
503.0
 21
722.6439999999999
 31
0.0
  0
LINE
  5
1966
330
1E
100
AcDbEntity
  8
0
100
AcDbLine
 10
502.804
 20
730.6110000000001
 30
0.0
 11
503.0
 21
722.6439999999999
 31
0.0
  0
LINE
  5
1967
330
1E
100
AcDbEntity
  8
0
100
AcDbLine
 10
502.4799999999999
 20
735.7380000000001
 30
0.0
 11
502.804
 21
730.6110000000001
 31
0.0
  0
LINE
  5
1968
330
1E
100
AcDbEntity
  8
0
100
AcDbLine
 10
503.0
 20
722.6439999999999
 30
0.0
 11
503.0
 21
713.8710000000001
 31
0.0
  0
LINE
  5
1969
330
1E
100
AcDbEntity
  8
0
100
AcDbLine
 10
503.0
 20
626.3169999999998
 30
0.0
 11
503.0
 21
634.994
 31
0.0
  0
LINE
  5
196A
330
1E
100
AcDbEntity
  8
0
100
AcDbLine
 10
503.0
 20
626.3169999999998
 30
0.0
 11
503.3999999999998
 21
624.817
 31
0.0
  0
LINE
  5
196B
330
1E
100
AcDbEntity
  8
0
100
AcDbLine
 10
503.0
 20
634.994
 30
0.0
 11
503.0
 21
641.8029999999999
 31
0.0
  0
LINE
  5
196C
330
1E
100
AcDbEntity
  8
0
100
AcDbLine
 10
503.0
 20
634.994
 30
0.0
 11
503.0
 21
626.3169999999998
 31
0.0
  0
LINE
  5
196D
330
1E
100
AcDbEntity
  8
0
100
AcDbLine
 10
503.0
 20
641.8029999999999
 30
0.0
 11
503.4290000000001
 21
643.7869999999998
 31
0.0
  0
LINE
  5
196E
330
1E
100
AcDbEntity
  8
0
100
AcDbLine
 10
503.0
 20
641.8029999999999
 30
0.0
 11
503.0
 21
634.994
 31
0.0
  0
LINE
  5
196F
330
1E
100
AcDbEntity
  8
0
100
AcDbLine
 10
502.5999999999998
 20
605.1169999999999
 30
0.0
 11
508.6
 21
605.1169999999999
 31
0.0
  0
LINE
  5
1970
330
1E
100
AcDbEntity
  8
0
100
AcDbLine
 10
501.8028519684128
 20
812.3670834505549
 30
0.0
 11
501.8389999999999
 21
812.8469999999998
 31
0.0
  0
LINE
  5
1971
330
1E
100
AcDbEntity
  8
0
100
AcDbLine
 10
501.8389999999999
 20
812.8469999999998
 30
0.0
 11
502.1009999999998
 21
814.1160000000001
 31
0.0
  0
LINE
  5
1972
330
1E
100
AcDbEntity
  8
0
100
AcDbLine
 10
502.1009999999998
 20
814.1160000000001
 30
0.0
 11
502.3789999999999
 21
815.1749999999998
 31
0.0
  0
LINE
  5
1973
330
1E
100
AcDbEntity
  8
0
100
AcDbLine
 10
501.9859999999998
 20
813.3139999999999
 30
0.0
 11
502.2869999999998
 21
814.4800000000001
 31
0.0
  0
LINE
  5
1974
330
1E
100
AcDbEntity
  8
0
100
AcDbLine
 10
501.9859999999998
 20
813.3630000000001
 30
0.0
 11
502.2869999999998
 21
814.5299999999998
 31
0.0
  0
LINE
  5
1975
330
1E
100
AcDbEntity
  8
0
100
AcDbLine
 10
501.0
 20
777.3889999999998
 30
0.0
 11
501.054
 21
768.781
 31
0.0
  0
LINE
  5
1976
330
1E
100
AcDbEntity
  8
0
100
AcDbLine
 10
501.0
 20
777.3889999999998
 30
0.0
 11
501.054
 21
785.9969999999998
 31
0.0
  0
LINE
  5
1977
330
1E
100
AcDbEntity
  8
0
100
AcDbLine
 10
501.054
 20
785.9969999999998
 30
0.0
 11
501.1069999999998
 21
793.51
 31
0.0
  0
LINE
  5
1978
330
1E
100
AcDbEntity
  8
0
100
AcDbLine
 10
501.1069999999998
 20
793.51
 30
0.0
 11
501.2559999999998
 21
800.2319999999999
 31
0.0
  0
LINE
  5
1979
330
1E
100
AcDbEntity
  8
0
100
AcDbLine
 10
501.2559999999998
 20
800.2319999999999
 30
0.0
 11
501.3799999999998
 21
805.211
 31
0.0
  0
LINE
  5
197A
330
1E
100
AcDbEntity
  8
0
100
AcDbLine
 10
501.3799999999998
 20
805.211
 30
0.0
 11
501.5049999999998
 21
808.4699999999999
 31
0.0
  0
LINE
  5
197B
330
1E
100
AcDbEntity
  8
0
100
AcDbLine
 10
501.5049999999998
 20
808.4699999999999
 30
0.0
 11
501.613
 21
810.4169999999998
 31
0.0
  0
LINE
  5
197C
330
1E
100
AcDbEntity
  8
0
100
AcDbLine
 10
501.613
 20
810.4169999999998
 30
0.0
 11
501.753
 21
812.0460000000001
 31
0.0
  0
LINE
  5
197D
330
1E
100
AcDbEntity
  8
0
100
AcDbLine
 10
501.753
 20
812.0460000000001
 30
0.0
 11
501.9859999999998
 21
813.3139999999999
 31
0.0
  0
LINE
  5
197E
330
1E
100
AcDbEntity
  8
0
100
AcDbLine
 10
501.753
 20
812.0460000000001
 30
0.0
 11
501.8389999999999
 21
812.8469999999998
 31
0.0
  0
LINE
  5
197F
330
1E
100
AcDbEntity
  8
0
100
AcDbLine
 10
501.753
 20
812.0959999999998
 30
0.0
 11
501.9859999999998
 21
813.3630000000001
 31
0.0
  0
LINE
  5
1980
330
1E
100
AcDbEntity
  8
0
100
AcDbLine
 10
501.5049999999998
 20
808.5199999999998
 30
0.0
 11
501.613
 21
810.4669999999998
 31
0.0
  0
LINE
  5
1981
330
1E
100
AcDbEntity
  8
0
100
AcDbLine
 10
501.613
 20
810.4669999999998
 30
0.0
 11
501.753
 21
812.0959999999998
 31
0.0
  0
LINE
  5
1982
330
1E
100
AcDbEntity
  8
0
100
AcDbLine
 10
501.2559999999998
 20
800.281
 30
0.0
 11
501.3799999999998
 21
805.2610000000001
 31
0.0
  0
LINE
  5
1983
330
1E
100
AcDbEntity
  8
0
100
AcDbLine
 10
501.3799999999998
 20
805.2610000000001
 30
0.0
 11
501.5049999999998
 21
808.5199999999998
 31
0.0
  0
LINE
  5
1984
330
1E
100
AcDbEntity
  8
0
100
AcDbLine
 10
501.054
 20
786.046
 30
0.0
 11
501.1069999999998
 21
793.5589999999998
 31
0.0
  0
LINE
  5
1985
330
1E
100
AcDbEntity
  8
0
100
AcDbLine
 10
501.1069999999998
 20
793.5589999999998
 30
0.0
 11
501.2559999999998
 21
800.281
 31
0.0
  0
LINE
  5
1986
330
1E
100
AcDbEntity
  8
0
100
AcDbLine
 10
501.054
 20
768.83
 30
0.0
 11
501.1069999999998
 21
761.3179999999999
 31
0.0
  0
LINE
  5
1987
330
1E
100
AcDbEntity
  8
0
100
AcDbLine
 10
501.1069999999998
 20
761.3179999999999
 30
0.0
 11
501.2559999999998
 21
754.596
 31
0.0
  0
LINE
  5
1988
330
1E
100
AcDbEntity
  8
0
100
AcDbLine
 10
501.2559999999998
 20
754.596
 30
0.0
 11
501.3799999999998
 21
749.6169999999998
 31
0.0
  0
LINE
  5
1989
330
1E
100
AcDbEntity
  8
0
100
AcDbLine
 10
501.3799999999998
 20
749.6169999999998
 30
0.0
 11
501.5049999999998
 21
746.3560000000001
 31
0.0
  0
LINE
  5
198A
330
1E
100
AcDbEntity
  8
0
100
AcDbLine
 10
501.5049999999998
 20
746.3560000000001
 30
0.0
 11
501.613
 21
744.4099999999998
 31
0.0
  0
LINE
  5
198B
330
1E
100
AcDbEntity
  8
0
100
AcDbLine
 10
501.613
 20
744.4099999999998
 30
0.0
 11
501.753
 21
742.7799999999998
 31
0.0
  0
LINE
  5
198C
330
1E
100
AcDbEntity
  8
0
100
AcDbLine
 10
501.9859999999998
 20
741.513
 30
0.0
 11
502.2749999999998
 21
740.2610000000001
 31
0.0
  0
LINE
  5
198D
330
1E
100
AcDbEntity
  8
0
100
AcDbLine
 10
501.753
 20
742.7799999999998
 30
0.0
 11
501.9859999999998
 21
741.513
 31
0.0
  0
LINE
  5
198E
330
1E
100
AcDbEntity
  8
0
100
AcDbLine
 10
501.613
 20
744.3610000000001
 30
0.0
 11
501.753
 21
742.7310000000001
 31
0.0
  0
LINE
  5
198F
330
1E
100
AcDbEntity
  8
0
100
AcDbLine
 10
501.8099999999998
 20
743.108
 30
0.0
 11
501.829151346312
 21
742.9409781624561
 31
0.0
  0
LINE
  5
1990
330
1E
100
AcDbEntity
  8
0
100
AcDbLine
 10
501.753
 20
742.7310000000001
 30
0.0
 11
501.9859999999998
 21
741.4639999999998
 31
0.0
  0
LINE
  5
1991
330
1E
100
AcDbEntity
  8
0
100
AcDbLine
 10
501.9859999999998
 20
741.4639999999998
 30
0.0
 11
502.008517584526
 21
741.376697604178
 31
0.0
  0
LINE
  5
1992
330
1E
100
AcDbEntity
  8
0
100
AcDbLine
 10
501.9406082662819
 20
741.9689452161748
 30
0.0
 11
502.226
 21
739.48
 31
0.0
  0
LINE
  5
1993
330
1E
100
AcDbEntity
  8
0
100
AcDbLine
 10
501.3799999999998
 20
749.566
 30
0.0
 11
501.5049999999998
 21
746.307
 31
0.0
  0
LINE
  5
1994
330
1E
100
AcDbEntity
  8
0
100
AcDbLine
 10
501.5049999999998
 20
746.307
 30
0.0
 11
501.613
 21
744.3610000000001
 31
0.0
  0
LINE
  5
1995
330
1E
100
AcDbEntity
  8
0
100
AcDbLine
 10
501.1069999999998
 20
761.2689999999998
 30
0.0
 11
501.2559999999998
 21
754.5449999999998
 31
0.0
  0
LINE
  5
1996
330
1E
100
AcDbEntity
  8
0
100
AcDbLine
 10
501.2559999999998
 20
754.5449999999998
 30
0.0
 11
501.3799999999998
 21
749.566
 31
0.0
  0
LINE
  5
1997
330
1E
100
AcDbEntity
  8
0
100
AcDbLine
 10
501.054
 20
768.781
 30
0.0
 11
501.1069999999998
 21
761.2689999999998
 31
0.0
  0
LINE
  5
1998
330
1E
100
AcDbEntity
  8
0
100
AcDbLine
 10
501.0
 20
777.4379999999999
 30
0.0
 11
501.054
 21
768.83
 31
0.0
  0
LINE
  5
1999
330
1E
100
AcDbEntity
  8
0
100
AcDbLine
 10
501.0
 20
777.4379999999999
 30
0.0
 11
501.054
 21
786.046
 31
0.0
  0
LINE
  5
199A
330
1E
100
AcDbEntity
  8
0
100
AcDbLine
 10
488.0
 20
615.1169999999998
 30
0.0
 11
490.0
 21
620.1169999999998
 31
0.0
  0
LINE
  5
199B
330
1E
100
AcDbEntity
  8
0
100
AcDbLine
 10
490.0
 20
620.1169999999998
 30
0.0
 11
496.0
 21
626.1169999999999
 31
0.0
  0
LINE
  5
199C
330
1E
100
AcDbEntity
  8
0
100
AcDbLine
 10
496.0
 20
626.1169999999999
 30
0.0
 11
503.0
 21
628.6779756097558
 31
0.0
  0
LINE
  5
199D
330
1E
100
AcDbEntity
  8
0
100
AcDbLine
 10
491.0
 20
615.1169999999998
 30
0.0
 11
498.1
 21
615.1169999999998
 31
0.0
  0
LINE
  5
199E
330
1E
100
AcDbEntity
  8
0
100
AcDbLine
 10
498.1
 20
615.1169999999998
 30
0.0
 11
506.2999999999998
 21
615.1169999999998
 31
0.0
  0
LINE
  5
199F
330
1E
100
AcDbEntity
  8
0
100
AcDbLine
 10
497.5999999999999
 20
614.1169999999998
 30
0.0
 11
506.0
 21
614.1169999999998
 31
0.0
  0
LINE
  5
19A0
330
1E
100
AcDbEntity
  8
0
100
AcDbLine
 10
497.5999999999999
 20
605.1169999999999
 30
0.0
 11
506.0
 21
605.1169999999999
 31
0.0
  0
LINE
  5
19A1
330
1E
100
AcDbEntity
  8
0
100
AcDbLine
 10
493.2999999999999
 20
605.1169999999999
 30
0.0
 11
497.2999999999999
 21
605.1169999999999
 31
0.0
  0
LINE
  5
19A2
330
1E
100
AcDbEntity
  8
0
100
AcDbLine
 10
497.2999999999999
 20
605.1169999999999
 30
0.0
 11
502.5999999999998
 21
605.1169999999999
 31
0.0
  0
LINE
  5
19A3
330
1E
100
AcDbEntity
  8
0
100
AcDbLine
 10
490.2999999999999
 20
614.1169999999998
 30
0.0
 11
497.5999999999999
 21
614.1169999999998
 31
0.0
  0
LINE
  5
19A4
330
1E
100
AcDbEntity
  8
0
100
AcDbLine
 10
490.2999999999999
 20
605.1169999999999
 30
0.0
 11
497.5999999999999
 21
605.1169999999999
 31
0.0
  0
LINE
  5
19A5
330
1E
100
AcDbEntity
  8
0
100
AcDbLine
 10
490.8999999999998
 20
605.1169999999999
 30
0.0
 11
493.2999999999999
 21
605.1169999999999
 31
0.0
  0
LINE
  5
19A6
330
1E
100
AcDbEntity
  8
0
100
AcDbLine
 10
490.0
 20
605.1169999999999
 30
0.0
 11
490.8999999999998
 21
605.1169999999999
 31
0.0
  0
LINE
  5
19A7
330
1E
100
AcDbEntity
  8
0
100
AcDbLine
 10
481.0
 20
615.1169999999998
 30
0.0
 11
482.2
 21
615.1169999999998
 31
0.0
  0
LINE
  5
19A8
330
1E
100
AcDbEntity
  8
0
100
AcDbLine
 10
316.3859999999999
 20
739.1089999999998
 30
0.0
 11
317.0989999999999
 21
739.0739999999998
 31
0.0
  0
LINE
  5
19A9
330
1E
100
AcDbEntity
  8
0
100
AcDbLine
 10
316.3899999999999
 20
739.1089999999998
 30
0.0
 11
317.0989999999999
 21
739.0739999999998
 31
0.0
  0
LINE
  5
19AA
330
1E
100
AcDbEntity
  8
0
100
AcDbLine
 10
316.2850000000001
 20
739.1089999999998
 30
0.0
 11
316.4309999999999
 21
739.1089999999998
 31
0.0
  0
LINE
  5
19AB
330
1E
100
AcDbEntity
  8
0
100
AcDbLine
 10
308.3849999999999
 20
739.1169999999998
 30
0.0
 11
309.814
 21
739.1160000000001
 31
0.0
  0
LINE
  5
19AC
330
1E
100
AcDbEntity
  8
0
100
AcDbLine
 10
312.3129999999998
 20
739.1149999999998
 30
0.0
 11
313.4729999999999
 21
739.113
 31
0.0
  0
LINE
  5
19AD
330
1E
100
AcDbEntity
  8
0
100
AcDbLine
 10
313.4729999999999
 20
739.113
 30
0.0
 11
314.4529999999999
 21
739.1119999999999
 31
0.0
  0
LINE
  5
19AE
330
1E
100
AcDbEntity
  8
0
100
AcDbLine
 10
315.836
 20
739.1099999999998
 30
0.0
 11
316.2850000000001
 21
739.1089999999998
 31
0.0
  0
LINE
  5
19AF
330
1E
100
AcDbEntity
  8
0
100
AcDbLine
 10
314.4529999999999
 20
739.1119999999999
 30
0.0
 11
315.2419999999999
 21
739.1110000000001
 31
0.0
  0
LINE
  5
19B0
330
1E
100
AcDbEntity
  8
0
100
AcDbLine
 10
315.2419999999999
 20
739.1110000000001
 30
0.0
 11
315.836
 21
739.1099999999998
 31
0.0
  0
LINE
  5
19B1
330
1E
100
AcDbEntity
  8
0
100
AcDbLine
 10
309.814
 20
739.1160000000001
 30
0.0
 11
311.1269999999999
 21
739.1160000000001
 31
0.0
  0
LINE
  5
19B2
330
1E
100
AcDbEntity
  8
0
100
AcDbLine
 10
311.1269999999999
 20
739.1160000000001
 30
0.0
 11
312.3129999999998
 21
739.1149999999998
 31
0.0
  0
LINE
  5
19B3
330
1E
100
AcDbEntity
  8
0
100
AcDbLine
 10
276.527
 20
739.113
 30
0.0
 11
308.3849999999999
 21
739.1169999999998
 31
0.0
  0
LINE
  5
19B4
330
1E
100
AcDbEntity
  8
0
100
AcDbLine
 10
275.547
 20
739.1119999999999
 30
0.0
 11
276.527
 21
739.113
 31
0.0
  0
LINE
  5
19B5
330
1E
100
AcDbEntity
  8
0
100
AcDbLine
 10
274.1639999999999
 20
739.1099999999998
 30
0.0
 11
274.7579999999999
 21
739.1110000000001
 31
0.0
  0
LINE
  5
19B6
330
1E
100
AcDbEntity
  8
0
100
AcDbLine
 10
274.7579999999999
 20
739.1110000000001
 30
0.0
 11
275.547
 21
739.1119999999999
 31
0.0
  0
LINE
  5
19B7
330
1E
100
AcDbEntity
  8
0
100
AcDbLine
 10
317.1399999999998
 20
739.0739999999998
 30
0.0
 11
317.4339999999999
 21
739.0049999999998
 31
0.0
  0
LINE
  5
19B8
330
1E
100
AcDbEntity
  8
0
100
AcDbLine
 10
318.1649999999999
 20
737.733
 30
0.0
 11
318.343
 21
711.6679999999998
 31
0.0
  0
LINE
  5
19B9
330
1E
100
AcDbEntity
  8
0
100
AcDbLine
 10
318.114
 20
738.2999999999998
 30
0.0
 11
318.1649999999999
 21
737.733
 31
0.0
  0
LINE
  5
19BA
330
1E
100
AcDbEntity
  8
0
100
AcDbLine
 10
317.4339999999999
 20
739.0049999999998
 30
0.0
 11
317.7899999999999
 21
738.818
 31
0.0
  0
LINE
  5
19BB
330
1E
100
AcDbEntity
  8
0
100
AcDbLine
 10
317.7899999999999
 20
738.818
 30
0.0
 11
318.0269999999999
 21
738.534
 31
0.0
  0
LINE
  5
19BC
330
1E
100
AcDbEntity
  8
0
100
AcDbLine
 10
318.0269999999999
 20
738.534
 30
0.0
 11
318.114
 21
738.2999999999998
 31
0.0
  0
LINE
  5
19BD
330
1E
100
AcDbEntity
  8
0
100
AcDbLine
 10
318.468
 20
690.6594999999998
 30
0.0
 11
318.99339479157
 21
611.1169999999998
 31
0.0
  0
LINE
  5
19BE
330
1E
100
AcDbEntity
  8
0
100
AcDbLine
 10
318.3659999999999
 20
701.8789999999998
 30
0.0
 11
318.3809999999998
 21
697.2722
 31
0.0
  0
LINE
  5
19BF
330
1E
100
AcDbEntity
  8
0
100
AcDbLine
 10
318.3809999999998
 20
697.2722
 30
0.0
 11
318.3982385115659
 21
694.5109155072958
 31
0.0
  0
LINE
  5
19C0
330
1E
100
AcDbEntity
  8
0
100
AcDbLine
 10
318.3982385115659
 20
694.5109155072958
 30
0.0
 11
318.468
 21
690.6594999999998
 31
0.0
  0
LINE
  5
19C1
330
1E
100
AcDbEntity
  8
0
100
AcDbLine
 10
318.359
 20
708.8339999999998
 30
0.0
 11
318.363
 21
705.6139999999998
 31
0.0
  0
LINE
  5
19C2
330
1E
100
AcDbEntity
  8
0
100
AcDbLine
 10
318.343
 20
711.6679999999998
 30
0.0
 11
318.359
 21
708.8339999999998
 31
0.0
  0
LINE
  5
19C3
330
1E
100
AcDbEntity
  8
0
100
AcDbLine
 10
318.363
 20
705.6139999999998
 30
0.0
 11
318.3659999999999
 21
701.8789999999998
 31
0.0
  0
LINE
  5
1AAF
330
1E
100
AcDbEntity
  8
0
100
AcDbLine
 10
317.3439999999999
 20
728.0069999999998
 30
0.0
 11
317.372
 21
728.169
 31
0.0
  0
LINE
  5
1AB0
330
1E
100
AcDbEntity
  8
0
100
AcDbLine
 10
317.3059999999999
 20
727.4939999999998
 30
0.0
 11
317.3439999999999
 21
728.0069999999998
 31
0.0
  0
LINE
  5
1AB1
330
1E
100
AcDbEntity
  8
0
100
AcDbLine
 10
306.9439999999999
 20
719.8289999999998
 30
0.0
 11
308.6939999999999
 21
718.9619999999998
 31
0.0
  0
LINE
  5
1AB2
330
1E
100
AcDbEntity
  8
0
100
AcDbLine
 10
307.0
 20
712.5850029101489
 30
0.0
 11
307.382
 21
712.743
 31
0.0
  0
LINE
  5
1AB3
330
1E
100
AcDbEntity
  8
0
100
AcDbLine
 10
317.277
 20
726.321
 30
0.0
 11
317.3059999999999
 21
727.4939999999998
 31
0.0
  0
LINE
  5
1AB4
330
1E
100
AcDbEntity
  8
0
100
AcDbLine
 10
314.7940000000001
 20
713.8589999999997
 30
0.0
 11
315.6399999999998
 21
715.2589999999999
 31
0.0
  0
LINE
  5
1AB5
330
1E
100
AcDbEntity
  8
0
100
AcDbLine
 10
317.238
 20
723.8049999999998
 30
0.0
 11
317.2549999999998
 21
725.1699999999998
 31
0.0
  0
LINE
  5
1AB6
330
1E
100
AcDbEntity
  8
0
100
AcDbLine
 10
317.2549999999998
 20
725.1699999999998
 30
0.0
 11
317.277
 21
726.321
 31
0.0
  0
LINE
  5
1AB7
330
1E
100
AcDbEntity
  8
0
100
AcDbLine
 10
317.2099999999999
 20
720.467
 30
0.0
 11
317.2219999999999
 21
722.2519999999998
 31
0.0
  0
LINE
  5
1AB8
330
1E
100
AcDbEntity
  8
0
100
AcDbLine
 10
317.2219999999999
 20
722.2519999999998
 30
0.0
 11
317.238
 21
723.8049999999998
 31
0.0
  0
LINE
  5
1AB9
330
1E
100
AcDbEntity
  8
0
100
AcDbLine
 10
316.1069999999999
 20
716.172
 30
0.0
 11
316.48
 21
717.026
 31
0.0
  0
LINE
  5
1ABA
330
1E
100
AcDbEntity
  8
0
100
AcDbLine
 10
317.2079999999998
 20
720.2669999999998
 30
0.0
 11
317.2099999999999
 21
720.467
 31
0.0
  0
LINE
  5
1ABB
330
1E
100
AcDbEntity
  8
0
100
AcDbLine
 10
317.151
 20
719.3010000000001
 30
0.0
 11
317.187
 21
719.5769999999998
 31
0.0
  0
LINE
  5
1ABC
330
1E
100
AcDbEntity
  8
0
100
AcDbLine
 10
317.187
 20
719.5769999999998
 30
0.0
 11
317.2079999999998
 21
720.2669999999998
 31
0.0
  0
LINE
  5
1ABD
330
1E
100
AcDbEntity
  8
0
100
AcDbLine
 10
316.4929999999999
 20
717.061
 30
0.0
 11
316.7989999999999
 21
717.87
 31
0.0
  0
LINE
  5
1ABE
330
1E
100
AcDbEntity
  8
0
100
AcDbLine
 10
316.7989999999999
 20
717.87
 30
0.0
 11
317.0149999999998
 21
718.6039999999998
 31
0.0
  0
LINE
  5
1ABF
330
1E
100
AcDbEntity
  8
0
100
AcDbLine
 10
317.0149999999998
 20
718.6039999999998
 30
0.0
 11
317.102
 21
719.0439999999998
 31
0.0
  0
LINE
  5
1AC0
330
1E
100
AcDbEntity
  8
0
100
AcDbLine
 10
317.102
 20
719.0439999999998
 30
0.0
 11
317.151
 21
719.3010000000001
 31
0.0
  0
LINE
  5
1AC1
330
1E
100
AcDbEntity
  8
0
100
AcDbLine
 10
315.6399999999998
 20
715.2589999999999
 30
0.0
 11
316.1069999999999
 21
716.172
 31
0.0
  0
LINE
  5
1AC2
330
1E
100
AcDbEntity
  8
0
100
AcDbLine
 10
311.19
 20
713.595
 30
0.0
 11
311.4669999999999
 21
714.432
 31
0.0
  0
LINE
  5
1AC3
330
1E
100
AcDbEntity
  8
0
100
AcDbLine
 10
311.4669999999999
 20
714.432
 30
0.0
 11
311.528
 21
715.2669999999998
 31
0.0
  0
LINE
  5
1AC4
330
1E
100
AcDbEntity
  8
0
100
AcDbLine
 10
311.3669999999999
 20
716.085
 30
0.0
 11
311.528
 21
715.2669999999998
 31
0.0
  0
LINE
  5
1AC5
330
1E
100
AcDbEntity
  8
0
100
AcDbLine
 10
310.909
 20
715.7039999999998
 30
0.0
 11
311.18440273347
 21
716.468550872022
 31
0.0
  0
LINE
  5
1AC6
330
1E
100
AcDbEntity
  8
0
100
AcDbLine
 10
310.055
 20
717.9719999999998
 30
0.0
 11
310.989
 21
716.8789999999996
 31
0.0
  0
LINE
  5
1AC7
330
1E
100
AcDbEntity
  8
0
100
AcDbLine
 10
310.989
 20
716.8789999999996
 30
0.0
 11
311.3669999999999
 21
716.085
 31
0.0
  0
LINE
  5
1AC8
330
1E
100
AcDbEntity
  8
0
100
AcDbLine
 10
308.6939999999999
 20
718.9619999999998
 30
0.0
 11
310.055
 21
717.9719999999998
 31
0.0
  0
LINE
  5
1AC9
330
1E
100
AcDbEntity
  8
0
100
AcDbLine
 10
306.9929999999999
 20
717.7979999999998
 30
0.0
 11
306.9929999999999
 21
712.5910975609757
 31
0.0
  0
LINE
  5
1ACA
330
1E
100
AcDbEntity
  8
0
100
AcDbLine
 10
306.9929999999999
 20
717.7979999999998
 30
0.0
 11
307.0
 21
717.6649999999998
 31
0.0
  0
LINE
  5
1ACB
330
1E
100
AcDbEntity
  8
0
100
AcDbLine
 10
307.0
 20
717.6649999999998
 30
0.0
 11
307.0
 21
712.5449999999999
 31
0.0
  0
LINE
  5
1ACC
330
1E
100
AcDbEntity
  8
0
100
AcDbLine
 10
307.0
 20
717.9319999999998
 30
0.0
 11
307.0
 21
712.5449999999999
 31
0.0
  0
LINE
  5
1ACD
330
1E
100
AcDbEntity
  8
0
100
AcDbLine
 10
309.5099999999999
 20
714.1319999999998
 30
0.0
 11
310.909
 21
715.7039999999998
 31
0.0
  0
LINE
  5
1ACE
330
1E
100
AcDbEntity
  8
0
100
AcDbLine
 10
307.382
 20
712.743
 30
0.0
 11
309.5099999999999
 21
714.1319999999998
 31
0.0
  0
LINE
  5
1ACF
330
1E
100
AcDbEntity
  8
0
100
AcDbLine
 10
306.9929999999999
 20
712.5910975609757
 30
0.0
 11
306.9929999999999
 21
717.7979999999998
 31
0.0
  0
LINE
  5
1AD0
330
1E
100
AcDbEntity
  8
0
100
AcDbLine
 10
310.4779999999999
 20
712.485
 30
0.0
 11
311.19
 21
713.595
 31
0.0
  0
LINE
  5
1AD1
330
1E
100
AcDbEntity
  8
0
100
AcDbLine
 10
313.794
 20
712.526
 30
0.0
 11
314.786
 21
713.841
 31
0.0
  0
LINE
  5
1AD2
330
1E
100
AcDbEntity
  8
0
100
AcDbLine
 10
311.7029999999999
 20
710.508
 30
0.0
 11
312.734
 21
711.3989999999996
 31
0.0
  0
LINE
  5
1AD3
330
1E
100
AcDbEntity
  8
0
100
AcDbLine
 10
312.734
 20
711.3989999999996
 30
0.0
 11
313.794
 21
712.526
 31
0.0
  0
LINE
  5
1AD4
330
1E
100
AcDbEntity
  8
0
100
AcDbLine
 10
309.397
 20
711.4199999999998
 30
0.0
 11
310.4779999999999
 21
712.485
 31
0.0
  0
LINE
  5
1AD5
330
1E
100
AcDbEntity
  8
0
100
AcDbLine
 10
307.0
 20
712.5449999999999
 30
0.0
 11
307.0
 21
717.9319999999998
 31
0.0
  0
LINE
  5
1AD6
330
1E
100
AcDbEntity
  8
0
100
AcDbLine
 10
307.0
 20
712.5449999999999
 30
0.0
 11
307.0
 21
717.6649999999998
 31
0.0
  0
LINE
  5
1AD7
330
1E
100
AcDbEntity
  8
0
100
AcDbLine
 10
307.0
 20
712.5449999999999
 30
0.0
 11
307.0
 21
712.2769999999998
 31
0.0
  0
LINE
  5
1AD8
330
1E
100
AcDbEntity
  8
0
100
AcDbLine
 10
307.0
 20
712.2769999999998
 30
0.0
 11
307.0
 21
712.5449999999999
 31
0.0
  0
LINE
  5
1AD9
330
1E
100
AcDbEntity
  8
0
100
AcDbLine
 10
306.9929999999999
 20
712.5635111111108
 30
0.0
 11
306.9929999999999
 21
712.4110000000001
 31
0.0
  0
LINE
  5
1ADA
330
1E
100
AcDbEntity
  8
0
100
AcDbLine
 10
306.9929999999999
 20
712.4110000000001
 30
0.0
 11
307.0
 21
712.5449999999999
 31
0.0
  0
LINE
  5
1ADB
330
1E
100
AcDbEntity
  8
0
100
AcDbLine
 10
306.9929999999999
 20
712.4110000000001
 30
0.0
 11
306.9929999999999
 21
712.5635111111108
 31
0.0
  0
LINE
  5
1ADC
330
1E
100
AcDbEntity
  8
0
100
AcDbLine
 10
309.683
 20
709.1149999999999
 30
0.0
 11
311.7029999999999
 21
710.508
 31
0.0
  0
LINE
  5
1ADD
330
1E
100
AcDbEntity
  8
0
100
AcDbLine
 10
307.9749999999999
 20
710.431
 30
0.0
 11
309.397
 21
711.4199999999998
 31
0.0
  0
LINE
  5
1ADE
330
1E
100
AcDbEntity
  8
0
100
AcDbLine
 10
307.3869999999999
 20
707.9199999999998
 30
0.0
 11
309.683
 21
709.1149999999999
 31
0.0
  0
LINE
  5
1ADF
330
1E
100
AcDbEntity
  8
0
100
AcDbLine
 10
306.134
 20
709.493
 30
0.0
 11
307.9749999999999
 21
710.431
 31
0.0
  0
LINE
  5
1AE0
330
1E
100
AcDbEntity
  8
0
100
AcDbLine
 10
306.2566893813119
 20
719.8612684985858
 30
0.0
 11
306.5701035607538
 21
719.9602194691651
 31
0.0
  0
LINE
  5
1AE1
330
1E
100
AcDbEntity
  8
0
100
AcDbLine
 10
306.9179999999998
 20
711.7369999999998
 30
0.0
 11
307.0
 21
712.2769999999998
 31
0.0
  0
LINE
  5
1AE2
330
1E
100
AcDbEntity
  8
0
100
AcDbLine
 10
306.865
 20
718.6489999999999
 30
0.0
 11
306.9179999999998
 21
718.4730000000001
 31
0.0
  0
LINE
  5
1AE3
330
1E
100
AcDbEntity
  8
0
100
AcDbLine
 10
306.6759999999999
 20
719.179
 30
0.0
 11
306.865
 21
718.6489999999999
 31
0.0
  0
LINE
  5
1AE4
330
1E
100
AcDbEntity
  8
0
100
AcDbLine
 10
306.9179999999998
 20
718.4730000000001
 30
0.0
 11
307.0
 21
717.9319999999998
 31
0.0
  0
LINE
  5
1AE5
330
1E
100
AcDbEntity
  8
0
100
AcDbLine
 10
306.383
 20
719.701
 30
0.0
 11
306.6759999999999
 21
719.179
 31
0.0
  0
LINE
  5
1AE6
330
1E
100
AcDbEntity
  8
0
100
AcDbLine
 10
306.6759999999999
 20
711.028
 30
0.0
 11
306.865
 21
711.561
 31
0.0
  0
LINE
  5
1AE7
330
1E
100
AcDbEntity
  8
0
100
AcDbLine
 10
306.865
 20
711.561
 30
0.0
 11
306.9179999999998
 21
711.7369999999998
 31
0.0
  0
LINE
  5
1AE8
330
1E
100
AcDbEntity
  8
0
100
AcDbLine
 10
306.383
 20
710.508
 30
0.0
 11
306.6759999999999
 21
711.028
 31
0.0
  0
LINE
  5
1AE9
330
1E
100
AcDbEntity
  8
0
100
AcDbLine
 10
305.052
 20
720.493
 30
0.0
 11
306.9439999999999
 21
719.8289999999998
 31
0.0
  0
LINE
  5
1AEA
330
1E
100
AcDbEntity
  8
0
100
AcDbLine
 10
305.489
 20
709.5189999999996
 30
0.0
 11
305.985
 21
710.003
 31
0.0
  0
LINE
  5
1AEB
330
1E
100
AcDbEntity
  8
0
100
AcDbLine
 10
305.985
 20
710.003
 30
0.0
 11
306.383
 21
710.508
 31
0.0
  0
LINE
  5
1AEC
330
1E
100
AcDbEntity
  8
0
100
AcDbLine
 10
306.029054850489
 20
720.1501012575448
 30
0.0
 11
306.383
 21
719.701
 31
0.0
  0
LINE
  5
1AED
330
1E
100
AcDbEntity
  8
0
100
AcDbLine
 10
305.1079999999999
 20
711.286
 30
0.0
 11
305.22
 21
711.775
 31
0.0
  0
LINE
  5
1AEE
330
1E
100
AcDbEntity
  8
0
100
AcDbLine
 10
305.22
 20
711.775
 30
0.0
 11
305.224
 21
712.0519999999999
 31
0.0
  0
LINE
  5
1AEF
330
1E
100
AcDbEntity
  8
0
100
AcDbLine
 10
305.172
 20
711.547
 30
0.0
 11
305.172
 21
712.5401428571429
 31
0.0
  0
LINE
  5
1AF0
330
1E
100
AcDbEntity
  8
0
100
AcDbLine
 10
305.172
 20
712.5401428571429
 30
0.0
 11
305.172
 21
711.547
 31
0.0
  0
LINE
  5
1AF1
330
1E
100
AcDbEntity
  8
0
100
AcDbLine
 10
305.22
 20
712.331
 30
0.0
 11
305.224
 21
712.0519999999999
 31
0.0
  0
LINE
  5
1AF2
330
1E
100
AcDbEntity
  8
0
100
AcDbLine
 10
305.1079999999999
 20
712.8189999999998
 30
0.0
 11
305.22
 21
712.331
 31
0.0
  0
LINE
  5
1AF3
330
1E
100
AcDbEntity
  8
0
100
AcDbLine
 10
304.1609999999999
 20
709.8860000000001
 30
0.0
 11
304.576
 21
710.3369999999999
 31
0.0
  0
LINE
  5
1AF4
330
1E
100
AcDbEntity
  8
0
100
AcDbLine
 10
304.576
 20
710.3369999999999
 30
0.0
 11
304.893
 21
710.8039999999999
 31
0.0
  0
LINE
  5
1AF5
330
1E
100
AcDbEntity
  8
0
100
AcDbLine
 10
304.893
 20
710.8039999999999
 30
0.0
 11
305.1079999999999
 21
711.286
 31
0.0
  0
LINE
  5
1AF6
330
1E
100
AcDbEntity
  8
0
100
AcDbLine
 10
304.99
 20
711.0389999999998
 30
0.0
 11
305.172
 21
711.547
 31
0.0
  0
LINE
  5
1AF7
330
1E
100
AcDbEntity
  8
0
100
AcDbLine
 10
304.893
 20
713.2989999999998
 30
0.0
 11
305.1079999999999
 21
712.8189999999998
 31
0.0
  0
LINE
  5
1AF8
330
1E
100
AcDbEntity
  8
0
100
AcDbLine
 10
304.6979999999998
 20
713.653
 30
0.0
 11
304.99
 21
713.1549999999999
 31
0.0
  0
LINE
  5
1AF9
330
1E
100
AcDbEntity
  8
0
100
AcDbLine
 10
304.99
 20
713.1549999999999
 30
0.0
 11
305.172
 21
712.6469999999998
 31
0.0
  0
LINE
  5
1AFA
330
1E
100
AcDbEntity
  8
0
100
AcDbLine
 10
304.6979999999998
 20
710.5419999999996
 30
0.0
 11
304.99
 21
711.0389999999998
 31
0.0
  0
LINE
  5
1AFB
330
1E
100
AcDbEntity
  8
0
100
AcDbLine
 10
303.748
 20
711.547
 30
0.0
 11
303.748
 21
712.6469999999998
 31
0.0
  0
LINE
  5
1AFC
330
1E
100
AcDbEntity
  8
0
100
AcDbLine
 10
303.748
 20
711.547
 30
0.0
 11
305.172
 21
711.547
 31
0.0
  0
LINE
  5
1AFD
330
1E
100
AcDbEntity
  8
0
100
AcDbLine
 10
303.748
 20
712.6469999999998
 30
0.0
 11
305.172
 21
712.6469999999998
 31
0.0
  0
LINE
  5
1AFE
330
1E
100
AcDbEntity
  8
0
100
AcDbLine
 10
303.748
 20
712.6469999999998
 30
0.0
 11
303.748
 21
711.547
 31
0.0
  0
LINE
  5
1AFF
330
1E
100
AcDbEntity
  8
0
100
AcDbLine
 10
304.1609999999999
 20
714.2189999999998
 30
0.0
 11
304.576
 21
713.768
 31
0.0
  0
LINE
  5
1B00
330
1E
100
AcDbEntity
  8
0
100
AcDbLine
 10
303.7849999999998
 20
714.5869999999998
 30
0.0
 11
304.2939999999999
 21
714.131
 31
0.0
  0
LINE
  5
1B01
330
1E
100
AcDbEntity
  8
0
100
AcDbLine
 10
304.576
 20
713.768
 30
0.0
 11
304.893
 21
713.2989999999998
 31
0.0
  0
LINE
  5
1B02
330
1E
100
AcDbEntity
  8
0
100
AcDbLine
 10
304.2939999999999
 20
714.131
 30
0.0
 11
304.6979999999998
 21
713.653
 31
0.0
  0
LINE
  5
1B03
330
1E
100
AcDbEntity
  8
0
100
AcDbLine
 10
303.6509999999999
 20
714.6460000000001
 30
0.0
 11
304.1609999999999
 21
714.2189999999998
 31
0.0
  0
LINE
  5
1B04
330
1E
100
AcDbEntity
  8
0
100
AcDbLine
 10
303.1779999999999
 20
715.016
 30
0.0
 11
303.7849999999998
 21
714.5869999999998
 31
0.0
  0
LINE
  5
1B05
330
1E
100
AcDbEntity
  8
0
100
AcDbLine
 10
303.58
 20
713.076
 30
0.0
 11
303.748
 21
712.6469999999998
 31
0.0
  0
LINE
  5
1B06
330
1E
100
AcDbEntity
  8
0
100
AcDbLine
 10
303.3179999999999
 20
713.4939999999998
 30
0.0
 11
303.58
 21
713.076
 31
0.0
  0
LINE
  5
1B07
330
1E
100
AcDbEntity
  8
0
100
AcDbLine
 10
304.2939999999999
 20
710.0629999999998
 30
0.0
 11
304.6979999999998
 21
710.5419999999996
 31
0.0
  0
LINE
  5
1B08
330
1E
100
AcDbEntity
  8
0
100
AcDbLine
 10
303.58
 20
711.118
 30
0.0
 11
303.748
 21
711.547
 31
0.0
  0
LINE
  5
1B09
330
1E
100
AcDbEntity
  8
0
100
AcDbLine
 10
303.3179999999999
 20
710.7
 30
0.0
 11
303.58
 21
711.118
 31
0.0
  0
LINE
  5
1B0A
330
1E
100
AcDbEntity
  8
0
100
AcDbLine
 10
303.7849999999998
 20
709.607
 30
0.0
 11
304.2939999999999
 21
710.0629999999998
 31
0.0
  0
LINE
  5
1B0B
330
1E
100
AcDbEntity
  8
0
100
AcDbLine
 10
297.7389999999999
 20
721.715
 30
0.0
 11
300.4059999999999
 21
721.457
 31
0.0
  0
LINE
  5
1B0C
330
1E
100
AcDbEntity
  8
0
100
AcDbLine
 10
300.4059999999999
 20
721.457
 30
0.0
 11
302.927
 21
721.0299999999998
 31
0.0
  0
LINE
  5
1B0D
330
1E
100
AcDbEntity
  8
0
100
AcDbLine
 10
302.927
 20
721.0299999999998
 30
0.0
 11
305.052
 21
720.493
 31
0.0
  0
LINE
  5
1B0E
330
1E
100
AcDbEntity
  8
0
100
AcDbLine
 10
302.9659999999998
 20
710.297
 30
0.0
 11
303.3179999999999
 21
710.7
 31
0.0
  0
LINE
  5
1B0F
330
1E
100
AcDbEntity
  8
0
100
AcDbLine
 10
303.1359999999999
 20
713.081
 30
0.0
 11
303.376076690655
 21
713.4013432950609
 31
0.0
  0
LINE
  5
1B10
330
1E
100
AcDbEntity
  8
0
100
AcDbLine
 10
303.052
 20
715.0479999999999
 30
0.0
 11
303.6509999999999
 21
714.6460000000001
 31
0.0
  0
LINE
  5
1B11
330
1E
100
AcDbEntity
  8
0
100
AcDbLine
 10
302.9659999999998
 20
713.8969999999998
 30
0.0
 11
303.3179999999999
 21
713.4939999999998
 31
0.0
  0
LINE
  5
1B12
330
1E
100
AcDbEntity
  8
0
100
AcDbLine
 10
299.9059999999999
 20
716.3099999999998
 30
0.0
 11
300.7899999999999
 21
716.0519999999999
 31
0.0
  0
LINE
  5
1B13
330
1E
100
AcDbEntity
  8
0
100
AcDbLine
 10
299.9059999999999
 20
716.355
 30
0.0
 11
300.8319999999999
 21
716.0839999999998
 31
0.0
  0
LINE
  5
1B14
330
1E
100
AcDbEntity
  8
0
100
AcDbLine
 10
300.7899999999999
 20
716.0519999999999
 30
0.0
 11
301.615
 21
715.7549999999998
 31
0.0
  0
LINE
  5
1B15
330
1E
100
AcDbEntity
  8
0
100
AcDbLine
 10
301.615
 20
715.7549999999998
 30
0.0
 11
302.372
 21
715.418
 31
0.0
  0
LINE
  5
1B16
330
1E
100
AcDbEntity
  8
0
100
AcDbLine
 10
300.8319999999999
 20
716.0839999999998
 30
0.0
 11
301.6929999999999
 21
715.7669999999998
 31
0.0
  0
LINE
  5
1B17
330
1E
100
AcDbEntity
  8
0
100
AcDbLine
 10
301.6929999999999
 20
715.7669999999998
 30
0.0
 11
302.4779999999999
 21
715.4110000000001
 31
0.0
  0
LINE
  5
1B18
330
1E
100
AcDbEntity
  8
0
100
AcDbLine
 10
302.372
 20
715.418
 30
0.0
 11
303.052
 21
715.0479999999999
 31
0.0
  0
LINE
  5
1B19
330
1E
100
AcDbEntity
  8
0
100
AcDbLine
 10
302.4779999999999
 20
715.4110000000001
 30
0.0
 11
303.1779999999999
 21
715.016
 31
0.0
  0
LINE
  5
1B1A
330
1E
100
AcDbEntity
  8
0
100
AcDbLine
 10
302.5259999999999
 20
714.2799999999998
 30
0.0
 11
302.9659999999998
 21
713.8969999999998
 31
0.0
  0
LINE
  5
1B1B
330
1E
100
AcDbEntity
  8
0
100
AcDbLine
 10
301.4089999999999
 20
714.973
 30
0.0
 11
302.0059999999998
 21
714.6389999999999
 31
0.0
  0
LINE
  5
1B1C
330
1E
100
AcDbEntity
  8
0
100
AcDbLine
 10
302.0059999999998
 20
714.6389999999999
 30
0.0
 11
302.5259999999999
 21
714.2799999999998
 31
0.0
  0
LINE
  5
1B1D
330
1E
100
AcDbEntity
  8
0
100
AcDbLine
 10
300.7419999999999
 20
715.2719999999998
 30
0.0
 11
301.4089999999999
 21
714.973
 31
0.0
  0
LINE
  5
1B1E
330
1E
100
AcDbEntity
  8
0
100
AcDbLine
 10
300.013
 20
715.5389999999998
 30
0.0
 11
300.7419999999999
 21
715.2719999999998
 31
0.0
  0
LINE
  5
1B1F
330
1E
100
AcDbEntity
  8
0
100
AcDbLine
 10
297.9959999999998
 20
716.691
 30
0.0
 11
298.9719999999999
 21
716.5239999999998
 31
0.0
  0
LINE
  5
1B20
330
1E
100
AcDbEntity
  8
0
100
AcDbLine
 10
297.964
 20
716.7410000000001
 30
0.0
 11
298.9559999999999
 21
716.572
 31
0.0
  0
LINE
  5
1B21
330
1E
100
AcDbEntity
  8
0
100
AcDbLine
 10
298.9719999999999
 20
716.5239999999998
 30
0.0
 11
299.9059999999999
 21
716.3099999999998
 31
0.0
  0
LINE
  5
1B22
330
1E
100
AcDbEntity
  8
0
100
AcDbLine
 10
299.229
 20
715.7669999999998
 30
0.0
 11
300.013
 21
715.5389999999998
 31
0.0
  0
LINE
  5
1B23
330
1E
100
AcDbEntity
  8
0
100
AcDbLine
 10
298.9559999999999
 20
716.572
 30
0.0
 11
299.9059999999999
 21
716.355
 31
0.0
  0
LINE
  5
1B24
330
1E
100
AcDbEntity
  8
0
100
AcDbLine
 10
298.3199999999999
 20
715.973
 30
0.0
 11
299.229
 21
715.7669999999998
 31
0.0
  0
LINE
  5
1B25
330
1E
100
AcDbEntity
  8
0
100
AcDbLine
 10
298.335
 20
710.8279999999998
 30
0.0
 11
299.229
 21
711.0289999999999
 31
0.0
  0
LINE
  5
1B26
330
1E
100
AcDbEntity
  8
0
100
AcDbLine
 10
299.229
 20
711.0289999999999
 30
0.0
 11
300.0699999999999
 21
711.2769999999998
 31
0.0
  0
LINE
  5
1B27
330
1E
100
AcDbEntity
  8
0
100
AcDbLine
 10
300.8479999999999
 20
711.568
 30
0.0
 11
301.5509999999999
 21
711.8989999999999
 31
0.0
  0
LINE
  5
1B28
330
1E
100
AcDbEntity
  8
0
100
AcDbLine
 10
301.5509999999999
 20
711.8989999999999
 30
0.0
 11
302.1709999999999
 21
712.2639999999996
 31
0.0
  0
LINE
  5
1B29
330
1E
100
AcDbEntity
  8
0
100
AcDbLine
 10
302.1709999999999
 20
712.2639999999996
 30
0.0
 11
302.7019999999998
 21
712.6599999999999
 31
0.0
  0
LINE
  5
1B2A
330
1E
100
AcDbEntity
  8
0
100
AcDbLine
 10
302.7019999999998
 20
712.6599999999999
 30
0.0
 11
303.1359999999999
 21
713.081
 31
0.0
  0
LINE
  5
1B2B
330
1E
100
AcDbEntity
  8
0
100
AcDbLine
 10
300.0699999999999
 20
711.2769999999998
 30
0.0
 11
300.8479999999999
 21
711.568
 31
0.0
  0
LINE
  5
1B2C
330
1E
100
AcDbEntity
  8
0
100
AcDbLine
 10
302.5259999999999
 20
709.914
 30
0.0
 11
302.9659999999998
 21
710.297
 31
0.0
  0
LINE
  5
1B2D
330
1E
100
AcDbEntity
  8
0
100
AcDbLine
 10
302.0059999999998
 20
709.5539999999998
 30
0.0
 11
302.5259999999999
 21
709.914
 31
0.0
  0
LINE
  5
1B2E
330
1E
100
AcDbEntity
  8
0
100
AcDbLine
 10
295.964
 20
716.883
 30
0.0
 11
296.991
 21
716.812
 31
0.0
  0
LINE
  5
1B2F
330
1E
100
AcDbEntity
  8
0
100
AcDbLine
 10
295.8959999999999
 20
716.9299999999998
 30
0.0
 11
296.9409999999999
 21
716.8610000000001
 31
0.0
  0
LINE
  5
1B30
330
1E
100
AcDbEntity
  8
0
100
AcDbLine
 10
296.991
 20
716.812
 30
0.0
 11
297.9959999999998
 21
716.691
 31
0.0
  0
LINE
  5
1B31
330
1E
100
AcDbEntity
  8
0
100
AcDbLine
 10
297.3679999999999
 20
716.1260000000002
 30
0.0
 11
298.3199999999999
 21
715.973
 31
0.0
  0
LINE
  5
1B32
330
1E
100
AcDbEntity
  8
0
100
AcDbLine
 10
296.9409999999999
 20
716.8610000000001
 30
0.0
 11
297.964
 21
716.7410000000001
 31
0.0
  0
LINE
  5
1B33
330
1E
100
AcDbEntity
  8
0
100
AcDbLine
 10
295.3829999999999
 20
716.276
 30
0.0
 11
296.3839999999999
 21
716.2280000000001
 31
0.0
  0
LINE
  5
1B34
330
1E
100
AcDbEntity
  8
0
100
AcDbLine
 10
296.3839999999999
 20
716.2280000000001
 30
0.0
 11
297.3679999999999
 21
716.1260000000002
 31
0.0
  0
LINE
  5
1B35
330
1E
100
AcDbEntity
  8
0
100
AcDbLine
 10
295.449
 20
710.523
 30
0.0
 11
296.432
 21
710.5729999999998
 31
0.0
  0
LINE
  5
1B36
330
1E
100
AcDbEntity
  8
0
100
AcDbLine
 10
296.432
 20
710.5729999999998
 30
0.0
 11
297.3989999999998
 21
710.676
 31
0.0
  0
LINE
  5
1B37
330
1E
100
AcDbEntity
  8
0
100
AcDbLine
 10
297.3989999999998
 20
710.676
 30
0.0
 11
298.335
 21
710.8279999999998
 31
0.0
  0
LINE
  5
1B38
330
1E
100
AcDbEntity
  8
0
100
AcDbLine
 10
304.7789999999999
 20
706.945
 30
0.0
 11
307.3869999999999
 21
707.9199999999998
 31
0.0
  0
LINE
  5
1B39
330
1E
100
AcDbEntity
  8
0
100
AcDbLine
 10
304.829869295684
 20
709.0091309442867
 30
0.0
 11
306.134
 21
709.493
 31
0.0
  0
LINE
  5
1B3A
330
1E
100
AcDbEntity
  8
0
100
AcDbLine
 10
304.8959999999999
 20
709.0589999999998
 30
0.0
 11
305.489
 21
709.5189999999996
 31
0.0
  0
LINE
  5
1B3B
330
1E
100
AcDbEntity
  8
0
100
AcDbLine
 10
301.8339999999999
 20
706.212
 30
0.0
 11
302.678
 21
706.4160000000001
 31
0.0
  0
LINE
  5
1B3C
330
1E
100
AcDbEntity
  8
0
100
AcDbLine
 10
302.678
 20
706.4160000000001
 30
0.0
 11
304.7789999999999
 21
706.945
 31
0.0
  0
LINE
  5
1B3D
330
1E
100
AcDbEntity
  8
0
100
AcDbLine
 10
303.052
 20
709.057
 30
0.0
 11
303.6509999999999
 21
709.4589999999998
 31
0.0
  0
LINE
  5
1B3E
330
1E
100
AcDbEntity
  8
0
100
AcDbLine
 10
303.6509999999999
 20
709.4589999999998
 30
0.0
 11
304.1609999999999
 21
709.8860000000001
 31
0.0
  0
LINE
  5
1B3F
330
1E
100
AcDbEntity
  8
0
100
AcDbLine
 10
303.346
 20
708.1469999999998
 30
0.0
 11
304.1009999999999
 21
708.5399999999999
 31
0.0
  0
LINE
  5
1B40
330
1E
100
AcDbEntity
  8
0
100
AcDbLine
 10
304.1009999999999
 20
708.5399999999999
 30
0.0
 11
304.7739999999998
 21
708.9669999999999
 31
0.0
  0
LINE
  5
1B41
330
1E
100
AcDbEntity
  8
0
100
AcDbLine
 10
304.7739999999998
 20
708.9669999999999
 30
0.0
 11
304.8959999999999
 21
709.0589999999998
 31
0.0
  0
LINE
  5
1B42
330
1E
100
AcDbEntity
  8
0
100
AcDbLine
 10
303.1779999999999
 20
709.1789999999998
 30
0.0
 11
303.7849999999998
 21
709.607
 31
0.0
  0
LINE
  5
1B43
330
1E
100
AcDbEntity
  8
0
100
AcDbLine
 10
302.514
 20
707.788
 30
0.0
 11
303.346
 21
708.1469999999998
 31
0.0
  0
LINE
  5
1B44
330
1E
100
AcDbEntity
  8
0
100
AcDbLine
 10
302.372
 20
708.6849999999998
 30
0.0
 11
303.052
 21
709.057
 31
0.0
  0
LINE
  5
1B45
330
1E
100
AcDbEntity
  8
0
100
AcDbLine
 10
302.4779999999999
 20
708.7839999999999
 30
0.0
 11
303.1779999999999
 21
709.1789999999998
 31
0.0
  0
LINE
  5
1B46
330
1E
100
AcDbEntity
  8
0
100
AcDbLine
 10
300.3149999999999
 20
705.9719999999998
 30
0.0
 11
301.8339999999999
 21
706.212
 31
0.0
  0
LINE
  5
1B47
330
1E
100
AcDbEntity
  8
0
100
AcDbLine
 10
301.615
 20
707.4689999999998
 30
0.0
 11
302.514
 21
707.788
 31
0.0
  0
LINE
  5
1B48
330
1E
100
AcDbEntity
  8
0
100
AcDbLine
 10
301.6929999999999
 20
708.426
 30
0.0
 11
302.4779999999999
 21
708.7839999999999
 31
0.0
  0
LINE
  5
1B49
330
1E
100
AcDbEntity
  8
0
100
AcDbLine
 10
300.6559999999999
 20
707.192
 30
0.0
 11
301.615
 21
707.4689999999998
 31
0.0
  0
LINE
  5
1B4A
330
1E
100
AcDbEntity
  8
0
100
AcDbLine
 10
299.9059999999999
 20
707.7939999999999
 30
0.0
 11
300.7899999999999
 21
708.051
 31
0.0
  0
LINE
  5
1B4B
330
1E
100
AcDbEntity
  8
0
100
AcDbLine
 10
300.7899999999999
 20
708.051
 30
0.0
 11
301.615
 21
708.3489999999998
 31
0.0
  0
LINE
  5
1B4C
330
1E
100
AcDbEntity
  8
0
100
AcDbLine
 10
301.615
 20
708.3489999999998
 30
0.0
 11
302.372
 21
708.6849999999998
 31
0.0
  0
LINE
  5
1B4D
330
1E
100
AcDbEntity
  8
0
100
AcDbLine
 10
300.8319999999999
 20
708.11
 30
0.0
 11
301.6929999999999
 21
708.426
 31
0.0
  0
LINE
  5
1B4E
330
1E
100
AcDbEntity
  8
0
100
AcDbLine
 10
300.7419999999999
 20
708.921
 30
0.0
 11
301.4089999999999
 21
709.222
 31
0.0
  0
LINE
  5
1B4F
330
1E
100
AcDbEntity
  8
0
100
AcDbLine
 10
301.4089999999999
 20
709.222
 30
0.0
 11
302.0059999999998
 21
709.5539999999998
 31
0.0
  0
LINE
  5
1B50
330
1E
100
AcDbEntity
  8
0
100
AcDbLine
 10
300.013
 20
708.6549999999999
 30
0.0
 11
300.7419999999999
 21
708.921
 31
0.0
  0
LINE
  5
1B51
330
1E
100
AcDbEntity
  8
0
100
AcDbLine
 10
297.9959999999998
 20
707.413
 30
0.0
 11
298.9719999999999
 21
707.5809999999998
 31
0.0
  0
LINE
  5
1B52
330
1E
100
AcDbEntity
  8
0
100
AcDbLine
 10
298.9719999999999
 20
707.5809999999998
 30
0.0
 11
299.9059999999999
 21
707.7939999999999
 31
0.0
  0
LINE
  5
1B53
330
1E
100
AcDbEntity
  8
0
100
AcDbLine
 10
299.9059999999999
 20
707.84
 30
0.0
 11
300.8319999999999
 21
708.11
 31
0.0
  0
LINE
  5
1B54
330
1E
100
AcDbEntity
  8
0
100
AcDbLine
 10
299.229
 20
708.426
 30
0.0
 11
300.013
 21
708.6549999999999
 31
0.0
  0
LINE
  5
1B55
330
1E
100
AcDbEntity
  8
0
100
AcDbLine
 10
298.9559999999999
 20
707.623
 30
0.0
 11
299.9059999999999
 21
707.84
 31
0.0
  0
LINE
  5
1B56
330
1E
100
AcDbEntity
  8
0
100
AcDbLine
 10
298.3199999999999
 20
708.2219999999998
 30
0.0
 11
299.229
 21
708.426
 31
0.0
  0
LINE
  5
1B57
330
1E
100
AcDbEntity
  8
0
100
AcDbLine
 10
297.964
 20
707.4529999999998
 30
0.0
 11
298.9559999999999
 21
707.623
 31
0.0
  0
LINE
  5
1B58
330
1E
100
AcDbEntity
  8
0
100
AcDbLine
 10
298.594
 20
706.773
 30
0.0
 11
299.6459999999999
 21
706.9589999999998
 31
0.0
  0
LINE
  5
1B59
330
1E
100
AcDbEntity
  8
0
100
AcDbLine
 10
299.6459999999999
 20
706.9589999999998
 30
0.0
 11
300.6559999999999
 21
707.192
 31
0.0
  0
LINE
  5
1B5A
330
1E
100
AcDbEntity
  8
0
100
AcDbLine
 10
297.5079999999999
 20
706.6360000000001
 30
0.0
 11
298.594
 21
706.773
 31
0.0
  0
LINE
  5
1B5B
330
1E
100
AcDbEntity
  8
0
100
AcDbLine
 10
295.964
 20
707.2219999999998
 30
0.0
 11
296.991
 21
707.293
 31
0.0
  0
LINE
  5
1B5C
330
1E
100
AcDbEntity
  8
0
100
AcDbLine
 10
296.991
 20
707.293
 30
0.0
 11
297.9959999999998
 21
707.413
 31
0.0
  0
LINE
  5
1B5D
330
1E
100
AcDbEntity
  8
0
100
AcDbLine
 10
297.3679999999999
 20
708.068
 30
0.0
 11
298.3199999999999
 21
708.2219999999998
 31
0.0
  0
LINE
  5
1B5E
330
1E
100
AcDbEntity
  8
0
100
AcDbLine
 10
296.9409999999999
 20
707.3339999999998
 30
0.0
 11
297.964
 21
707.4529999999998
 31
0.0
  0
LINE
  5
1B5F
330
1E
100
AcDbEntity
  8
0
100
AcDbLine
 10
295.3829999999999
 20
707.918
 30
0.0
 11
296.3839999999999
 21
707.9659999999998
 31
0.0
  0
LINE
  5
1B60
330
1E
100
AcDbEntity
  8
0
100
AcDbLine
 10
296.3839999999999
 20
707.9659999999998
 30
0.0
 11
297.3679999999999
 21
708.068
 31
0.0
  0
LINE
  5
1B61
330
1E
100
AcDbEntity
  8
0
100
AcDbLine
 10
295.8959999999999
 20
707.2639999999998
 30
0.0
 11
296.9409999999999
 21
707.3339999999998
 31
0.0
  0
LINE
  5
1B62
330
1E
100
AcDbEntity
  8
0
100
AcDbLine
 10
295.2799999999999
 20
706.5089999999996
 30
0.0
 11
296.4
 21
706.547
 31
0.0
  0
LINE
  5
1B63
330
1E
100
AcDbEntity
  8
0
100
AcDbLine
 10
296.4
 20
706.547
 30
0.0
 11
297.5079999999999
 21
706.6360000000001
 31
0.0
  0
LINE
  5
1B64
330
1E
100
AcDbEntity
  8
0
100
AcDbLine
 10
298.547
 20
705.741
 30
0.0
 11
300.3149999999999
 21
705.9719999999998
 31
0.0
  0
LINE
  5
1B65
330
1E
100
AcDbEntity
  8
0
100
AcDbLine
 10
296.8039999999998
 20
705.6169999999999
 30
0.0
 11
298.547
 21
705.741
 31
0.0
  0
LINE
  5
1B66
330
1E
100
AcDbEntity
  8
0
100
AcDbLine
 10
293.1959999999999
 20
705.6169999999999
 30
0.0
 11
295.0
 21
705.5739999999998
 31
0.0
  0
LINE
  5
1B67
330
1E
100
AcDbEntity
  8
0
100
AcDbLine
 10
292.2609999999999
 20
721.715
 30
0.0
 11
295.0
 21
721.801
 31
0.0
  0
LINE
  5
1B68
330
1E
100
AcDbEntity
  8
0
100
AcDbLine
 10
295.0
 20
721.801
 30
0.0
 11
297.7389999999999
 21
721.715
 31
0.0
  0
LINE
  5
1B69
330
1E
100
AcDbEntity
  8
0
100
AcDbLine
 10
295.0
 20
706.5119999999998
 30
0.0
 11
295.2799999999999
 21
706.5089999999996
 31
0.0
  0
LINE
  5
1B6A
330
1E
100
AcDbEntity
  8
0
100
AcDbLine
 10
295.0
 20
707.202
 30
0.0
 11
295.964
 21
707.2219999999998
 31
0.0
  0
LINE
  5
1B6B
330
1E
100
AcDbEntity
  8
0
100
AcDbLine
 10
295.0
 20
707.248
 30
0.0
 11
295.8959999999999
 21
707.2639999999998
 31
0.0
  0
LINE
  5
1B6C
330
1E
100
AcDbEntity
  8
0
100
AcDbLine
 10
295.0
 20
707.921
 30
0.0
 11
295.3829999999999
 21
707.918
 31
0.0
  0
LINE
  5
1B6D
330
1E
100
AcDbEntity
  8
0
100
AcDbLine
 10
295.0
 20
710.5239999999996
 30
0.0
 11
295.449
 21
710.523
 31
0.0
  0
LINE
  5
1B6E
330
1E
100
AcDbEntity
  8
0
100
AcDbLine
 10
295.0
 20
716.9019999999997
 30
0.0
 11
295.964
 21
716.883
 31
0.0
  0
LINE
  5
1B6F
330
1E
100
AcDbEntity
  8
0
100
AcDbLine
 10
295.0
 20
716.945
 30
0.0
 11
295.8959999999999
 21
716.9299999999998
 31
0.0
  0
LINE
  5
1B70
330
1E
100
AcDbEntity
  8
0
100
AcDbLine
 10
295.0
 20
716.2729999999998
 30
0.0
 11
295.3829999999999
 21
716.276
 31
0.0
  0
LINE
  5
1B71
330
1E
100
AcDbEntity
  8
0
100
AcDbLine
 10
294.0359999999999
 20
716.883
 30
0.0
 11
295.0
 21
716.9019999999997
 31
0.0
  0
LINE
  5
1B72
330
1E
100
AcDbEntity
  8
0
100
AcDbLine
 10
294.104
 20
716.9299999999998
 30
0.0
 11
295.0
 21
716.945
 31
0.0
  0
LINE
  5
1B73
330
1E
100
AcDbEntity
  8
0
100
AcDbLine
 10
293.009
 20
716.812
 30
0.0
 11
294.0359999999999
 21
716.883
 31
0.0
  0
LINE
  5
1B74
330
1E
100
AcDbEntity
  8
0
100
AcDbLine
 10
293.0589999999999
 20
716.8610000000001
 30
0.0
 11
294.104
 21
716.9299999999998
 31
0.0
  0
LINE
  5
1B75
330
1E
100
AcDbEntity
  8
0
100
AcDbLine
 10
293.5679999999999
 20
710.5729999999998
 30
0.0
 11
294.5509999999999
 21
710.523
 31
0.0
  0
LINE
  5
1B76
330
1E
100
AcDbEntity
  8
0
100
AcDbLine
 10
294.6169999999999
 20
716.276
 30
0.0
 11
295.0
 21
716.2729999999998
 31
0.0
  0
LINE
  5
1B77
330
1E
100
AcDbEntity
  8
0
100
AcDbLine
 10
293.616
 20
716.2280000000001
 30
0.0
 11
294.6169999999999
 21
716.276
 31
0.0
  0
LINE
  5
1B78
330
1E
100
AcDbEntity
  8
0
100
AcDbLine
 10
292.6009999999998
 20
710.676
 30
0.0
 11
293.5679999999999
 21
710.5729999999998
 31
0.0
  0
LINE
  5
1B79
330
1E
100
AcDbEntity
  8
0
100
AcDbLine
 10
292.632
 20
716.1260000000002
 30
0.0
 11
293.616
 21
716.2280000000001
 31
0.0
  0
LINE
  5
1B7A
330
1E
100
AcDbEntity
  8
0
100
AcDbLine
 10
293.009
 20
707.293
 30
0.0
 11
294.0359999999999
 21
707.2219999999998
 31
0.0
  0
LINE
  5
1B7B
330
1E
100
AcDbEntity
  8
0
100
AcDbLine
 10
293.0589999999999
 20
707.3339999999998
 30
0.0
 11
294.104
 21
707.2639999999998
 31
0.0
  0
LINE
  5
1B7C
330
1E
100
AcDbEntity
  8
0
100
AcDbLine
 10
294.6169999999999
 20
707.918
 30
0.0
 11
295.0
 21
707.921
 31
0.0
  0
LINE
  5
1B7D
330
1E
100
AcDbEntity
  8
0
100
AcDbLine
 10
294.5509999999999
 20
710.523
 30
0.0
 11
295.0
 21
710.5239999999996
 31
0.0
  0
LINE
  5
1B7E
330
1E
100
AcDbEntity
  8
0
100
AcDbLine
 10
293.616
 20
707.9659999999998
 30
0.0
 11
294.6169999999999
 21
707.918
 31
0.0
  0
LINE
  5
1B7F
330
1E
100
AcDbEntity
  8
0
100
AcDbLine
 10
292.632
 20
708.068
 30
0.0
 11
293.616
 21
707.9659999999998
 31
0.0
  0
LINE
  5
1B80
330
1E
100
AcDbEntity
  8
0
100
AcDbLine
 10
294.104
 20
707.2639999999998
 30
0.0
 11
295.0
 21
707.248
 31
0.0
  0
LINE
  5
1B81
330
1E
100
AcDbEntity
  8
0
100
AcDbLine
 10
293.6
 20
706.547
 30
0.0
 11
294.72
 21
706.5089999999996
 31
0.0
  0
LINE
  5
1B82
330
1E
100
AcDbEntity
  8
0
100
AcDbLine
 10
292.4919999999999
 20
706.6360000000001
 30
0.0
 11
293.6
 21
706.547
 31
0.0
  0
LINE
  5
1B83
330
1E
100
AcDbEntity
  8
0
100
AcDbLine
 10
294.0359999999999
 20
707.2219999999998
 30
0.0
 11
295.0
 21
707.202
 31
0.0
  0
LINE
  5
1B84
330
1E
100
AcDbEntity
  8
0
100
AcDbLine
 10
294.72
 20
706.5089999999996
 30
0.0
 11
295.0
 21
706.5119999999998
 31
0.0
  0
LINE
  5
1B85
330
1E
100
AcDbEntity
  8
0
100
AcDbLine
 10
295.0
 20
705.5739999999998
 30
0.0
 11
296.8039999999998
 21
705.6169999999999
 31
0.0
  0
LINE
  5
1B86
330
1E
100
AcDbEntity
  8
0
100
AcDbLine
 10
281.3059999999999
 20
718.9619999999998
 30
0.0
 11
283.0559999999999
 21
719.8289999999998
 31
0.0
  0
LINE
  5
1B87
330
1E
100
AcDbEntity
  8
0
100
AcDbLine
 10
282.6179999999999
 20
712.743
 30
0.0
 11
283.0
 21
712.5850029101489
 31
0.0
  0
LINE
  5
1B88
330
1E
100
AcDbEntity
  8
0
100
AcDbLine
 10
283.4298964392459
 20
719.9602194691651
 30
0.0
 11
283.743310618688
 21
719.8612684985858
 31
0.0
  0
LINE
  5
1B89
330
1E
100
AcDbEntity
  8
0
100
AcDbLine
 10
289.594
 20
721.457
 30
0.0
 11
292.2609999999999
 21
721.715
 31
0.0
  0
LINE
  5
1B8A
330
1E
100
AcDbEntity
  8
0
100
AcDbLine
 10
292.004
 20
716.691
 30
0.0
 11
293.009
 21
716.812
 31
0.0
  0
LINE
  5
1B8B
330
1E
100
AcDbEntity
  8
0
100
AcDbLine
 10
292.0359999999999
 20
716.7410000000001
 30
0.0
 11
293.0589999999999
 21
716.8610000000001
 31
0.0
  0
LINE
  5
1B8C
330
1E
100
AcDbEntity
  8
0
100
AcDbLine
 10
291.68
 20
715.973
 30
0.0
 11
292.632
 21
716.1260000000002
 31
0.0
  0
LINE
  5
1B8D
330
1E
100
AcDbEntity
  8
0
100
AcDbLine
 10
291.0279999999999
 20
716.5239999999998
 30
0.0
 11
292.004
 21
716.691
 31
0.0
  0
LINE
  5
1B8E
330
1E
100
AcDbEntity
  8
0
100
AcDbLine
 10
291.0439999999999
 20
716.572
 30
0.0
 11
292.0359999999999
 21
716.7410000000001
 31
0.0
  0
LINE
  5
1B8F
330
1E
100
AcDbEntity
  8
0
100
AcDbLine
 10
290.094
 20
716.3099999999998
 30
0.0
 11
291.0279999999999
 21
716.5239999999998
 31
0.0
  0
LINE
  5
1B90
330
1E
100
AcDbEntity
  8
0
100
AcDbLine
 10
290.7709999999999
 20
715.7669999999998
 30
0.0
 11
291.68
 21
715.973
 31
0.0
  0
LINE
  5
1B91
330
1E
100
AcDbEntity
  8
0
100
AcDbLine
 10
290.094
 20
716.355
 30
0.0
 11
291.0439999999999
 21
716.572
 31
0.0
  0
LINE
  5
1B92
330
1E
100
AcDbEntity
  8
0
100
AcDbLine
 10
289.9869999999999
 20
715.5389999999998
 30
0.0
 11
290.7709999999999
 21
715.7669999999998
 31
0.0
  0
LINE
  5
1B93
330
1E
100
AcDbEntity
  8
0
100
AcDbLine
 10
287.0729999999998
 20
721.0299999999998
 30
0.0
 11
289.594
 21
721.457
 31
0.0
  0
LINE
  5
1B94
330
1E
100
AcDbEntity
  8
0
100
AcDbLine
 10
286.864
 20
713.081
 30
0.0
 11
287.298
 21
712.6599999999999
 31
0.0
  0
LINE
  5
1B95
330
1E
100
AcDbEntity
  8
0
100
AcDbLine
 10
289.21
 20
716.0519999999999
 30
0.0
 11
290.094
 21
716.3099999999998
 31
0.0
  0
LINE
  5
1B96
330
1E
100
AcDbEntity
  8
0
100
AcDbLine
 10
289.168
 20
716.0839999999998
 30
0.0
 11
290.094
 21
716.355
 31
0.0
  0
LINE
  5
1B97
330
1E
100
AcDbEntity
  8
0
100
AcDbLine
 10
288.3849999999999
 20
715.7549999999998
 30
0.0
 11
289.21
 21
716.0519999999999
 31
0.0
  0
LINE
  5
1B98
330
1E
100
AcDbEntity
  8
0
100
AcDbLine
 10
288.5909999999999
 20
714.973
 30
0.0
 11
289.2579999999999
 21
715.2719999999998
 31
0.0
  0
LINE
  5
1B99
330
1E
100
AcDbEntity
  8
0
100
AcDbLine
 10
289.2579999999999
 20
715.2719999999998
 30
0.0
 11
289.9869999999999
 21
715.5389999999998
 31
0.0
  0
LINE
  5
1B9A
330
1E
100
AcDbEntity
  8
0
100
AcDbLine
 10
287.6279999999999
 20
715.418
 30
0.0
 11
288.3849999999999
 21
715.7549999999998
 31
0.0
  0
LINE
  5
1B9B
330
1E
100
AcDbEntity
  8
0
100
AcDbLine
 10
288.307
 20
715.7669999999998
 30
0.0
 11
289.168
 21
716.0839999999998
 31
0.0
  0
LINE
  5
1B9C
330
1E
100
AcDbEntity
  8
0
100
AcDbLine
 10
286.9479999999999
 20
715.0479999999999
 30
0.0
 11
287.6279999999999
 21
715.418
 31
0.0
  0
LINE
  5
1B9D
330
1E
100
AcDbEntity
  8
0
100
AcDbLine
 10
287.522
 20
715.4110000000001
 30
0.0
 11
288.307
 21
715.7669999999998
 31
0.0
  0
LINE
  5
1B9E
330
1E
100
AcDbEntity
  8
0
100
AcDbLine
 10
287.994
 20
714.6389999999999
 30
0.0
 11
288.5909999999999
 21
714.973
 31
0.0
  0
LINE
  5
1B9F
330
1E
100
AcDbEntity
  8
0
100
AcDbLine
 10
287.034
 20
713.8969999999998
 30
0.0
 11
287.474
 21
714.2799999999998
 31
0.0
  0
LINE
  5
1BA0
330
1E
100
AcDbEntity
  8
0
100
AcDbLine
 10
287.474
 20
714.2799999999998
 30
0.0
 11
287.994
 21
714.6389999999999
 31
0.0
  0
LINE
  5
1BA1
330
1E
100
AcDbEntity
  8
0
100
AcDbLine
 10
284.9479999999998
 20
720.493
 30
0.0
 11
287.0729999999998
 21
721.0299999999998
 31
0.0
  0
LINE
  5
1BA2
330
1E
100
AcDbEntity
  8
0
100
AcDbLine
 10
286.6239233093449
 20
713.4013432950609
 30
0.0
 11
286.864
 21
713.081
 31
0.0
  0
LINE
  5
1BA3
330
1E
100
AcDbEntity
  8
0
100
AcDbLine
 10
286.349
 20
714.6460000000001
 30
0.0
 11
286.9479999999999
 21
715.0479999999999
 31
0.0
  0
LINE
  5
1BA4
330
1E
100
AcDbEntity
  8
0
100
AcDbLine
 10
286.8219999999999
 20
715.016
 30
0.0
 11
287.522
 21
715.4110000000001
 31
0.0
  0
LINE
  5
1BA5
330
1E
100
AcDbEntity
  8
0
100
AcDbLine
 10
286.682
 20
713.4939999999998
 30
0.0
 11
287.034
 21
713.8969999999998
 31
0.0
  0
LINE
  5
1BA6
330
1E
100
AcDbEntity
  8
0
100
AcDbLine
 10
285.839
 20
714.2189999999998
 30
0.0
 11
286.349
 21
714.6460000000001
 31
0.0
  0
LINE
  5
1BA7
330
1E
100
AcDbEntity
  8
0
100
AcDbLine
 10
286.2149999999999
 20
714.5869999999998
 30
0.0
 11
286.8219999999999
 21
715.016
 31
0.0
  0
LINE
  5
1BA8
330
1E
100
AcDbEntity
  8
0
100
AcDbLine
 10
285.4239999999999
 20
713.768
 30
0.0
 11
285.839
 21
714.2189999999998
 31
0.0
  0
LINE
  5
1BA9
330
1E
100
AcDbEntity
  8
0
100
AcDbLine
 10
285.7059999999999
 20
714.131
 30
0.0
 11
286.2149999999999
 21
714.5869999999998
 31
0.0
  0
LINE
  5
1BAA
330
1E
100
AcDbEntity
  8
0
100
AcDbLine
 10
285.302
 20
713.653
 30
0.0
 11
285.7059999999999
 21
714.131
 31
0.0
  0
LINE
  5
1BAB
330
1E
100
AcDbEntity
  8
0
100
AcDbLine
 10
285.1069999999999
 20
713.2989999999998
 30
0.0
 11
285.4239999999999
 21
713.768
 31
0.0
  0
LINE
  5
1BAC
330
1E
100
AcDbEntity
  8
0
100
AcDbLine
 10
286.4199999999999
 20
713.076
 30
0.0
 11
286.682
 21
713.4939999999998
 31
0.0
  0
LINE
  5
1BAD
330
1E
100
AcDbEntity
  8
0
100
AcDbLine
 10
285.0099999999999
 20
713.1549999999999
 30
0.0
 11
285.302
 21
713.653
 31
0.0
  0
LINE
  5
1BAE
330
1E
100
AcDbEntity
  8
0
100
AcDbLine
 10
283.6169999999999
 20
719.701
 30
0.0
 11
283.9709451495109
 21
720.1501012575448
 31
0.0
  0
LINE
  5
1BAF
330
1E
100
AcDbEntity
  8
0
100
AcDbLine
 10
284.8919999999999
 20
712.8189999999998
 30
0.0
 11
285.1069999999999
 21
713.2989999999998
 31
0.0
  0
LINE
  5
1BB0
330
1E
100
AcDbEntity
  8
0
100
AcDbLine
 10
283.0559999999999
 20
719.8289999999998
 30
0.0
 11
284.9479999999998
 21
720.493
 31
0.0
  0
LINE
  5
1BB1
330
1E
100
AcDbEntity
  8
0
100
AcDbLine
 10
283.0
 20
717.6649999999998
 30
0.0
 11
283.0
 21
712.2769999999998
 31
0.0
  0
LINE
  5
1BB2
330
1E
100
AcDbEntity
  8
0
100
AcDbLine
 10
283.0
 20
717.6649999999998
 30
0.0
 11
283.007
 21
717.7979999999998
 31
0.0
  0
LINE
  5
1BB3
330
1E
100
AcDbEntity
  8
0
100
AcDbLine
 10
283.324
 20
719.179
 30
0.0
 11
283.6169999999999
 21
719.701
 31
0.0
  0
LINE
  5
1BB4
330
1E
100
AcDbEntity
  8
0
100
AcDbLine
 10
283.0819999999998
 20
718.4730000000001
 30
0.0
 11
283.135
 21
718.6489999999999
 31
0.0
  0
LINE
  5
1BB5
330
1E
100
AcDbEntity
  8
0
100
AcDbLine
 10
283.135
 20
718.6489999999999
 30
0.0
 11
283.324
 21
719.179
 31
0.0
  0
LINE
  5
1BB6
330
1E
100
AcDbEntity
  8
0
100
AcDbLine
 10
283.007
 20
717.7979999999998
 30
0.0
 11
283.007
 21
712.5910975609757
 31
0.0
  0
LINE
  5
1BB7
330
1E
100
AcDbEntity
  8
0
100
AcDbLine
 10
283.0
 20
717.9319999999998
 30
0.0
 11
283.0
 21
712.5449999999999
 31
0.0
  0
LINE
  5
1BB8
330
1E
100
AcDbEntity
  8
0
100
AcDbLine
 10
283.0
 20
717.9319999999998
 30
0.0
 11
283.0819999999998
 21
718.4730000000001
 31
0.0
  0
LINE
  5
1BB9
330
1E
100
AcDbEntity
  8
0
100
AcDbLine
 10
282.0249999999999
 20
710.431
 30
0.0
 11
283.8659999999999
 21
709.493
 31
0.0
  0
LINE
  5
1BBA
330
1E
100
AcDbEntity
  8
0
100
AcDbLine
 10
282.613
 20
707.9199999999998
 30
0.0
 11
285.2209999999999
 21
706.945
 31
0.0
  0
LINE
  5
1BBB
330
1E
100
AcDbEntity
  8
0
100
AcDbLine
 10
283.8659999999999
 20
709.493
 30
0.0
 11
285.1701307043158
 21
709.0091309442867
 31
0.0
  0
LINE
  5
1BBC
330
1E
100
AcDbEntity
  8
0
100
AcDbLine
 10
286.349
 20
709.4589999999998
 30
0.0
 11
286.9479999999999
 21
709.057
 31
0.0
  0
LINE
  5
1BBD
330
1E
100
AcDbEntity
  8
0
100
AcDbLine
 10
285.839
 20
709.8860000000001
 30
0.0
 11
286.349
 21
709.4589999999998
 31
0.0
  0
LINE
  5
1BBE
330
1E
100
AcDbEntity
  8
0
100
AcDbLine
 10
291.6649999999999
 20
710.8279999999998
 30
0.0
 11
292.6009999999998
 21
710.676
 31
0.0
  0
LINE
  5
1BBF
330
1E
100
AcDbEntity
  8
0
100
AcDbLine
 10
290.7709999999999
 20
711.0289999999999
 30
0.0
 11
291.6649999999999
 21
710.8279999999998
 31
0.0
  0
LINE
  5
1BC0
330
1E
100
AcDbEntity
  8
0
100
AcDbLine
 10
286.2519999999999
 20
711.547
 30
0.0
 11
286.4199999999999
 21
711.118
 31
0.0
  0
LINE
  5
1BC1
330
1E
100
AcDbEntity
  8
0
100
AcDbLine
 10
286.2519999999999
 20
711.547
 30
0.0
 11
286.2519999999999
 21
712.6469999999998
 31
0.0
  0
LINE
  5
1BC2
330
1E
100
AcDbEntity
  8
0
100
AcDbLine
 10
288.449
 20
711.8989999999999
 30
0.0
 11
289.152
 21
711.568
 31
0.0
  0
LINE
  5
1BC3
330
1E
100
AcDbEntity
  8
0
100
AcDbLine
 10
289.152
 20
711.568
 30
0.0
 11
289.9299999999999
 21
711.2769999999998
 31
0.0
  0
LINE
  5
1BC4
330
1E
100
AcDbEntity
  8
0
100
AcDbLine
 10
287.8289999999999
 20
712.2639999999996
 30
0.0
 11
288.449
 21
711.8989999999999
 31
0.0
  0
LINE
  5
1BC5
330
1E
100
AcDbEntity
  8
0
100
AcDbLine
 10
287.298
 20
712.6599999999999
 30
0.0
 11
287.8289999999999
 21
712.2639999999996
 31
0.0
  0
LINE
  5
1BC6
330
1E
100
AcDbEntity
  8
0
100
AcDbLine
 10
286.2519999999999
 20
712.6469999999998
 30
0.0
 11
286.4199999999999
 21
713.076
 31
0.0
  0
LINE
  5
1BC7
330
1E
100
AcDbEntity
  8
0
100
AcDbLine
 10
286.2519999999999
 20
712.6469999999998
 30
0.0
 11
286.2519999999999
 21
711.547
 31
0.0
  0
LINE
  5
1BC8
330
1E
100
AcDbEntity
  8
0
100
AcDbLine
 10
289.9299999999999
 20
711.2769999999998
 30
0.0
 11
290.7709999999999
 21
711.0289999999999
 31
0.0
  0
LINE
  5
1BC9
330
1E
100
AcDbEntity
  8
0
100
AcDbLine
 10
286.4199999999999
 20
711.118
 30
0.0
 11
286.682
 21
710.7
 31
0.0
  0
LINE
  5
1BCA
330
1E
100
AcDbEntity
  8
0
100
AcDbLine
 10
286.2149999999999
 20
709.607
 30
0.0
 11
286.8219999999999
 21
709.1789999999998
 31
0.0
  0
LINE
  5
1BCB
330
1E
100
AcDbEntity
  8
0
100
AcDbLine
 10
287.994
 20
709.5539999999998
 30
0.0
 11
288.5909999999999
 21
709.222
 31
0.0
  0
LINE
  5
1BCC
330
1E
100
AcDbEntity
  8
0
100
AcDbLine
 10
286.682
 20
710.7
 30
0.0
 11
287.034
 21
710.297
 31
0.0
  0
LINE
  5
1BCD
330
1E
100
AcDbEntity
  8
0
100
AcDbLine
 10
287.034
 20
710.297
 30
0.0
 11
287.474
 21
709.914
 31
0.0
  0
LINE
  5
1BCE
330
1E
100
AcDbEntity
  8
0
100
AcDbLine
 10
287.474
 20
709.914
 30
0.0
 11
287.994
 21
709.5539999999998
 31
0.0
  0
LINE
  5
1BCF
330
1E
100
AcDbEntity
  8
0
100
AcDbLine
 10
284.5109999999999
 20
709.5189999999996
 30
0.0
 11
285.1039999999999
 21
709.0589999999998
 31
0.0
  0
LINE
  5
1BD0
330
1E
100
AcDbEntity
  8
0
100
AcDbLine
 10
284.0149999999999
 20
710.003
 30
0.0
 11
284.5109999999999
 21
709.5189999999996
 31
0.0
  0
LINE
  5
1BD1
330
1E
100
AcDbEntity
  8
0
100
AcDbLine
 10
285.4239999999999
 20
710.3369999999999
 30
0.0
 11
285.839
 21
709.8860000000001
 31
0.0
  0
LINE
  5
1BD2
330
1E
100
AcDbEntity
  8
0
100
AcDbLine
 10
285.1069999999999
 20
710.8039999999999
 30
0.0
 11
285.4239999999999
 21
710.3369999999999
 31
0.0
  0
LINE
  5
1BD3
330
1E
100
AcDbEntity
  8
0
100
AcDbLine
 10
285.302
 20
710.5419999999996
 30
0.0
 11
285.7059999999999
 21
710.0629999999998
 31
0.0
  0
LINE
  5
1BD4
330
1E
100
AcDbEntity
  8
0
100
AcDbLine
 10
284.8919999999999
 20
711.286
 30
0.0
 11
285.1069999999999
 21
710.8039999999999
 31
0.0
  0
LINE
  5
1BD5
330
1E
100
AcDbEntity
  8
0
100
AcDbLine
 10
284.7799999999999
 20
711.775
 30
0.0
 11
284.8919999999999
 21
711.286
 31
0.0
  0
LINE
  5
1BD6
330
1E
100
AcDbEntity
  8
0
100
AcDbLine
 10
284.8279999999999
 20
711.547
 30
0.0
 11
284.8279999999999
 21
712.5401428571429
 31
0.0
  0
LINE
  5
1BD7
330
1E
100
AcDbEntity
  8
0
100
AcDbLine
 10
284.8279999999999
 20
711.547
 30
0.0
 11
285.0099999999999
 21
711.0389999999998
 31
0.0
  0
LINE
  5
1BD8
330
1E
100
AcDbEntity
  8
0
100
AcDbLine
 10
284.8279999999999
 20
711.547
 30
0.0
 11
286.2519999999999
 21
711.547
 31
0.0
  0
LINE
  5
1BD9
330
1E
100
AcDbEntity
  8
0
100
AcDbLine
 10
284.8279999999999
 20
712.5401428571429
 30
0.0
 11
284.8279999999999
 21
711.547
 31
0.0
  0
LINE
  5
1BDA
330
1E
100
AcDbEntity
  8
0
100
AcDbLine
 10
284.8279999999999
 20
712.6469999999998
 30
0.0
 11
285.0099999999999
 21
713.1549999999999
 31
0.0
  0
LINE
  5
1BDB
330
1E
100
AcDbEntity
  8
0
100
AcDbLine
 10
284.8279999999999
 20
712.6469999999998
 30
0.0
 11
286.2519999999999
 21
712.6469999999998
 31
0.0
  0
LINE
  5
1BDC
330
1E
100
AcDbEntity
  8
0
100
AcDbLine
 10
284.7759999999999
 20
712.0519999999999
 30
0.0
 11
284.7799999999999
 21
712.331
 31
0.0
  0
LINE
  5
1BDD
330
1E
100
AcDbEntity
  8
0
100
AcDbLine
 10
284.7759999999999
 20
712.0519999999999
 30
0.0
 11
284.7799999999999
 21
711.775
 31
0.0
  0
LINE
  5
1BDE
330
1E
100
AcDbEntity
  8
0
100
AcDbLine
 10
284.7799999999999
 20
712.331
 30
0.0
 11
284.8919999999999
 21
712.8189999999998
 31
0.0
  0
LINE
  5
1BDF
330
1E
100
AcDbEntity
  8
0
100
AcDbLine
 10
285.0099999999999
 20
711.0389999999998
 30
0.0
 11
285.302
 21
710.5419999999996
 31
0.0
  0
LINE
  5
1BE0
330
1E
100
AcDbEntity
  8
0
100
AcDbLine
 10
285.7059999999999
 20
710.0629999999998
 30
0.0
 11
286.2149999999999
 21
709.607
 31
0.0
  0
LINE
  5
1BE1
330
1E
100
AcDbEntity
  8
0
100
AcDbLine
 10
286.654
 20
708.1469999999998
 30
0.0
 11
287.4859999999999
 21
707.788
 31
0.0
  0
LINE
  5
1BE2
330
1E
100
AcDbEntity
  8
0
100
AcDbLine
 10
289.21
 20
708.051
 30
0.0
 11
290.094
 21
707.7939999999999
 31
0.0
  0
LINE
  5
1BE3
330
1E
100
AcDbEntity
  8
0
100
AcDbLine
 10
288.3849999999999
 20
708.3489999999998
 30
0.0
 11
289.21
 21
708.051
 31
0.0
  0
LINE
  5
1BE4
330
1E
100
AcDbEntity
  8
0
100
AcDbLine
 10
291.68
 20
708.2219999999998
 30
0.0
 11
292.632
 21
708.068
 31
0.0
  0
LINE
  5
1BE5
330
1E
100
AcDbEntity
  8
0
100
AcDbLine
 10
290.7709999999999
 20
708.426
 30
0.0
 11
291.68
 21
708.2219999999998
 31
0.0
  0
LINE
  5
1BE6
330
1E
100
AcDbEntity
  8
0
100
AcDbLine
 10
289.9869999999999
 20
708.6549999999999
 30
0.0
 11
290.7709999999999
 21
708.426
 31
0.0
  0
LINE
  5
1BE7
330
1E
100
AcDbEntity
  8
0
100
AcDbLine
 10
288.5909999999999
 20
709.222
 30
0.0
 11
289.2579999999999
 21
708.921
 31
0.0
  0
LINE
  5
1BE8
330
1E
100
AcDbEntity
  8
0
100
AcDbLine
 10
289.2579999999999
 20
708.921
 30
0.0
 11
289.9869999999999
 21
708.6549999999999
 31
0.0
  0
LINE
  5
1BE9
330
1E
100
AcDbEntity
  8
0
100
AcDbLine
 10
289.168
 20
708.11
 30
0.0
 11
290.094
 21
707.84
 31
0.0
  0
LINE
  5
1BEA
330
1E
100
AcDbEntity
  8
0
100
AcDbLine
 10
287.6279999999999
 20
708.6849999999998
 30
0.0
 11
288.3849999999999
 21
708.3489999999998
 31
0.0
  0
LINE
  5
1BEB
330
1E
100
AcDbEntity
  8
0
100
AcDbLine
 10
286.9479999999999
 20
709.057
 30
0.0
 11
287.6279999999999
 21
708.6849999999998
 31
0.0
  0
LINE
  5
1BEC
330
1E
100
AcDbEntity
  8
0
100
AcDbLine
 10
287.522
 20
708.7839999999999
 30
0.0
 11
288.307
 21
708.426
 31
0.0
  0
LINE
  5
1BED
330
1E
100
AcDbEntity
  8
0
100
AcDbLine
 10
286.8219999999999
 20
709.1789999999998
 30
0.0
 11
287.522
 21
708.7839999999999
 31
0.0
  0
LINE
  5
1BEE
330
1E
100
AcDbEntity
  8
0
100
AcDbLine
 10
288.307
 20
708.426
 30
0.0
 11
289.168
 21
708.11
 31
0.0
  0
LINE
  5
1BEF
330
1E
100
AcDbEntity
  8
0
100
AcDbLine
 10
285.899
 20
708.5399999999999
 30
0.0
 11
286.654
 21
708.1469999999998
 31
0.0
  0
LINE
  5
1BF0
330
1E
100
AcDbEntity
  8
0
100
AcDbLine
 10
285.2259999999998
 20
708.9669999999999
 30
0.0
 11
285.899
 21
708.5399999999999
 31
0.0
  0
LINE
  5
1BF1
330
1E
100
AcDbEntity
  8
0
100
AcDbLine
 10
285.1039999999999
 20
709.0589999999998
 30
0.0
 11
285.2259999999998
 21
708.9669999999999
 31
0.0
  0
LINE
  5
1BF2
330
1E
100
AcDbEntity
  8
0
100
AcDbLine
 10
283.0
 20
712.2769999999998
 30
0.0
 11
283.0
 21
717.6649999999998
 31
0.0
  0
LINE
  5
1BF3
330
1E
100
AcDbEntity
  8
0
100
AcDbLine
 10
283.0
 20
712.2769999999998
 30
0.0
 11
283.0819999999998
 21
711.7369999999998
 31
0.0
  0
LINE
  5
1BF4
330
1E
100
AcDbEntity
  8
0
100
AcDbLine
 10
283.007
 20
712.4110000000001
 30
0.0
 11
283.007
 21
712.5635111111108
 31
0.0
  0
LINE
  5
1BF5
330
1E
100
AcDbEntity
  8
0
100
AcDbLine
 10
283.007
 20
712.5910975609757
 30
0.0
 11
283.007
 21
717.7979999999998
 31
0.0
  0
LINE
  5
1BF6
330
1E
100
AcDbEntity
  8
0
100
AcDbLine
 10
283.0
 20
712.5449999999999
 30
0.0
 11
283.0
 21
717.9319999999998
 31
0.0
  0
LINE
  5
1BF7
330
1E
100
AcDbEntity
  8
0
100
AcDbLine
 10
283.0
 20
712.5449999999999
 30
0.0
 11
283.007
 21
712.4110000000001
 31
0.0
  0
LINE
  5
1BF8
330
1E
100
AcDbEntity
  8
0
100
AcDbLine
 10
283.007
 20
712.5635111111108
 30
0.0
 11
283.007
 21
712.4110000000001
 31
0.0
  0
LINE
  5
1BF9
330
1E
100
AcDbEntity
  8
0
100
AcDbLine
 10
283.6169999999999
 20
710.508
 30
0.0
 11
284.0149999999999
 21
710.003
 31
0.0
  0
LINE
  5
1BFA
330
1E
100
AcDbEntity
  8
0
100
AcDbLine
 10
283.324
 20
711.028
 30
0.0
 11
283.6169999999999
 21
710.508
 31
0.0
  0
LINE
  5
1BFB
330
1E
100
AcDbEntity
  8
0
100
AcDbLine
 10
283.135
 20
711.561
 30
0.0
 11
283.324
 21
711.028
 31
0.0
  0
LINE
  5
1BFC
330
1E
100
AcDbEntity
  8
0
100
AcDbLine
 10
283.0819999999998
 20
711.7369999999998
 30
0.0
 11
283.135
 21
711.561
 31
0.0
  0
LINE
  5
1BFD
330
1E
100
AcDbEntity
  8
0
100
AcDbLine
 10
289.6849999999999
 20
705.9719999999998
 30
0.0
 11
291.4529999999999
 21
705.741
 31
0.0
  0
LINE
  5
1BFE
330
1E
100
AcDbEntity
  8
0
100
AcDbLine
 10
287.3219999999999
 20
706.4160000000001
 30
0.0
 11
288.1659999999999
 21
706.212
 31
0.0
  0
LINE
  5
1BFF
330
1E
100
AcDbEntity
  8
0
100
AcDbLine
 10
288.1659999999999
 20
706.212
 30
0.0
 11
289.6849999999999
 21
705.9719999999998
 31
0.0
  0
LINE
  5
1C00
330
1E
100
AcDbEntity
  8
0
100
AcDbLine
 10
291.4059999999999
 20
706.773
 30
0.0
 11
292.4919999999999
 21
706.6360000000001
 31
0.0
  0
LINE
  5
1C01
330
1E
100
AcDbEntity
  8
0
100
AcDbLine
 10
290.354
 20
706.9589999999998
 30
0.0
 11
291.4059999999999
 21
706.773
 31
0.0
  0
LINE
  5
1C02
330
1E
100
AcDbEntity
  8
0
100
AcDbLine
 10
292.004
 20
707.413
 30
0.0
 11
293.009
 21
707.293
 31
0.0
  0
LINE
  5
1C03
330
1E
100
AcDbEntity
  8
0
100
AcDbLine
 10
291.0279999999999
 20
707.5809999999998
 30
0.0
 11
292.004
 21
707.413
 31
0.0
  0
LINE
  5
1C04
330
1E
100
AcDbEntity
  8
0
100
AcDbLine
 10
291.0439999999999
 20
707.623
 30
0.0
 11
292.0359999999999
 21
707.4529999999998
 31
0.0
  0
LINE
  5
1C05
330
1E
100
AcDbEntity
  8
0
100
AcDbLine
 10
292.0359999999999
 20
707.4529999999998
 30
0.0
 11
293.0589999999999
 21
707.3339999999998
 31
0.0
  0
LINE
  5
1C06
330
1E
100
AcDbEntity
  8
0
100
AcDbLine
 10
290.094
 20
707.7939999999999
 30
0.0
 11
291.0279999999999
 21
707.5809999999998
 31
0.0
  0
LINE
  5
1C07
330
1E
100
AcDbEntity
  8
0
100
AcDbLine
 10
290.094
 20
707.84
 30
0.0
 11
291.0439999999999
 21
707.623
 31
0.0
  0
LINE
  5
1C08
330
1E
100
AcDbEntity
  8
0
100
AcDbLine
 10
287.4859999999999
 20
707.788
 30
0.0
 11
288.3849999999999
 21
707.4689999999998
 31
0.0
  0
LINE
  5
1C09
330
1E
100
AcDbEntity
  8
0
100
AcDbLine
 10
288.3849999999999
 20
707.4689999999998
 30
0.0
 11
289.344
 21
707.192
 31
0.0
  0
LINE
  5
1C0A
330
1E
100
AcDbEntity
  8
0
100
AcDbLine
 10
289.344
 20
707.192
 30
0.0
 11
290.354
 21
706.9589999999998
 31
0.0
  0
LINE
  5
1C0B
330
1E
100
AcDbEntity
  8
0
100
AcDbLine
 10
285.2209999999999
 20
706.945
 30
0.0
 11
287.3219999999999
 21
706.4160000000001
 31
0.0
  0
LINE
  5
1C0C
330
1E
100
AcDbEntity
  8
0
100
AcDbLine
 10
291.4529999999999
 20
705.741
 30
0.0
 11
293.1959999999999
 21
705.6169999999999
 31
0.0
  0
LINE
  5
1C0D
330
1E
100
AcDbEntity
  8
0
100
AcDbLine
 10
278.8099999999999
 20
713.595
 30
0.0
 11
279.522
 21
712.485
 31
0.0
  0
LINE
  5
1C0E
330
1E
100
AcDbEntity
  8
0
100
AcDbLine
 10
278.8155972665299
 20
716.468550872022
 30
0.0
 11
279.0909999999998
 21
715.7039999999998
 31
0.0
  0
LINE
  5
1C0F
330
1E
100
AcDbEntity
  8
0
100
AcDbLine
 10
279.0909999999998
 20
715.7039999999998
 30
0.0
 11
280.4899999999999
 21
714.1319999999998
 31
0.0
  0
LINE
  5
1C10
330
1E
100
AcDbEntity
  8
0
100
AcDbLine
 10
279.0109999999999
 20
716.8789999999996
 30
0.0
 11
279.9449999999999
 21
717.9719999999998
 31
0.0
  0
LINE
  5
1C11
330
1E
100
AcDbEntity
  8
0
100
AcDbLine
 10
279.9449999999999
 20
717.9719999999998
 30
0.0
 11
281.3059999999999
 21
718.9619999999998
 31
0.0
  0
LINE
  5
1C12
330
1E
100
AcDbEntity
  8
0
100
AcDbLine
 10
280.4899999999999
 20
714.1319999999998
 30
0.0
 11
282.6179999999999
 21
712.743
 31
0.0
  0
LINE
  5
1C13
330
1E
100
AcDbEntity
  8
0
100
AcDbLine
 10
279.522
 20
712.485
 30
0.0
 11
280.6029999999999
 21
711.4199999999998
 31
0.0
  0
LINE
  5
1C14
330
1E
100
AcDbEntity
  8
0
100
AcDbLine
 10
280.6029999999999
 20
711.4199999999998
 30
0.0
 11
282.0249999999999
 21
710.431
 31
0.0
  0
LINE
  5
1C15
330
1E
100
AcDbEntity
  8
0
100
AcDbLine
 10
280.317
 20
709.1149999999999
 30
0.0
 11
282.613
 21
707.9199999999998
 31
0.0
  0
LINE
  5
1C16
330
1E
100
AcDbEntity
  8
0
100
AcDbLine
 10
278.5329999999999
 20
714.432
 30
0.0
 11
278.8099999999999
 21
713.595
 31
0.0
  0
LINE
  5
1C17
330
1E
100
AcDbEntity
  8
0
100
AcDbLine
 10
278.6329999999999
 20
716.085
 30
0.0
 11
279.0109999999999
 21
716.8789999999996
 31
0.0
  0
LINE
  5
1C18
330
1E
100
AcDbEntity
  8
0
100
AcDbLine
 10
278.4719999999999
 20
715.2669999999998
 30
0.0
 11
278.6329999999999
 21
716.085
 31
0.0
  0
LINE
  5
1C19
330
1E
100
AcDbEntity
  8
0
100
AcDbLine
 10
278.4719999999999
 20
715.2669999999998
 30
0.0
 11
278.5329999999999
 21
714.432
 31
0.0
  0
LINE
  5
1C1A
330
1E
100
AcDbEntity
  8
0
100
AcDbLine
 10
275.214
 20
713.841
 30
0.0
 11
276.206
 21
712.526
 31
0.0
  0
LINE
  5
1C1B
330
1E
100
AcDbEntity
  8
0
100
AcDbLine
 10
278.2969999999999
 20
710.508
 30
0.0
 11
280.317
 21
709.1149999999999
 31
0.0
  0
LINE
  5
1C1C
330
1E
100
AcDbEntity
  8
0
100
AcDbLine
 10
277.2659999999999
 20
711.3989999999996
 30
0.0
 11
278.2969999999999
 21
710.508
 31
0.0
  0
LINE
  5
1C1D
330
1E
100
AcDbEntity
  8
0
100
AcDbLine
 10
276.206
 20
712.526
 30
0.0
 11
277.2659999999999
 21
711.3989999999996
 31
0.0
  0
LINE
  5
1C1E
330
1E
100
AcDbEntity
  8
0
100
AcDbLine
 10
274.3599999999998
 20
715.2589999999999
 30
0.0
 11
275.2059999999999
 21
713.8589999999997
 31
0.0
  0
LINE
  5
1C1F
330
1E
100
AcDbEntity
  8
0
100
AcDbLine
 10
272.9009999999999
 20
739.0739999999998
 30
0.0
 11
273.6099999999999
 21
739.1089999999998
 31
0.0
  0
LINE
  5
1C20
330
1E
100
AcDbEntity
  8
0
100
AcDbLine
 10
272.9009999999999
 20
739.0739999999998
 30
0.0
 11
273.6139999999999
 21
739.1089999999998
 31
0.0
  0
LINE
  5
1C21
330
1E
100
AcDbEntity
  8
0
100
AcDbLine
 10
273.7149999999999
 20
739.1089999999998
 30
0.0
 11
274.1639999999999
 21
739.1099999999998
 31
0.0
  0
LINE
  5
1C22
330
1E
100
AcDbEntity
  8
0
100
AcDbLine
 10
273.5689999999999
 20
739.1089999999998
 30
0.0
 11
273.7149999999999
 21
739.1089999999998
 31
0.0
  0
LINE
  5
1C23
330
1E
100
AcDbEntity
  8
0
100
AcDbLine
 10
272.2099999999999
 20
738.818
 30
0.0
 11
272.5659999999999
 21
739.0049999999998
 31
0.0
  0
LINE
  5
1C24
330
1E
100
AcDbEntity
  8
0
100
AcDbLine
 10
272.5659999999999
 20
739.0049999999998
 30
0.0
 11
272.86
 21
739.0739999999998
 31
0.0
  0
LINE
  5
1C25
330
1E
100
AcDbEntity
  8
0
100
AcDbLine
 10
272.7
 20
727.2669999999997
 30
0.0
 11
272.7229999999999
 21
726.321
 31
0.0
  0
LINE
  5
1C26
330
1E
100
AcDbEntity
  8
0
100
AcDbLine
 10
273.5199999999999
 20
717.026
 30
0.0
 11
273.893
 21
716.172
 31
0.0
  0
LINE
  5
1C27
330
1E
100
AcDbEntity
  8
0
100
AcDbLine
 10
273.893
 20
716.172
 30
0.0
 11
274.3599999999998
 21
715.2589999999999
 31
0.0
  0
LINE
  5
1C28
330
1E
100
AcDbEntity
  8
0
100
AcDbLine
 10
272.7449999999998
 20
725.1699999999998
 30
0.0
 11
272.7619999999999
 21
723.8049999999998
 31
0.0
  0
LINE
  5
1C29
330
1E
100
AcDbEntity
  8
0
100
AcDbLine
 10
272.7229999999999
 20
726.321
 30
0.0
 11
272.7449999999998
 21
725.1699999999998
 31
0.0
  0
LINE
  5
1C2A
330
1E
100
AcDbEntity
  8
0
100
AcDbLine
 10
272.7779999999999
 20
722.2519999999998
 30
0.0
 11
272.7899999999999
 21
720.467
 31
0.0
  0
LINE
  5
1C2B
330
1E
100
AcDbEntity
  8
0
100
AcDbLine
 10
272.7899999999999
 20
720.467
 30
0.0
 11
272.7919999999999
 21
720.2669999999998
 31
0.0
  0
LINE
  5
1C2C
330
1E
100
AcDbEntity
  8
0
100
AcDbLine
 10
272.8129999999998
 20
719.5769999999998
 30
0.0
 11
272.849
 21
719.3010000000001
 31
0.0
  0
LINE
  5
1C2D
330
1E
100
AcDbEntity
  8
0
100
AcDbLine
 10
273.201
 20
717.87
 30
0.0
 11
273.507
 21
717.061
 31
0.0
  0
LINE
  5
1C2E
330
1E
100
AcDbEntity
  8
0
100
AcDbLine
 10
272.985
 20
718.6039999999998
 30
0.0
 11
273.201
 21
717.87
 31
0.0
  0
LINE
  5
1C2F
330
1E
100
AcDbEntity
  8
0
100
AcDbLine
 10
272.898
 20
719.0439999999998
 30
0.0
 11
272.985
 21
718.6039999999998
 31
0.0
  0
LINE
  5
1C30
330
1E
100
AcDbEntity
  8
0
100
AcDbLine
 10
272.849
 20
719.3010000000001
 30
0.0
 11
272.898
 21
719.0439999999998
 31
0.0
  0
LINE
  5
1C31
330
1E
100
AcDbEntity
  8
0
100
AcDbLine
 10
272.7919999999999
 20
720.2669999999998
 30
0.0
 11
272.8129999999998
 21
719.5769999999998
 31
0.0
  0
LINE
  5
1C32
330
1E
100
AcDbEntity
  8
0
100
AcDbLine
 10
272.7619999999999
 20
723.8049999999998
 30
0.0
 11
272.7779999999999
 21
722.2519999999998
 31
0.0
  0
LINE
  5
1C33
330
1E
100
AcDbEntity
  8
0
100
AcDbLine
 10
271.619
 20
697.2722
 30
0.0
 11
271.634
 21
701.8789999999998
 31
0.0
  0
LINE
  5
1C34
330
1E
100
AcDbEntity
  8
0
100
AcDbLine
 10
271.6369999999999
 20
705.6139999999998
 30
0.0
 11
271.6409999999999
 21
708.8339999999998
 31
0.0
  0
LINE
  5
1C35
330
1E
100
AcDbEntity
  8
0
100
AcDbLine
 10
271.657
 20
711.6679999999998
 30
0.0
 11
271.835
 21
737.733
 31
0.0
  0
LINE
  5
1C36
330
1E
100
AcDbEntity
  8
0
100
AcDbLine
 10
271.835
 20
737.733
 30
0.0
 11
271.8859999999999
 21
738.2999999999998
 31
0.0
  0
LINE
  5
1C37
330
1E
100
AcDbEntity
  8
0
100
AcDbLine
 10
271.9729999999999
 20
738.534
 30
0.0
 11
272.2099999999999
 21
738.818
 31
0.0
  0
LINE
  5
1C38
330
1E
100
AcDbEntity
  8
0
100
AcDbLine
 10
271.8859999999999
 20
738.2999999999998
 30
0.0
 11
271.9729999999999
 21
738.534
 31
0.0
  0
LINE
  5
1C39
330
1E
100
AcDbEntity
  8
0
100
AcDbLine
 10
271.6409999999999
 20
708.8339999999998
 30
0.0
 11
271.657
 21
711.6679999999998
 31
0.0
  0
LINE
  5
1C3A
330
1E
100
AcDbEntity
  8
0
100
AcDbLine
 10
271.634
 20
701.8789999999998
 30
0.0
 11
271.6369999999999
 21
705.6139999999998
 31
0.0
  0
LINE
  5
1C3B
330
1E
100
AcDbEntity
  8
0
100
AcDbLine
 10
271.6017614884339
 20
694.5109155072958
 30
0.0
 11
271.619
 21
697.2722
 31
0.0
  0
LINE
  5
1C3C
330
1E
100
AcDbEntity
  8
0
100
AcDbLine
 10
271.532
 20
690.6594999999998
 30
0.0
 11
271.6017614884339
 21
694.5109155072958
 31
0.0
  0
LINE
  5
1C3D
330
1E
100
AcDbEntity
  8
0
100
AcDbLine
 10
482.2
 20
615.1169999999998
 30
0.0
 11
485.6
 21
615.1169999999998
 31
0.0
  0
LINE
  5
1C3E
330
1E
100
AcDbEntity
  8
0
100
AcDbLine
 10
485.6
 20
615.1169999999998
 30
0.0
 11
491.0
 21
615.1169999999998
 31
0.0
  0
LINE
  5
1C3F
330
1E
100
AcDbEntity
  8
0
100
AcDbLine
 10
484.6999999999998
 20
614.1169999999998
 30
0.0
 11
490.2999999999999
 21
614.1169999999998
 31
0.0
  0
LINE
  5
1C40
330
1E
100
AcDbEntity
  8
0
100
AcDbLine
 10
484.6999999999998
 20
605.1169999999999
 30
0.0
 11
490.0
 21
605.1169999999999
 31
0.0
  0
LINE
  5
1C41
330
1E
100
AcDbEntity
  8
0
100
AcDbLine
 10
484.6999999999998
 20
605.1169999999999
 30
0.0
 11
490.2999999999999
 21
605.1169999999999
 31
0.0
  0
LINE
  5
1C42
330
1E
100
AcDbEntity
  8
0
100
AcDbLine
 10
480.0
 20
614.1169999999998
 30
0.0
 11
480.0
 21
605.1169999999999
 31
0.0
  0
LINE
  5
1C43
330
1E
100
AcDbEntity
  8
0
100
AcDbLine
 10
480.0
 20
614.1169999999998
 30
0.0
 11
481.0
 21
615.1169999999998
 31
0.0
  0
LINE
  5
1C44
330
1E
100
AcDbEntity
  8
0
100
AcDbLine
 10
480.0
 20
614.1169999999998
 30
0.0
 11
481.2999999999998
 21
614.1169999999998
 31
0.0
  0
LINE
  5
1C45
330
1E
100
AcDbEntity
  8
0
100
AcDbLine
 10
481.2999999999998
 20
614.1169999999998
 30
0.0
 11
484.6999999999998
 21
614.1169999999998
 31
0.0
  0
LINE
  5
1C46
330
1E
100
AcDbEntity
  8
0
100
AcDbLine
 10
480.0
 20
605.1169999999999
 30
0.0
 11
480.0
 21
614.1169999999998
 31
0.0
  0
LINE
  5
1C47
330
1E
100
AcDbEntity
  8
0
100
AcDbLine
 10
480.0
 20
605.1169999999999
 30
0.0
 11
481.2999999999998
 21
605.1169999999999
 31
0.0
  0
LINE
  5
1C48
330
1E
100
AcDbEntity
  8
0
100
AcDbLine
 10
271.00660520843
 20
611.1169999999998
 30
0.0
 11
271.532
 21
690.6594999999998
 31
0.0
  0
LINE
  5
1C49
330
1E
100
AcDbEntity
  8
0
100
AcDbLine
 10
286.044
 20
610.77085
 30
0.0
 11
295.0
 21
610.77085
 31
0.0
  0
LINE
  5
1C4A
330
1E
100
AcDbEntity
  8
0
100
AcDbLine
 10
286.3529999999999
 20
611.1169999999998
 30
0.0
 11
295.0
 21
611.1169999999998
 31
0.0
  0
LINE
  5
1C4B
330
1E
100
AcDbEntity
  8
0
100
AcDbLine
 10
295.0
 20
610.77085
 30
0.0
 11
303.9559999999998
 21
610.77085
 31
0.0
  0
LINE
  5
1C4C
330
1E
100
AcDbEntity
  8
0
100
AcDbLine
 10
303.9559999999998
 20
610.77085
 30
0.0
 11
312.3969999999999
 21
610.77085
 31
0.0
  0
LINE
  5
1C4D
330
1E
100
AcDbEntity
  8
0
100
AcDbLine
 10
303.647
 20
611.1169999999998
 30
0.0
 11
311.6759999999999
 21
611.1169999999998
 31
0.0
  0
LINE
  5
1C4E
330
1E
100
AcDbEntity
  8
0
100
AcDbLine
 10
311.6759999999999
 20
611.1169999999998
 30
0.0
 11
318.6759999999999
 21
611.1169999999998
 31
0.0
  0
LINE
  5
1C4F
330
1E
100
AcDbEntity
  8
0
100
AcDbLine
 10
329.485
 20
611.0016099999998
 30
0.0
 11
330.0
 21
610.77085
 31
0.0
  0
LINE
  5
1C61
330
1E
100
AcDbEntity
  8
0
100
AcDbLine
 10
327.221
 20
611.1169999999998
 30
0.0
 11
328.4559999999999
 21
611.1169999999998
 31
0.0
  0
LINE
  5
1C62
330
1E
100
AcDbEntity
  8
0
100
AcDbLine
 10
328.4559999999999
 20
611.1169999999998
 30
0.0
 11
329.485
 21
611.0016099999998
 31
0.0
  0
LINE
  5
1C63
330
1E
100
AcDbEntity
  8
0
100
AcDbLine
 10
323.9259999999999
 20
611.1169999999998
 30
0.0
 11
327.221
 21
611.1169999999998
 31
0.0
  0
LINE
  5
1C64
330
1E
100
AcDbEntity
  8
0
100
AcDbLine
 10
318.6759999999999
 20
611.1169999999998
 30
0.0
 11
323.9259999999999
 21
611.1169999999998
 31
0.0
  0
LINE
  5
1C65
330
1E
100
AcDbEntity
  8
0
100
AcDbLine
 10
312.3969999999999
 20
610.77085
 30
0.0
 11
319.7059999999999
 21
610.77085
 31
0.0
  0
LINE
  5
1C66
330
1E
100
AcDbEntity
  8
0
100
AcDbLine
 10
328.7649999999998
 20
610.77085
 30
0.0
 11
330.0
 21
610.77085
 31
0.0
  0
LINE
  5
1C67
330
1E
100
AcDbEntity
  8
0
100
AcDbLine
 10
325.2649999999998
 20
610.77085
 30
0.0
 11
328.7649999999998
 21
610.77085
 31
0.0
  0
LINE
  5
1C68
330
1E
100
AcDbEntity
  8
0
100
AcDbLine
 10
330.0
 20
610.77085
 30
0.0
 11
330.0
 21
605.1169999999999
 31
0.0
  0
LINE
  5
1C78
330
1E
100
AcDbEntity
  8
0
100
AcDbLine
 10
319.7059999999999
 20
610.77085
 30
0.0
 11
325.2649999999998
 21
610.77085
 31
0.0
  0
LINE
  5
1C79
330
1E
100
AcDbEntity
  8
0
100
AcDbLine
 10
295.0
 20
611.1169999999998
 30
0.0
 11
303.647
 21
611.1169999999998
 31
0.0
  0
LINE
  5
1C7A
330
1E
100
AcDbEntity
  8
0
100
AcDbLine
 10
277.6029999999999
 20
610.77085
 30
0.0
 11
286.044
 21
610.77085
 31
0.0
  0
LINE
  5
1C7B
330
1E
100
AcDbEntity
  8
0
100
AcDbLine
 10
278.324
 20
611.1169999999998
 30
0.0
 11
286.3529999999999
 21
611.1169999999998
 31
0.0
  0
LINE
  5
1C7C
330
1E
100
AcDbEntity
  8
0
100
AcDbLine
 10
271.3229999999998
 20
611.1169999999998
 30
0.0
 11
278.324
 21
611.1169999999998
 31
0.0
  0
LINE
  5
1C7D
330
1E
100
AcDbEntity
  8
0
100
AcDbLine
 10
260.0
 20
610.77085
 30
0.0
 11
260.5149999999998
 21
611.0016099999998
 31
0.0
  0
LINE
  5
1C7E
330
1E
100
AcDbEntity
  8
0
100
AcDbLine
 10
260.0
 20
610.77085
 30
0.0
 11
261.235
 21
610.77085
 31
0.0
  0
LINE
  5
1C7F
330
1E
100
AcDbEntity
  8
0
100
AcDbLine
 10
260.0
 20
610.77085
 30
0.0
 11
260.0
 21
605.1169999999999
 31
0.0
  0
LINE
  5
1C80
330
1E
100
AcDbEntity
  8
0
100
AcDbLine
 10
260.5149999999998
 20
611.0016099999998
 30
0.0
 11
261.5439999999999
 21
611.1169999999998
 31
0.0
  0
LINE
  5
1C81
330
1E
100
AcDbEntity
  8
0
100
AcDbLine
 10
261.5439999999999
 20
611.1169999999998
 30
0.0
 11
262.779
 21
611.1169999999998
 31
0.0
  0
LINE
  5
1C82
330
1E
100
AcDbEntity
  8
0
100
AcDbLine
 10
262.779
 20
611.1169999999998
 30
0.0
 11
266.074
 21
611.1169999999998
 31
0.0
  0
LINE
  5
1C83
330
1E
100
AcDbEntity
  8
0
100
AcDbLine
 10
266.074
 20
611.1169999999998
 30
0.0
 11
271.3229999999998
 21
611.1169999999998
 31
0.0
  0
LINE
  5
1C84
330
1E
100
AcDbEntity
  8
0
100
AcDbLine
 10
261.235
 20
610.77085
 30
0.0
 11
264.735
 21
610.77085
 31
0.0
  0
LINE
  5
1C85
330
1E
100
AcDbEntity
  8
0
100
AcDbLine
 10
264.735
 20
610.77085
 30
0.0
 11
270.2939999999999
 21
610.77085
 31
0.0
  0
LINE
  5
1C86
330
1E
100
AcDbEntity
  8
0
100
AcDbLine
 10
270.2939999999999
 20
610.77085
 30
0.0
 11
277.6029999999999
 21
610.77085
 31
0.0
  0
LINE
  5
1C87
330
1E
100
AcDbEntity
  8
0
100
AcDbLine
 10
481.2999999999998
 20
605.1169999999999
 30
0.0
 11
484.6999999999998
 21
605.1169999999999
 31
0.0
  0
LINE
  5
1C88
330
1E
100
AcDbEntity
  8
0
100
AcDbLine
 10
260.0
 20
605.1169999999999
 30
0.0
 11
260.0
 21
610.77085
 31
0.0
  0
LINE
  5
1C89
330
1E
100
AcDbEntity
  8
0
100
AcDbLine
 10
260.0
 20
605.1169999999999
 30
0.0
 11
261.235
 21
605.1169999999999
 31
0.0
  0
LINE
  5
1C8A
330
1E
100
AcDbEntity
  8
0
100
AcDbLine
 10
261.235
 20
605.1169999999999
 30
0.0
 11
264.735
 21
605.1169999999999
 31
0.0
  0
LINE
  5
1C8B
330
1E
100
AcDbEntity
  8
0
100
AcDbLine
 10
264.735
 20
605.1169999999999
 30
0.0
 11
270.2939999999999
 21
605.1169999999999
 31
0.0
  0
LINE
  5
1C8C
330
1E
100
AcDbEntity
  8
0
100
AcDbLine
 10
286.044
 20
605.1169999999999
 30
0.0
 11
295.0
 21
605.1169999999999
 31
0.0
  0
LINE
  5
1C8D
330
1E
100
AcDbEntity
  8
0
100
AcDbLine
 10
295.0
 20
605.1169999999999
 30
0.0
 11
300.12
 21
605.1169999999999
 31
0.0
  0
LINE
  5
1C8E
330
1E
100
AcDbEntity
  8
0
100
AcDbLine
 10
295.0
 20
605.1169999999999
 30
0.0
 11
303.9559999999998
 21
605.1169999999999
 31
0.0
  0
LINE
  5
1C8F
330
1E
100
AcDbEntity
  8
0
100
AcDbLine
 10
303.9559999999998
 20
605.1169999999999
 30
0.0
 11
312.3969999999999
 21
605.1169999999999
 31
0.0
  0
LINE
  5
1C90
330
1E
100
AcDbEntity
  8
0
100
AcDbLine
 10
312.3969999999999
 20
605.1169999999999
 30
0.0
 11
319.7059999999999
 21
605.1169999999999
 31
0.0
  0
LINE
  5
1C91
330
1E
100
AcDbEntity
  8
0
100
AcDbLine
 10
328.7649999999998
 20
605.1169999999999
 30
0.0
 11
330.0
 21
605.1169999999999
 31
0.0
  0
LINE
  5
1C92
330
1E
100
AcDbEntity
  8
0
100
AcDbLine
 10
330.0
 20
605.1169999999999
 30
0.0
 11
330.0
 21
610.77085
 31
0.0
  0
LINE
  5
1C9E
330
1E
100
AcDbEntity
  8
0
100
AcDbLine
 10
325.2649999999998
 20
605.1169999999999
 30
0.0
 11
328.7649999999998
 21
605.1169999999999
 31
0.0
  0
LINE
  5
1C9F
330
1E
100
AcDbEntity
  8
0
100
AcDbLine
 10
319.7059999999999
 20
605.1169999999999
 30
0.0
 11
325.2649999999998
 21
605.1169999999999
 31
0.0
  0
LINE
  5
1CA0
330
1E
100
AcDbEntity
  8
0
100
AcDbLine
 10
315.0
 20
605.1169999999999
 30
0.0
 11
319.7059999999999
 21
605.1169999999999
 31
0.0
  0
LINE
  5
1CA1
330
1E
100
AcDbEntity
  8
0
100
AcDbLine
 10
314.2799999999999
 20
605.1169999999999
 30
0.0
 11
315.0
 21
605.1169999999999
 31
0.0
  0
LINE
  5
1CA2
330
1E
100
AcDbEntity
  8
0
100
AcDbLine
 10
312.36
 20
605.1169999999999
 30
0.0
 11
314.2799999999999
 21
605.1169999999999
 31
0.0
  0
LINE
  5
1CA3
330
1E
100
AcDbEntity
  8
0
100
AcDbLine
 10
309.1599999999998
 20
605.1169999999999
 30
0.0
 11
312.36
 21
605.1169999999999
 31
0.0
  0
LINE
  5
1CA4
330
1E
100
AcDbEntity
  8
0
100
AcDbLine
 10
304.9199999999999
 20
605.1169999999999
 30
0.0
 11
309.1599999999998
 21
605.1169999999999
 31
0.0
  0
LINE
  5
1CA5
330
1E
100
AcDbEntity
  8
0
100
AcDbLine
 10
300.12
 20
605.1169999999999
 30
0.0
 11
304.9199999999999
 21
605.1169999999999
 31
0.0
  0
LINE
  5
1CA6
330
1E
100
AcDbEntity
  8
0
100
AcDbLine
 10
289.8799999999999
 20
605.1169999999999
 30
0.0
 11
295.0
 21
605.1169999999999
 31
0.0
  0
LINE
  5
1CA7
330
1E
100
AcDbEntity
  8
0
100
AcDbLine
 10
277.6029999999999
 20
605.1169999999999
 30
0.0
 11
286.044
 21
605.1169999999999
 31
0.0
  0
LINE
  5
1CA8
330
1E
100
AcDbEntity
  8
0
100
AcDbLine
 10
270.2939999999999
 20
605.1169999999999
 30
0.0
 11
275.0
 21
605.1169999999999
 31
0.0
  0
LINE
  5
1CA9
330
1E
100
AcDbEntity
  8
0
100
AcDbLine
 10
270.2939999999999
 20
605.1169999999999
 30
0.0
 11
277.6029999999999
 21
605.1169999999999
 31
0.0
  0
LINE
  5
1CAA
330
1E
100
AcDbEntity
  8
0
100
AcDbLine
 10
285.08
 20
605.1169999999999
 30
0.0
 11
289.8799999999999
 21
605.1169999999999
 31
0.0
  0
LINE
  5
1CAB
330
1E
100
AcDbEntity
  8
0
100
AcDbLine
 10
277.6399999999998
 20
605.1169999999999
 30
0.0
 11
280.8399999999999
 21
605.1169999999999
 31
0.0
  0
LINE
  5
1CAC
330
1E
100
AcDbEntity
  8
0
100
AcDbLine
 10
280.8399999999999
 20
605.1169999999999
 30
0.0
 11
285.08
 21
605.1169999999999
 31
0.0
  0
LINE
  5
1CAD
330
1E
100
AcDbEntity
  8
0
100
AcDbLine
 10
275.7199999999999
 20
605.1169999999999
 30
0.0
 11
277.6399999999998
 21
605.1169999999999
 31
0.0
  0
LINE
  5
1CAE
330
1E
100
AcDbEntity
  8
0
100
AcDbLine
 10
275.0
 20
605.1169999999999
 30
0.0
 11
275.7199999999999
 21
605.1169999999999
 31
0.0
  0
LINE
  5
1CAF
330
1E
100
AcDbEntity
  8
0
100
AcDbLine
 10
200.0
 20
657.1635999999999
 30
0.0
 11
200.0
 21
676.1686999999999
 31
0.0
  0
LINE
  5
1CB0
330
1E
100
AcDbEntity
  8
0
100
AcDbLine
 10
170.1209999999999
 20
664.9034
 30
0.0
 11
169.7649999999999
 21
665.6138999999999
 31
0.0
  0
LINE
  5
1CB1
330
1E
100
AcDbEntity
  8
0
100
AcDbLine
 10
200.0
 20
676.1686999999999
 30
0.0
 11
200.0
 21
657.1635999999999
 31
0.0
  0
LINE
  5
1CB2
330
1E
100
AcDbEntity
  8
0
100
AcDbLine
 10
192.4119999999999
 20
611.1169999999999
 30
0.0
 11
185.0
 21
611.1169999999999
 31
0.0
  0
LINE
  5
1CB3
330
1E
100
AcDbEntity
  8
0
100
AcDbLine
 10
192.6759999999999
 20
610.77085
 30
0.0
 11
185.0
 21
610.77085
 31
0.0
  0
LINE
  5
1CB4
330
1E
100
AcDbEntity
  8
0
100
AcDbLine
 10
213.6759999999999
 20
611.1169999999999
 30
0.0
 11
212.618
 21
611.1169999999999
 31
0.0
  0
LINE
  5
1CB5
330
1E
100
AcDbEntity
  8
0
100
AcDbLine
 10
213.9409999999999
 20
610.77085
 30
0.0
 11
210.9409999999999
 21
610.77085
 31
0.0
  0
LINE
  5
1CB6
330
1E
100
AcDbEntity
  8
0
100
AcDbLine
 10
214.559
 20
611.0016099999999
 30
0.0
 11
213.6759999999999
 21
611.1169999999999
 31
0.0
  0
LINE
  5
1CB7
330
1E
100
AcDbEntity
  8
0
100
AcDbLine
 10
215.0
 20
610.77085
 30
0.0
 11
215.0
 21
605.1169999999999
 31
0.0
  0
LINE
  5
1CB8
330
1E
100
AcDbEntity
  8
0
100
AcDbLine
 10
215.0
 20
610.77085
 30
0.0
 11
214.559
 21
611.0016099999999
 31
0.0
  0
LINE
  5
1CB9
330
1E
100
AcDbEntity
  8
0
100
AcDbLine
 10
215.0
 20
610.77085
 30
0.0
 11
213.9409999999999
 21
610.77085
 31
0.0
  0
LINE
  5
1CBA
330
1E
100
AcDbEntity
  8
0
100
AcDbLine
 10
215.0
 20
605.1169999999999
 30
0.0
 11
215.0
 21
610.77085
 31
0.0
  0
LINE
  5
1CBB
330
1E
100
AcDbEntity
  8
0
100
AcDbLine
 10
200.0
 20
657.1635999999999
 30
0.0
 11
200.0
 21
611.1169999999999
 31
0.0
  0
LINE
  5
1CBC
330
1E
100
AcDbEntity
  8
0
100
AcDbLine
 10
200.0
 20
611.1169999999999
 30
0.0
 11
200.0
 21
657.1635999999999
 31
0.0
  0
LINE
  5
1CBD
330
1E
100
AcDbEntity
  8
0
100
AcDbLine
 10
199.294
 20
611.1169999999999
 30
0.0
 11
192.4119999999999
 21
611.1169999999999
 31
0.0
  0
LINE
  5
1CBE
330
1E
100
AcDbEntity
  8
0
100
AcDbLine
 10
199.9119999999999
 20
610.77085
 30
0.0
 11
192.6759999999999
 21
610.77085
 31
0.0
  0
LINE
  5
1CBF
330
1E
100
AcDbEntity
  8
0
100
AcDbLine
 10
209.794
 20
611.1169999999999
 30
0.0
 11
205.294
 21
611.1169999999999
 31
0.0
  0
LINE
  5
1CC0
330
1E
100
AcDbEntity
  8
0
100
AcDbLine
 10
206.176
 20
610.77085
 30
0.0
 11
199.9119999999999
 21
610.77085
 31
0.0
  0
LINE
  5
1CC1
330
1E
100
AcDbEntity
  8
0
100
AcDbLine
 10
212.618
 20
611.1169999999999
 30
0.0
 11
209.794
 21
611.1169999999999
 31
0.0
  0
LINE
  5
1CC2
330
1E
100
AcDbEntity
  8
0
100
AcDbLine
 10
210.9409999999999
 20
610.77085
 30
0.0
 11
206.176
 21
610.77085
 31
0.0
  0
LINE
  5
1CC3
330
1E
100
AcDbEntity
  8
0
100
AcDbLine
 10
205.294
 20
611.1169999999999
 30
0.0
 11
199.294
 21
611.1169999999999
 31
0.0
  0
LINE
  5
1CC4
330
1E
100
AcDbEntity
  8
0
100
AcDbLine
 10
160.2059999999999
 20
611.1169999999999
 30
0.0
 11
157.3819999999999
 21
611.1169999999999
 31
0.0
  0
LINE
  5
1CC5
330
1E
100
AcDbEntity
  8
0
100
AcDbLine
 10
159.059
 20
610.77085
 30
0.0
 11
156.059
 21
610.77085
 31
0.0
  0
LINE
  5
1CC6
330
1E
100
AcDbEntity
  8
0
100
AcDbLine
 10
171.1169999999999
 20
657.1635999999999
 30
0.0
 11
171.1169999999999
 21
611.1169999999999
 31
0.0
  0
LINE
  5
1CC7
330
1E
100
AcDbEntity
  8
0
100
AcDbLine
 10
171.1169999999999
 20
611.1169999999999
 30
0.0
 11
171.1169999999999
 21
657.1635999999999
 31
0.0
  0
LINE
  5
1CC8
330
1E
100
AcDbEntity
  8
0
100
AcDbLine
 10
177.588
 20
611.1169999999999
 30
0.0
 11
170.7059999999999
 21
611.1169999999999
 31
0.0
  0
LINE
  5
1CC9
330
1E
100
AcDbEntity
  8
0
100
AcDbLine
 10
177.324
 20
610.77085
 30
0.0
 11
170.088
 21
610.77085
 31
0.0
  0
LINE
  5
1CCA
330
1E
100
AcDbEntity
  8
0
100
AcDbLine
 10
185.0
 20
611.1169999999999
 30
0.0
 11
177.588
 21
611.1169999999999
 31
0.0
  0
LINE
  5
1CCB
330
1E
100
AcDbEntity
  8
0
100
AcDbLine
 10
185.0
 20
610.77085
 30
0.0
 11
177.324
 21
610.77085
 31
0.0
  0
LINE
  5
1CCC
330
1E
100
AcDbEntity
  8
0
100
AcDbLine
 10
170.7059999999999
 20
611.1169999999999
 30
0.0
 11
164.7059999999999
 21
611.1169999999999
 31
0.0
  0
LINE
  5
1CCD
330
1E
100
AcDbEntity
  8
0
100
AcDbLine
 10
170.088
 20
610.77085
 30
0.0
 11
163.824
 21
610.77085
 31
0.0
  0
LINE
  5
1CCE
330
1E
100
AcDbEntity
  8
0
100
AcDbLine
 10
164.7059999999999
 20
611.1169999999999
 30
0.0
 11
160.2059999999999
 21
611.1169999999999
 31
0.0
  0
LINE
  5
1CCF
330
1E
100
AcDbEntity
  8
0
100
AcDbLine
 10
163.824
 20
610.77085
 30
0.0
 11
159.059
 21
610.77085
 31
0.0
  0
LINE
  5
1CD0
330
1E
100
AcDbEntity
  8
0
100
AcDbLine
 10
170.593
 20
663.3080999999999
 30
0.0
 11
170.392
 21
664.1394
 31
0.0
  0
LINE
  5
1CD1
330
1E
100
AcDbEntity
  8
0
100
AcDbLine
 10
170.392
 20
664.1394
 30
0.0
 11
170.1209999999999
 21
664.9034
 31
0.0
  0
LINE
  5
1CD2
330
1E
100
AcDbEntity
  8
0
100
AcDbLine
 10
170.767
 20
662.3469
 30
0.0
 11
170.593
 21
663.3080999999999
 31
0.0
  0
LINE
  5
1CD3
330
1E
100
AcDbEntity
  8
0
100
AcDbLine
 10
171.049
 20
659.7744
 30
0.0
 11
170.767
 21
662.3469
 31
0.0
  0
LINE
  5
1CD4
330
1E
100
AcDbEntity
  8
0
100
AcDbLine
 10
171.108
 20
657.5103
 30
0.0
 11
171.049
 21
659.7744
 31
0.0
  0
LINE
  5
1CD5
330
1E
100
AcDbEntity
  8
0
100
AcDbLine
 10
171.1169999999999
 20
657.1635999999999
 30
0.0
 11
171.108
 21
657.5103
 31
0.0
  0
LINE
  5
1CD6
330
1E
100
AcDbEntity
  8
0
100
AcDbLine
 10
155.4409999999999
 20
611.0016099999999
 30
0.0
 11
155.0
 21
610.77085
 31
0.0
  0
LINE
  5
1CD7
330
1E
100
AcDbEntity
  8
0
100
AcDbLine
 10
156.324
 20
611.1169999999999
 30
0.0
 11
155.4409999999999
 21
611.0016099999999
 31
0.0
  0
LINE
  5
1CD8
330
1E
100
AcDbEntity
  8
0
100
AcDbLine
 10
157.3819999999999
 20
611.1169999999999
 30
0.0
 11
156.324
 21
611.1169999999999
 31
0.0
  0
LINE
  5
1CD9
330
1E
100
AcDbEntity
  8
0
100
AcDbLine
 10
155.0
 20
610.77085
 30
0.0
 11
155.0
 21
605.1169999999999
 31
0.0
  0
LINE
  5
1CDA
330
1E
100
AcDbEntity
  8
0
100
AcDbLine
 10
156.059
 20
610.77085
 30
0.0
 11
155.0
 21
610.77085
 31
0.0
  0
LINE
  5
1CDB
330
1E
100
AcDbEntity
  8
0
100
AcDbLine
 10
155.0
 20
605.1169999999999
 30
0.0
 11
155.0
 21
610.77085
 31
0.0
  0
LINE
  5
1CDC
330
1E
100
AcDbEntity
  8
0
100
AcDbLine
 10
133.5159999999999
 20
677.5465
 30
0.0
 11
129.1109999999999
 21
677.9199
 31
0.0
  0
LINE
  5
1CDD
330
1E
100
AcDbEntity
  8
0
100
AcDbLine
 10
131.644
 20
672.1055999999999
 30
0.0
 11
128.5319999999999
 21
672.5121999999999
 31
0.0
  0
LINE
  5
1CDE
330
1E
100
AcDbEntity
  8
0
100
AcDbLine
 10
198.93
 20
677.1751
 30
0.0
 11
152.9269999999999
 21
677.1751
 31
0.0
  0
LINE
  5
1CDF
330
1E
100
AcDbEntity
  8
0
100
AcDbLine
 10
199.39
 20
677.1519999999999
 30
0.0
 11
198.93
 21
677.1751
 31
0.0
  0
LINE
  5
1CE0
330
1E
100
AcDbEntity
  8
0
100
AcDbLine
 10
199.573
 20
677.1056999999999
 30
0.0
 11
199.39
 21
677.1519999999999
 31
0.0
  0
LINE
  5
1CE1
330
1E
100
AcDbEntity
  8
0
100
AcDbLine
 10
199.975
 20
676.6014
 30
0.0
 11
199.9259999999999
 21
676.7735
 31
0.0
  0
LINE
  5
1CE2
330
1E
100
AcDbEntity
  8
0
100
AcDbLine
 10
199.9259999999999
 20
676.7735
 30
0.0
 11
199.788
 21
676.9759
 31
0.0
  0
LINE
  5
1CE3
330
1E
100
AcDbEntity
  8
0
100
AcDbLine
 10
199.788
 20
676.9759
 30
0.0
 11
199.573
 21
677.1056999999999
 31
0.0
  0
LINE
  5
1CE4
330
1E
100
AcDbEntity
  8
0
100
AcDbLine
 10
200.0
 20
676.1686999999999
 30
0.0
 11
199.975
 21
676.6014
 31
0.0
  0
LINE
  5
1CE5
330
1E
100
AcDbEntity
  8
0
100
AcDbLine
 10
159.528
 20
670.6038999999999
 30
0.0
 11
156.79582064787
 21
670.8330139033099
 31
0.0
  0
LINE
  5
1CE6
330
1E
100
AcDbEntity
  8
0
100
AcDbLine
 10
166.193
 20
668.8274999999999
 30
0.0
 11
164.579
 21
669.5189999999999
 31
0.0
  0
LINE
  5
1CE7
330
1E
100
AcDbEntity
  8
0
100
AcDbLine
 10
168.828
 20
666.8819999999999
 30
0.0
 11
168.2569999999999
 21
667.4415999999999
 31
0.0
  0
LINE
  5
1CE8
330
1E
100
AcDbEntity
  8
0
100
AcDbLine
 10
168.2569999999999
 20
667.4415999999999
 30
0.0
 11
167.624
 21
667.9518999999999
 31
0.0
  0
LINE
  5
1CE9
330
1E
100
AcDbEntity
  8
0
100
AcDbLine
 10
167.624
 20
667.9518999999999
 30
0.0
 11
166.193
 21
668.8274999999999
 31
0.0
  0
LINE
  5
1CEA
330
1E
100
AcDbEntity
  8
0
100
AcDbLine
 10
169.7649999999999
 20
665.6138999999999
 30
0.0
 11
169.333
 21
666.2741999999999
 31
0.0
  0
LINE
  5
1CEB
330
1E
100
AcDbEntity
  8
0
100
AcDbLine
 10
169.333
 20
666.2741999999999
 30
0.0
 11
168.828
 21
666.8819999999999
 31
0.0
  0
LINE
  5
1CEC
330
1E
100
AcDbEntity
  8
0
100
AcDbLine
 10
164.579
 20
669.5189999999999
 30
0.0
 11
163.428
 21
669.8822999999999
 31
0.0
  0
LINE
  5
1CED
330
1E
100
AcDbEntity
  8
0
100
AcDbLine
 10
162.236
 20
670.1742
 30
0.0
 11
160.6109999999999
 21
670.4639999999999
 31
0.0
  0
LINE
  5
1CEE
330
1E
100
AcDbEntity
  8
0
100
AcDbLine
 10
160.6109999999999
 20
670.4639999999999
 30
0.0
 11
159.528
 21
670.6038999999999
 31
0.0
  0
LINE
  5
1CEF
330
1E
100
AcDbEntity
  8
0
100
AcDbLine
 10
163.428
 20
669.8822999999999
 30
0.0
 11
162.236
 21
670.1742
 31
0.0
  0
LINE
  5
1CF0
330
1E
100
AcDbEntity
  8
0
100
AcDbLine
 10
146.7859999999999
 20
677.1811
 30
0.0
 11
143.5599999999999
 21
677.2033
 31
0.0
  0
LINE
  5
1CF1
330
1E
100
AcDbEntity
  8
0
100
AcDbLine
 10
149.143
 20
671.2400999999999
 30
0.0
 11
142.49
 21
671.4714999999999
 31
0.0
  0
LINE
  5
1CF2
330
1E
100
AcDbEntity
  8
0
100
AcDbLine
 10
152.9269999999999
 20
677.1751
 30
0.0
 11
146.7859999999999
 21
677.1811
 31
0.0
  0
LINE
  5
1CF3
330
1E
100
AcDbEntity
  8
0
100
AcDbLine
 10
152.509
 20
671.0939999999999
 30
0.0
 11
149.143
 21
671.2400999999999
 31
0.0
  0
LINE
  5
1CF4
330
1E
100
AcDbEntity
  8
0
100
AcDbLine
 10
156.79582064787
 20
670.8330139033099
 30
0.0
 11
152.509
 21
671.0939999999999
 31
0.0
  0
LINE
  5
1CF5
330
1E
100
AcDbEntity
  8
0
100
AcDbLine
 10
137.685
 20
677.3350999999999
 30
0.0
 11
133.5159999999999
 21
677.5465
 31
0.0
  0
LINE
  5
1CF6
330
1E
100
AcDbEntity
  8
0
100
AcDbLine
 10
138.094
 20
671.6426
 30
0.0
 11
135.6119999999999
 21
671.7775
 31
0.0
  0
LINE
  5
1CF7
330
1E
100
AcDbEntity
  8
0
100
AcDbLine
 10
143.5599999999999
 20
677.2033
 30
0.0
 11
137.685
 21
677.3350999999999
 31
0.0
  0
LINE
  5
1CF8
330
1E
100
AcDbEntity
  8
0
100
AcDbLine
 10
142.49
 20
671.4714999999999
 30
0.0
 11
138.094
 21
671.6426
 31
0.0
  0
LINE
  5
1CF9
330
1E
100
AcDbEntity
  8
0
100
AcDbLine
 10
135.6119999999999
 20
671.7775
 30
0.0
 11
131.644
 21
672.1055999999999
 31
0.0
  0
LINE
  5
1CFA
330
1E
100
AcDbEntity
  8
0
100
AcDbLine
 10
120.7709999999999
 20
679.1699999999999
 30
0.0
 11
116.9309999999999
 21
680.0273999999999
 31
0.0
  0
LINE
  5
1CFB
330
1E
100
AcDbEntity
  8
0
100
AcDbLine
 10
117.338
 20
676.1344
 30
0.0
 11
115.818
 21
677.0584
 31
0.0
  0
LINE
  5
1CFC
330
1E
100
AcDbEntity
  8
0
100
AcDbLine
 10
124.448
 20
678.5218
 30
0.0
 11
120.7709999999999
 21
679.1699999999999
 31
0.0
  0
LINE
  5
1CFD
330
1E
100
AcDbEntity
  8
0
100
AcDbLine
 10
125.356
 20
673.1251
 30
0.0
 11
122.9499999999999
 21
673.7884
 31
0.0
  0
LINE
  5
1CFE
330
1E
100
AcDbEntity
  8
0
100
AcDbLine
 10
128.5319999999999
 20
672.5121999999999
 30
0.0
 11
126.54
 21
672.8916
 31
0.0
  0
LINE
  5
1CFF
330
1E
100
AcDbEntity
  8
0
100
AcDbLine
 10
126.54
 20
672.8916
 30
0.0
 11
125.356
 21
673.1251
 31
0.0
  0
LINE
  5
1D00
330
1E
100
AcDbEntity
  8
0
100
AcDbLine
 10
129.1109999999999
 20
677.9199
 30
0.0
 11
124.448
 21
678.5218
 31
0.0
  0
LINE
  5
1D01
330
1E
100
AcDbEntity
  8
0
100
AcDbLine
 10
125.356
 20
673.1251
 30
0.0
 11
124.7469999999999
 21
673.2931999999999
 31
0.0
  0
LINE
  5
1D02
330
1E
100
AcDbEntity
  8
0
100
AcDbLine
 10
120.509
 20
674.6237999999999
 30
0.0
 11
118.8749999999999
 21
675.3392999999999
 31
0.0
  0
LINE
  5
1D03
330
1E
100
AcDbEntity
  8
0
100
AcDbLine
 10
118.8749999999999
 20
675.3392999999999
 30
0.0
 11
117.338
 21
676.1344
 31
0.0
  0
LINE
  5
1D04
330
1E
100
AcDbEntity
  8
0
100
AcDbLine
 10
122.9499999999999
 20
673.7884
 30
0.0
 11
122.153
 21
674.0218999999999
 31
0.0
  0
LINE
  5
1D05
330
1E
100
AcDbEntity
  8
0
100
AcDbLine
 10
122.153
 20
674.0218999999999
 30
0.0
 11
120.509
 21
674.6237999999999
 31
0.0
  0
LINE
  5
1D06
330
1E
100
AcDbEntity
  8
0
100
AcDbLine
 10
115.1069999999999
 20
677.7197
 30
0.0
 11
115.0
 21
678.1132
 31
0.0
  0
LINE
  5
1D07
330
1E
100
AcDbEntity
  8
0
100
AcDbLine
 10
115.074
 20
678.5349
 30
0.0
 11
115.0
 21
678.1132
 31
0.0
  0
LINE
  5
1D08
330
1E
100
AcDbEntity
  8
0
100
AcDbLine
 10
115.994
 20
679.9700999999999
 30
0.0
 11
115.665
 21
679.5472999999999
 31
0.0
  0
LINE
  5
1D09
330
1E
100
AcDbEntity
  8
0
100
AcDbLine
 10
116.199
 20
680.0857999999999
 30
0.0
 11
115.994
 21
679.9700999999999
 31
0.0
  0
LINE
  5
1D0A
330
1E
100
AcDbEntity
  8
0
100
AcDbLine
 10
116.443
 20
680.1169999999999
 30
0.0
 11
116.199
 21
680.0857999999999
 31
0.0
  0
LINE
  5
1D0B
330
1E
100
AcDbEntity
  8
0
100
AcDbLine
 10
116.9309999999999
 20
680.0273999999999
 30
0.0
 11
116.443
 21
680.1169999999999
 31
0.0
  0
LINE
  5
1D0C
330
1E
100
AcDbEntity
  8
0
100
AcDbLine
 10
115.3859999999999
 20
679.1074999999999
 30
0.0
 11
115.074
 21
678.5349
 31
0.0
  0
LINE
  5
1D0D
330
1E
100
AcDbEntity
  8
0
100
AcDbLine
 10
115.665
 20
679.5472999999999
 30
0.0
 11
115.3859999999999
 21
679.1074999999999
 31
0.0
  0
LINE
  5
1D0E
330
1E
100
AcDbEntity
  8
0
100
AcDbLine
 10
115.2769999999999
 20
677.4831
 30
0.0
 11
115.1069999999999
 21
677.7197
 31
0.0
  0
LINE
  5
1D0F
330
1E
100
AcDbEntity
  8
0
100
AcDbLine
 10
115.818
 20
677.0584
 30
0.0
 11
115.676
 21
677.1702
 31
0.0
  0
LINE
  5
1D10
330
1E
100
AcDbEntity
  8
0
100
AcDbLine
 10
115.676
 20
677.1702
 30
0.0
 11
115.2769999999999
 21
677.4831
 31
0.0
  0
ENDSEC
  0
SECTION
  2
OBJECTS
  0
DICTIONARY
  5
C
330
0
100
AcDbDictionary
281
     1
  3
ACAD_GROUP
350
D
  3
ACAD_LAYOUT
350
19
  3
ACAD_MLINESTYLE
350
16
  3
ACAD_PLOTSETTINGS
350
18
  3
ACAD_PLOTSTYLENAME
350
E
  3
AcDbVariableDictionary
350
1D12
  0
DICTIONARY
  5
D
102
{ACAD_REACTORS
330
C
102
}
330
C
100
AcDbDictionary
281
     1
  0
DICTIONARY
  5
19
102
{ACAD_REACTORS
330
C
102
}
330
C
100
AcDbDictionary
281
     1
  3
Layout1
350
1D
  3
Model
350
21
  0
DICTIONARY
  5
16
102
{ACAD_REACTORS
330
C
102
}
330
C
100
AcDbDictionary
281
     1
  3
Standard
350
17
  0
DICTIONARY
  5
18
102
{ACAD_REACTORS
330
C
102
}
330
C
100
AcDbDictionary
281
     1
  0
ACDBDICTIONARYWDFLT
  5
E
102
{ACAD_REACTORS
330
C
102
}
330
C
100
AcDbDictionary
281
     1
  3
Normal
350
F
100
AcDbDictionaryWithDefault
340
F
  0
DICTIONARY
  5
1D12
102
{ACAD_REACTORS
330
C
102
}
330
C
100
AcDbDictionary
281
     1
  3
DIMASSOC
350
1D13
  0
LAYOUT
  5
1D
102
{ACAD_REACTORS
330
19
102
}
330
19
100
AcDbPlotSettings
  1

  2
C:\Programme\AutoCAD LT 2002 Deu\plotters\DWF ePlot (optimized for plotting).pc3
  4

  6

 40
0.0
 41
0.0
 42
0.0
 43
0.0
 44
0.0
 45
0.0
 46
0.0
 47
0.0
 48
0.0
 49
0.0
140
0.0
141
0.0
142
1.0
143
1.0
 70
   688
 72
     0
 73
     0
 74
     5
  7

 75
    16
147
1.0
148
0.0
149
0.0
100
AcDbLayout
  1
Layout1
 70
     1
 71
     1
 10
0.0
 20
0.0
 11
12.0
 21
9.0
 12
0.0
 22
0.0
 32
0.0
 14
1.000000000000000E+20
 24
1.000000000000000E+20
 34
1.000000000000000E+20
 15
-1.000000000000000E+20
 25
-1.000000000000000E+20
 35
-1.000000000000000E+20
146
0.0
 13
0.0
 23
0.0
 33
0.0
 16
1.0
 26
0.0
 36
0.0
 17
0.0
 27
1.0
 37
0.0
 76
     0
330
1A
  0
LAYOUT
  5
21
102
{ACAD_REACTORS
330
19
102
}
330
19
100
AcDbPlotSettings
  1

  2
C:\Programme\AutoCAD LT 2002 Deu\plotters\DWF ePlot (optimized for plotting).pc3
  4

  6

 40
0.0
 41
0.0
 42
0.0
 43
0.0
 44
0.0
 45
0.0
 46
0.0
 47
0.0
 48
0.0
 49
0.0
140
0.0
141
0.0
142
1.0
143
1.0
 70
  1712
 72
     0
 73
     0
 74
     0
  7

 75
     0
147
1.0
148
0.0
149
0.0
100
AcDbLayout
  1
Model
 70
     1
 71
     0
 10
0.0
 20
0.0
 11
12.0
 21
9.0
 12
0.0
 22
0.0
 32
0.0
 14
0.0
 24
0.0
 34
0.0
 15
0.0
 25
0.0
 35
0.0
146
0.0
 13
0.0
 23
0.0
 33
0.0
 16
1.0
 26
0.0
 36
0.0
 17
0.0
 27
1.0
 37
0.0
 76
     0
330
1E
  0
MLINESTYLE
  5
17
102
{ACAD_REACTORS
330
16
102
}
330
16
100
AcDbMlineStyle
  2
STANDARD
 70
     0
  3

 62
   256
 51
90.0
 52
90.0
 71
     2
 49
0.5
 62
   256
  6
BYLAYER
 49
-0.5
 62
   256
  6
BYLAYER
  0
ACDBPLACEHOLDER
  5
F
102
{ACAD_REACTORS
330
E
102
}
330
E
  0
DICTIONARYVAR
  5
1D13
102
{ACAD_REACTORS
330
1D12
102
}
330
1D12
100
DictionaryVariables
280
     0
  1
1
  0
ENDSEC
  0
EOF
