  0
SECTION
  2
HEADER
  9
$ACADVER
  1
AC1015
  9
$ACADMAINTVER
 70
    13
  9
$DWGCODEPAGE
  3
ANSI_1252
  9
$INSBASE
 10
0.0
 20
0.0
 30
0.0
  9
$EXTMIN
 10
0.0
 20
0.0
 30
0.0
  9
$EXTMAX
 10
150.0
 20
68.0
 30
0.0
  9
$LIMMIN
 10
0.0
 20
0.0
  9
$LIMMAX
 10
12.0
 20
9.0
  9
$ORTHOMODE
 70
     0
  9
$REGENMODE
 70
     1
  9
$FILLMODE
 70
     1
  9
$QTEXTMODE
 70
     0
  9
$MIRRTEXT
 70
     1
  9
$LTSCALE
 40
1.0
  9
$ATTMODE
 70
     1
  9
$TEXTSIZE
 40
0.2
  9
$TRACEWID
 40
0.05
  9
$TEXTSTYLE
  7
Standard
  9
$CLAYER
  8
0
  9
$CELTYPE
  6
Continuous
  9
$CECOLOR
 62
   256
  9
$CELTSCALE
 40
1.0
  9
$DISPSILH
 70
     0
  9
$DIMSCALE
 40
1.0
  9
$DIMASZ
 40
0.18
  9
$DIMEXO
 40
0.0625
  9
$DIMDLI
 40
0.38
  9
$DIMRND
 40
0.0
  9
$DIMDLE
 40
0.0
  9
$DIMEXE
 40
0.18
  9
$DIMTP
 40
0.0
  9
$DIMTM
 40
0.0
  9
$DIMTXT
 40
0.18
  9
$DIMCEN
 40
0.09
  9
$DIMTSZ
 40
0.0
  9
$DIMTOL
 70
     0
  9
$DIMLIM
 70
     0
  9
$DIMTIH
 70
     1
  9
$DIMTOH
 70
     1
  9
$DIMSE1
 70
     0
  9
$DIMSE2
 70
     0
  9
$DIMTAD
 70
     0
  9
$DIMZIN
 70
     0
  9
$DIMBLK
  1

  9
$DIMASO
 70
     1
  9
$DIMSHO
 70
     1
  9
$DIMPOST
  1

  9
$DIMAPOST
  1

  9
$DIMALT
 70
     0
  9
$DIMALTD
 70
     2
  9
$DIMALTF
 40
25.4
  9
$DIMLFAC
 40
1.0
  9
$DIMTOFL
 70
     0
  9
$DIMTVP
 40
0.0
  9
$DIMTIX
 70
     0
  9
$DIMSOXD
 70
     0
  9
$DIMSAH
 70
     0
  9
$DIMBLK1
  1

  9
$DIMBLK2
  1

  9
$DIMSTYLE
  2
Standard
  9
$DIMCLRD
 70
     0
  9
$DIMCLRE
 70
     0
  9
$DIMCLRT
 70
     0
  9
$DIMTFAC
 40
1.0
  9
$DIMGAP
 40
0.09
  9
$DIMJUST
 70
     0
  9
$DIMSD1
 70
     0
  9
$DIMSD2
 70
     0
  9
$DIMTOLJ
 70
     1
  9
$DIMTZIN
 70
     0
  9
$DIMALTZ
 70
     0
  9
$DIMALTTZ
 70
     0
  9
$DIMUPT
 70
     0
  9
$DIMDEC
 70
     4
  9
$DIMTDEC
 70
     4
  9
$DIMALTU
 70
     2
  9
$DIMALTTD
 70
     2
  9
$DIMTXSTY
  7
Standard
  9
$DIMAUNIT
 70
     0
  9
$DIMADEC
 70
     0
  9
$DIMALTRND
 40
0.0
  9
$DIMAZIN
 70
     0
  9
$DIMDSEP
 70
    46
  9
$DIMATFIT
 70
     3
  9
$DIMFRAC
 70
     0
  9
$DIMLDRBLK
  1

  9
$DIMLUNIT
 70
     2
  9
$DIMLWD
 70
    -2
  9
$DIMLWE
 70
    -2
  9
$DIMTMOVE
 70
     0
  9
$LUNITS
 70
     2
  9
$LUPREC
 70
     4
  9
$SKETCHINC
 40
0.1
  9
$FILLETRAD
 40
0.0
  9
$AUNITS
 70
     0
  9
$AUPREC
 70
     0
  9
$MENU
  1
.
  9
$ELEVATION
 40
0.0
  9
$PELEVATION
 40
0.0
  9
$THICKNESS
 40
0.0
  9
$LIMCHECK
 70
     0
  9
$CHAMFERA
 40
0.0
  9
$CHAMFERB
 40
0.0
  9
$CHAMFERC
 40
0.0
  9
$CHAMFERD
 40
0.0
  9
$SKPOLY
 70
     0
  9
$TDCREATE
 40
2455655.363522673
  9
$TDUCREATE
 40
2455655.280189340
  9
$TDUPDATE
 40
2455655.366062095
  9
$TDUUPDATE
 40
2455655.282728761
  9
$TDINDWG
 40
0.0025394213
  9
$TDUSRTIMER
 40
0.0025394213
  9
$USRTIMER
 70
     1
  9
$ANGBASE
 50
0.0
  9
$ANGDIR
 70
     0
  9
$PDMODE
 70
     0
  9
$PDSIZE
 40
0.0
  9
$PLINEWID
 40
0.0
  9
$SPLFRAME
 70
     0
  9
$SPLINETYPE
 70
     6
  9
$SPLINESEGS
 70
     8
  9
$HANDSEED
  5
2E7
  9
$SURFTAB1
 70
     6
  9
$SURFTAB2
 70
     6
  9
$SURFTYPE
 70
     6
  9
$SURFU
 70
     6
  9
$SURFV
 70
     6
  9
$UCSBASE
  2

  9
$UCSNAME
  2

  9
$UCSORG
 10
0.0
 20
0.0
 30
0.0
  9
$UCSXDIR
 10
1.0
 20
0.0
 30
0.0
  9
$UCSYDIR
 10
0.0
 20
1.0
 30
0.0
  9
$UCSORTHOREF
  2

  9
$UCSORTHOVIEW
 70
     1
  9
$UCSORGTOP
 10
0.0
 20
0.0
 30
0.0
  9
$UCSORGBOTTOM
 10
0.0
 20
0.0
 30
0.0
  9
$UCSORGLEFT
 10
0.0
 20
0.0
 30
0.0
  9
$UCSORGRIGHT
 10
0.0
 20
0.0
 30
0.0
  9
$UCSORGFRONT
 10
0.0
 20
0.0
 30
0.0
  9
$UCSORGBACK
 10
0.0
 20
0.0
 30
0.0
  9
$PUCSBASE
  2

  9
$PUCSNAME
  2

  9
$PUCSORG
 10
0.0
 20
0.0
 30
0.0
  9
$PUCSXDIR
 10
1.0
 20
0.0
 30
0.0
  9
$PUCSYDIR
 10
0.0
 20
1.0
 30
0.0
  9
$PUCSORTHOREF
  2

  9
$PUCSORTHOVIEW
 70
     0
  9
$PUCSORGTOP
 10
0.0
 20
0.0
 30
0.0
  9
$PUCSORGBOTTOM
 10
0.0
 20
0.0
 30
0.0
  9
$PUCSORGLEFT
 10
0.0
 20
0.0
 30
0.0
  9
$PUCSORGRIGHT
 10
0.0
 20
0.0
 30
0.0
  9
$PUCSORGFRONT
 10
0.0
 20
0.0
 30
0.0
  9
$PUCSORGBACK
 10
0.0
 20
0.0
 30
0.0
  9
$USERI1
 70
     0
  9
$USERI2
 70
     0
  9
$USERI3
 70
     0
  9
$USERI4
 70
     0
  9
$USERI5
 70
     0
  9
$USERR1
 40
0.0
  9
$USERR2
 40
0.0
  9
$USERR3
 40
0.0
  9
$USERR4
 40
0.0
  9
$USERR5
 40
0.0
  9
$WORLDVIEW
 70
     1
  9
$SHADEDGE
 70
     3
  9
$SHADEDIF
 70
    70
  9
$TILEMODE
 70
     1
  9
$MAXACTVP
 70
    64
  9
$PINSBASE
 10
0.0
 20
0.0
 30
0.0
  9
$PLIMCHECK
 70
     0
  9
$PEXTMIN
 10
1.000000000000000E+20
 20
1.000000000000000E+20
 30
1.000000000000000E+20
  9
$PEXTMAX
 10
-1.000000000000000E+20
 20
-1.000000000000000E+20
 30
-1.000000000000000E+20
  9
$PLIMMIN
 10
0.0
 20
0.0
  9
$PLIMMAX
 10
12.0
 20
9.0
  9
$UNITMODE
 70
     0
  9
$VISRETAIN
 70
     1
  9
$PLINEGEN
 70
     0
  9
$PSLTSCALE
 70
     1
  9
$TREEDEPTH
 70
  3020
  9
$CMLSTYLE
  2
Standard
  9
$CMLJUST
 70
     0
  9
$CMLSCALE
 40
1.0
  9
$PROXYGRAPHICS
 70
     1
  9
$MEASUREMENT
 70
     0
  9
$CELWEIGHT
370
    -1
  9
$ENDCAPS
280
     0
  9
$JOINSTYLE
280
     0
  9
$LWDISPLAY
290
     0
  9
$INSUNITS
 70
     0
  9
$HYPERLINKBASE
  1

  9
$STYLESHEET
  1

  9
$XEDIT
290
     1
  9
$CEPSNTYPE
380
     0
  9
$PSTYLEMODE
290
     1
  9
$FINGERPRINTGUID
  2
{11748796-B5BD-4C0B-8274-DF5234962379}
  9
$VERSIONGUID
  2
{9BAD9066-D4C2-40CE-80FB-87FBA97CDCF2}
  9
$EXTNAMES
290
     1
  9
$PSVPSCALE
 40
0.0
  9
$OLESTARTUP
290
     0
  0
ENDSEC
  0
SECTION
  2
CLASSES
  0
CLASS
  1
ACDBDICTIONARYWDFLT
  2
AcDbDictionaryWithDefault
  3
AutoCAD 2000
 90
        0
280
     0
281
     0
  0
CLASS
  1
ACDBPLACEHOLDER
  2
AcDbPlaceHolder
  3
AutoCAD 2000
 90
        0
280
     0
281
     0
  0
CLASS
  1
LAYOUT
  2
AcDbLayout
  3
AutoCAD 2000
 90
        0
280
     0
281
     0
  0
CLASS
  1
DICTIONARYVAR
  2
AcDbDictionaryVar
  3
AutoCAD 2000
 90
        0
280
     0
281
     0
  0
ENDSEC
  0
SECTION
  2
TABLES
  0
TABLE
  2
VPORT
  5
8
330
0
100
AcDbSymbolTable
 70
     4
  0
VPORT
  5
2E6
330
8
100
AcDbSymbolTableRecord
100
AcDbViewportTableRecord
  2
*Active
 70
     0
 10
0.0
 20
0.0
 11
1.0
 21
1.0
 12
75.0
 22
34.0
 13
0.0
 23
0.0
 14
1.0
 24
1.0
 15
0.0
 25
0.0
 16
0.0
 26
0.0
 36
1.0
 17
0.0
 27
0.0
 37
0.0
 40
72.58238493830423
 41
2.073363431151241
 42
50.0
 43
0.0
 44
0.0
 50
0.0
 51
0.0
 71
     0
 72
   100
 73
     1
 74
     3
 75
     0
 76
     0
 77
     0
 78
     0
281
     0
 65
     1
110
0.0
120
0.0
130
0.0
111
1.0
121
0.0
131
0.0
112
0.0
122
1.0
132
0.0
 79
     1
146
0.0
  0
ENDTAB
  0
TABLE
  2
LTYPE
  5
5
330
0
100
AcDbSymbolTable
 70
     1
  0
LTYPE
  5
13
330
5
100
AcDbSymbolTableRecord
100
AcDbLinetypeTableRecord
  2
ByBlock
 70
     0
  3

 72
    65
 73
     0
 40
0.0
  0
LTYPE
  5
14
330
5
100
AcDbSymbolTableRecord
100
AcDbLinetypeTableRecord
  2
ByLayer
 70
     0
  3

 72
    65
 73
     0
 40
0.0
  0
LTYPE
  5
15
330
5
100
AcDbSymbolTableRecord
100
AcDbLinetypeTableRecord
  2
Continuous
 70
     0
  3
Solid line
 72
    65
 73
     0
 40
0.0
  0
ENDTAB
  0
TABLE
  2
LAYER
  5
2
330
0
100
AcDbSymbolTable
 70
     1
  0
LAYER
  5
10
330
2
100
AcDbSymbolTableRecord
100
AcDbLayerTableRecord
  2
0
 70
     0
 62
     7
  6
Continuous
370
    -3
390
F
  0
ENDTAB
  0
TABLE
  2
STYLE
  5
3
330
0
100
AcDbSymbolTable
 70
     1
  0
STYLE
  5
11
330
3
100
AcDbSymbolTableRecord
100
AcDbTextStyleTableRecord
  2
Standard
 70
     0
 40
0.0
 41
1.0
 50
0.0
 71
     0
 42
0.2
  3
txt
  4

  0
ENDTAB
  0
TABLE
  2
VIEW
  5
6
330
0
100
AcDbSymbolTable
 70
     0
  0
ENDTAB
  0
TABLE
  2
UCS
  5
7
330
0
100
AcDbSymbolTable
 70
     0
  0
ENDTAB
  0
TABLE
  2
APPID
  5
9
330
0
100
AcDbSymbolTable
 70
     1
  0
APPID
  5
12
330
9
100
AcDbSymbolTableRecord
100
AcDbRegAppTableRecord
  2
ACAD
 70
     0
  0
ENDTAB
  0
TABLE
  2
DIMSTYLE
  5
A
330
0
100
AcDbSymbolTable
 70
     1
100
AcDbDimStyleTable
 71
     0
  0
DIMSTYLE
105
2DB
330
A
100
AcDbSymbolTableRecord
100
AcDbDimStyleTableRecord
  2
Standard
 70
     0
340
11
  0
ENDTAB
  0
TABLE
  2
BLOCK_RECORD
  5
1
330
0
100
AcDbSymbolTable
 70
     0
  0
BLOCK_RECORD
  5
1E
330
1
100
AcDbSymbolTableRecord
100
AcDbBlockTableRecord
  2
*Model_Space
340
21
  0
BLOCK_RECORD
  5
1A
330
1
100
AcDbSymbolTableRecord
100
AcDbBlockTableRecord
  2
*Paper_Space
340
1D
  0
ENDTAB
  0
ENDSEC
  0
SECTION
  2
BLOCKS
  0
BLOCK
  5
1F
330
1E
100
AcDbEntity
  8
0
100
AcDbBlockBegin
  2
*Model_Space
 70
     0
 10
0.0
 20
0.0
 30
0.0
  3
*Model_Space
  1

  0
ENDBLK
  5
20
330
1E
100
AcDbEntity
  8
0
100
AcDbBlockEnd
  0
BLOCK
  5
1B
330
1A
100
AcDbEntity
 67
     1
  8
0
100
AcDbBlockBegin
  2
*Paper_Space
 70
     0
 10
0.0
 20
0.0
 30
0.0
  3
*Paper_Space
  1

  0
ENDBLK
  5
1C
330
1A
100
AcDbEntity
 67
     1
  8
0
100
AcDbBlockEnd
  0
ENDSEC
  0
SECTION
  2
ENTITIES
  0
LINE
  5
22
330
1E
100
AcDbEntity
  8
0
100
AcDbLine
 10
0.0
 20
58.0
 30
0.0
 11
0.4411760000000001
 21
56.6
 31
0.0
  0
LINE
  5
23
330
1E
100
AcDbEntity
  8
0
100
AcDbLine
 10
0.0
 20
58.0
 30
0.0
 11
0.0
 21
68.0
 31
0.0
  0
LINE
  5
24
330
1E
100
AcDbEntity
  8
0
100
AcDbLine
 10
0.4411760000000001
 20
56.6
 30
0.0
 11
1.41176
 21
55.5
 31
0.0
  0
LINE
  5
25
330
1E
100
AcDbEntity
  8
0
100
AcDbLine
 10
1.41176
 20
55.5
 30
0.0
 11
2.647059999999999
 21
55.0
 31
0.0
  0
LINE
  5
26
330
1E
100
AcDbEntity
  8
0
100
AcDbLine
 10
2.647059999999999
 20
55.0
 30
0.0
 11
3.35294
 21
55.0
 31
0.0
  0
LINE
  5
27
330
1E
100
AcDbEntity
  8
0
100
AcDbLine
 10
0.7941180000000001
 20
68.0
 30
0.0
 11
2.735289999999999
 21
68.0
 31
0.0
  0
LINE
  5
28
330
1E
100
AcDbEntity
  8
0
100
AcDbLine
 10
3.35294
 20
55.0
 30
0.0
 11
5.294119999999999
 21
55.0
 31
0.0
  0
LINE
  5
29
330
1E
100
AcDbEntity
  8
0
100
AcDbLine
 10
5.294119999999999
 20
55.0
 30
0.0
 11
8.294119999999999
 21
55.0
 31
0.0
  0
LINE
  5
2A
330
1E
100
AcDbEntity
  8
0
100
AcDbLine
 10
8.294119999999999
 20
55.0
 30
0.0
 11
12.35289999999999
 21
55.0
 31
0.0
  0
LINE
  5
2B
330
1E
100
AcDbEntity
  8
0
100
AcDbLine
 10
12.35289999999999
 20
55.0
 30
0.0
 11
17.6471
 21
55.0
 31
0.0
  0
LINE
  5
2C
330
1E
100
AcDbEntity
  8
0
100
AcDbLine
 10
23.91179999999999
 20
55.0
 30
0.0
 11
31.0588
 21
55.0
 31
0.0
  0
LINE
  5
2D
330
1E
100
AcDbEntity
  8
0
100
AcDbLine
 10
17.6471
 20
55.0
 30
0.0
 11
23.91179999999999
 21
55.0
 31
0.0
  0
LINE
  5
2E
330
1E
100
AcDbEntity
  8
0
100
AcDbLine
 10
15.6176
 20
68.0
 30
0.0
 11
22.0588
 21
68.0
 31
0.0
  0
LINE
  5
2F
330
1E
100
AcDbEntity
  8
0
100
AcDbLine
 10
10.0588
 20
68.0
 30
0.0
 11
15.6176
 21
68.0
 31
0.0
  0
LINE
  5
30
330
1E
100
AcDbEntity
  8
0
100
AcDbLine
 10
5.823529999999999
 20
68.0
 30
0.0
 11
10.0588
 21
68.0
 31
0.0
  0
LINE
  5
31
330
1E
100
AcDbEntity
  8
0
100
AcDbLine
 10
2.735289999999999
 20
68.0
 30
0.0
 11
5.823529999999999
 21
68.0
 31
0.0
  0
LINE
  5
32
330
1E
100
AcDbEntity
  8
0
100
AcDbLine
 10
0.7941180000000001
 20
68.0
 30
0.0
 11
2.735289999999999
 21
68.0
 31
0.0
  0
LINE
  5
33
330
1E
100
AcDbEntity
  8
0
100
AcDbLine
 10
0.0
 20
68.0
 30
0.0
 11
0.7941180000000001
 21
68.0
 31
0.0
  0
LINE
  5
34
330
1E
100
AcDbEntity
  8
0
100
AcDbLine
 10
0.0
 20
68.0
 30
0.0
 11
0.0
 21
58.0
 31
0.0
  0
LINE
  5
35
330
1E
100
AcDbEntity
  8
0
100
AcDbLine
 10
22.0588
 20
68.0
 30
0.0
 11
29.3824
 21
68.0
 31
0.0
  0
LINE
  5
36
330
1E
100
AcDbEntity
  8
0
100
AcDbLine
 10
39.0
 20
55.0
 30
0.0
 11
47.3824
 21
55.0
 31
0.0
  0
LINE
  5
38
330
1E
100
AcDbEntity
  8
0
100
AcDbLine
 10
31.0588
 20
55.0
 30
0.0
 11
39.0
 21
55.0
 31
0.0
  0
LINE
  5
39
330
1E
100
AcDbEntity
  8
0
100
AcDbLine
 10
29.3824
 20
68.0
 30
0.0
 11
37.67649999999999
 21
68.0
 31
0.0
  0
LINE
  5
3A
330
1E
100
AcDbEntity
  8
0
100
AcDbLine
 10
37.67649999999999
 20
68.0
 30
0.0
 11
46.3235
 21
68.0
 31
0.0
  0
LINE
  5
3B
330
1E
100
AcDbEntity
  8
0
100
AcDbLine
 10
53.002
 20
18.779
 30
0.0
 11
53.005
 21
19.7987
 31
0.0
  0
LINE
  5
3C
330
1E
100
AcDbEntity
  8
0
100
AcDbLine
 10
53.002
 20
18.779
 30
0.0
 11
53.003
 21
17.64199999999999
 31
0.0
  0
LINE
  5
3D
330
1E
100
AcDbEntity
  8
0
100
AcDbLine
 10
55.0255
 20
3.438759999999999
 30
0.0
 11
55.0754
 21
3.126679999999999
 31
0.0
  0
LINE
  5
3E
330
1E
100
AcDbEntity
  8
0
100
AcDbLine
 10
54.9515
 20
3.843259999999999
 30
0.0
 11
55.0255
 21
3.438759999999999
 31
0.0
  0
LINE
  5
3F
330
1E
100
AcDbEntity
  8
0
100
AcDbLine
 10
55.0754
 20
3.126679999999999
 30
0.0
 11
55.1764
 21
2.391229999999999
 31
0.0
  0
LINE
  5
40
330
1E
100
AcDbEntity
  8
0
100
AcDbLine
 10
55.1764
 20
2.391229999999999
 30
0.0
 11
55.2374
 21
2.181519999999999
 31
0.0
  0
LINE
  5
41
330
1E
100
AcDbEntity
  8
0
100
AcDbLine
 10
53.5319
 20
4.101660000000009
 30
0.0
 11
53.75379999999999
 21
4.04004
 31
0.0
  0
LINE
  5
42
330
1E
100
AcDbEntity
  8
0
100
AcDbLine
 10
53.03899999999999
 20
4.756620000000009
 30
0.0
 11
53.098
 21
4.53399
 31
0.0
  0
LINE
  5
43
330
1E
100
AcDbEntity
  8
0
100
AcDbLine
 10
53.098
 20
4.53399
 30
0.0
 11
53.26389999999999
 21
4.274589999999999
 31
0.0
  0
LINE
  5
44
330
1E
100
AcDbEntity
  8
0
100
AcDbLine
 10
53.26389999999999
 20
4.274589999999999
 30
0.0
 11
53.5249
 21
4.10564
 31
0.0
  0
LINE
  5
45
330
1E
100
AcDbEntity
  8
0
100
AcDbLine
 10
53.75379999999999
 20
4.04004
 30
0.0
 11
53.8258
 21
4.033080000000009
 31
0.0
  0
LINE
  5
46
330
1E
100
AcDbEntity
  8
0
100
AcDbLine
 10
53.8258
 20
4.033080000000009
 30
0.0
 11
54.4026
 21
3.993330000000009
 31
0.0
  0
LINE
  5
47
330
1E
100
AcDbEntity
  8
0
100
AcDbLine
 10
54.7025
 20
3.981400000000009
 30
0.0
 11
55.23839999999999
 21
3.966500000000009
 31
0.0
  0
LINE
  5
48
330
1E
100
AcDbEntity
  8
0
100
AcDbLine
 10
54.4026
 20
3.993330000000009
 30
0.0
 11
54.7025
 21
3.981400000000009
 31
0.0
  0
LINE
  5
49
330
1E
100
AcDbEntity
  8
0
100
AcDbLine
 10
53.003
 20
20.51429999999999
 30
0.0
 11
53.008
 21
20.8383
 31
0.0
  0
LINE
  5
4A
330
1E
100
AcDbEntity
  8
0
100
AcDbLine
 10
53.003
 20
20.51429999999999
 30
0.0
 11
53.00399999999999
 21
19.2799
 31
0.0
  0
LINE
  5
4B
330
1E
100
AcDbEntity
  8
0
100
AcDbLine
 10
53.00399999999999
 20
15.535
 30
0.0
 11
53.014
 21
5.314169999999999
 31
0.0
  0
LINE
  5
4C
330
1E
100
AcDbEntity
  8
0
100
AcDbLine
 10
53.00399999999999
 20
15.535
 30
0.0
 11
53.00699999999999
 21
16.509
 31
0.0
  0
LINE
  5
4D
330
1E
100
AcDbEntity
  8
0
100
AcDbLine
 10
53.00399999999999
 20
15.535
 30
0.0
 11
53.014
 21
5.314170000000009
 31
0.0
  0
LINE
  5
4E
330
1E
100
AcDbEntity
  8
0
100
AcDbLine
 10
53.00399999999999
 20
19.2799
 30
0.0
 11
53.005
 21
19.7987
 31
0.0
  0
LINE
  5
4F
330
1E
100
AcDbEntity
  8
0
100
AcDbLine
 10
53.003
 20
21.76849999999999
 30
0.0
 11
53.005
 21
22.8647
 31
0.0
  0
LINE
  5
50
330
1E
100
AcDbEntity
  8
0
100
AcDbLine
 10
53.003
 20
21.76849999999999
 30
0.0
 11
53.008
 21
20.8383
 31
0.0
  0
LINE
  5
51
330
1E
100
AcDbEntity
  8
0
100
AcDbLine
 10
53.011
 20
5.31815
 30
0.0
 11
53.03899999999999
 21
4.756620000000009
 31
0.0
  0
LINE
  5
52
330
1E
100
AcDbEntity
  8
0
100
AcDbLine
 10
54.9221116999001
 20
3.975293983339229
 30
0.0
 11
54.9515
 21
3.843259999999999
 31
0.0
  0
LINE
  5
53
330
1E
100
AcDbEntity
  8
0
100
AcDbLine
 10
53.002
 20
17.2117
 30
0.0
 11
53.00699999999999
 21
16.509
 31
0.0
  0
LINE
  5
54
330
1E
100
AcDbEntity
  8
0
100
AcDbLine
 10
53.002
 20
17.2117
 30
0.0
 11
53.003
 21
17.64199999999999
 31
0.0
  0
LINE
  5
55
330
1E
100
AcDbEntity
  8
0
100
AcDbLine
 10
55.2374
 20
2.181519999999999
 30
0.0
 11
55.33339999999999
 21
1.875409999999999
 31
0.0
  0
LINE
  5
56
330
1E
100
AcDbEntity
  8
0
100
AcDbLine
 10
55.5003
 20
1.6349
 30
0.0
 11
55.6253
 21
1.479859999999999
 31
0.0
  0
LINE
  5
57
330
1E
100
AcDbEntity
  8
0
100
AcDbLine
 10
55.33339999999999
 20
1.875409999999999
 30
0.0
 11
55.5003
 21
1.6349
 31
0.0
  0
LINE
  5
58
330
1E
100
AcDbEntity
  8
0
100
AcDbLine
 10
55.6253
 20
1.479859999999999
 30
0.0
 11
55.9412
 21
1.243319999999999
 31
0.0
  0
LINE
  5
59
330
1E
100
AcDbEntity
  8
0
100
AcDbLine
 10
56.1521
 20
1.13002
 30
0.0
 11
56.58699999999999
 21
0.9272719999999999
 31
0.0
  0
LINE
  5
5A
330
1E
100
AcDbEntity
  8
0
100
AcDbLine
 10
55.9412
 20
1.243319999999999
 30
0.0
 11
56.1521
 21
1.13002
 31
0.0
  0
LINE
  5
5B
330
1E
100
AcDbEntity
  8
0
100
AcDbLine
 10
56.58699999999999
 20
0.9272719999999999
 30
0.0
 11
57.1469
 21
0.7523520000000001
 31
0.0
  0
LINE
  5
5C
330
1E
100
AcDbEntity
  8
0
100
AcDbLine
 10
58.28459999999999
 20
0.548611
 30
0.0
 11
59.2853
 21
0.464133
 31
0.0
  0
LINE
  5
5E
330
1E
100
AcDbEntity
  8
0
100
AcDbLine
 10
57.8067
 20
0.616193
 30
0.0
 11
58.28459999999999
 21
0.548611
 31
0.0
  0
LINE
  5
5F
330
1E
100
AcDbEntity
  8
0
100
AcDbLine
 10
57.1469
 20
0.7523520000000001
 30
0.0
 11
57.8067
 21
0.616193
 31
0.0
  0
LINE
  5
60
330
1E
100
AcDbEntity
  8
0
100
AcDbLine
 10
59.2853
 20
0.464133
 30
0.0
 11
63.19919999999999
 21
0.248465
 31
0.0
  0
LINE
  5
61
330
1E
100
AcDbEntity
  8
0
100
AcDbLine
 10
62.3294
 20
3.851210000000009
 30
0.0
 11
63.4352
 21
3.838290000000009
 31
0.0
  0
LINE
  5
62
330
1E
100
AcDbEntity
  8
0
100
AcDbLine
 10
57.0019
 20
3.928730000000009
 30
0.0
 11
57.7147
 21
3.915810000000009
 31
0.0
  0
LINE
  5
63
330
1E
100
AcDbEntity
  8
0
100
AcDbLine
 10
57.7147
 20
3.915810000000009
 30
0.0
 11
58.50249999999999
 21
3.902890000000009
 31
0.0
  0
LINE
  5
64
330
1E
100
AcDbEntity
  8
0
100
AcDbLine
 10
58.50249999999999
 20
3.902890000000009
 30
0.0
 11
59.3613
 21
3.889970000000009
 31
0.0
  0
LINE
  5
65
330
1E
100
AcDbEntity
  8
0
100
AcDbLine
 10
59.3613
 20
3.889970000000009
 30
0.0
 11
60.289
 21
3.877050000000009
 31
0.0
  0
LINE
  5
66
330
1E
100
AcDbEntity
  8
0
100
AcDbLine
 10
60.289
 20
3.877050000000009
 30
0.0
 11
61.2798
 21
3.863130000000009
 31
0.0
  0
LINE
  5
67
330
1E
100
AcDbEntity
  8
0
100
AcDbLine
 10
56.0102
 20
3.948610000000009
 30
0.0
 11
57.0019
 21
3.928730000000009
 31
0.0
  0
LINE
  5
68
330
1E
100
AcDbEntity
  8
0
100
AcDbLine
 10
61.2798
 20
3.863130000000009
 30
0.0
 11
62.3294
 21
3.851210000000009
 31
0.0
  0
LINE
  5
69
330
1E
100
AcDbEntity
  8
0
100
AcDbLine
 10
55.23839999999999
 20
3.966500000000009
 30
0.0
 11
56.0102
 21
3.948610000000009
 31
0.0
  0
LINE
  5
6A
330
1E
100
AcDbEntity
  8
0
100
AcDbLine
 10
53.003
 20
24.5006
 30
0.0
 11
53.003
 21
23.0357
 31
0.0
  0
LINE
  5
6B
330
1E
100
AcDbEntity
  8
0
100
AcDbLine
 10
53.003
 20
23.0357
 30
0.0
 11
53.005
 21
22.8647
 31
0.0
  0
LINE
  5
6C
330
1E
100
AcDbEntity
  8
0
100
AcDbLine
 10
53.003
 20
23.0357
 30
0.0
 11
53.003
 21
24.5006
 31
0.0
  0
LINE
  5
6D
330
1E
100
AcDbEntity
  8
0
100
AcDbLine
 10
53.00399999999999
 20
29.4322
 30
0.0
 11
53.00399999999999
 21
26.0163
 31
0.0
  0
LINE
  5
6E
330
1E
100
AcDbEntity
  8
0
100
AcDbLine
 10
53.002
 20
26.1425
 30
0.0
 11
53.00399999999999
 21
26.0163
 31
0.0
  0
LINE
  5
6F
330
1E
100
AcDbEntity
  8
0
100
AcDbLine
 10
53.002
 20
26.1425
 30
0.0
 11
53.003
 21
24.5006
 31
0.0
  0
LINE
  5
70
330
1E
100
AcDbEntity
  8
0
100
AcDbLine
 10
53.00399999999999
 20
26.0163
 30
0.0
 11
53.00399999999999
 21
29.4322
 31
0.0
  0
LINE
  5
71
330
1E
100
AcDbEntity
  8
0
100
AcDbLine
 10
62.0
 20
23.5245
 30
0.0
 11
62.312
 21
23.0
 31
0.0
  0
LINE
  5
72
330
1E
100
AcDbEntity
  8
0
100
AcDbLine
 10
62.0
 20
23.5245
 30
0.0
 11
62.0
 21
36.1119
 31
0.0
  0
LINE
  5
73
330
1E
100
AcDbEntity
  8
0
100
AcDbLine
 10
62.312
 20
23.0
 30
0.0
 11
62.78
 21
23.0
 31
0.0
  0
LINE
  5
74
330
1E
100
AcDbEntity
  8
0
100
AcDbLine
 10
62.78
 20
23.0
 30
0.0
 11
64.028
 21
23.0
 31
0.0
  0
LINE
  5
76
330
1E
100
AcDbEntity
  8
0
100
AcDbLine
 10
53.0
 20
41.0285
 30
0.0
 11
53.06899999999999
 21
41.275
 31
0.0
  0
LINE
  5
77
330
1E
100
AcDbEntity
  8
0
100
AcDbLine
 10
53.002
 20
41.0275
 30
0.0
 11
53.00399999999999
 21
29.4322
 31
0.0
  0
LINE
  5
78
330
1E
100
AcDbEntity
  8
0
100
AcDbLine
 10
53.06899999999999
 20
41.275
 30
0.0
 11
53.2519
 21
41.4579
 31
0.0
  0
LINE
  5
79
330
1E
100
AcDbEntity
  8
0
100
AcDbLine
 10
53.2519
 20
41.4579
 30
0.0
 11
53.5019
 21
41.5235
 31
0.0
  0
LINE
  5
7A
330
1E
100
AcDbEntity
  8
0
100
AcDbLine
 10
54.24644883573449
 20
40.49987835382649
 30
0.0
 11
54.64159999999999
 21
39.90149999999999
 31
0.0
  0
LINE
  5
7B
330
1E
100
AcDbEntity
  8
0
100
AcDbLine
 10
54.0967
 20
41.0703
 30
0.0
 11
54.2986
 21
41.0703
 31
0.0
  0
LINE
  5
7C
330
1E
100
AcDbEntity
  8
0
100
AcDbLine
 10
54.0967
 20
41.0703
 30
0.0
 11
54.24644883573449
 21
40.49987835382649
 31
0.0
  0
LINE
  5
7D
330
1E
100
AcDbEntity
  8
0
100
AcDbLine
 10
54.2986
 20
41.0703
 30
0.0
 11
54.8925
 21
41.0703
 31
0.0
  0
LINE
  5
7E
330
1E
100
AcDbEntity
  8
0
100
AcDbLine
 10
54.64159999999999
 20
39.90149999999999
 30
0.0
 11
55.1414
 21
39.39159999999999
 31
0.0
  0
LINE
  5
7F
330
1E
100
AcDbEntity
  8
0
100
AcDbLine
 10
54.8925
 20
41.0703
 30
0.0
 11
55.0066741091016
 21
41.0703
 31
0.0
  0
LINE
  5
82
330
1E
100
AcDbEntity
  8
0
100
AcDbLine
 10
53.5988
 20
41.5235
 30
0.0
 11
53.78379999999999
 21
41.5235
 31
0.0
  0
LINE
  5
84
330
1E
100
AcDbEntity
  8
0
100
AcDbLine
 10
54.3316
 20
41.5235
 30
0.0
 11
54.9355557548871
 21
41.5235
 31
0.0
  0
LINE
  5
85
330
1E
100
AcDbEntity
  8
0
100
AcDbLine
 10
53.78379999999999
 20
41.5235
 30
0.0
 11
54.3316
 21
41.5235
 31
0.0
  0
LINE
  5
87
330
1E
100
AcDbEntity
  8
0
100
AcDbLine
 10
53.5019
 20
41.5235
 30
0.0
 11
53.5988
 21
41.5235
 31
0.0
  0
LINE
  5
8A
330
1E
100
AcDbEntity
  8
0
100
AcDbLine
 10
54.7155
 20
42.9258
 30
0.0
 11
55.0374
 21
40.87449999999999
 31
0.0
  0
LINE
  5
8B
330
1E
100
AcDbEntity
  8
0
100
AcDbLine
 10
55.1414
 20
39.39159999999999
 30
0.0
 11
56.1871
 21
38.6691
 31
0.0
  0
LINE
  5
8C
330
1E
100
AcDbEntity
  8
0
100
AcDbLine
 10
56.1871
 20
38.6691
 30
0.0
 11
57.5108
 21
37.9923
 31
0.0
  0
LINE
  5
8D
330
1E
100
AcDbEntity
  8
0
100
AcDbLine
 10
57.5108
 20
37.9923
 30
0.0
 11
59.0903
 21
37.3721
 31
0.0
  0
LINE
  5
8F
330
1E
100
AcDbEntity
  8
0
100
AcDbLine
 10
59.0903
 20
37.3721
 30
0.0
 11
60.90279999999999
 21
36.8156
 31
0.0
  0
LINE
  5
90
330
1E
100
AcDbEntity
  8
0
100
AcDbLine
 10
60.90279999999999
 20
36.8156
 30
0.0
 11
62.228791961933
 21
36.4965198206214
 31
0.0
  0
LINE
  5
93
330
1E
100
AcDbEntity
  8
0
100
AcDbLine
 10
55.0374
 20
40.87449999999999
 30
0.0
 11
55.4934071916408
 21
39.1483895228455
 31
0.0
  0
LINE
  5
94
330
1E
100
AcDbEntity
  8
0
100
AcDbLine
 10
62.312
 20
36.6364
 30
0.0
 11
62.78
 21
36.6364
 31
0.0
  0
LINE
  5
95
330
1E
100
AcDbEntity
  8
0
100
AcDbLine
 10
62.8125
 20
36.6364
 30
0.0
 11
62.8125
 21
45.2028
 31
0.0
  0
LINE
  5
96
330
1E
100
AcDbEntity
  8
0
100
AcDbLine
 10
63.105
 20
45.72729999999999
 30
0.0
 11
63.54379999999999
 21
45.72729999999999
 31
0.0
  0
LINE
  5
97
330
1E
100
AcDbEntity
  8
0
100
AcDbLine
 10
62.8125
 20
45.2028
 30
0.0
 11
63.105
 21
45.72729999999999
 31
0.0
  0
LINE
  5
98
330
1E
100
AcDbEntity
  8
0
100
AcDbLine
 10
62.8125
 20
45.2028
 30
0.0
 11
62.8125
 21
36.6364
 31
0.0
  0
LINE
  5
99
330
1E
100
AcDbEntity
  8
0
100
AcDbLine
 10
62.78
 20
36.6364
 30
0.0
 11
64.028
 21
36.6364
 31
0.0
  0
LINE
  5
9A
330
1E
100
AcDbEntity
  8
0
100
AcDbLine
 10
62.0
 20
36.1119
 30
0.0
 11
62.312
 21
36.6364
 31
0.0
  0
LINE
  5
9B
330
1E
100
AcDbEntity
  8
0
100
AcDbLine
 10
62.0
 20
36.1119
 30
0.0
 11
62.0
 21
23.5245
 31
0.0
  0
LINE
  5
9C
330
1E
100
AcDbEntity
  8
0
100
AcDbLine
 10
63.19919999999999
 20
0.248465
 30
0.0
 11
67.1251
 21
0.102368
 31
0.0
  0
LINE
  5
9D
330
1E
100
AcDbEntity
  8
0
100
AcDbLine
 10
63.4352
 20
3.838290000000009
 30
0.0
 11
64.5898
 21
3.826360000000009
 31
0.0
  0
LINE
  5
9E
330
1E
100
AcDbEntity
  8
0
100
AcDbLine
 10
63.54379999999999
 20
45.72729999999999
 30
0.0
 11
64.7138
 21
45.72729999999999
 31
0.0
  0
LINE
  5
9F
330
1E
100
AcDbEntity
  8
0
100
AcDbLine
 10
64.028
 20
36.6364
 30
0.0
 11
66.05599999999999
 21
36.6364
 31
0.0
  0
LINE
  5
A0
330
1E
100
AcDbEntity
  8
0
100
AcDbLine
 10
64.028
 20
23.0
 30
0.0
 11
66.05599999999999
 21
23.0
 31
0.0
  0
LINE
  5
A1
330
1E
100
AcDbEntity
  8
0
100
AcDbLine
 10
64.5898
 20
3.826360000000009
 30
0.0
 11
65.79049999999999
 21
3.814440000000009
 31
0.0
  0
LINE
  5
A2
330
1E
100
AcDbEntity
  8
0
100
AcDbLine
 10
64.7138
 20
45.72729999999999
 30
0.0
 11
66.615
 21
45.72729999999999
 31
0.0
  0
LINE
  5
A3
330
1E
100
AcDbEntity
  8
0
100
AcDbLine
 10
64.4375
 20
45.72729999999999
 30
0.0
 11
64.4375
 21
47.5455
 31
0.0
  0
LINE
  5
A4
330
1E
100
AcDbEntity
  8
0
100
AcDbLine
 10
64.4375
 20
47.5455
 30
0.0
 11
64.4375
 21
45.72729999999999
 31
0.0
  0
LINE
  5
A5
330
1E
100
AcDbEntity
  8
0
100
AcDbLine
 10
64.4375
 20
47.5455
 30
0.0
 11
64.8177
 21
47.5455
 31
0.0
  0
LINE
  5
A6
330
1E
100
AcDbEntity
  8
0
100
AcDbLine
 10
63.105
 20
47.5455
 30
0.0
 11
63.54379999999999
 21
47.5455
 31
0.0
  0
LINE
  5
A7
330
1E
100
AcDbEntity
  8
0
100
AcDbLine
 10
62.8125
 20
48.0909
 30
0.0
 11
63.105
 21
47.5455
 31
0.0
  0
LINE
  5
A8
330
1E
100
AcDbEntity
  8
0
100
AcDbLine
 10
62.8125
 20
48.0909
 30
0.0
 11
62.8125
 21
55.0
 31
0.0
  0
LINE
  5
A9
330
1E
100
AcDbEntity
  8
0
100
AcDbLine
 10
63.54379999999999
 20
47.5455
 30
0.0
 11
64.7138
 21
47.5455
 31
0.0
  0
LINE
  5
AA
330
1E
100
AcDbEntity
  8
0
100
AcDbLine
 10
63.54379999999999
 20
47.5455
 30
0.0
 11
64.4375
 21
47.5455
 31
0.0
  0
LINE
  5
AB
330
1E
100
AcDbEntity
  8
0
100
AcDbLine
 10
64.8177
 20
47.5455
 30
0.0
 11
65.83169999999999
 21
47.5455
 31
0.0
  0
LINE
  5
AC
330
1E
100
AcDbEntity
  8
0
100
AcDbLine
 10
64.7138
 20
47.5455
 30
0.0
 11
66.615
 21
47.5455
 31
0.0
  0
LINE
  5
AD
330
1E
100
AcDbEntity
  8
0
100
AcDbLine
 10
54.6086
 20
55.0
 30
0.0
 11
54.7155
 21
42.9258
 31
0.0
  0
LINE
  5
AE
330
1E
100
AcDbEntity
  8
0
100
AcDbLine
 10
54.6086
 20
55.0
 30
0.0
 11
54.79849999999999
 21
55.0
 31
0.0
  0
LINE
  5
AF
330
1E
100
AcDbEntity
  8
0
100
AcDbLine
 10
54.79849999999999
 20
55.0
 30
0.0
 11
55.2824
 21
55.0
 31
0.0
  0
LINE
  5
B0
330
1E
100
AcDbEntity
  8
0
100
AcDbLine
 10
55.2824
 20
55.0
 30
0.0
 11
56.0542
 21
55.0
 31
0.0
  0
LINE
  5
B1
330
1E
100
AcDbEntity
  8
0
100
AcDbLine
 10
61.73259999999999
 20
55.0
 30
0.0
 11
88.26739999999999
 21
55.0
 31
0.0
  0
LINE
  5
B2
330
1E
100
AcDbEntity
  8
0
100
AcDbLine
 10
59.9621
 20
55.0
 30
0.0
 11
61.73259999999999
 21
55.0
 31
0.0
  0
LINE
  5
B3
330
1E
100
AcDbEntity
  8
0
100
AcDbLine
 10
58.41149999999999
 20
55.0
 30
0.0
 11
59.9621
 21
55.0
 31
0.0
  0
LINE
  5
B4
330
1E
100
AcDbEntity
  8
0
100
AcDbLine
 10
57.1019
 20
55.0
 30
0.0
 11
58.41149999999999
 21
55.0
 31
0.0
  0
LINE
  5
B5
330
1E
100
AcDbEntity
  8
0
100
AcDbLine
 10
56.0542
 20
55.0
 30
0.0
 11
57.1019
 21
55.0
 31
0.0
  0
LINE
  5
B6
330
1E
100
AcDbEntity
  8
0
100
AcDbLine
 10
62.8125
 20
55.0
 30
0.0
 11
62.8125
 21
48.0909
 31
0.0
  0
LINE
  5
B7
330
1E
100
AcDbEntity
  8
0
100
AcDbLine
 10
47.3824
 20
55.0
 30
0.0
 11
54.6086
 21
55.0
 31
0.0
  0
LINE
  5
B8
330
1E
100
AcDbEntity
  8
0
100
AcDbLine
 10
46.3235
 20
68.0
 30
0.0
 11
55.6765
 21
68.0
 31
0.0
  0
LINE
  5
140
330
1E
100
AcDbEntity
  8
0
100
AcDbLine
 10
55.6765
 20
68.0
 30
0.0
 11
65.2059
 21
68.0
 31
0.0
  0
LINE
  5
141
330
1E
100
AcDbEntity
  8
0
100
AcDbLine
 10
65.79049999999999
 20
3.814440000000009
 30
0.0
 11
67.03109999999999
 21
3.803500000000009
 31
0.0
  0
LINE
  5
142
330
1E
100
AcDbEntity
  8
0
100
AcDbLine
 10
66.05599999999999
 20
36.6364
 30
0.0
 11
68.708
 21
36.6364
 31
0.0
  0
LINE
  5
143
330
1E
100
AcDbEntity
  8
0
100
AcDbLine
 10
67.03109999999999
 20
3.803500000000009
 30
0.0
 11
68.30589999999999
 21
3.793560000000009
 31
0.0
  0
LINE
  5
144
330
1E
100
AcDbEntity
  8
0
100
AcDbLine
 10
67.1251
 20
0.102368
 30
0.0
 11
71.06010000000001
 21
0.016896
 31
0.0
  0
LINE
  5
145
330
1E
100
AcDbEntity
  8
0
100
AcDbLine
 10
67.1251
 20
0.102368
 30
0.0
 11
71.06010000000001
 21
0.016896
 31
0.0
  0
LINE
  5
149
330
1E
100
AcDbEntity
  8
0
100
AcDbLine
 10
66.615
 20
45.72729999999999
 30
0.0
 11
69.1012
 21
45.72729999999999
 31
0.0
  0
LINE
  5
14A
330
1E
100
AcDbEntity
  8
0
100
AcDbLine
 10
66.05599999999999
 20
23.0
 30
0.0
 11
68.708
 21
23.0
 31
0.0
  0
LINE
  5
14B
330
1E
100
AcDbEntity
  8
0
100
AcDbLine
 10
65.83169999999999
 20
47.5455
 30
0.0
 11
67.5218
 21
47.5455
 31
0.0
  0
LINE
  5
155
330
1E
100
AcDbEntity
  8
0
100
AcDbLine
 10
68.30589999999999
 20
3.793560000000009
 30
0.0
 11
69.6095
 21
3.785610000000009
 31
0.0
  0
LINE
  5
156
330
1E
100
AcDbEntity
  8
0
100
AcDbLine
 10
69.1012
 20
45.72729999999999
 30
0.0
 11
71.9287
 21
45.72729999999999
 31
0.0
  0
LINE
  5
157
330
1E
100
AcDbEntity
  8
0
100
AcDbLine
 10
68.708
 20
36.6364
 30
0.0
 11
71.72399999999999
 21
36.6364
 31
0.0
  0
LINE
  5
158
330
1E
100
AcDbEntity
  8
0
100
AcDbLine
 10
68.708
 20
23.0
 30
0.0
 11
71.72399999999999
 21
23.0
 31
0.0
  0
LINE
  5
159
330
1E
100
AcDbEntity
  8
0
100
AcDbLine
 10
67.5218
 20
47.5455
 30
0.0
 11
69.76100000000001
 21
47.5455
 31
0.0
  0
LINE
  5
15A
330
1E
100
AcDbEntity
  8
0
100
AcDbLine
 10
66.615
 20
47.5455
 30
0.0
 11
69.1012
 21
47.5455
 31
0.0
  0
LINE
  5
15B
330
1E
100
AcDbEntity
  8
0
100
AcDbLine
 10
69.6095
 20
3.785610000000009
 30
0.0
 11
70.93609999999999
 21
3.777660000000009
 31
0.0
  0
LINE
  5
161
330
1E
100
AcDbEntity
  8
0
100
AcDbLine
 10
71.06010000000001
 20
0.016896
 30
0.0
 11
75.0
 21
0.0
 31
0.0
  0
LINE
  5
162
330
1E
100
AcDbEntity
  8
0
100
AcDbLine
 10
71.06010000000001
 20
0.016896
 30
0.0
 11
75.0
 21
0.0
 31
0.0
  0
LINE
  5
166
330
1E
100
AcDbEntity
  8
0
100
AcDbLine
 10
70.93609999999999
 20
3.777660000000009
 30
0.0
 11
72.2808
 21
3.772690000000009
 31
0.0
  0
LINE
  5
169
330
1E
100
AcDbEntity
  8
0
100
AcDbLine
 10
72.2808
 20
3.772690000000009
 30
0.0
 11
73.6373
 21
3.769710000000009
 31
0.0
  0
LINE
  5
16A
330
1E
100
AcDbEntity
  8
0
100
AcDbLine
 10
73.6373
 20
3.769710000000009
 30
0.0
 11
75.0
 21
3.768720000000009
 31
0.0
  0
LINE
  5
16C
330
1E
100
AcDbEntity
  8
0
100
AcDbLine
 10
75.0
 20
0.0
 30
0.0
 11
78.93989999999999
 21
0.016896
 31
0.0
  0
LINE
  5
16F
330
1E
100
AcDbEntity
  8
0
100
AcDbLine
 10
75.0
 20
0.0
 30
0.0
 11
78.93989999999999
 21
0.016896
 31
0.0
  0
LINE
  5
176
330
1E
100
AcDbEntity
  8
0
100
AcDbLine
 10
75.0
 20
3.768720000000009
 30
0.0
 11
76.3627
 21
3.769710000000009
 31
0.0
  0
LINE
  5
185
330
1E
100
AcDbEntity
  8
0
100
AcDbLine
 10
71.72399999999999
 20
23.0
 30
0.0
 11
75.0
 21
23.0
 31
0.0
  0
LINE
  5
186
330
1E
100
AcDbEntity
  8
0
100
AcDbLine
 10
71.9287
 20
45.72729999999999
 30
0.0
 11
75.0
 21
45.72729999999999
 31
0.0
  0
LINE
  5
187
330
1E
100
AcDbEntity
  8
0
100
AcDbLine
 10
75.0
 20
45.72729999999999
 30
0.0
 11
78.07129999999999
 21
45.72729999999999
 31
0.0
  0
LINE
  5
188
330
1E
100
AcDbEntity
  8
0
100
AcDbLine
 10
71.72399999999999
 20
36.6364
 30
0.0
 11
75.0
 21
36.6364
 31
0.0
  0
LINE
  5
189
330
1E
100
AcDbEntity
  8
0
100
AcDbLine
 10
75.0
 20
36.6364
 30
0.0
 11
78.27600000000001
 21
36.6364
 31
0.0
  0
LINE
  5
18A
330
1E
100
AcDbEntity
  8
0
100
AcDbLine
 10
75.0
 20
23.0
 30
0.0
 11
78.27600000000001
 21
23.0
 31
0.0
  0
LINE
  5
18C
330
1E
100
AcDbEntity
  8
0
100
AcDbLine
 10
69.76100000000001
 20
47.5455
 30
0.0
 11
72.29600000000001
 21
47.5455
 31
0.0
  0
LINE
  5
18D
330
1E
100
AcDbEntity
  8
0
100
AcDbLine
 10
72.29600000000001
 20
47.5455
 30
0.0
 11
75.0
 21
47.5455
 31
0.0
  0
LINE
  5
18E
330
1E
100
AcDbEntity
  8
0
100
AcDbLine
 10
69.1012
 20
47.5455
 30
0.0
 11
71.9287
 21
47.5455
 31
0.0
  0
LINE
  5
18F
330
1E
100
AcDbEntity
  8
0
100
AcDbLine
 10
71.9287
 20
47.5455
 30
0.0
 11
75.0
 21
47.5455
 31
0.0
  0
LINE
  5
190
330
1E
100
AcDbEntity
  8
0
100
AcDbLine
 10
75.0
 20
47.5455
 30
0.0
 11
78.07129999999999
 21
47.5455
 31
0.0
  0
LINE
  5
191
330
1E
100
AcDbEntity
  8
0
100
AcDbLine
 10
75.0
 20
47.5455
 30
0.0
 11
77.70399999999999
 21
47.5455
 31
0.0
  0
LINE
  5
192
330
1E
100
AcDbEntity
  8
0
100
AcDbLine
 10
77.7192
 20
3.772690000000009
 30
0.0
 11
79.0639
 21
3.777660000000009
 31
0.0
  0
LINE
  5
193
330
1E
100
AcDbEntity
  8
0
100
AcDbLine
 10
76.3627
 20
3.769710000000009
 30
0.0
 11
77.7192
 21
3.772690000000009
 31
0.0
  0
LINE
  5
194
330
1E
100
AcDbEntity
  8
0
100
AcDbLine
 10
78.07129999999999
 20
45.72729999999999
 30
0.0
 11
80.89879999999999
 21
45.72729999999999
 31
0.0
  0
LINE
  5
195
330
1E
100
AcDbEntity
  8
0
100
AcDbLine
 10
77.70399999999999
 20
47.5455
 30
0.0
 11
80.23899999999999
 21
47.5455
 31
0.0
  0
LINE
  5
196
330
1E
100
AcDbEntity
  8
0
100
AcDbLine
 10
78.93989999999999
 20
0.016896
 30
0.0
 11
82.8749
 21
0.102368
 31
0.0
  0
LINE
  5
197
330
1E
100
AcDbEntity
  8
0
100
AcDbLine
 10
78.93989999999999
 20
0.016896
 30
0.0
 11
82.8749
 21
0.102368
 31
0.0
  0
LINE
  5
19A
330
1E
100
AcDbEntity
  8
0
100
AcDbLine
 10
79.0639
 20
3.777660000000009
 30
0.0
 11
80.39050000000001
 21
3.785610000000009
 31
0.0
  0
LINE
  5
19C
330
1E
100
AcDbEntity
  8
0
100
AcDbLine
 10
80.39050000000001
 20
3.785610000000009
 30
0.0
 11
81.6941
 21
3.793560000000009
 31
0.0
  0
LINE
  5
1A4
330
1E
100
AcDbEntity
  8
0
100
AcDbLine
 10
81.6941
 20
3.793560000000009
 30
0.0
 11
82.96890000000001
 21
3.803500000000009
 31
0.0
  0
LINE
  5
1A7
330
1E
100
AcDbEntity
  8
0
100
AcDbLine
 10
81.292
 20
23.0
 30
0.0
 11
83.944
 21
23.0
 31
0.0
  0
LINE
  5
1A8
330
1E
100
AcDbEntity
  8
0
100
AcDbLine
 10
80.89879999999999
 20
45.72729999999999
 30
0.0
 11
83.38500000000001
 21
45.72729999999999
 31
0.0
  0
LINE
  5
1A9
330
1E
100
AcDbEntity
  8
0
100
AcDbLine
 10
81.292
 20
36.6364
 30
0.0
 11
83.944
 21
36.6364
 31
0.0
  0
LINE
  5
1AA
330
1E
100
AcDbEntity
  8
0
100
AcDbLine
 10
78.27600000000001
 20
36.6364
 30
0.0
 11
81.292
 21
36.6364
 31
0.0
  0
LINE
  5
1AB
330
1E
100
AcDbEntity
  8
0
100
AcDbLine
 10
78.27600000000001
 20
23.0
 30
0.0
 11
81.292
 21
23.0
 31
0.0
  0
LINE
  5
1AC
330
1E
100
AcDbEntity
  8
0
100
AcDbLine
 10
82.96890000000001
 20
3.803500000000009
 30
0.0
 11
84.20950000000001
 21
3.814440000000009
 31
0.0
  0
LINE
  5
1AD
330
1E
100
AcDbEntity
  8
0
100
AcDbLine
 10
82.8749
 20
0.102368
 30
0.0
 11
86.8008
 21
0.248465
 31
0.0
  0
LINE
  5
1AE
330
1E
100
AcDbEntity
  8
0
100
AcDbLine
 10
83.38500000000001
 20
45.72729999999999
 30
0.0
 11
85.2862
 21
45.72729999999999
 31
0.0
  0
LINE
  5
1AF
330
1E
100
AcDbEntity
  8
0
100
AcDbLine
 10
82.4783
 20
47.5455
 30
0.0
 11
84.16819999999999
 21
47.5455
 31
0.0
  0
LINE
  5
1B0
330
1E
100
AcDbEntity
  8
0
100
AcDbLine
 10
80.23899999999999
 20
47.5455
 30
0.0
 11
82.4783
 21
47.5455
 31
0.0
  0
LINE
  5
1B1
330
1E
100
AcDbEntity
  8
0
100
AcDbLine
 10
83.944
 20
36.6364
 30
0.0
 11
85.972
 21
36.6364
 31
0.0
  0
LINE
  5
1B2
330
1E
100
AcDbEntity
  8
0
100
AcDbLine
 10
84.20950000000001
 20
3.814440000000009
 30
0.0
 11
85.41020000000001
 21
3.826360000000009
 31
0.0
  0
LINE
  5
1B3
330
1E
100
AcDbEntity
  8
0
100
AcDbLine
 10
83.944
 20
23.0
 30
0.0
 11
85.972
 21
23.0
 31
0.0
  0
LINE
  5
1B4
330
1E
100
AcDbEntity
  8
0
100
AcDbLine
 10
84.16819999999999
 20
47.5455
 30
0.0
 11
85.18219999999999
 21
47.5455
 31
0.0
  0
LINE
  5
1B5
330
1E
100
AcDbEntity
  8
0
100
AcDbLine
 10
83.38500000000001
 20
47.5455
 30
0.0
 11
85.2862
 21
47.5455
 31
0.0
  0
LINE
  5
1B6
330
1E
100
AcDbEntity
  8
0
100
AcDbLine
 10
80.89879999999999
 20
47.5455
 30
0.0
 11
83.38500000000001
 21
47.5455
 31
0.0
  0
LINE
  5
1B7
330
1E
100
AcDbEntity
  8
0
100
AcDbLine
 10
78.07129999999999
 20
47.5455
 30
0.0
 11
80.89879999999999
 21
47.5455
 31
0.0
  0
LINE
  5
1B8
330
1E
100
AcDbEntity
  8
0
100
AcDbLine
 10
85.41020000000001
 20
3.826360000000009
 30
0.0
 11
86.5648
 21
3.838290000000009
 31
0.0
  0
LINE
  5
1B9
330
1E
100
AcDbEntity
  8
0
100
AcDbLine
 10
85.2862
 20
45.72729999999999
 30
0.0
 11
86.45619999999999
 21
45.72729999999999
 31
0.0
  0
LINE
  5
1BA
330
1E
100
AcDbEntity
  8
0
100
AcDbLine
 10
85.18219999999999
 20
47.5455
 30
0.0
 11
85.5625
 21
47.5455
 31
0.0
  0
LINE
  5
1BB
330
1E
100
AcDbEntity
  8
0
100
AcDbLine
 10
85.5625
 20
45.72729999999999
 30
0.0
 11
85.5625
 21
47.5455
 31
0.0
  0
LINE
  5
1BC
330
1E
100
AcDbEntity
  8
0
100
AcDbLine
 10
85.2862
 20
47.5455
 30
0.0
 11
86.45619999999999
 21
47.5455
 31
0.0
  0
LINE
  5
1BD
330
1E
100
AcDbEntity
  8
0
100
AcDbLine
 10
86.5648
 20
3.838290000000009
 30
0.0
 11
87.67059999999998
 21
3.851210000000009
 31
0.0
  0
LINE
  5
1BE
330
1E
100
AcDbEntity
  8
0
100
AcDbLine
 10
86.8008
 20
0.248465
 30
0.0
 11
90.71469999999999
 21
0.464133
 31
0.0
  0
LINE
  5
1BF
330
1E
100
AcDbEntity
  8
0
100
AcDbLine
 10
86.45619999999999
 20
45.72729999999999
 30
0.0
 11
86.895
 21
45.72729999999999
 31
0.0
  0
LINE
  5
1C0
330
1E
100
AcDbEntity
  8
0
100
AcDbLine
 10
86.895
 20
45.72729999999999
 30
0.0
 11
87.1875
 21
45.2028
 31
0.0
  0
LINE
  5
1C1
330
1E
100
AcDbEntity
  8
0
100
AcDbLine
 10
85.972
 20
36.6364
 30
0.0
 11
87.21999999999999
 21
36.6364
 31
0.0
  0
LINE
  5
1C2
330
1E
100
AcDbEntity
  8
0
100
AcDbLine
 10
85.972
 20
23.0
 30
0.0
 11
87.21999999999999
 21
23.0
 31
0.0
  0
LINE
  5
1C3
330
1E
100
AcDbEntity
  8
0
100
AcDbLine
 10
87.67059999999998
 20
3.851210000000009
 30
0.0
 11
88.7202
 21
3.863130000000009
 31
0.0
  0
LINE
  5
1C4
330
1E
100
AcDbEntity
  8
0
100
AcDbLine
 10
87.21999999999999
 20
23.0
 30
0.0
 11
87.68799999999998
 21
23.0
 31
0.0
  0
LINE
  5
1C6
330
1E
100
AcDbEntity
  8
0
100
AcDbLine
 10
87.77120803806701
 20
36.4965198206214
 30
0.0
 11
89.0972
 21
36.8156
 31
0.0
  0
LINE
  5
1C7
330
1E
100
AcDbEntity
  8
0
100
AcDbLine
 10
87.1875
 20
36.6364
 30
0.0
 11
87.1875
 21
45.2028
 31
0.0
  0
LINE
  5
1C8
330
1E
100
AcDbEntity
  8
0
100
AcDbLine
 10
87.21999999999999
 20
36.6364
 30
0.0
 11
87.68799999999998
 21
36.6364
 31
0.0
  0
LINE
  5
1C9
330
1E
100
AcDbEntity
  8
0
100
AcDbLine
 10
88.0
 20
36.1119
 30
0.0
 11
88.0
 21
23.5245
 31
0.0
  0
LINE
  5
1CA
330
1E
100
AcDbEntity
  8
0
100
AcDbLine
 10
87.68799999999998
 20
23.0
 30
0.0
 11
88.0
 21
23.5245
 31
0.0
  0
LINE
  5
1CB
330
1E
100
AcDbEntity
  8
0
100
AcDbLine
 10
89.71099999999999
 20
3.877050000000009
 30
0.0
 11
90.63869999999999
 21
3.889970000000009
 31
0.0
  0
LINE
  5
1CC
330
1E
100
AcDbEntity
  8
0
100
AcDbLine
 10
88.7202
 20
3.863130000000009
 30
0.0
 11
89.71099999999999
 21
3.877050000000009
 31
0.0
  0
LINE
  5
1CD
330
1E
100
AcDbEntity
  8
0
100
AcDbLine
 10
91.7154
 20
0.548611
 30
0.0
 11
92.19329999999999
 21
0.616193
 31
0.0
  0
LINE
  5
1CE
330
1E
100
AcDbEntity
  8
0
100
AcDbLine
 10
92.8532
 20
0.7523520000000001
 30
0.0
 11
93.413
 21
0.9272719999999999
 31
0.0
  0
LINE
  5
1CF
330
1E
100
AcDbEntity
  8
0
100
AcDbLine
 10
93.413
 20
0.9272719999999999
 30
0.0
 11
93.8479
 21
1.13002
 31
0.0
  0
LINE
  5
1D0
330
1E
100
AcDbEntity
  8
0
100
AcDbLine
 10
92.19329999999999
 20
0.616193
 30
0.0
 11
92.8532
 21
0.7523520000000001
 31
0.0
  0
LINE
  5
1D1
330
1E
100
AcDbEntity
  8
0
100
AcDbLine
 10
93.8479
 20
1.13002
 30
0.0
 11
94.05880000000001
 21
1.243319999999999
 31
0.0
  0
LINE
  5
1D2
330
1E
100
AcDbEntity
  8
0
100
AcDbLine
 10
90.71469999999999
 20
0.464133
 30
0.0
 11
91.7154
 21
0.548611
 31
0.0
  0
LINE
  5
1D3
330
1E
100
AcDbEntity
  8
0
100
AcDbLine
 10
94.05880000000001
 20
1.243319999999999
 30
0.0
 11
94.37470000000001
 21
1.479859999999999
 31
0.0
  0
LINE
  5
1D4
330
1E
100
AcDbEntity
  8
0
100
AcDbLine
 10
91.4975
 20
3.902890000000009
 30
0.0
 11
92.28530000000001
 21
3.915810000000009
 31
0.0
  0
LINE
  5
1D5
330
1E
100
AcDbEntity
  8
0
100
AcDbLine
 10
90.63869999999999
 20
3.889970000000009
 30
0.0
 11
91.4975
 21
3.902890000000009
 31
0.0
  0
LINE
  5
1D7
330
1E
100
AcDbEntity
  8
0
100
AcDbLine
 10
93.98990000000001
 20
3.948610000000009
 30
0.0
 11
94.7616
 21
3.966500000000009
 31
0.0
  0
LINE
  5
1D8
330
1E
100
AcDbEntity
  8
0
100
AcDbLine
 10
92.99809999999999
 20
3.928730000000009
 30
0.0
 11
93.98990000000001
 21
3.948610000000009
 31
0.0
  0
LINE
  5
1D9
330
1E
100
AcDbEntity
  8
0
100
AcDbLine
 10
92.28530000000001
 20
3.915810000000009
 30
0.0
 11
92.99809999999999
 21
3.928730000000009
 31
0.0
  0
LINE
  5
1DA
330
1E
100
AcDbEntity
  8
0
100
AcDbLine
 10
88.0
 20
23.5245
 30
0.0
 11
88.0
 21
36.1119
 31
0.0
  0
LINE
  5
1DB
330
1E
100
AcDbEntity
  8
0
100
AcDbLine
 10
89.0972
 20
36.8156
 30
0.0
 11
90.9097
 21
37.3721
 31
0.0
  0
LINE
  5
1DD
330
1E
100
AcDbEntity
  8
0
100
AcDbLine
 10
90.9097
 20
37.3721
 30
0.0
 11
92.4892
 21
37.9923
 31
0.0
  0
LINE
  5
1DE
330
1E
100
AcDbEntity
  8
0
100
AcDbLine
 10
92.4892
 20
37.9923
 30
0.0
 11
93.8128
 21
38.6691
 31
0.0
  0
LINE
  5
1E0
330
1E
100
AcDbEntity
  8
0
100
AcDbLine
 10
93.8128
 20
38.6691
 30
0.0
 11
94.8586
 21
39.39159999999999
 31
0.0
  0
LINE
  5
1E1
330
1E
100
AcDbEntity
  8
0
100
AcDbLine
 10
87.1875
 20
45.2028
 30
0.0
 11
87.1875
 21
36.6364
 31
0.0
  0
LINE
  5
1E2
330
1E
100
AcDbEntity
  8
0
100
AcDbLine
 10
87.68799999999998
 20
36.6364
 30
0.0
 11
88.0
 21
36.1119
 31
0.0
  0
LINE
  5
1E3
330
1E
100
AcDbEntity
  8
0
100
AcDbLine
 10
86.895
 20
47.5455
 30
0.0
 11
87.1875
 21
48.0909
 31
0.0
  0
LINE
  5
1E4
330
1E
100
AcDbEntity
  8
0
100
AcDbLine
 10
88.26739999999999
 20
55.0
 30
0.0
 11
90.0379
 21
55.0
 31
0.0
  0
LINE
  5
1E5
330
1E
100
AcDbEntity
  8
0
100
AcDbLine
 10
91.58849999999999
 20
55.0
 30
0.0
 11
92.89810000000001
 21
55.0
 31
0.0
  0
LINE
  5
1E6
330
1E
100
AcDbEntity
  8
0
100
AcDbLine
 10
92.89810000000001
 20
55.0
 30
0.0
 11
93.94580000000001
 21
55.0
 31
0.0
  0
LINE
  5
1E7
330
1E
100
AcDbEntity
  8
0
100
AcDbLine
 10
90.0379
 20
55.0
 30
0.0
 11
91.58849999999999
 21
55.0
 31
0.0
  0
LINE
  5
1E8
330
1E
100
AcDbEntity
  8
0
100
AcDbLine
 10
93.94580000000001
 20
55.0
 30
0.0
 11
94.71760000000001
 21
55.0
 31
0.0
  0
LINE
  5
1E9
330
1E
100
AcDbEntity
  8
0
100
AcDbLine
 10
87.1875
 20
48.0909
 30
0.0
 11
87.1875
 21
55.0
 31
0.0
  0
LINE
  5
1EA
330
1E
100
AcDbEntity
  8
0
100
AcDbLine
 10
86.45619999999999
 20
47.5455
 30
0.0
 11
86.895
 21
47.5455
 31
0.0
  0
LINE
  5
1EB
330
1E
100
AcDbEntity
  8
0
100
AcDbLine
 10
85.5625
 20
47.5455
 30
0.0
 11
86.45619999999999
 21
47.5455
 31
0.0
  0
LINE
  5
1EC
330
1E
100
AcDbEntity
  8
0
100
AcDbLine
 10
85.5625
 20
47.5455
 30
0.0
 11
85.5625
 21
45.72729999999999
 31
0.0
  0
LINE
  5
1ED
330
1E
100
AcDbEntity
  8
0
100
AcDbLine
 10
87.1875
 20
55.0
 30
0.0
 11
87.1875
 21
48.0909
 31
0.0
  0
LINE
  5
1EE
330
1E
100
AcDbEntity
  8
0
100
AcDbLine
 10
87.1875
 20
55.0
 30
0.0
 11
88.26739999999999
 21
55.0
 31
0.0
  0
LINE
  5
1EF
330
1E
100
AcDbEntity
  8
0
100
AcDbLine
 10
94.6666
 20
1.875409999999999
 30
0.0
 11
94.76260000000001
 21
2.181519999999999
 31
0.0
  0
LINE
  5
1F0
330
1E
100
AcDbEntity
  8
0
100
AcDbLine
 10
94.76260000000001
 20
2.181519999999999
 30
0.0
 11
94.8235
 21
2.391229999999999
 31
0.0
  0
LINE
  5
1F1
330
1E
100
AcDbEntity
  8
0
100
AcDbLine
 10
94.9746
 20
3.438759999999999
 30
0.0
 11
95.04850000000001
 21
3.843259999999999
 31
0.0
  0
LINE
  5
1F2
330
1E
100
AcDbEntity
  8
0
100
AcDbLine
 10
94.92449999999999
 20
3.126679999999999
 30
0.0
 11
94.9746
 21
3.438759999999999
 31
0.0
  0
LINE
  5
1F3
330
1E
100
AcDbEntity
  8
0
100
AcDbLine
 10
94.7616
 20
3.966500000000009
 30
0.0
 11
95.29749999999999
 21
3.981400000000009
 31
0.0
  0
LINE
  5
1F4
330
1E
100
AcDbEntity
  8
0
100
AcDbLine
 10
94.8586
 20
39.39159999999999
 30
0.0
 11
95.3584
 21
39.90149999999999
 31
0.0
  0
LINE
  5
1F5
330
1E
100
AcDbEntity
  8
0
100
AcDbLine
 10
94.96259999999999
 20
40.87449999999999
 30
0.0
 11
95.28449999999999
 21
42.9258
 31
0.0
  0
LINE
  5
1F6
330
1E
100
AcDbEntity
  8
0
100
AcDbLine
 10
94.50660032381909
 20
39.1484179708924
 30
0.0
 11
94.96259999999999
 21
40.87449999999999
 31
0.0
  0
LINE
  5
1F7
330
1E
100
AcDbEntity
  8
0
100
AcDbLine
 10
94.71760000000001
 20
55.0
 30
0.0
 11
95.20149999999999
 21
55.0
 31
0.0
  0
LINE
  5
1F8
330
1E
100
AcDbEntity
  8
0
100
AcDbLine
 10
94.99332589089849
 20
41.0703
 30
0.0
 11
95.10760000000001
 21
41.0703
 31
0.0
  0
LINE
  5
1FA
330
1E
100
AcDbEntity
  8
0
100
AcDbLine
 10
95.04850000000001
 20
3.843259999999999
 30
0.0
 11
95.07788830009991
 21
3.975293983339229
 31
0.0
  0
LINE
  5
1FB
330
1E
100
AcDbEntity
  8
0
100
AcDbLine
 10
95.29749999999999
 20
3.981400000000009
 30
0.0
 11
95.59739999999999
 21
3.993330000000009
 31
0.0
  0
LINE
  5
1FD
330
1E
100
AcDbEntity
  8
0
100
AcDbLine
 10
95.10760000000001
 20
41.0703
 30
0.0
 11
95.7014
 21
41.0703
 31
0.0
  0
LINE
  5
1FF
330
1E
100
AcDbEntity
  8
0
100
AcDbLine
 10
95.3584
 20
39.90149999999999
 30
0.0
 11
95.75368547419632
 21
40.50008173967614
 31
0.0
  0
LINE
  5
200
330
1E
100
AcDbEntity
  8
0
100
AcDbLine
 10
95.20149999999999
 20
55.0
 30
0.0
 11
95.39149999999999
 21
55.0
 31
0.0
  0
LINE
  5
201
330
1E
100
AcDbEntity
  8
0
100
AcDbLine
 10
95.28449999999999
 20
42.9258
 30
0.0
 11
95.39149999999999
 21
55.0
 31
0.0
  0
LINE
  5
202
330
1E
100
AcDbEntity
  8
0
100
AcDbLine
 10
95.06444424511292
 20
41.5235
 30
0.0
 11
95.66830000000001
 21
41.5235
 31
0.0
  0
LINE
  5
203
330
1E
100
AcDbEntity
  8
0
100
AcDbLine
 10
94.8235
 20
2.391229999999999
 30
0.0
 11
94.92449999999999
 21
3.126679999999999
 31
0.0
  0
LINE
  5
204
330
1E
100
AcDbEntity
  8
0
100
AcDbLine
 10
94.4997
 20
1.6349
 30
0.0
 11
94.6666
 21
1.875409999999999
 31
0.0
  0
LINE
  5
205
330
1E
100
AcDbEntity
  8
0
100
AcDbLine
 10
94.37470000000001
 20
1.479859999999999
 30
0.0
 11
94.4997
 21
1.6349
 31
0.0
  0
LINE
  5
206
330
1E
100
AcDbEntity
  8
0
100
AcDbLine
 10
95.59739999999999
 20
3.993330000000009
 30
0.0
 11
96.1742
 21
4.033080000000009
 31
0.0
  0
LINE
  5
207
330
1E
100
AcDbEntity
  8
0
100
AcDbLine
 10
96.1742
 20
4.033080000000009
 30
0.0
 11
96.2462
 21
4.04004
 31
0.0
  0
LINE
  5
208
330
1E
100
AcDbEntity
  8
0
100
AcDbLine
 10
96.4751
 20
4.10564
 30
0.0
 11
96.7361
 21
4.274589999999999
 31
0.0
  0
LINE
  5
209
330
1E
100
AcDbEntity
  8
0
100
AcDbLine
 10
96.902
 20
4.53399
 30
0.0
 11
96.96100000000001
 21
4.756620000000009
 31
0.0
  0
LINE
  5
20A
330
1E
100
AcDbEntity
  8
0
100
AcDbLine
 10
96.7361
 20
4.274589999999999
 30
0.0
 11
96.902
 21
4.53399
 31
0.0
  0
LINE
  5
20B
330
1E
100
AcDbEntity
  8
0
100
AcDbLine
 10
96.96100000000001
 20
4.756620000000009
 30
0.0
 11
96.989
 21
5.31815
 31
0.0
  0
LINE
  5
20C
330
1E
100
AcDbEntity
  8
0
100
AcDbLine
 10
96.2462
 20
4.04004
 30
0.0
 11
96.46810000000002
 21
4.101660000000009
 31
0.0
  0
LINE
  5
20D
330
1E
100
AcDbEntity
  8
0
100
AcDbLine
 10
96.986
 20
5.314170000000009
 30
0.0
 11
96.99600000000001
 21
15.535
 31
0.0
  0
LINE
  5
20E
330
1E
100
AcDbEntity
  8
0
100
AcDbLine
 10
96.986
 20
5.314169999999999
 30
0.0
 11
96.99600000000001
 21
15.535
 31
0.0
  0
LINE
  5
20F
330
1E
100
AcDbEntity
  8
0
100
AcDbLine
 10
96.99200000000001
 20
20.8383
 30
0.0
 11
96.99700000000001
 21
21.76849999999999
 31
0.0
  0
LINE
  5
210
330
1E
100
AcDbEntity
  8
0
100
AcDbLine
 10
96.99200000000001
 20
20.8383
 30
0.0
 11
96.99700000000001
 21
20.51429999999999
 31
0.0
  0
LINE
  5
211
330
1E
100
AcDbEntity
  8
0
100
AcDbLine
 10
96.995
 20
19.7987
 30
0.0
 11
96.99799999999999
 21
18.779
 31
0.0
  0
LINE
  5
212
330
1E
100
AcDbEntity
  8
0
100
AcDbLine
 10
96.995
 20
19.7987
 30
0.0
 11
96.99600000000001
 21
19.2799
 31
0.0
  0
LINE
  5
213
330
1E
100
AcDbEntity
  8
0
100
AcDbLine
 10
96.993
 20
16.509
 30
0.0
 11
96.99600000000001
 21
15.535
 31
0.0
  0
LINE
  5
214
330
1E
100
AcDbEntity
  8
0
100
AcDbLine
 10
96.993
 20
16.509
 30
0.0
 11
96.99799999999999
 21
17.2117
 31
0.0
  0
LINE
  5
215
330
1E
100
AcDbEntity
  8
0
100
AcDbLine
 10
96.99700000000001
 20
17.64199999999999
 30
0.0
 11
96.99799999999999
 21
18.779
 31
0.0
  0
LINE
  5
216
330
1E
100
AcDbEntity
  8
0
100
AcDbLine
 10
96.99700000000001
 20
17.64199999999999
 30
0.0
 11
96.99799999999999
 21
17.2117
 31
0.0
  0
LINE
  5
217
330
1E
100
AcDbEntity
  8
0
100
AcDbLine
 10
96.99600000000001
 20
19.2799
 30
0.0
 11
96.99700000000001
 21
20.51429999999999
 31
0.0
  0
LINE
  5
218
330
1E
100
AcDbEntity
  8
0
100
AcDbLine
 10
96.995
 20
22.8647
 30
0.0
 11
96.99700000000001
 21
21.76849999999999
 31
0.0
  0
LINE
  5
219
330
1E
100
AcDbEntity
  8
0
100
AcDbLine
 10
96.995
 20
22.8647
 30
0.0
 11
96.99700000000001
 21
23.0357
 31
0.0
  0
LINE
  5
21A
330
1E
100
AcDbEntity
  8
0
100
AcDbLine
 10
96.99700000000001
 20
24.5006
 30
0.0
 11
96.99799999999999
 21
26.1425
 31
0.0
  0
LINE
  5
21B
330
1E
100
AcDbEntity
  8
0
100
AcDbLine
 10
96.99700000000001
 20
24.5006
 30
0.0
 11
96.99700000000001
 21
23.0357
 31
0.0
  0
LINE
  5
21C
330
1E
100
AcDbEntity
  8
0
100
AcDbLine
 10
96.99600000000001
 20
26.0163
 30
0.0
 11
96.99799999999999
 21
26.1425
 31
0.0
  0
LINE
  5
21D
330
1E
100
AcDbEntity
  8
0
100
AcDbLine
 10
96.99600000000001
 20
26.0163
 30
0.0
 11
96.99600000000001
 21
29.4322
 31
0.0
  0
LINE
  5
21E
330
1E
100
AcDbEntity
  8
0
100
AcDbLine
 10
95.7536854741963
 20
40.50008173967611
 30
0.0
 11
95.90329999999999
 21
41.0703
 31
0.0
  0
LINE
  5
21F
330
1E
100
AcDbEntity
  8
0
100
AcDbLine
 10
95.7014
 20
41.0703
 30
0.0
 11
95.90329999999999
 21
41.0703
 31
0.0
  0
LINE
  5
222
330
1E
100
AcDbEntity
  8
0
100
AcDbLine
 10
96.74799999999999
 20
41.4579
 30
0.0
 11
96.93100000000001
 21
41.275
 31
0.0
  0
LINE
  5
223
330
1E
100
AcDbEntity
  8
0
100
AcDbLine
 10
96.93100000000001
 20
41.275
 30
0.0
 11
97.0
 21
41.0285
 31
0.0
  0
LINE
  5
224
330
1E
100
AcDbEntity
  8
0
100
AcDbLine
 10
96.4981
 20
41.5235
 30
0.0
 11
96.74799999999999
 21
41.4579
 31
0.0
  0
LINE
  5
225
330
1E
100
AcDbEntity
  8
0
100
AcDbLine
 10
96.40120000000001
 20
41.5235
 30
0.0
 11
96.4981
 21
41.5235
 31
0.0
  0
LINE
  5
226
330
1E
100
AcDbEntity
  8
0
100
AcDbLine
 10
96.2162
 20
41.5235
 30
0.0
 11
96.40120000000001
 21
41.5235
 31
0.0
  0
LINE
  5
228
330
1E
100
AcDbEntity
  8
0
100
AcDbLine
 10
96.99600000000001
 20
29.4322
 30
0.0
 11
96.99799999999999
 21
41.0275
 31
0.0
  0
LINE
  5
229
330
1E
100
AcDbEntity
  8
0
100
AcDbLine
 10
96.99600000000001
 20
29.4322
 30
0.0
 11
96.99600000000001
 21
26.0163
 31
0.0
  0
LINE
  5
22A
330
1E
100
AcDbEntity
  8
0
100
AcDbLine
 10
95.66830000000001
 20
41.5235
 30
0.0
 11
96.2162
 21
41.5235
 31
0.0
  0
LINE
  5
22B
330
1E
100
AcDbEntity
  8
0
100
AcDbLine
 10
96.99700000000001
 20
23.0357
 30
0.0
 11
96.99700000000001
 21
24.5006
 31
0.0
  0
LINE
  5
22C
330
1E
100
AcDbEntity
  8
0
100
AcDbLine
 10
111.0
 20
55.0
 30
0.0
 11
118.941
 21
55.0
 31
0.0
  0
LINE
  5
22D
330
1E
100
AcDbEntity
  8
0
100
AcDbLine
 10
102.6179999999999
 20
55.0
 30
0.0
 11
111.0
 21
55.0
 31
0.0
  0
LINE
  5
22E
330
1E
100
AcDbEntity
  8
0
100
AcDbLine
 10
95.39149999999999
 20
55.0
 30
0.0
 11
102.6179999999999
 21
55.0
 31
0.0
  0
LINE
  5
22F
330
1E
100
AcDbEntity
  8
0
100
AcDbLine
 10
94.32349999999999
 20
68.0
 30
0.0
 11
103.676
 21
68.0
 31
0.0
  0
LINE
  5
230
330
1E
100
AcDbEntity
  8
0
100
AcDbLine
 10
84.79409999999999
 20
68.0
 30
0.0
 11
94.32349999999999
 21
68.0
 31
0.0
  0
LINE
  5
231
330
1E
100
AcDbEntity
  8
0
100
AcDbLine
 10
75.0
 20
68.0
 30
0.0
 11
84.79409999999999
 21
68.0
 31
0.0
  0
LINE
  5
233
330
1E
100
AcDbEntity
  8
0
100
AcDbLine
 10
103.676
 20
68.0
 30
0.0
 11
112.324
 21
68.0
 31
0.0
  0
LINE
  5
234
330
1E
100
AcDbEntity
  8
0
100
AcDbLine
 10
126.088
 20
55.0
 30
0.0
 11
132.3529999999999
 21
55.0
 31
0.0
  0
LINE
  5
235
330
1E
100
AcDbEntity
  8
0
100
AcDbLine
 10
118.941
 20
55.0
 30
0.0
 11
126.088
 21
55.0
 31
0.0
  0
LINE
  5
237
330
1E
100
AcDbEntity
  8
0
100
AcDbLine
 10
132.3529999999999
 20
55.0
 30
0.0
 11
137.647
 21
55.0
 31
0.0
  0
LINE
  5
238
330
1E
100
AcDbEntity
  8
0
100
AcDbLine
 10
112.324
 20
68.0
 30
0.0
 11
120.618
 21
68.0
 31
0.0
  0
LINE
  5
239
330
1E
100
AcDbEntity
  8
0
100
AcDbLine
 10
127.941
 20
68.0
 30
0.0
 11
134.382
 21
68.0
 31
0.0
  0
LINE
  5
23A
330
1E
100
AcDbEntity
  8
0
100
AcDbLine
 10
137.647
 20
55.0
 30
0.0
 11
141.706
 21
55.0
 31
0.0
  0
LINE
  5
23B
330
1E
100
AcDbEntity
  8
0
100
AcDbLine
 10
141.706
 20
55.0
 30
0.0
 11
144.706
 21
55.0
 31
0.0
  0
LINE
  5
23C
330
1E
100
AcDbEntity
  8
0
100
AcDbLine
 10
134.382
 20
68.0
 30
0.0
 11
139.941
 21
68.0
 31
0.0
  0
LINE
  5
23D
330
1E
100
AcDbEntity
  8
0
100
AcDbLine
 10
139.941
 20
68.0
 30
0.0
 11
144.176
 21
68.0
 31
0.0
  0
LINE
  5
23E
330
1E
100
AcDbEntity
  8
0
100
AcDbLine
 10
144.706
 20
55.0
 30
0.0
 11
146.647
 21
55.0
 31
0.0
  0
LINE
  5
23F
330
1E
100
AcDbEntity
  8
0
100
AcDbLine
 10
146.647
 20
55.0
 30
0.0
 11
147.3529999999999
 21
55.0
 31
0.0
  0
LINE
  5
240
330
1E
100
AcDbEntity
  8
0
100
AcDbLine
 10
144.176
 20
68.0
 30
0.0
 11
147.2649999999999
 21
68.0
 31
0.0
  0
LINE
  5
241
330
1E
100
AcDbEntity
  8
0
100
AcDbLine
 10
147.2649999999999
 20
68.0
 30
0.0
 11
149.206
 21
68.0
 31
0.0
  0
LINE
  5
242
330
1E
100
AcDbEntity
  8
0
100
AcDbLine
 10
150.0
 20
68.0
 30
0.0
 11
150.0
 21
58.0
 31
0.0
  0
LINE
  5
243
330
1E
100
AcDbEntity
  8
0
100
AcDbLine
 10
150.0
 20
58.0
 30
0.0
 11
150.0
 21
68.0
 31
0.0
  0
LINE
  5
244
330
1E
100
AcDbEntity
  8
0
100
AcDbLine
 10
149.206
 20
68.0
 30
0.0
 11
150.0
 21
68.0
 31
0.0
  0
LINE
  5
2D9
330
1E
100
AcDbEntity
  8
0
100
AcDbLine
 10
120.618
 20
68.0
 30
0.0
 11
127.941
 21
68.0
 31
0.0
  0
LINE
  5
2DA
330
1E
100
AcDbEntity
  8
0
100
AcDbLine
 10
65.2059
 20
68.0
 30
0.0
 11
75.0
 21
68.0
 31
0.0
  0
LINE
  5
2DF
330
1E
100
AcDbEntity
  8
0
100
AcDbLine
 10
148.58824
 20
55.5
 30
0.0
 11
147.3529399999999
 21
55.0
 31
0.0
  0
LINE
  5
2E0
330
1E
100
AcDbEntity
  8
0
100
AcDbLine
 10
150.0
 20
58.0
 30
0.0
 11
149.558824
 21
56.6
 31
0.0
  0
LINE
  5
2E1
330
1E
100
AcDbEntity
  8
0
100
AcDbLine
 10
149.558824
 20
56.6
 30
0.0
 11
148.58824
 21
55.5
 31
0.0
  0
ENDSEC
  0
SECTION
  2
OBJECTS
  0
DICTIONARY
  5
C
330
0
100
AcDbDictionary
281
     1
  3
ACAD_GROUP
350
D
  3
ACAD_LAYOUT
350
19
  3
ACAD_MLINESTYLE
350
16
  3
ACAD_PLOTSETTINGS
350
18
  3
ACAD_PLOTSTYLENAME
350
E
  3
AcDbVariableDictionary
350
2E3
  0
DICTIONARY
  5
D
102
{ACAD_REACTORS
330
C
102
}
330
C
100
AcDbDictionary
281
     1
  0
DICTIONARY
  5
19
102
{ACAD_REACTORS
330
C
102
}
330
C
100
AcDbDictionary
281
     1
  3
Layout1
350
1D
  3
Model
350
21
  0
DICTIONARY
  5
16
102
{ACAD_REACTORS
330
C
102
}
330
C
100
AcDbDictionary
281
     1
  3
Standard
350
17
  0
DICTIONARY
  5
18
102
{ACAD_REACTORS
330
C
102
}
330
C
100
AcDbDictionary
281
     1
  0
ACDBDICTIONARYWDFLT
  5
E
102
{ACAD_REACTORS
330
C
102
}
330
C
100
AcDbDictionary
281
     1
  3
Normal
350
F
100
AcDbDictionaryWithDefault
340
F
  0
DICTIONARY
  5
2E3
102
{ACAD_REACTORS
330
C
102
}
330
C
100
AcDbDictionary
281
     1
  3
DIMASSOC
350
2E4
  0
LAYOUT
  5
1D
102
{ACAD_REACTORS
330
19
102
}
330
19
100
AcDbPlotSettings
  1

  2
C:\Programme\AutoCAD LT 2002 Deu\plotters\DWF ePlot (optimized for plotting).pc3
  4

  6

 40
0.0
 41
0.0
 42
0.0
 43
0.0
 44
0.0
 45
0.0
 46
0.0
 47
0.0
 48
0.0
 49
0.0
140
0.0
141
0.0
142
1.0
143
1.0
 70
   688
 72
     0
 73
     0
 74
     5
  7

 75
    16
147
1.0
148
0.0
149
0.0
100
AcDbLayout
  1
Layout1
 70
     1
 71
     1
 10
0.0
 20
0.0
 11
12.0
 21
9.0
 12
0.0
 22
0.0
 32
0.0
 14
1.000000000000000E+20
 24
1.000000000000000E+20
 34
1.000000000000000E+20
 15
-1.000000000000000E+20
 25
-1.000000000000000E+20
 35
-1.000000000000000E+20
146
0.0
 13
0.0
 23
0.0
 33
0.0
 16
1.0
 26
0.0
 36
0.0
 17
0.0
 27
1.0
 37
0.0
 76
     0
330
1A
  0
LAYOUT
  5
21
102
{ACAD_REACTORS
330
19
102
}
330
19
100
AcDbPlotSettings
  1

  2
C:\Programme\AutoCAD LT 2002 Deu\plotters\DWF ePlot (optimized for plotting).pc3
  4

  6

 40
0.0
 41
0.0
 42
0.0
 43
0.0
 44
0.0
 45
0.0
 46
0.0
 47
0.0
 48
0.0
 49
0.0
140
0.0
141
0.0
142
1.0
143
1.0
 70
  1712
 72
     0
 73
     0
 74
     0
  7

 75
     0
147
1.0
148
0.0
149
0.0
100
AcDbLayout
  1
Model
 70
     1
 71
     0
 10
0.0
 20
0.0
 11
12.0
 21
9.0
 12
0.0
 22
0.0
 32
0.0
 14
0.0
 24
0.0
 34
0.0
 15
0.0
 25
0.0
 35
0.0
146
0.0
 13
0.0
 23
0.0
 33
0.0
 16
1.0
 26
0.0
 36
0.0
 17
0.0
 27
1.0
 37
0.0
 76
     0
330
1E
  0
MLINESTYLE
  5
17
102
{ACAD_REACTORS
330
16
102
}
330
16
100
AcDbMlineStyle
  2
STANDARD
 70
     0
  3

 62
   256
 51
90.0
 52
90.0
 71
     2
 49
0.5
 62
   256
  6
BYLAYER
 49
-0.5
 62
   256
  6
BYLAYER
  0
ACDBPLACEHOLDER
  5
F
102
{ACAD_REACTORS
330
E
102
}
330
E
  0
DICTIONARYVAR
  5
2E4
102
{ACAD_REACTORS
330
2E3
102
}
330
2E3
100
DictionaryVariables
280
     0
  1
1
  0
ENDSEC
  0
EOF
