  0
SECTION
  2
HEADER
  9
$ACADVER
  1
AC1015
  9
$ACADMAINTVER
 70
    13
  9
$DWGCODEPAGE
  3
ANSI_1252
  9
$INSBASE
 10
0.0
 20
0.0
 30
0.0
  9
$EXTMIN
 10
0.0
 20
0.0
 30
0.0
  9
$EXTMAX
 10
150.0
 20
204.0
 30
0.0
  9
$LIMMIN
 10
0.0
 20
0.0
  9
$LIMMAX
 10
12.0
 20
9.0
  9
$ORTHOMODE
 70
     0
  9
$REGENMODE
 70
     1
  9
$FILLMODE
 70
     1
  9
$QTEXTMODE
 70
     0
  9
$MIRRTEXT
 70
     1
  9
$LTSCALE
 40
1.0
  9
$ATTMODE
 70
     1
  9
$TEXTSIZE
 40
0.2
  9
$TRACEWID
 40
0.05
  9
$TEXTSTYLE
  7
Standard
  9
$CLAYER
  8
0
  9
$CELTYPE
  6
Continuous
  9
$CECOLOR
 62
   256
  9
$CELTSCALE
 40
1.0
  9
$DISPSILH
 70
     0
  9
$DIMSCALE
 40
1.0
  9
$DIMASZ
 40
0.18
  9
$DIMEXO
 40
0.0625
  9
$DIMDLI
 40
0.38
  9
$DIMRND
 40
0.0
  9
$DIMDLE
 40
0.0
  9
$DIMEXE
 40
0.18
  9
$DIMTP
 40
0.0
  9
$DIMTM
 40
0.0
  9
$DIMTXT
 40
0.18
  9
$DIMCEN
 40
0.09
  9
$DIMTSZ
 40
0.0
  9
$DIMTOL
 70
     0
  9
$DIMLIM
 70
     0
  9
$DIMTIH
 70
     1
  9
$DIMTOH
 70
     1
  9
$DIMSE1
 70
     0
  9
$DIMSE2
 70
     0
  9
$DIMTAD
 70
     0
  9
$DIMZIN
 70
     0
  9
$DIMBLK
  1

  9
$DIMASO
 70
     1
  9
$DIMSHO
 70
     1
  9
$DIMPOST
  1

  9
$DIMAPOST
  1

  9
$DIMALT
 70
     0
  9
$DIMALTD
 70
     2
  9
$DIMALTF
 40
25.4
  9
$DIMLFAC
 40
1.0
  9
$DIMTOFL
 70
     0
  9
$DIMTVP
 40
0.0
  9
$DIMTIX
 70
     0
  9
$DIMSOXD
 70
     0
  9
$DIMSAH
 70
     0
  9
$DIMBLK1
  1

  9
$DIMBLK2
  1

  9
$DIMSTYLE
  2
Standard
  9
$DIMCLRD
 70
     0
  9
$DIMCLRE
 70
     0
  9
$DIMCLRT
 70
     0
  9
$DIMTFAC
 40
1.0
  9
$DIMGAP
 40
0.09
  9
$DIMJUST
 70
     0
  9
$DIMSD1
 70
     0
  9
$DIMSD2
 70
     0
  9
$DIMTOLJ
 70
     1
  9
$DIMTZIN
 70
     0
  9
$DIMALTZ
 70
     0
  9
$DIMALTTZ
 70
     0
  9
$DIMUPT
 70
     0
  9
$DIMDEC
 70
     4
  9
$DIMTDEC
 70
     4
  9
$DIMALTU
 70
     2
  9
$DIMALTTD
 70
     2
  9
$DIMTXSTY
  7
Standard
  9
$DIMAUNIT
 70
     0
  9
$DIMADEC
 70
     0
  9
$DIMALTRND
 40
0.0
  9
$DIMAZIN
 70
     0
  9
$DIMDSEP
 70
    46
  9
$DIMATFIT
 70
     3
  9
$DIMFRAC
 70
     0
  9
$DIMLDRBLK
  1

  9
$DIMLUNIT
 70
     2
  9
$DIMLWD
 70
    -2
  9
$DIMLWE
 70
    -2
  9
$DIMTMOVE
 70
     0
  9
$LUNITS
 70
     2
  9
$LUPREC
 70
     4
  9
$SKETCHINC
 40
0.1
  9
$FILLETRAD
 40
0.0
  9
$AUNITS
 70
     0
  9
$AUPREC
 70
     0
  9
$MENU
  1
.
  9
$ELEVATION
 40
0.0
  9
$PELEVATION
 40
0.0
  9
$THICKNESS
 40
0.0
  9
$LIMCHECK
 70
     0
  9
$CHAMFERA
 40
0.0
  9
$CHAMFERB
 40
0.0
  9
$CHAMFERC
 40
0.0
  9
$CHAMFERD
 40
0.0
  9
$SKPOLY
 70
     0
  9
$TDCREATE
 40
2455655.363525567
  9
$TDUCREATE
 40
2455655.280192233
  9
$TDUPDATE
 40
2455655.364642106
  9
$TDUUPDATE
 40
2455655.281308773
  9
$TDINDWG
 40
0.0011165394
  9
$TDUSRTIMER
 40
0.0011165394
  9
$USRTIMER
 70
     1
  9
$ANGBASE
 50
0.0
  9
$ANGDIR
 70
     0
  9
$PDMODE
 70
     0
  9
$PDSIZE
 40
0.0
  9
$PLINEWID
 40
0.0
  9
$SPLFRAME
 70
     0
  9
$SPLINETYPE
 70
     6
  9
$SPLINESEGS
 70
     8
  9
$HANDSEED
  5
281
  9
$SURFTAB1
 70
     6
  9
$SURFTAB2
 70
     6
  9
$SURFTYPE
 70
     6
  9
$SURFU
 70
     6
  9
$SURFV
 70
     6
  9
$UCSBASE
  2

  9
$UCSNAME
  2

  9
$UCSORG
 10
0.0
 20
0.0
 30
0.0
  9
$UCSXDIR
 10
1.0
 20
0.0
 30
0.0
  9
$UCSYDIR
 10
0.0
 20
1.0
 30
0.0
  9
$UCSORTHOREF
  2

  9
$UCSORTHOVIEW
 70
     1
  9
$UCSORGTOP
 10
0.0
 20
0.0
 30
0.0
  9
$UCSORGBOTTOM
 10
0.0
 20
0.0
 30
0.0
  9
$UCSORGLEFT
 10
0.0
 20
0.0
 30
0.0
  9
$UCSORGRIGHT
 10
0.0
 20
0.0
 30
0.0
  9
$UCSORGFRONT
 10
0.0
 20
0.0
 30
0.0
  9
$UCSORGBACK
 10
0.0
 20
0.0
 30
0.0
  9
$PUCSBASE
  2

  9
$PUCSNAME
  2

  9
$PUCSORG
 10
0.0
 20
0.0
 30
0.0
  9
$PUCSXDIR
 10
1.0
 20
0.0
 30
0.0
  9
$PUCSYDIR
 10
0.0
 20
1.0
 30
0.0
  9
$PUCSORTHOREF
  2

  9
$PUCSORTHOVIEW
 70
     0
  9
$PUCSORGTOP
 10
0.0
 20
0.0
 30
0.0
  9
$PUCSORGBOTTOM
 10
0.0
 20
0.0
 30
0.0
  9
$PUCSORGLEFT
 10
0.0
 20
0.0
 30
0.0
  9
$PUCSORGRIGHT
 10
0.0
 20
0.0
 30
0.0
  9
$PUCSORGFRONT
 10
0.0
 20
0.0
 30
0.0
  9
$PUCSORGBACK
 10
0.0
 20
0.0
 30
0.0
  9
$USERI1
 70
     0
  9
$USERI2
 70
     0
  9
$USERI3
 70
     0
  9
$USERI4
 70
     0
  9
$USERI5
 70
     0
  9
$USERR1
 40
0.0
  9
$USERR2
 40
0.0
  9
$USERR3
 40
0.0
  9
$USERR4
 40
0.0
  9
$USERR5
 40
0.0
  9
$WORLDVIEW
 70
     1
  9
$SHADEDGE
 70
     3
  9
$SHADEDIF
 70
    70
  9
$TILEMODE
 70
     1
  9
$MAXACTVP
 70
    64
  9
$PINSBASE
 10
0.0
 20
0.0
 30
0.0
  9
$PLIMCHECK
 70
     0
  9
$PEXTMIN
 10
1.000000000000000E+20
 20
1.000000000000000E+20
 30
1.000000000000000E+20
  9
$PEXTMAX
 10
-1.000000000000000E+20
 20
-1.000000000000000E+20
 30
-1.000000000000000E+20
  9
$PLIMMIN
 10
0.0
 20
0.0
  9
$PLIMMAX
 10
12.0
 20
9.0
  9
$UNITMODE
 70
     0
  9
$VISRETAIN
 70
     1
  9
$PLINEGEN
 70
     0
  9
$PSLTSCALE
 70
     1
  9
$TREEDEPTH
 70
  3020
  9
$CMLSTYLE
  2
Standard
  9
$CMLJUST
 70
     0
  9
$CMLSCALE
 40
1.0
  9
$PROXYGRAPHICS
 70
     1
  9
$MEASUREMENT
 70
     0
  9
$CELWEIGHT
370
    -1
  9
$ENDCAPS
280
     0
  9
$JOINSTYLE
280
     0
  9
$LWDISPLAY
290
     0
  9
$INSUNITS
 70
     0
  9
$HYPERLINKBASE
  1

  9
$STYLESHEET
  1

  9
$XEDIT
290
     1
  9
$CEPSNTYPE
380
     0
  9
$PSTYLEMODE
290
     1
  9
$FINGERPRINTGUID
  2
{700AE0E4-45E6-40FC-B7BB-9910CE20BE77}
  9
$VERSIONGUID
  2
{921EA21F-B80B-4F0F-B5F8-7BB36E629659}
  9
$EXTNAMES
290
     1
  9
$PSVPSCALE
 40
0.0
  9
$OLESTARTUP
290
     0
  0
ENDSEC
  0
SECTION
  2
CLASSES
  0
CLASS
  1
ACDBDICTIONARYWDFLT
  2
AcDbDictionaryWithDefault
  3
AutoCAD 2000
 90
        0
280
     0
281
     0
  0
CLASS
  1
ACDBPLACEHOLDER
  2
AcDbPlaceHolder
  3
AutoCAD 2000
 90
        0
280
     0
281
     0
  0
CLASS
  1
LAYOUT
  2
AcDbLayout
  3
AutoCAD 2000
 90
        0
280
     0
281
     0
  0
CLASS
  1
DICTIONARYVAR
  2
AcDbDictionaryVar
  3
AutoCAD 2000
 90
        0
280
     0
281
     0
  0
ENDSEC
  0
SECTION
  2
TABLES
  0
TABLE
  2
VPORT
  5
8
330
0
100
AcDbSymbolTable
 70
     4
  0
VPORT
  5
280
330
8
100
AcDbSymbolTableRecord
100
AcDbViewportTableRecord
  2
*Active
 70
     0
 10
0.0
 20
0.0
 11
1.0
 21
1.0
 12
75.0
 22
102.0
 13
0.0
 23
0.0
 14
1.0
 24
1.0
 15
0.0
 25
0.0
 16
0.0
 26
0.0
 36
1.0
 17
0.0
 27
0.0
 37
0.0
 40
205.379932356257
 41
2.073363431151241
 42
50.0
 43
0.0
 44
0.0
 50
0.0
 51
0.0
 71
     0
 72
   100
 73
     1
 74
     3
 75
     0
 76
     0
 77
     0
 78
     0
281
     0
 65
     1
110
0.0
120
0.0
130
0.0
111
1.0
121
0.0
131
0.0
112
0.0
122
1.0
132
0.0
 79
     1
146
0.0
  0
ENDTAB
  0
TABLE
  2
LTYPE
  5
5
330
0
100
AcDbSymbolTable
 70
     1
  0
LTYPE
  5
13
330
5
100
AcDbSymbolTableRecord
100
AcDbLinetypeTableRecord
  2
ByBlock
 70
     0
  3

 72
    65
 73
     0
 40
0.0
  0
LTYPE
  5
14
330
5
100
AcDbSymbolTableRecord
100
AcDbLinetypeTableRecord
  2
ByLayer
 70
     0
  3

 72
    65
 73
     0
 40
0.0
  0
LTYPE
  5
15
330
5
100
AcDbSymbolTableRecord
100
AcDbLinetypeTableRecord
  2
Continuous
 70
     0
  3
Solid line
 72
    65
 73
     0
 40
0.0
  0
ENDTAB
  0
TABLE
  2
LAYER
  5
2
330
0
100
AcDbSymbolTable
 70
     1
  0
LAYER
  5
10
330
2
100
AcDbSymbolTableRecord
100
AcDbLayerTableRecord
  2
0
 70
     0
 62
     7
  6
Continuous
370
    -3
390
F
  0
ENDTAB
  0
TABLE
  2
STYLE
  5
3
330
0
100
AcDbSymbolTable
 70
     1
  0
STYLE
  5
11
330
3
100
AcDbSymbolTableRecord
100
AcDbTextStyleTableRecord
  2
Standard
 70
     0
 40
0.0
 41
1.0
 50
0.0
 71
     0
 42
0.2
  3
txt
  4

  0
ENDTAB
  0
TABLE
  2
VIEW
  5
6
330
0
100
AcDbSymbolTable
 70
     0
  0
ENDTAB
  0
TABLE
  2
UCS
  5
7
330
0
100
AcDbSymbolTable
 70
     0
  0
ENDTAB
  0
TABLE
  2
APPID
  5
9
330
0
100
AcDbSymbolTable
 70
     1
  0
APPID
  5
12
330
9
100
AcDbSymbolTableRecord
100
AcDbRegAppTableRecord
  2
ACAD
 70
     0
  0
ENDTAB
  0
TABLE
  2
DIMSTYLE
  5
A
330
0
100
AcDbSymbolTable
 70
     1
100
AcDbDimStyleTable
 71
     0
  0
DIMSTYLE
105
171
330
A
100
AcDbSymbolTableRecord
100
AcDbDimStyleTableRecord
  2
Standard
 70
     0
340
11
  0
ENDTAB
  0
TABLE
  2
BLOCK_RECORD
  5
1
330
0
100
AcDbSymbolTable
 70
     1
  0
BLOCK_RECORD
  5
1E
330
1
100
AcDbSymbolTableRecord
100
AcDbBlockTableRecord
  2
*Model_Space
340
21
  0
BLOCK_RECORD
  5
1A
330
1
100
AcDbSymbolTableRecord
100
AcDbBlockTableRecord
  2
*Paper_Space
340
1D
  0
ENDTAB
  0
ENDSEC
  0
SECTION
  2
BLOCKS
  0
BLOCK
  5
1F
330
1E
100
AcDbEntity
  8
0
100
AcDbBlockBegin
  2
*Model_Space
 70
     0
 10
0.0
 20
0.0
 30
0.0
  3
*Model_Space
  1

  0
ENDBLK
  5
20
330
1E
100
AcDbEntity
  8
0
100
AcDbBlockEnd
  0
BLOCK
  5
1B
330
1A
100
AcDbEntity
 67
     1
  8
0
100
AcDbBlockBegin
  2
*Paper_Space
 70
     0
 10
0.0
 20
0.0
 30
0.0
  3
*Paper_Space
  1

  0
ENDBLK
  5
1C
330
1A
100
AcDbEntity
 67
     1
  8
0
100
AcDbBlockEnd
  0
ENDSEC
  0
SECTION
  2
ENTITIES
  0
LINE
  5
22
330
1E
100
AcDbEntity
  8
0
100
AcDbLine
 10
0.7941180000000001
 20
69.2059
 30
0.0
 11
2.735289999999999
 21
59.67649999999999
 31
0.0
  0
LINE
  5
23
330
1E
100
AcDbEntity
  8
0
100
AcDbLine
 10
0.7941180000000001
 20
69.2059
 30
0.0
 11
2.735289999999999
 21
59.67649999999999
 31
0.0
  0
LINE
  5
24
330
1E
100
AcDbEntity
  8
0
100
AcDbLine
 10
0.0
 20
79.0
 30
0.0
 11
0.7941180000000001
 21
69.2059
 31
0.0
  0
LINE
  5
25
330
1E
100
AcDbEntity
  8
0
100
AcDbLine
 10
0.0
 20
79.0
 30
0.0
 11
0.0
 21
129.0
 31
0.0
  0
LINE
  5
26
330
1E
100
AcDbEntity
  8
0
100
AcDbLine
 10
0.7941180000000001
 20
138.7939999999999
 30
0.0
 11
2.735289999999999
 21
148.3239999999999
 31
0.0
  0
LINE
  5
27
330
1E
100
AcDbEntity
  8
0
100
AcDbLine
 10
0.0
 20
129.0
 30
0.0
 11
0.7941180000000001
 21
138.7939999999999
 31
0.0
  0
LINE
  5
28
330
1E
100
AcDbEntity
  8
0
100
AcDbLine
 10
0.0
 20
129.0
 30
0.0
 11
0.0
 21
79.0
 31
0.0
  0
LINE
  5
29
330
1E
100
AcDbEntity
  8
0
100
AcDbLine
 10
15.6176
 20
33.38239999999999
 30
0.0
 11
22.0588
 21
26.0588
 31
0.0
  0
LINE
  5
2A
330
1E
100
AcDbEntity
  8
0
100
AcDbLine
 10
10.0588
 20
41.6765
 30
0.0
 11
15.6176
 21
33.38239999999999
 31
0.0
  0
LINE
  5
2B
330
1E
100
AcDbEntity
  8
0
100
AcDbLine
 10
5.823529999999999
 20
50.3235
 30
0.0
 11
10.0588
 21
41.6765
 31
0.0
  0
LINE
  5
2C
330
1E
100
AcDbEntity
  8
0
100
AcDbLine
 10
2.735289999999999
 20
59.67649999999999
 30
0.0
 11
5.823529999999999
 21
50.3235
 31
0.0
  0
LINE
  5
2D
330
1E
100
AcDbEntity
  8
0
100
AcDbLine
 10
29.3824
 20
19.61759999999999
 30
0.0
 11
37.67649999999999
 21
14.05879999999999
 31
0.0
  0
LINE
  5
2E
330
1E
100
AcDbEntity
  8
0
100
AcDbLine
 10
22.0588
 20
26.0588
 30
0.0
 11
29.3824
 21
19.61759999999999
 31
0.0
  0
LINE
  5
2F
330
1E
100
AcDbEntity
  8
0
100
AcDbLine
 10
15.6176
 20
174.618
 30
0.0
 11
22.0588
 21
181.9409999999999
 31
0.0
  0
LINE
  5
30
330
1E
100
AcDbEntity
  8
0
100
AcDbLine
 10
10.0588
 20
166.324
 30
0.0
 11
15.6176
 21
174.618
 31
0.0
  0
LINE
  5
31
330
1E
100
AcDbEntity
  8
0
100
AcDbLine
 10
5.823529999999999
 20
157.676
 30
0.0
 11
10.0588
 21
166.324
 31
0.0
  0
LINE
  5
32
330
1E
100
AcDbEntity
  8
0
100
AcDbLine
 10
2.735289999999999
 20
148.3239999999999
 30
0.0
 11
5.823529999999999
 21
157.676
 31
0.0
  0
LINE
  5
33
330
1E
100
AcDbEntity
  8
0
100
AcDbLine
 10
0.7941180000000001
 20
138.7939999999999
 30
0.0
 11
2.735289999999999
 21
148.3239999999999
 31
0.0
  0
LINE
  5
34
330
1E
100
AcDbEntity
  8
0
100
AcDbLine
 10
22.0588
 20
181.9409999999999
 30
0.0
 11
29.3824
 21
188.382
 31
0.0
  0
LINE
  5
35
330
1E
100
AcDbEntity
  8
0
100
AcDbLine
 10
46.3235
 20
9.823499999999999
 30
0.0
 11
55.1073389815456
 21
6.923227195251899
 31
0.0
  0
LINE
  5
36
330
1E
100
AcDbEntity
  8
0
100
AcDbLine
 10
37.67649999999999
 20
14.05879999999999
 30
0.0
 11
46.3235
 21
9.823499999999999
 31
0.0
  0
LINE
  5
37
330
1E
100
AcDbEntity
  8
0
100
AcDbLine
 10
29.3824
 20
188.382
 30
0.0
 11
37.67649999999999
 21
193.9409999999999
 31
0.0
  0
LINE
  5
38
330
1E
100
AcDbEntity
  8
0
100
AcDbLine
 10
37.67649999999999
 20
193.9409999999999
 30
0.0
 11
46.3235
 21
198.1759999999999
 31
0.0
  0
LINE
  5
96
330
1E
100
AcDbEntity
  8
0
100
AcDbLine
 10
62.312
 20
144.0
 30
0.0
 11
62.78
 21
140.7239999999999
 31
0.0
  0
LINE
  5
97
330
1E
100
AcDbEntity
  8
0
100
AcDbLine
 10
62.312
 20
144.0
 30
0.0
 11
62.78
 21
147.276
 31
0.0
  0
LINE
  5
9B
330
1E
100
AcDbEntity
  8
0
100
AcDbLine
 10
62.78
 20
147.276
 30
0.0
 11
64.028
 21
150.292
 31
0.0
  0
LINE
  5
9C
330
1E
100
AcDbEntity
  8
0
100
AcDbLine
 10
64.028
 20
150.292
 30
0.0
 11
66.05599999999999
 21
152.9439999999999
 31
0.0
  0
LINE
  5
9E
330
1E
100
AcDbEntity
  8
0
100
AcDbLine
 10
62.78
 20
140.7239999999999
 30
0.0
 11
64.028
 21
137.708
 31
0.0
  0
LINE
  5
9F
330
1E
100
AcDbEntity
  8
0
100
AcDbLine
 10
64.028
 20
137.708
 30
0.0
 11
66.05599999999999
 21
135.056
 31
0.0
  0
LINE
  5
A2
330
1E
100
AcDbEntity
  8
0
100
AcDbLine
 10
46.3235
 20
198.1759999999999
 30
0.0
 11
55.6765
 21
201.2649999999999
 31
0.0
  0
LINE
  5
A3
330
1E
100
AcDbEntity
  8
0
100
AcDbLine
 10
55.6765
 20
201.2649999999999
 30
0.0
 11
65.2059
 21
203.2059999999999
 31
0.0
  0
LINE
  5
BA
330
1E
100
AcDbEntity
  8
0
100
AcDbLine
 10
66.05599999999999
 20
135.056
 30
0.0
 11
68.708
 21
133.0279999999999
 31
0.0
  0
LINE
  5
BC
330
1E
100
AcDbEntity
  8
0
100
AcDbLine
 10
68.708
 20
133.0279999999999
 30
0.0
 11
71.72399999999999
 21
131.78
 31
0.0
  0
LINE
  5
D9
330
1E
100
AcDbEntity
  8
0
100
AcDbLine
 10
73.35840000000001
 20
105.939
 30
0.0
 11
75.0
 21
106.0
 31
0.0
  0
LINE
  5
147
330
1E
100
AcDbEntity
  8
0
100
AcDbLine
 10
71.72399999999999
 20
131.78
 30
0.0
 11
75.0
 21
131.312
 31
0.0
  0
LINE
  5
14C
330
1E
100
AcDbEntity
  8
0
100
AcDbLine
 10
66.05599999999999
 20
152.9439999999999
 30
0.0
 11
68.708
 21
154.972
 31
0.0
  0
LINE
  5
14E
330
1E
100
AcDbEntity
  8
0
100
AcDbLine
 10
68.708
 20
154.972
 30
0.0
 11
71.72399999999999
 21
156.2199999999999
 31
0.0
  0
LINE
  5
14F
330
1E
100
AcDbEntity
  8
0
100
AcDbLine
 10
71.72399999999999
 20
156.2199999999999
 30
0.0
 11
75.0
 21
156.6879999999999
 31
0.0
  0
LINE
  5
170
330
1E
100
AcDbEntity
  8
0
100
AcDbLine
 10
65.2059
 20
203.2059999999999
 30
0.0
 11
75.0
 21
204.0
 31
0.0
  0
LINE
  5
1E7
330
1E
100
AcDbEntity
  8
0
100
AcDbLine
 10
73.35840000000001
 20
105.939
 30
0.0
 11
75.0
 21
106.0
 31
0.0
  0
LINE
  5
1E8
330
1E
100
AcDbEntity
  8
0
100
AcDbLine
 10
70.03847927086122
 20
0.03802008233572
 30
0.0
 11
75.0
 21
0.0
 31
0.0
  0
LINE
  5
1E9
330
1E
100
AcDbEntity
  8
0
100
AcDbLine
 10
70.03847927086122
 20
0.03802008233572
 30
0.0
 11
75.0
 21
0.0
 31
0.0
  0
LINE
  5
1EA
330
1E
100
AcDbEntity
  8
0
100
AcDbLine
 10
56.602
 20
96.1423
 30
0.0
 11
57.44380000000001
 21
97.3281
 31
0.0
  0
LINE
  5
1EB
330
1E
100
AcDbEntity
  8
0
100
AcDbLine
 10
54.2117
 20
37.83059999999998
 30
0.0
 11
54.31960000000001
 21
33.85900000000001
 31
0.0
  0
LINE
  5
1EC
330
1E
100
AcDbEntity
  8
0
100
AcDbLine
 10
55.07240000000002
 20
7.977490000000003
 30
0.0
 11
55.1474
 21
5.71441
 31
0.0
  0
LINE
  5
1ED
330
1E
100
AcDbEntity
  8
0
100
AcDbLine
 10
59.24029999999999
 20
0.9528689999999926
 30
0.0
 11
63.16419999999999
 21
0.519473000000005
 31
0.0
  0
LINE
  5
1EE
330
1E
100
AcDbEntity
  8
0
100
AcDbLine
 10
56.9589
 20
1.698570000000003
 30
0.0
 11
57.6627
 21
1.321249999999992
 31
0.0
  0
LINE
  5
1EF
330
1E
100
AcDbEntity
  8
0
100
AcDbLine
 10
56.35609999999999
 20
2.204099999999996
 30
0.0
 11
56.9589
 21
1.698570000000003
 31
0.0
  0
LINE
  5
1F0
330
1E
100
AcDbEntity
  8
0
100
AcDbLine
 10
55.43029999999999
 20
3.702519999999992
 30
0.0
 11
55.78319999999999
 21
2.954819999999998
 31
0.0
  0
LINE
  5
1F1
330
1E
100
AcDbEntity
  8
0
100
AcDbLine
 10
55.1474
 20
5.71441
 30
0.0
 11
55.16539999999998
 21
5.29204
 31
0.0
  0
LINE
  5
1F2
330
1E
100
AcDbEntity
  8
0
100
AcDbLine
 10
55.16539999999998
 20
5.29204
 30
0.0
 11
55.29039999999998
 21
4.234039999999993
 31
0.0
  0
LINE
  5
1F3
330
1E
100
AcDbEntity
  8
0
100
AcDbLine
 10
55.29039999999998
 20
4.234039999999993
 30
0.0
 11
55.43029999999999
 21
3.702519999999992
 31
0.0
  0
LINE
  5
1F4
330
1E
100
AcDbEntity
  8
0
100
AcDbLine
 10
55.85519999999999
 20
2.850679999999996
 30
0.0
 11
56.35609999999999
 21
2.204099999999996
 31
0.0
  0
LINE
  5
1F5
330
1E
100
AcDbEntity
  8
0
100
AcDbLine
 10
55.78319999999999
 20
2.954819999999998
 30
0.0
 11
55.85519999999999
 21
2.850679999999996
 31
0.0
  0
LINE
  5
1F6
330
1E
100
AcDbEntity
  8
0
100
AcDbLine
 10
58.17259999999999
 20
1.148099999999999
 30
0.0
 11
59.24029999999999
 21
0.9528689999999926
 31
0.0
  0
LINE
  5
1F7
330
1E
100
AcDbEntity
  8
0
100
AcDbLine
 10
57.6627
 20
1.321249999999992
 30
0.0
 11
58.17259999999999
 21
1.148099999999999
 31
0.0
  0
LINE
  5
1F8
330
1E
100
AcDbEntity
  8
0
100
AcDbLine
 10
67.10219999999998
 20
0.2262289999999893
 30
0.0
 11
71.04910000000001
 21
0.0570840000000033
 31
0.0
  0
LINE
  5
1F9
330
1E
100
AcDbEntity
  8
0
100
AcDbLine
 10
63.16419999999999
 20
0.519473000000005
 30
0.0
 11
67.10219999999998
 21
0.2262289999999893
 31
0.0
  0
LINE
  5
1FA
330
1E
100
AcDbEntity
  8
0
100
AcDbLine
 10
54.58359999999998
 20
24.361
 30
0.0
 11
54.7185
 21
19.62649999999999
 31
0.0
  0
LINE
  5
1FB
330
1E
100
AcDbEntity
  8
0
100
AcDbLine
 10
54.85649999999998
 20
14.9221
 30
0.0
 11
54.9275
 21
12.5878
 31
0.0
  0
LINE
  5
1FC
330
1E
100
AcDbEntity
  8
0
100
AcDbLine
 10
54.99949999999998
 20
10.27169999999999
 30
0.0
 11
55.07240000000002
 21
7.977490000000003
 31
0.0
  0
LINE
  5
1FD
330
1E
100
AcDbEntity
  8
0
100
AcDbLine
 10
54.9275
 20
12.5878
 30
0.0
 11
54.99949999999998
 21
10.27169999999999
 31
0.0
  0
LINE
  5
1FE
330
1E
100
AcDbEntity
  8
0
100
AcDbLine
 10
54.78749999999999
 20
17.2693
 30
0.0
 11
54.85649999999998
 21
14.9221
 31
0.0
  0
LINE
  5
1FF
330
1E
100
AcDbEntity
  8
0
100
AcDbLine
 10
54.7185
 20
19.62649999999999
 30
0.0
 11
54.78749999999999
 21
17.2693
 31
0.0
  0
LINE
  5
200
330
1E
100
AcDbEntity
  8
0
100
AcDbLine
 10
54.31960000000001
 20
33.85900000000001
 30
0.0
 11
54.49459999999999
 21
27.52499999999999
 31
0.0
  0
LINE
  5
201
330
1E
100
AcDbEntity
  8
0
100
AcDbLine
 10
54.49459999999999
 20
27.52499999999999
 30
0.0
 11
54.58359999999998
 21
24.361
 31
0.0
  0
LINE
  5
202
330
1E
100
AcDbEntity
  8
0
100
AcDbLine
 10
53.0
 20
83.9169
 30
0.0
 11
53.5299
 21
62.7637
 31
0.0
  0
LINE
  5
203
330
1E
100
AcDbEntity
  8
0
100
AcDbLine
 10
53.66879999999998
 20
57.6874
 30
0.0
 11
53.99369999999999
 21
45.7732
 31
0.0
  0
LINE
  5
204
330
1E
100
AcDbEntity
  8
0
100
AcDbLine
 10
53.99369999999999
 20
45.7732
 30
0.0
 11
54.2117
 21
37.83059999999998
 31
0.0
  0
LINE
  5
205
330
1E
100
AcDbEntity
  8
0
100
AcDbLine
 10
53.982
 20
44.668
 30
0.0
 11
54.02255932065429
 21
44.721741099867
 31
0.0
  0
LINE
  5
206
330
1E
100
AcDbEntity
  8
0
100
AcDbLine
 10
53.5299
 20
62.7637
 30
0.0
 11
53.66879999999998
 21
57.6874
 31
0.0
  0
LINE
  5
207
330
1E
100
AcDbEntity
  8
0
100
AcDbLine
 10
53.5299
 20
88.89990000000002
 30
0.0
 11
53.76580000000001
 21
89.869
 31
0.0
  0
LINE
  5
208
330
1E
100
AcDbEntity
  8
0
100
AcDbLine
 10
53.00200000000001
 20
84.16169999999999
 30
0.0
 11
53.089
 21
85.9464
 31
0.0
  0
LINE
  5
209
330
1E
100
AcDbEntity
  8
0
100
AcDbLine
 10
53.0
 20
83.9169
 30
0.0
 11
53.00200000000001
 21
84.16169999999999
 31
0.0
  0
LINE
  5
20A
330
1E
100
AcDbEntity
  8
0
100
AcDbLine
 10
53.3389
 20
87.9218
 30
0.0
 11
53.5299
 21
88.89990000000002
 31
0.0
  0
LINE
  5
20B
330
1E
100
AcDbEntity
  8
0
100
AcDbLine
 10
53.19300000000001
 20
86.93559999999999
 30
0.0
 11
53.3389
 21
87.9218
 31
0.0
  0
LINE
  5
20C
330
1E
100
AcDbEntity
  8
0
100
AcDbLine
 10
53.089
 20
85.9464
 30
0.0
 11
53.19300000000001
 21
86.93559999999999
 31
0.0
  0
LINE
  5
20D
330
1E
100
AcDbEntity
  8
0
100
AcDbLine
 10
54.1617
 20
91.17220000000001
 30
0.0
 11
54.64159999999998
 21
92.44939999999999
 31
0.0
  0
LINE
  5
20E
330
1E
100
AcDbEntity
  8
0
100
AcDbLine
 10
53.76580000000001
 20
89.869
 30
0.0
 11
54.1617
 21
91.17220000000001
 31
0.0
  0
LINE
  5
20F
330
1E
100
AcDbEntity
  8
0
100
AcDbLine
 10
54.64159999999998
 20
92.44939999999999
 30
0.0
 11
55.20240000000001
 21
93.6964
 31
0.0
  0
LINE
  5
210
330
1E
100
AcDbEntity
  8
0
100
AcDbLine
 10
55.20240000000001
 20
93.6964
 30
0.0
 11
55.84819999999999
 21
94.9173
 31
0.0
  0
LINE
  5
211
330
1E
100
AcDbEntity
  8
0
100
AcDbLine
 10
55.84819999999999
 20
94.9173
 30
0.0
 11
56.602
 21
96.1423
 31
0.0
  0
LINE
  5
212
330
1E
100
AcDbEntity
  8
0
100
AcDbLine
 10
62.43439999999998
 20
102.089
 30
0.0
 11
64.137
 21
103.1529999999999
 31
0.0
  0
LINE
  5
213
330
1E
100
AcDbEntity
  8
0
100
AcDbLine
 10
59.37829999999999
 20
99.5432
 30
0.0
 11
60.84389999999999
 21
100.8819999999999
 31
0.0
  0
LINE
  5
214
330
1E
100
AcDbEntity
  8
0
100
AcDbLine
 10
58.37049999999999
 20
98.4637
 30
0.0
 11
59.37829999999999
 21
99.5432
 31
0.0
  0
LINE
  5
215
330
1E
100
AcDbEntity
  8
0
100
AcDbLine
 10
57.44380000000001
 20
97.3281
 30
0.0
 11
58.37049999999999
 21
98.4637
 31
0.0
  0
LINE
  5
216
330
1E
100
AcDbEntity
  8
0
100
AcDbLine
 10
60.84389999999999
 20
100.8819999999999
 30
0.0
 11
62.43439999999998
 21
102.089
 31
0.0
  0
LINE
  5
217
330
1E
100
AcDbEntity
  8
0
100
AcDbLine
 10
67.9579
 20
104.852
 30
0.0
 11
69.2896
 21
105.2529999999999
 31
0.0
  0
LINE
  5
218
330
1E
100
AcDbEntity
  8
0
100
AcDbLine
 10
66.65030000000001
 20
104.367
 30
0.0
 11
67.9579
 21
104.852
 31
0.0
  0
LINE
  5
219
330
1E
100
AcDbEntity
  8
0
100
AcDbLine
 10
65.37470000000002
 20
103.7999999999998
 30
0.0
 11
66.65030000000001
 21
104.367
 31
0.0
  0
LINE
  5
21A
330
1E
100
AcDbEntity
  8
0
100
AcDbLine
 10
64.137
 20
103.1529999999999
 30
0.0
 11
65.37470000000002
 21
103.7999999999998
 31
0.0
  0
LINE
  5
21B
330
1E
100
AcDbEntity
  8
0
100
AcDbLine
 10
70.63920000000002
 20
105.567
 30
0.0
 11
71.99779999999998
 21
105.7949999999999
 31
0.0
  0
LINE
  5
21C
330
1E
100
AcDbEntity
  8
0
100
AcDbLine
 10
69.2896
 20
105.2529999999999
 30
0.0
 11
70.63920000000002
 21
105.567
 31
0.0
  0
LINE
  5
21D
330
1E
100
AcDbEntity
  8
0
100
AcDbLine
 10
71.99779999999998
 20
105.7949999999999
 30
0.0
 11
73.35840000000001
 21
105.939
 31
0.0
  0
LINE
  5
21E
330
1E
100
AcDbEntity
  8
0
100
AcDbLine
 10
93.39800000000002
 20
96.1423
 30
0.0
 11
92.55619999999998
 21
97.3281
 31
0.0
  0
LINE
  5
21F
330
1E
100
AcDbEntity
  8
0
100
AcDbLine
 10
95.78829999999999
 20
37.83059999999998
 30
0.0
 11
95.68040000000001
 21
33.85900000000001
 31
0.0
  0
LINE
  5
220
330
1E
100
AcDbEntity
  8
0
100
AcDbLine
 10
94.92759999999998
 20
7.977490000000003
 30
0.0
 11
94.8526
 21
5.71441
 31
0.0
  0
LINE
  5
221
330
1E
100
AcDbEntity
  8
0
100
AcDbLine
 10
86.8358
 20
0.519473000000005
 30
0.0
 11
82.89780000000002
 21
0.2262289999999893
 31
0.0
  0
LINE
  5
222
330
1E
100
AcDbEntity
  8
0
100
AcDbLine
 10
82.89780000000002
 20
0.2262289999999893
 30
0.0
 11
78.95089999999999
 21
0.0570840000000033
 31
0.0
  0
LINE
  5
223
330
1E
100
AcDbEntity
  8
0
100
AcDbLine
 10
79.96152072913878
 20
0.03802008233572
 30
0.0
 11
75.0
 21
0.0
 31
0.0
  0
LINE
  5
224
330
1E
100
AcDbEntity
  8
0
100
AcDbLine
 10
79.96152072913878
 20
0.03802008233572
 30
0.0
 11
75.0
 21
0.0
 31
0.0
  0
LINE
  5
225
330
1E
100
AcDbEntity
  8
0
100
AcDbLine
 10
93.04110000000003
 20
1.698570000000003
 30
0.0
 11
92.33730000000003
 21
1.321249999999992
 31
0.0
  0
LINE
  5
226
330
1E
100
AcDbEntity
  8
0
100
AcDbLine
 10
90.75970000000001
 20
0.9528689999999926
 30
0.0
 11
86.8358
 21
0.519473000000005
 31
0.0
  0
LINE
  5
227
330
1E
100
AcDbEntity
  8
0
100
AcDbLine
 10
91.8274
 20
1.148099999999999
 30
0.0
 11
90.75970000000001
 21
0.9528689999999926
 31
0.0
  0
LINE
  5
228
330
1E
100
AcDbEntity
  8
0
100
AcDbLine
 10
92.33730000000003
 20
1.321249999999992
 30
0.0
 11
91.8274
 21
1.148099999999999
 31
0.0
  0
LINE
  5
229
330
1E
100
AcDbEntity
  8
0
100
AcDbLine
 10
93.64390000000003
 20
2.204099999999996
 30
0.0
 11
93.04110000000003
 21
1.698570000000003
 31
0.0
  0
LINE
  5
22A
330
1E
100
AcDbEntity
  8
0
100
AcDbLine
 10
94.14480000000002
 20
2.850679999999996
 30
0.0
 11
93.64390000000003
 21
2.204099999999996
 31
0.0
  0
LINE
  5
22B
330
1E
100
AcDbEntity
  8
0
100
AcDbLine
 10
94.56970000000001
 20
3.702519999999992
 30
0.0
 11
94.21680000000003
 21
2.954819999999998
 31
0.0
  0
LINE
  5
22C
330
1E
100
AcDbEntity
  8
0
100
AcDbLine
 10
94.70960000000003
 20
4.234039999999993
 30
0.0
 11
94.56970000000001
 21
3.702519999999992
 31
0.0
  0
LINE
  5
22D
330
1E
100
AcDbEntity
  8
0
100
AcDbLine
 10
94.83460000000002
 20
5.29204
 30
0.0
 11
94.70960000000003
 21
4.234039999999993
 31
0.0
  0
LINE
  5
22E
330
1E
100
AcDbEntity
  8
0
100
AcDbLine
 10
94.8526
 20
5.71441
 30
0.0
 11
94.83460000000002
 21
5.29204
 31
0.0
  0
LINE
  5
22F
330
1E
100
AcDbEntity
  8
0
100
AcDbLine
 10
94.21680000000003
 20
2.954819999999998
 30
0.0
 11
94.14480000000002
 21
2.850679999999996
 31
0.0
  0
LINE
  5
230
330
1E
100
AcDbEntity
  8
0
100
AcDbLine
 10
95.41640000000001
 20
24.361
 30
0.0
 11
95.2815
 21
19.62649999999999
 31
0.0
  0
LINE
  5
231
330
1E
100
AcDbEntity
  8
0
100
AcDbLine
 10
95.14350000000002
 20
14.9221
 30
0.0
 11
95.07249999999999
 21
12.5878
 31
0.0
  0
LINE
  5
232
330
1E
100
AcDbEntity
  8
0
100
AcDbLine
 10
95.00049999999999
 20
10.27169999999999
 30
0.0
 11
94.92759999999998
 21
7.977490000000003
 31
0.0
  0
LINE
  5
233
330
1E
100
AcDbEntity
  8
0
100
AcDbLine
 10
95.07249999999999
 20
12.5878
 30
0.0
 11
95.00049999999999
 21
10.27169999999999
 31
0.0
  0
LINE
  5
234
330
1E
100
AcDbEntity
  8
0
100
AcDbLine
 10
95.21249999999998
 20
17.2693
 30
0.0
 11
95.14350000000002
 21
14.9221
 31
0.0
  0
LINE
  5
235
330
1E
100
AcDbEntity
  8
0
100
AcDbLine
 10
95.2815
 20
19.62649999999999
 30
0.0
 11
95.21249999999998
 21
17.2693
 31
0.0
  0
LINE
  5
236
330
1E
100
AcDbEntity
  8
0
100
AcDbLine
 10
95.68040000000001
 20
33.85900000000001
 30
0.0
 11
95.50540000000001
 21
27.52499999999999
 31
0.0
  0
LINE
  5
237
330
1E
100
AcDbEntity
  8
0
100
AcDbLine
 10
95.50540000000001
 20
27.52499999999999
 30
0.0
 11
95.41640000000001
 21
24.361
 31
0.0
  0
LINE
  5
238
330
1E
100
AcDbEntity
  8
0
100
AcDbLine
 10
97.0
 20
83.9169
 30
0.0
 11
96.47010000000001
 21
62.7637
 31
0.0
  0
LINE
  5
239
330
1E
100
AcDbEntity
  8
0
100
AcDbLine
 10
96.33119999999998
 20
57.6874
 30
0.0
 11
96.00630000000002
 21
45.7732
 31
0.0
  0
LINE
  5
23A
330
1E
100
AcDbEntity
  8
0
100
AcDbLine
 10
96.00630000000002
 20
45.7732
 30
0.0
 11
95.78829999999999
 21
37.83059999999998
 31
0.0
  0
LINE
  5
23B
330
1E
100
AcDbEntity
  8
0
100
AcDbLine
 10
96.01800000000004
 20
44.668
 30
0.0
 11
95.9774406793457
 21
44.721741099867
 31
0.0
  0
LINE
  5
23C
330
1E
100
AcDbEntity
  8
0
100
AcDbLine
 10
96.47010000000001
 20
62.7637
 30
0.0
 11
96.33119999999998
 21
57.6874
 31
0.0
  0
LINE
  5
23D
330
1E
100
AcDbEntity
  8
0
100
AcDbLine
 10
96.47010000000001
 20
88.89990000000002
 30
0.0
 11
96.23419999999999
 21
89.869
 31
0.0
  0
LINE
  5
23E
330
1E
100
AcDbEntity
  8
0
100
AcDbLine
 10
96.99799999999999
 20
84.16169999999999
 30
0.0
 11
96.911
 21
85.9464
 31
0.0
  0
LINE
  5
23F
330
1E
100
AcDbEntity
  8
0
100
AcDbLine
 10
97.0
 20
83.9169
 30
0.0
 11
96.99799999999999
 21
84.16169999999999
 31
0.0
  0
LINE
  5
240
330
1E
100
AcDbEntity
  8
0
100
AcDbLine
 10
96.80700000000001
 20
86.93559999999999
 30
0.0
 11
96.66110000000003
 21
87.9218
 31
0.0
  0
LINE
  5
241
330
1E
100
AcDbEntity
  8
0
100
AcDbLine
 10
96.66110000000003
 20
87.9218
 30
0.0
 11
96.47010000000001
 21
88.89990000000002
 31
0.0
  0
LINE
  5
242
330
1E
100
AcDbEntity
  8
0
100
AcDbLine
 10
96.911
 20
85.9464
 30
0.0
 11
96.80700000000001
 21
86.93559999999999
 31
0.0
  0
LINE
  5
243
330
1E
100
AcDbEntity
  8
0
100
AcDbLine
 10
95.35840000000002
 20
92.44939999999999
 30
0.0
 11
94.79759999999998
 21
93.6964
 31
0.0
  0
LINE
  5
244
330
1E
100
AcDbEntity
  8
0
100
AcDbLine
 10
94.15179999999997
 20
94.9173
 30
0.0
 11
93.39800000000002
 21
96.1423
 31
0.0
  0
LINE
  5
245
330
1E
100
AcDbEntity
  8
0
100
AcDbLine
 10
94.79759999999998
 20
93.6964
 30
0.0
 11
94.15179999999997
 21
94.9173
 31
0.0
  0
LINE
  5
246
330
1E
100
AcDbEntity
  8
0
100
AcDbLine
 10
96.23419999999999
 20
89.869
 30
0.0
 11
95.8383
 21
91.17220000000001
 31
0.0
  0
LINE
  5
247
330
1E
100
AcDbEntity
  8
0
100
AcDbLine
 10
95.8383
 20
91.17220000000001
 30
0.0
 11
95.35840000000002
 21
92.44939999999999
 31
0.0
  0
LINE
  5
248
330
1E
100
AcDbEntity
  8
0
100
AcDbLine
 10
87.56560000000002
 20
102.089
 30
0.0
 11
85.86299999999999
 21
103.1529999999999
 31
0.0
  0
LINE
  5
249
330
1E
100
AcDbEntity
  8
0
100
AcDbLine
 10
80.71039999999999
 20
105.2529999999999
 30
0.0
 11
79.36079999999998
 21
105.567
 31
0.0
  0
LINE
  5
24A
330
1E
100
AcDbEntity
  8
0
100
AcDbLine
 10
78.00220000000002
 20
105.7949999999999
 30
0.0
 11
76.64159999999998
 21
105.939
 31
0.0
  0
LINE
  5
24B
330
1E
100
AcDbEntity
  8
0
100
AcDbLine
 10
76.64159999999998
 20
105.939
 30
0.0
 11
75.0
 21
106.0
 31
0.0
  0
LINE
  5
24C
330
1E
100
AcDbEntity
  8
0
100
AcDbLine
 10
79.36079999999998
 20
105.567
 30
0.0
 11
78.00220000000002
 21
105.7949999999999
 31
0.0
  0
LINE
  5
24D
330
1E
100
AcDbEntity
  8
0
100
AcDbLine
 10
83.34969999999998
 20
104.367
 30
0.0
 11
82.04210000000001
 21
104.852
 31
0.0
  0
LINE
  5
24E
330
1E
100
AcDbEntity
  8
0
100
AcDbLine
 10
84.62529999999999
 20
103.7999999999998
 30
0.0
 11
83.34969999999998
 21
104.367
 31
0.0
  0
LINE
  5
24F
330
1E
100
AcDbEntity
  8
0
100
AcDbLine
 10
85.86299999999999
 20
103.1529999999999
 30
0.0
 11
84.62529999999999
 21
103.7999999999998
 31
0.0
  0
LINE
  5
250
330
1E
100
AcDbEntity
  8
0
100
AcDbLine
 10
82.04210000000001
 20
104.852
 30
0.0
 11
80.71039999999999
 21
105.2529999999999
 31
0.0
  0
LINE
  5
251
330
1E
100
AcDbEntity
  8
0
100
AcDbLine
 10
92.55619999999998
 20
97.3281
 30
0.0
 11
91.6295
 21
98.4637
 31
0.0
  0
LINE
  5
252
330
1E
100
AcDbEntity
  8
0
100
AcDbLine
 10
90.62170000000003
 20
99.5432
 30
0.0
 11
89.15610000000004
 21
100.8819999999999
 31
0.0
  0
LINE
  5
253
330
1E
100
AcDbEntity
  8
0
100
AcDbLine
 10
89.15610000000004
 20
100.8819999999999
 30
0.0
 11
87.56560000000002
 21
102.089
 31
0.0
  0
LINE
  5
254
330
1E
100
AcDbEntity
  8
0
100
AcDbLine
 10
91.6295
 20
98.4637
 30
0.0
 11
90.62170000000003
 21
99.5432
 31
0.0
  0
LINE
  5
255
330
1E
100
AcDbEntity
  8
0
100
AcDbLine
 10
150.0
 20
129.0
 30
0.0
 11
150.0
 21
79.0
 31
0.0
  0
LINE
  5
256
330
1E
100
AcDbEntity
  8
0
100
AcDbLine
 10
150.0
 20
79.0
 30
0.0
 11
150.0
 21
129.0
 31
0.0
  0
LINE
  5
257
330
1E
100
AcDbEntity
  8
0
100
AcDbLine
 10
127.9411999999999
 20
26.0588
 30
0.0
 11
120.6175999999999
 21
19.61759999999999
 31
0.0
  0
LINE
  5
258
330
1E
100
AcDbEntity
  8
0
100
AcDbLine
 10
139.9412
 20
41.6765
 30
0.0
 11
134.3823999999999
 21
33.38239999999999
 31
0.0
  0
LINE
  5
259
330
1E
100
AcDbEntity
  8
0
100
AcDbLine
 10
134.3823999999999
 20
33.38239999999999
 30
0.0
 11
127.9411999999999
 21
26.0588
 31
0.0
  0
LINE
  5
25A
330
1E
100
AcDbEntity
  8
0
100
AcDbLine
 10
147.26471
 20
59.67649999999999
 30
0.0
 11
144.17647
 21
50.3235
 31
0.0
  0
LINE
  5
25B
330
1E
100
AcDbEntity
  8
0
100
AcDbLine
 10
150.0
 20
79.0
 30
0.0
 11
149.205882
 21
69.2059
 31
0.0
  0
LINE
  5
25C
330
1E
100
AcDbEntity
  8
0
100
AcDbLine
 10
149.205882
 20
69.2059
 30
0.0
 11
147.26471
 21
59.67649999999999
 31
0.0
  0
LINE
  5
25D
330
1E
100
AcDbEntity
  8
0
100
AcDbLine
 10
149.205882
 20
69.2059
 30
0.0
 11
147.26471
 21
59.67649999999999
 31
0.0
  0
LINE
  5
25E
330
1E
100
AcDbEntity
  8
0
100
AcDbLine
 10
144.17647
 20
50.3235
 30
0.0
 11
139.9412
 21
41.6765
 31
0.0
  0
LINE
  5
25F
330
1E
100
AcDbEntity
  8
0
100
AcDbLine
 10
103.6765
 20
9.823499999999999
 30
0.0
 11
94.89266101845439
 21
6.923227195251899
 31
0.0
  0
LINE
  5
260
330
1E
100
AcDbEntity
  8
0
100
AcDbLine
 10
112.3234999999999
 20
14.05879999999999
 30
0.0
 11
103.6765
 21
9.823499999999999
 31
0.0
  0
LINE
  5
261
330
1E
100
AcDbEntity
  8
0
100
AcDbLine
 10
120.6175999999999
 20
19.61759999999999
 30
0.0
 11
112.3234999999999
 21
14.05879999999999
 31
0.0
  0
LINE
  5
262
330
1E
100
AcDbEntity
  8
0
100
AcDbLine
 10
127.9411999999999
 20
181.9409999999999
 30
0.0
 11
120.6175999999999
 21
188.382
 31
0.0
  0
LINE
  5
263
330
1E
100
AcDbEntity
  8
0
100
AcDbLine
 10
144.17647
 20
157.676
 30
0.0
 11
139.9412
 21
166.324
 31
0.0
  0
LINE
  5
264
330
1E
100
AcDbEntity
  8
0
100
AcDbLine
 10
147.26471
 20
148.3239999999999
 30
0.0
 11
144.17647
 21
157.676
 31
0.0
  0
LINE
  5
265
330
1E
100
AcDbEntity
  8
0
100
AcDbLine
 10
150.0
 20
129.0
 30
0.0
 11
149.205882
 21
138.7939999999999
 31
0.0
  0
LINE
  5
266
330
1E
100
AcDbEntity
  8
0
100
AcDbLine
 10
149.205882
 20
138.7939999999999
 30
0.0
 11
147.26471
 21
148.3239999999999
 31
0.0
  0
LINE
  5
267
330
1E
100
AcDbEntity
  8
0
100
AcDbLine
 10
149.205882
 20
138.7939999999999
 30
0.0
 11
147.26471
 21
148.3239999999999
 31
0.0
  0
LINE
  5
268
330
1E
100
AcDbEntity
  8
0
100
AcDbLine
 10
134.3823999999999
 20
174.618
 30
0.0
 11
127.9411999999999
 21
181.9409999999999
 31
0.0
  0
LINE
  5
269
330
1E
100
AcDbEntity
  8
0
100
AcDbLine
 10
139.9412
 20
166.324
 30
0.0
 11
134.3823999999999
 21
174.618
 31
0.0
  0
LINE
  5
26A
330
1E
100
AcDbEntity
  8
0
100
AcDbLine
 10
83.944
 20
135.056
 30
0.0
 11
81.292
 21
133.0279999999999
 31
0.0
  0
LINE
  5
26B
330
1E
100
AcDbEntity
  8
0
100
AcDbLine
 10
76.64159999999999
 20
105.939
 30
0.0
 11
75.0
 21
106.0
 31
0.0
  0
LINE
  5
26C
330
1E
100
AcDbEntity
  8
0
100
AcDbLine
 10
81.292
 20
133.0279999999999
 30
0.0
 11
78.27600000000001
 21
131.78
 31
0.0
  0
LINE
  5
26D
330
1E
100
AcDbEntity
  8
0
100
AcDbLine
 10
78.27600000000001
 20
131.78
 30
0.0
 11
75.0
 21
131.312
 31
0.0
  0
LINE
  5
26E
330
1E
100
AcDbEntity
  8
0
100
AcDbLine
 10
87.21999999999999
 20
140.7239999999999
 30
0.0
 11
85.97199999999999
 21
137.708
 31
0.0
  0
LINE
  5
26F
330
1E
100
AcDbEntity
  8
0
100
AcDbLine
 10
87.21999999999999
 20
147.276
 30
0.0
 11
85.97199999999999
 21
150.292
 31
0.0
  0
LINE
  5
270
330
1E
100
AcDbEntity
  8
0
100
AcDbLine
 10
87.688
 20
144.0
 30
0.0
 11
87.21999999999999
 21
140.7239999999999
 31
0.0
  0
LINE
  5
271
330
1E
100
AcDbEntity
  8
0
100
AcDbLine
 10
87.688
 20
144.0
 30
0.0
 11
87.21999999999999
 21
147.276
 31
0.0
  0
LINE
  5
272
330
1E
100
AcDbEntity
  8
0
100
AcDbLine
 10
85.97199999999999
 20
137.708
 30
0.0
 11
83.944
 21
135.056
 31
0.0
  0
LINE
  5
273
330
1E
100
AcDbEntity
  8
0
100
AcDbLine
 10
81.292
 20
154.972
 30
0.0
 11
78.27600000000001
 21
156.2199999999999
 31
0.0
  0
LINE
  5
274
330
1E
100
AcDbEntity
  8
0
100
AcDbLine
 10
83.944
 20
152.9439999999999
 30
0.0
 11
81.292
 21
154.972
 31
0.0
  0
LINE
  5
275
330
1E
100
AcDbEntity
  8
0
100
AcDbLine
 10
85.97199999999999
 20
150.292
 30
0.0
 11
83.944
 21
152.9439999999999
 31
0.0
  0
LINE
  5
276
330
1E
100
AcDbEntity
  8
0
100
AcDbLine
 10
78.27600000000001
 20
156.2199999999999
 30
0.0
 11
75.0
 21
156.6879999999999
 31
0.0
  0
LINE
  5
277
330
1E
100
AcDbEntity
  8
0
100
AcDbLine
 10
103.6765
 20
198.1759999999999
 30
0.0
 11
94.32349999999999
 21
201.2649999999999
 31
0.0
  0
LINE
  5
278
330
1E
100
AcDbEntity
  8
0
100
AcDbLine
 10
112.3234999999999
 20
193.9409999999999
 30
0.0
 11
103.6765
 21
198.1759999999999
 31
0.0
  0
LINE
  5
279
330
1E
100
AcDbEntity
  8
0
100
AcDbLine
 10
120.6175999999999
 20
188.382
 30
0.0
 11
112.3234999999999
 21
193.9409999999999
 31
0.0
  0
LINE
  5
27A
330
1E
100
AcDbEntity
  8
0
100
AcDbLine
 10
94.32349999999999
 20
201.2649999999999
 30
0.0
 11
84.79409999999999
 21
203.2059999999999
 31
0.0
  0
LINE
  5
27B
330
1E
100
AcDbEntity
  8
0
100
AcDbLine
 10
84.79409999999999
 20
203.2059999999999
 30
0.0
 11
75.0
 21
204.0
 31
0.0
  0
ENDSEC
  0
SECTION
  2
OBJECTS
  0
DICTIONARY
  5
C
330
0
100
AcDbDictionary
281
     1
  3
ACAD_GROUP
350
D
  3
ACAD_LAYOUT
350
19
  3
ACAD_MLINESTYLE
350
16
  3
ACAD_PLOTSETTINGS
350
18
  3
ACAD_PLOTSTYLENAME
350
E
  3
AcDbVariableDictionary
350
27D
  0
DICTIONARY
  5
D
102
{ACAD_REACTORS
330
C
102
}
330
C
100
AcDbDictionary
281
     1
  0
DICTIONARY
  5
19
102
{ACAD_REACTORS
330
C
102
}
330
C
100
AcDbDictionary
281
     1
  3
Layout1
350
1D
  3
Model
350
21
  0
DICTIONARY
  5
16
102
{ACAD_REACTORS
330
C
102
}
330
C
100
AcDbDictionary
281
     1
  3
Standard
350
17
  0
DICTIONARY
  5
18
102
{ACAD_REACTORS
330
C
102
}
330
C
100
AcDbDictionary
281
     1
  0
ACDBDICTIONARYWDFLT
  5
E
102
{ACAD_REACTORS
330
C
102
}
330
C
100
AcDbDictionary
281
     1
  3
Normal
350
F
100
AcDbDictionaryWithDefault
340
F
  0
DICTIONARY
  5
27D
102
{ACAD_REACTORS
330
C
102
}
330
C
100
AcDbDictionary
281
     1
  3
DIMASSOC
350
27E
  0
LAYOUT
  5
1D
102
{ACAD_REACTORS
330
19
102
}
330
19
100
AcDbPlotSettings
  1

  2
C:\Programme\AutoCAD LT 2002 Deu\plotters\DWF ePlot (optimized for plotting).pc3
  4

  6

 40
0.0
 41
0.0
 42
0.0
 43
0.0
 44
0.0
 45
0.0
 46
0.0
 47
0.0
 48
0.0
 49
0.0
140
0.0
141
0.0
142
1.0
143
1.0
 70
   688
 72
     0
 73
     0
 74
     5
  7

 75
    16
147
1.0
148
0.0
149
0.0
100
AcDbLayout
  1
Layout1
 70
     1
 71
     1
 10
0.0
 20
0.0
 11
12.0
 21
9.0
 12
0.0
 22
0.0
 32
0.0
 14
1.000000000000000E+20
 24
1.000000000000000E+20
 34
1.000000000000000E+20
 15
-1.000000000000000E+20
 25
-1.000000000000000E+20
 35
-1.000000000000000E+20
146
0.0
 13
0.0
 23
0.0
 33
0.0
 16
1.0
 26
0.0
 36
0.0
 17
0.0
 27
1.0
 37
0.0
 76
     0
330
1A
  0
LAYOUT
  5
21
102
{ACAD_REACTORS
330
19
102
}
330
19
100
AcDbPlotSettings
  1

  2
C:\Programme\AutoCAD LT 2002 Deu\plotters\DWF ePlot (optimized for plotting).pc3
  4

  6

 40
0.0
 41
0.0
 42
0.0
 43
0.0
 44
0.0
 45
0.0
 46
0.0
 47
0.0
 48
0.0
 49
0.0
140
0.0
141
0.0
142
1.0
143
1.0
 70
  1712
 72
     0
 73
     0
 74
     0
  7

 75
     0
147
1.0
148
0.0
149
0.0
100
AcDbLayout
  1
Model
 70
     1
 71
     0
 10
0.0
 20
0.0
 11
12.0
 21
9.0
 12
0.0
 22
0.0
 32
0.0
 14
0.0
 24
0.0
 34
0.0
 15
0.0
 25
0.0
 35
0.0
146
0.0
 13
0.0
 23
0.0
 33
0.0
 16
1.0
 26
0.0
 36
0.0
 17
0.0
 27
1.0
 37
0.0
 76
     0
330
1E
  0
MLINESTYLE
  5
17
102
{ACAD_REACTORS
330
16
102
}
330
16
100
AcDbMlineStyle
  2
STANDARD
 70
     0
  3

 62
   256
 51
90.0
 52
90.0
 71
     2
 49
0.5
 62
   256
  6
BYLAYER
 49
-0.5
 62
   256
  6
BYLAYER
  0
ACDBPLACEHOLDER
  5
F
102
{ACAD_REACTORS
330
E
102
}
330
E
  0
DICTIONARYVAR
  5
27E
102
{ACAD_REACTORS
330
27D
102
}
330
27D
100
DictionaryVariables
280
     0
  1
1
  0
ENDSEC
  0
EOF
