  0
SECTION
  2
HEADER
  9
$ACADVER
  1
AC1015
  9
$ACADMAINTVER
 70
    13
  9
$DWGCODEPAGE
  3
ANSI_1252
  9
$INSBASE
 10
0.0
 20
0.0
 30
0.0
  9
$EXTMIN
 10
0.0001500000000123
 20
0.250000000000014
 30
0.0
  9
$EXTMAX
 10
167.99985
 20
177.2499999999999
 30
0.0
  9
$LIMMIN
 10
0.0
 20
0.0
  9
$LIMMAX
 10
12.0
 20
9.0
  9
$ORTHOMODE
 70
     0
  9
$REGENMODE
 70
     1
  9
$FILLMODE
 70
     1
  9
$QTEXTMODE
 70
     0
  9
$MIRRTEXT
 70
     1
  9
$LTSCALE
 40
1.0
  9
$ATTMODE
 70
     1
  9
$TEXTSIZE
 40
0.2
  9
$TRACEWID
 40
0.05
  9
$TEXTSTYLE
  7
Standard
  9
$CLAYER
  8
0
  9
$CELTYPE
  6
Continuous
  9
$CECOLOR
 62
   256
  9
$CELTSCALE
 40
1.0
  9
$DISPSILH
 70
     0
  9
$DIMSCALE
 40
1.0
  9
$DIMASZ
 40
0.18
  9
$DIMEXO
 40
0.0625
  9
$DIMDLI
 40
0.38
  9
$DIMRND
 40
0.0
  9
$DIMDLE
 40
0.0
  9
$DIMEXE
 40
0.18
  9
$DIMTP
 40
0.0
  9
$DIMTM
 40
0.0
  9
$DIMTXT
 40
0.18
  9
$DIMCEN
 40
0.09
  9
$DIMTSZ
 40
0.0
  9
$DIMTOL
 70
     0
  9
$DIMLIM
 70
     0
  9
$DIMTIH
 70
     1
  9
$DIMTOH
 70
     1
  9
$DIMSE1
 70
     0
  9
$DIMSE2
 70
     0
  9
$DIMTAD
 70
     0
  9
$DIMZIN
 70
     0
  9
$DIMBLK
  1

  9
$DIMASO
 70
     1
  9
$DIMSHO
 70
     1
  9
$DIMPOST
  1

  9
$DIMAPOST
  1

  9
$DIMALT
 70
     0
  9
$DIMALTD
 70
     2
  9
$DIMALTF
 40
25.4
  9
$DIMLFAC
 40
1.0
  9
$DIMTOFL
 70
     0
  9
$DIMTVP
 40
0.0
  9
$DIMTIX
 70
     0
  9
$DIMSOXD
 70
     0
  9
$DIMSAH
 70
     0
  9
$DIMBLK1
  1

  9
$DIMBLK2
  1

  9
$DIMSTYLE
  2
Standard
  9
$DIMCLRD
 70
     0
  9
$DIMCLRE
 70
     0
  9
$DIMCLRT
 70
     0
  9
$DIMTFAC
 40
1.0
  9
$DIMGAP
 40
0.09
  9
$DIMJUST
 70
     0
  9
$DIMSD1
 70
     0
  9
$DIMSD2
 70
     0
  9
$DIMTOLJ
 70
     1
  9
$DIMTZIN
 70
     0
  9
$DIMALTZ
 70
     0
  9
$DIMALTTZ
 70
     0
  9
$DIMUPT
 70
     0
  9
$DIMDEC
 70
     4
  9
$DIMTDEC
 70
     4
  9
$DIMALTU
 70
     2
  9
$DIMALTTD
 70
     2
  9
$DIMTXSTY
  7
Standard
  9
$DIMAUNIT
 70
     0
  9
$DIMADEC
 70
     0
  9
$DIMALTRND
 40
0.0
  9
$DIMAZIN
 70
     0
  9
$DIMDSEP
 70
    46
  9
$DIMATFIT
 70
     3
  9
$DIMFRAC
 70
     0
  9
$DIMLDRBLK
  1

  9
$DIMLUNIT
 70
     2
  9
$DIMLWD
 70
    -2
  9
$DIMLWE
 70
    -2
  9
$DIMTMOVE
 70
     0
  9
$LUNITS
 70
     2
  9
$LUPREC
 70
     4
  9
$SKETCHINC
 40
0.1
  9
$FILLETRAD
 40
0.0
  9
$AUNITS
 70
     0
  9
$AUPREC
 70
     0
  9
$MENU
  1
.
  9
$ELEVATION
 40
0.0
  9
$PELEVATION
 40
0.0
  9
$THICKNESS
 40
0.0
  9
$LIMCHECK
 70
     0
  9
$CHAMFERA
 40
0.0
  9
$CHAMFERB
 40
0.0
  9
$CHAMFERC
 40
0.0
  9
$CHAMFERD
 40
0.0
  9
$SKPOLY
 70
     0
  9
$TDCREATE
 40
2455653.938682002
  9
$TDUCREATE
 40
2455653.855348669
  9
$TDUPDATE
 40
2455653.948553599
  9
$TDUUPDATE
 40
2455653.865220266
  9
$TDINDWG
 40
0.0098715972
  9
$TDUSRTIMER
 40
0.0098715972
  9
$USRTIMER
 70
     1
  9
$ANGBASE
 50
0.0
  9
$ANGDIR
 70
     0
  9
$PDMODE
 70
     0
  9
$PDSIZE
 40
0.0
  9
$PLINEWID
 40
0.0
  9
$SPLFRAME
 70
     0
  9
$SPLINETYPE
 70
     6
  9
$SPLINESEGS
 70
     8
  9
$HANDSEED
  5
3B7
  9
$SURFTAB1
 70
     6
  9
$SURFTAB2
 70
     6
  9
$SURFTYPE
 70
     6
  9
$SURFU
 70
     6
  9
$SURFV
 70
     6
  9
$UCSBASE
  2

  9
$UCSNAME
  2

  9
$UCSORG
 10
0.0
 20
0.0
 30
0.0
  9
$UCSXDIR
 10
1.0
 20
0.0
 30
0.0
  9
$UCSYDIR
 10
0.0
 20
1.0
 30
0.0
  9
$UCSORTHOREF
  2

  9
$UCSORTHOVIEW
 70
     1
  9
$UCSORGTOP
 10
0.0
 20
0.0
 30
0.0
  9
$UCSORGBOTTOM
 10
0.0
 20
0.0
 30
0.0
  9
$UCSORGLEFT
 10
0.0
 20
0.0
 30
0.0
  9
$UCSORGRIGHT
 10
0.0
 20
0.0
 30
0.0
  9
$UCSORGFRONT
 10
0.0
 20
0.0
 30
0.0
  9
$UCSORGBACK
 10
0.0
 20
0.0
 30
0.0
  9
$PUCSBASE
  2

  9
$PUCSNAME
  2

  9
$PUCSORG
 10
0.0
 20
0.0
 30
0.0
  9
$PUCSXDIR
 10
1.0
 20
0.0
 30
0.0
  9
$PUCSYDIR
 10
0.0
 20
1.0
 30
0.0
  9
$PUCSORTHOREF
  2

  9
$PUCSORTHOVIEW
 70
     0
  9
$PUCSORGTOP
 10
0.0
 20
0.0
 30
0.0
  9
$PUCSORGBOTTOM
 10
0.0
 20
0.0
 30
0.0
  9
$PUCSORGLEFT
 10
0.0
 20
0.0
 30
0.0
  9
$PUCSORGRIGHT
 10
0.0
 20
0.0
 30
0.0
  9
$PUCSORGFRONT
 10
0.0
 20
0.0
 30
0.0
  9
$PUCSORGBACK
 10
0.0
 20
0.0
 30
0.0
  9
$USERI1
 70
     0
  9
$USERI2
 70
     0
  9
$USERI3
 70
     0
  9
$USERI4
 70
     0
  9
$USERI5
 70
     0
  9
$USERR1
 40
0.0
  9
$USERR2
 40
0.0
  9
$USERR3
 40
0.0
  9
$USERR4
 40
0.0
  9
$USERR5
 40
0.0
  9
$WORLDVIEW
 70
     1
  9
$SHADEDGE
 70
     3
  9
$SHADEDIF
 70
    70
  9
$TILEMODE
 70
     1
  9
$MAXACTVP
 70
    64
  9
$PINSBASE
 10
0.0
 20
0.0
 30
0.0
  9
$PLIMCHECK
 70
     0
  9
$PEXTMIN
 10
1.000000000000000E+20
 20
1.000000000000000E+20
 30
1.000000000000000E+20
  9
$PEXTMAX
 10
-1.000000000000000E+20
 20
-1.000000000000000E+20
 30
-1.000000000000000E+20
  9
$PLIMMIN
 10
0.0
 20
0.0
  9
$PLIMMAX
 10
12.0
 20
9.0
  9
$UNITMODE
 70
     0
  9
$VISRETAIN
 70
     1
  9
$PLINEGEN
 70
     0
  9
$PSLTSCALE
 70
     1
  9
$TREEDEPTH
 70
  3020
  9
$CMLSTYLE
  2
Standard
  9
$CMLJUST
 70
     0
  9
$CMLSCALE
 40
1.0
  9
$PROXYGRAPHICS
 70
     1
  9
$MEASUREMENT
 70
     0
  9
$CELWEIGHT
370
    -1
  9
$ENDCAPS
280
     0
  9
$JOINSTYLE
280
     0
  9
$LWDISPLAY
290
     0
  9
$INSUNITS
 70
     0
  9
$HYPERLINKBASE
  1

  9
$STYLESHEET
  1

  9
$XEDIT
290
     1
  9
$CEPSNTYPE
380
     0
  9
$PSTYLEMODE
290
     1
  9
$FINGERPRINTGUID
  2
{A8342B36-7BC2-4E9C-A29F-34475E31BC6D}
  9
$VERSIONGUID
  2
{CE9C3D4C-71BB-40E9-BBCA-6FC1A6974898}
  9
$EXTNAMES
290
     1
  9
$PSVPSCALE
 40
0.0
  9
$OLESTARTUP
290
     0
  0
ENDSEC
  0
SECTION
  2
CLASSES
  0
CLASS
  1
ACDBDICTIONARYWDFLT
  2
AcDbDictionaryWithDefault
  3
AutoCAD 2000
 90
        0
280
     0
281
     0
  0
CLASS
  1
ACDBPLACEHOLDER
  2
AcDbPlaceHolder
  3
AutoCAD 2000
 90
        0
280
     0
281
     0
  0
CLASS
  1
LAYOUT
  2
AcDbLayout
  3
AutoCAD 2000
 90
        0
280
     0
281
     0
  0
CLASS
  1
DICTIONARYVAR
  2
AcDbDictionaryVar
  3
AutoCAD 2000
 90
        0
280
     0
281
     0
  0
ENDSEC
  0
SECTION
  2
TABLES
  0
TABLE
  2
VPORT
  5
8
330
0
100
AcDbSymbolTable
 70
     7
  0
VPORT
  5
3B6
330
8
100
AcDbSymbolTableRecord
100
AcDbViewportTableRecord
  2
*Active
 70
     0
 10
0.0
 20
0.0
 11
1.0
 21
1.0
 12
84.00000000000002
 22
88.75000000000001
 13
0.0
 23
0.0
 14
1.0
 24
1.0
 15
0.0
 25
0.0
 16
0.0
 26
0.0
 36
1.0
 17
0.0
 27
0.0
 37
0.0
 40
178.1972942502818
 41
2.073363431151241
 42
50.0
 43
0.0
 44
0.0
 50
0.0
 51
0.0
 71
     0
 72
   100
 73
     1
 74
     3
 75
     0
 76
     0
 77
     0
 78
     0
281
     0
 65
     1
110
0.0
120
0.0
130
0.0
111
1.0
121
0.0
131
0.0
112
0.0
122
1.0
132
0.0
 79
     1
146
0.0
  0
ENDTAB
  0
TABLE
  2
LTYPE
  5
5
330
0
100
AcDbSymbolTable
 70
     1
  0
LTYPE
  5
13
330
5
100
AcDbSymbolTableRecord
100
AcDbLinetypeTableRecord
  2
ByBlock
 70
     0
  3

 72
    65
 73
     0
 40
0.0
  0
LTYPE
  5
14
330
5
100
AcDbSymbolTableRecord
100
AcDbLinetypeTableRecord
  2
ByLayer
 70
     0
  3

 72
    65
 73
     0
 40
0.0
  0
LTYPE
  5
15
330
5
100
AcDbSymbolTableRecord
100
AcDbLinetypeTableRecord
  2
Continuous
 70
     0
  3
Solid line
 72
    65
 73
     0
 40
0.0
  0
ENDTAB
  0
TABLE
  2
LAYER
  5
2
330
0
100
AcDbSymbolTable
 70
     1
  0
LAYER
  5
10
330
2
100
AcDbSymbolTableRecord
100
AcDbLayerTableRecord
  2
0
 70
     0
 62
     7
  6
Continuous
370
    -3
390
F
  0
ENDTAB
  0
TABLE
  2
STYLE
  5
3
330
0
100
AcDbSymbolTable
 70
     1
  0
STYLE
  5
11
330
3
100
AcDbSymbolTableRecord
100
AcDbTextStyleTableRecord
  2
Standard
 70
     0
 40
0.0
 41
1.0
 50
0.0
 71
     0
 42
0.2
  3
txt
  4

  0
ENDTAB
  0
TABLE
  2
VIEW
  5
6
330
0
100
AcDbSymbolTable
 70
     0
  0
ENDTAB
  0
TABLE
  2
UCS
  5
7
330
0
100
AcDbSymbolTable
 70
     0
  0
ENDTAB
  0
TABLE
  2
APPID
  5
9
330
0
100
AcDbSymbolTable
 70
     1
  0
APPID
  5
12
330
9
100
AcDbSymbolTableRecord
100
AcDbRegAppTableRecord
  2
ACAD
 70
     0
  0
ENDTAB
  0
TABLE
  2
DIMSTYLE
  5
A
330
0
100
AcDbSymbolTable
 70
     1
100
AcDbDimStyleTable
 71
     0
  0
DIMSTYLE
105
39F
330
A
100
AcDbSymbolTableRecord
100
AcDbDimStyleTableRecord
  2
Standard
 70
     0
340
11
  0
ENDTAB
  0
TABLE
  2
BLOCK_RECORD
  5
1
330
0
100
AcDbSymbolTable
 70
     0
  0
BLOCK_RECORD
  5
1E
330
1
100
AcDbSymbolTableRecord
100
AcDbBlockTableRecord
  2
*Model_Space
340
21
  0
BLOCK_RECORD
  5
1A
330
1
100
AcDbSymbolTableRecord
100
AcDbBlockTableRecord
  2
*Paper_Space
340
1D
  0
ENDTAB
  0
ENDSEC
  0
SECTION
  2
BLOCKS
  0
BLOCK
  5
1F
330
1E
100
AcDbEntity
  8
0
100
AcDbBlockBegin
  2
*Model_Space
 70
     0
 10
0.0
 20
0.0
 30
0.0
  3
*Model_Space
  1

  0
ENDBLK
  5
20
330
1E
100
AcDbEntity
  8
0
100
AcDbBlockEnd
  0
BLOCK
  5
1B
330
1A
100
AcDbEntity
 67
     1
  8
0
100
AcDbBlockBegin
  2
*Paper_Space
 70
     0
 10
0.0
 20
0.0
 30
0.0
  3
*Paper_Space
  1

  0
ENDBLK
  5
1C
330
1A
100
AcDbEntity
 67
     1
  8
0
100
AcDbBlockEnd
  0
ENDSEC
  0
SECTION
  2
ENTITIES
  0
LINE
  5
22
330
1E
100
AcDbEntity
  8
0
100
AcDbLine
 10
0.0161150000000124
 20
177.2499999999999
 30
0.0
 11
0.116893000000012
 21
177.2499999999999
 31
0.0
  0
LINE
  5
23
330
1E
100
AcDbEntity
  8
0
100
AcDbLine
 10
0.116893000000012
 20
177.2499999999999
 30
0.0
 11
0.3244360000000119
 21
177.2499999999999
 31
0.0
  0
LINE
  5
24
330
1E
100
AcDbEntity
  8
0
100
AcDbLine
 10
1.35616000000001
 20
177.2499999999999
 30
0.0
 11
1.82014000000001
 21
177.2499999999999
 31
0.0
  0
LINE
  5
25
330
1E
100
AcDbEntity
  8
0
100
AcDbLine
 10
0.7784360000000122
 20
177.2499999999999
 30
0.0
 11
1.35616000000001
 21
177.2499999999999
 31
0.0
  0
LINE
  5
26
330
1E
100
AcDbEntity
  8
0
100
AcDbLine
 10
0.3244360000000119
 20
177.2499999999999
 30
0.0
 11
0.6187880000000121
 21
177.2499999999999
 31
0.0
  0
LINE
  5
27
330
1E
100
AcDbEntity
  8
0
100
AcDbLine
 10
0.6187880000000121
 20
177.2499999999999
 30
0.0
 11
0.7784360000000122
 21
177.2499999999999
 31
0.0
  0
LINE
  5
2F
330
1E
100
AcDbEntity
  8
0
100
AcDbLine
 10
16.81112450833509
 20
167.525079834696
 30
0.0
 11
17.42485
 21
5.769200000000012
 31
0.0
  0
LINE
  5
35
330
1E
100
AcDbEntity
  8
0
100
AcDbLine
 10
17.42485
 20
5.406000000000009
 30
0.0
 11
17.44005
 21
5.042800000000009
 31
0.0
  0
LINE
  5
36
330
1E
100
AcDbEntity
  8
0
100
AcDbLine
 10
17.42485
 20
5.406000000000009
 30
0.0
 11
17.42485
 21
5.769200000000009
 31
0.0
  0
LINE
  5
37
330
1E
100
AcDbEntity
  8
0
100
AcDbLine
 10
19.02295
 20
1.87800000000001
 30
0.0
 11
19.70595
 21
1.59800000000001
 31
0.0
  0
LINE
  5
38
330
1E
100
AcDbEntity
  8
0
100
AcDbLine
 10
18.45394999999999
 20
2.306000000000009
 30
0.0
 11
19.02295
 21
1.87800000000001
 31
0.0
  0
LINE
  5
39
330
1E
100
AcDbEntity
  8
0
100
AcDbLine
 10
17.95995
 20
2.934800000000009
 30
0.0
 11
18.45394999999999
 21
2.306000000000009
 31
0.0
  0
LINE
  5
3A
330
1E
100
AcDbEntity
  8
0
100
AcDbLine
 10
17.49984999999999
 20
4.262800000000009
 30
0.0
 11
17.67875
 21
3.534800000000009
 31
0.0
  0
LINE
  5
3B
330
1E
100
AcDbEntity
  8
0
100
AcDbLine
 10
17.67875
 20
3.534800000000009
 30
0.0
 11
17.95995
 21
2.934800000000009
 31
0.0
  0
LINE
  5
3D
330
1E
100
AcDbEntity
  8
0
100
AcDbLine
 10
19.70595
 20
1.59800000000001
 30
0.0
 11
20.39105
 21
1.45000000000001
 31
0.0
  0
LINE
  5
3E
330
1E
100
AcDbEntity
  8
0
100
AcDbLine
 10
20.39105
 20
1.45000000000001
 30
0.0
 11
23.56854999999999
 21
0.9620000000000139
 31
0.0
  0
LINE
  5
40
330
1E
100
AcDbEntity
  8
0
100
AcDbLine
 10
17.44005
 20
5.042800000000009
 30
0.0
 11
17.49984999999999
 21
4.262800000000009
 31
0.0
  0
LINE
  5
42
330
1E
100
AcDbEntity
  8
0
100
AcDbLine
 10
17.42485
 20
5.769200000000009
 30
0.0
 11
17.42485
 21
5.406000000000009
 31
0.0
  0
LINE
  5
77
330
1E
100
AcDbEntity
  8
0
100
AcDbLine
 10
23.56854999999999
 20
0.9620000000000139
 30
0.0
 11
27.18165
 21
0.562800000000014
 31
0.0
  0
LINE
  5
84
330
1E
100
AcDbEntity
  8
0
100
AcDbLine
 10
6.171560000000009
 20
177.2499999999999
 30
0.0
 11
84.00015000000001
 21
177.2499999999999
 31
0.0
  0
LINE
  5
85
330
1E
100
AcDbEntity
  8
0
100
AcDbLine
 10
5.090940000000009
 20
177.2499999999999
 30
0.0
 11
6.171560000000009
 21
177.2499999999999
 31
0.0
  0
LINE
  5
86
330
1E
100
AcDbEntity
  8
0
100
AcDbLine
 10
4.013310000000009
 20
177.2499999999999
 30
0.0
 11
5.090940000000009
 21
177.2499999999999
 31
0.0
  0
LINE
  5
87
330
1E
100
AcDbEntity
  8
0
100
AcDbLine
 10
3.396670000000009
 20
177.2499999999999
 30
0.0
 11
4.013310000000009
 21
177.2499999999999
 31
0.0
  0
LINE
  5
88
330
1E
100
AcDbEntity
  8
0
100
AcDbLine
 10
2.554520000000009
 20
177.2499999999999
 30
0.0
 11
3.396670000000009
 21
177.2499999999999
 31
0.0
  0
LINE
  5
89
330
1E
100
AcDbEntity
  8
0
100
AcDbLine
 10
1.82014000000001
 20
177.2499999999999
 30
0.0
 11
2.554520000000009
 21
177.2499999999999
 31
0.0
  0
LINE
  5
108
330
1E
100
AcDbEntity
  8
0
100
AcDbLine
 10
0.0001500000000123
 20
177.2499999999999
 30
0.0
 11
0.155807000000012
 21
169.2149999999999
 31
0.0
  0
LINE
  5
109
330
1E
100
AcDbEntity
  8
0
100
AcDbLine
 10
27.18165
 20
0.562800000000014
 30
0.0
 11
30.73995
 21
0.328400000000014
 31
0.0
  0
LINE
  5
10A
330
1E
100
AcDbEntity
  8
0
100
AcDbLine
 10
30.73995
 20
0.328400000000014
 30
0.0
 11
34.30545
 21
0.250000000000014
 31
0.0
  0
LINE
  5
10B
330
1E
100
AcDbEntity
  8
0
100
AcDbLine
 10
37.87095
 20
0.328400000000014
 30
0.0
 11
41.42915
 21
0.562800000000014
 31
0.0
  0
LINE
  5
10C
330
1E
100
AcDbEntity
  8
0
100
AcDbLine
 10
34.30545
 20
0.250000000000014
 30
0.0
 11
37.87095
 21
0.328400000000014
 31
0.0
  0
LINE
  5
10D
330
1E
100
AcDbEntity
  8
0
100
AcDbLine
 10
41.42915
 20
0.562800000000014
 30
0.0
 11
45.04225
 21
0.9620000000000139
 31
0.0
  0
LINE
  5
115
330
1E
100
AcDbEntity
  8
0
100
AcDbLine
 10
50.15685
 20
2.306000000000009
 30
0.0
 11
50.65084999999999
 21
2.934800000000009
 31
0.0
  0
LINE
  5
116
330
1E
100
AcDbEntity
  8
0
100
AcDbLine
 10
49.58785
 20
1.87800000000001
 30
0.0
 11
50.15685
 21
2.306000000000009
 31
0.0
  0
LINE
  5
11C
330
1E
100
AcDbEntity
  8
0
100
AcDbLine
 10
51.11095
 20
4.262800000000009
 30
0.0
 11
51.17085
 21
5.042800000000009
 31
0.0
  0
LINE
  5
11D
330
1E
100
AcDbEntity
  8
0
100
AcDbLine
 10
50.93215
 20
3.534800000000009
 30
0.0
 11
51.11095
 21
4.262800000000009
 31
0.0
  0
LINE
  5
11E
330
1E
100
AcDbEntity
  8
0
100
AcDbLine
 10
50.65084999999999
 20
2.934800000000009
 30
0.0
 11
50.93215
 21
3.534800000000009
 31
0.0
  0
LINE
  5
132
330
1E
100
AcDbEntity
  8
0
100
AcDbLine
 10
51.17085
 20
5.042800000000009
 30
0.0
 11
51.18595
 21
5.406000000000009
 31
0.0
  0
LINE
  5
158
330
1E
100
AcDbEntity
  8
0
100
AcDbLine
 10
51.18595
 20
5.406000000000005
 30
0.0
 11
51.7992633522187
 21
167.280886910224
 31
0.0
  0
LINE
  5
160
330
1E
100
AcDbEntity
  8
0
100
AcDbLine
 10
48.90495
 20
1.59800000000001
 30
0.0
 11
49.58785
 21
1.87800000000001
 31
0.0
  0
LINE
  5
161
330
1E
100
AcDbEntity
  8
0
100
AcDbLine
 10
48.21975
 20
1.45000000000001
 30
0.0
 11
48.90495
 21
1.59800000000001
 31
0.0
  0
LINE
  5
164
330
1E
100
AcDbEntity
  8
0
100
AcDbLine
 10
45.04225
 20
0.9620000000000139
 30
0.0
 11
48.21975
 21
1.45000000000001
 31
0.0
  0
LINE
  5
17B
330
1E
100
AcDbEntity
  8
0
100
AcDbLine
 10
112.15885
 20
113.029
 30
0.0
 11
112.16185
 21
114.049
 31
0.0
  0
LINE
  5
17C
330
1E
100
AcDbEntity
  8
0
100
AcDbLine
 10
112.15885
 20
113.029
 30
0.0
 11
112.15985
 21
111.892
 31
0.0
  0
LINE
  5
17D
330
1E
100
AcDbEntity
  8
0
100
AcDbLine
 10
112.1958499999999
 20
99.00660000000002
 30
0.0
 11
112.25485
 21
98.78399999999999
 31
0.0
  0
LINE
  5
17E
330
1E
100
AcDbEntity
  8
0
100
AcDbLine
 10
112.25485
 20
98.78399999999999
 30
0.0
 11
112.4208499999999
 21
98.5246
 31
0.0
  0
LINE
  5
17F
330
1E
100
AcDbEntity
  8
0
100
AcDbLine
 10
112.4208499999999
 20
98.5246
 30
0.0
 11
112.6818499999999
 21
98.3556
 31
0.0
  0
LINE
  5
180
330
1E
100
AcDbEntity
  8
0
100
AcDbLine
 10
112.15985
 20
114.7639999999999
 30
0.0
 11
112.16485
 21
115.0879999999999
 31
0.0
  0
LINE
  5
181
330
1E
100
AcDbEntity
  8
0
100
AcDbLine
 10
112.15985
 20
114.7639999999999
 30
0.0
 11
112.16085
 21
113.5299999999999
 31
0.0
  0
LINE
  5
182
330
1E
100
AcDbEntity
  8
0
100
AcDbLine
 10
112.15985
 20
118.751
 30
0.0
 11
112.15985
 21
117.286
 31
0.0
  0
LINE
  5
183
330
1E
100
AcDbEntity
  8
0
100
AcDbLine
 10
112.15985
 20
117.286
 30
0.0
 11
112.16185
 21
117.1149999999999
 31
0.0
  0
LINE
  5
184
330
1E
100
AcDbEntity
  8
0
100
AcDbLine
 10
112.15985
 20
117.286
 30
0.0
 11
112.15985
 21
118.751
 31
0.0
  0
LINE
  5
185
330
1E
100
AcDbEntity
  8
0
100
AcDbLine
 10
112.16085
 20
109.785
 30
0.0
 11
112.1638499999999
 21
110.759
 31
0.0
  0
LINE
  5
186
330
1E
100
AcDbEntity
  8
0
100
AcDbLine
 10
112.16085
 20
109.785
 30
0.0
 11
112.1708499999999
 21
99.56420000000001
 31
0.0
  0
LINE
  5
187
330
1E
100
AcDbEntity
  8
0
100
AcDbLine
 10
112.16085
 20
113.5299999999999
 30
0.0
 11
112.16185
 21
114.049
 31
0.0
  0
LINE
  5
188
330
1E
100
AcDbEntity
  8
0
100
AcDbLine
 10
112.15985
 20
116.0189999999999
 30
0.0
 11
112.16185
 21
117.1149999999999
 31
0.0
  0
LINE
  5
189
330
1E
100
AcDbEntity
  8
0
100
AcDbLine
 10
112.15985
 20
116.0189999999999
 30
0.0
 11
112.16485
 21
115.0879999999999
 31
0.0
  0
LINE
  5
18A
330
1E
100
AcDbEntity
  8
0
100
AcDbLine
 10
112.16785
 20
99.5682
 30
0.0
 11
112.1958499999999
 21
99.00660000000002
 31
0.0
  0
LINE
  5
18B
330
1E
100
AcDbEntity
  8
0
100
AcDbLine
 10
112.15885
 20
111.462
 30
0.0
 11
112.1638499999999
 21
110.759
 31
0.0
  0
LINE
  5
18C
330
1E
100
AcDbEntity
  8
0
100
AcDbLine
 10
112.15885
 20
111.462
 30
0.0
 11
112.15985
 21
111.892
 31
0.0
  0
LINE
  5
18D
330
1E
100
AcDbEntity
  8
0
100
AcDbLine
 10
112.16085
 20
123.682
 30
0.0
 11
112.16085
 21
120.266
 31
0.0
  0
LINE
  5
18E
330
1E
100
AcDbEntity
  8
0
100
AcDbLine
 10
112.15885
 20
120.3929999999999
 30
0.0
 11
112.16085
 21
120.266
 31
0.0
  0
LINE
  5
18F
330
1E
100
AcDbEntity
  8
0
100
AcDbLine
 10
112.15885
 20
120.3929999999999
 30
0.0
 11
112.15985
 21
118.751
 31
0.0
  0
LINE
  5
190
330
1E
100
AcDbEntity
  8
0
100
AcDbLine
 10
112.16085
 20
120.266
 30
0.0
 11
112.16085
 21
123.682
 31
0.0
  0
LINE
  5
191
330
1E
100
AcDbEntity
  8
0
100
AcDbLine
 10
114.18185
 20
97.68880000000001
 30
0.0
 11
114.23185
 21
97.37670000000001
 31
0.0
  0
LINE
  5
192
330
1E
100
AcDbEntity
  8
0
100
AcDbLine
 10
114.10785
 20
98.0933
 30
0.0
 11
114.18185
 21
97.68880000000001
 31
0.0
  0
LINE
  5
193
330
1E
100
AcDbEntity
  8
0
100
AcDbLine
 10
114.23185
 20
97.37670000000001
 30
0.0
 11
114.3328499999999
 21
96.6412
 31
0.0
  0
LINE
  5
194
330
1E
100
AcDbEntity
  8
0
100
AcDbLine
 10
113.85985
 20
98.2314
 30
0.0
 11
114.39485
 21
98.21649999999999
 31
0.0
  0
LINE
  5
195
330
1E
100
AcDbEntity
  8
0
100
AcDbLine
 10
112.6888499999999
 20
98.35169999999999
 30
0.0
 11
112.91085
 21
98.29
 31
0.0
  0
LINE
  5
196
330
1E
100
AcDbEntity
  8
0
100
AcDbLine
 10
112.91085
 20
98.29
 30
0.0
 11
112.98285
 21
98.28310000000001
 31
0.0
  0
LINE
  5
197
330
1E
100
AcDbEntity
  8
0
100
AcDbLine
 10
112.98285
 20
98.28310000000001
 30
0.0
 11
113.5598499999999
 21
98.24330000000001
 31
0.0
  0
LINE
  5
198
330
1E
100
AcDbEntity
  8
0
100
AcDbLine
 10
113.5598499999999
 20
98.24330000000001
 30
0.0
 11
113.85985
 21
98.2314
 31
0.0
  0
LINE
  5
199
330
1E
100
AcDbEntity
  8
0
100
AcDbLine
 10
114.078460409731
 20
98.22531159793459
 30
0.0
 11
114.10785
 21
98.0933
 31
0.0
  0
LINE
  5
19A
330
1E
100
AcDbEntity
  8
0
100
AcDbLine
 10
114.3328499999999
 20
96.6412
 30
0.0
 11
114.3938499999999
 21
96.4315
 31
0.0
  0
LINE
  5
19B
330
1E
100
AcDbEntity
  8
0
100
AcDbLine
 10
114.3938499999999
 20
96.4315
 30
0.0
 11
114.48985
 21
96.1254
 31
0.0
  0
LINE
  5
19C
330
1E
100
AcDbEntity
  8
0
100
AcDbLine
 10
115.30885
 20
95.38
 30
0.0
 11
115.74385
 21
95.1773
 31
0.0
  0
LINE
  5
19D
330
1E
100
AcDbEntity
  8
0
100
AcDbLine
 10
114.65685
 20
95.8849
 30
0.0
 11
114.78185
 21
95.7299
 31
0.0
  0
LINE
  5
19E
330
1E
100
AcDbEntity
  8
0
100
AcDbLine
 10
114.48985
 20
96.1254
 30
0.0
 11
114.65685
 21
95.8849
 31
0.0
  0
LINE
  5
19F
330
1E
100
AcDbEntity
  8
0
100
AcDbLine
 10
115.1668499999999
 20
98.1986
 30
0.0
 11
116.15885
 21
98.1787
 31
0.0
  0
LINE
  5
1A0
330
1E
100
AcDbEntity
  8
0
100
AcDbLine
 10
114.78185
 20
95.7299
 30
0.0
 11
115.0978499999999
 21
95.49330000000001
 31
0.0
  0
LINE
  5
1A1
330
1E
100
AcDbEntity
  8
0
100
AcDbLine
 10
115.0978499999999
 20
95.49330000000001
 30
0.0
 11
115.30885
 21
95.38
 31
0.0
  0
LINE
  5
1A2
330
1E
100
AcDbEntity
  8
0
100
AcDbLine
 10
114.39485
 20
98.21649999999999
 30
0.0
 11
115.1668499999999
 21
98.1986
 31
0.0
  0
LINE
  5
1A3
330
1E
100
AcDbEntity
  8
0
100
AcDbLine
 10
114.3413266169633
 20
133.6119487628446
 30
0.0
 11
115.34385
 21
132.9189999999999
 31
0.0
  0
LINE
  5
1A4
330
1E
100
AcDbEntity
  8
0
100
AcDbLine
 10
116.15885
 20
98.1787
 30
0.0
 11
116.8718499999999
 21
98.16580000000001
 31
0.0
  0
LINE
  5
1A5
330
1E
100
AcDbEntity
  8
0
100
AcDbLine
 10
115.74385
 20
95.1773
 30
0.0
 11
116.30385
 21
95.0023
 31
0.0
  0
LINE
  5
1A6
330
1E
100
AcDbEntity
  8
0
100
AcDbLine
 10
116.30385
 20
95.0023
 30
0.0
 11
116.96385
 21
94.8662
 31
0.0
  0
LINE
  5
1A7
330
1E
100
AcDbEntity
  8
0
100
AcDbLine
 10
115.34385
 20
132.9189999999999
 30
0.0
 11
116.6678499999999
 21
132.242
 31
0.0
  0
LINE
  5
1A8
330
1E
100
AcDbEntity
  8
0
100
AcDbLine
 10
112.6588499999999
 20
135.7729999999999
 30
0.0
 11
113.79885
 21
134.152
 31
0.0
  0
LINE
  5
1A9
330
1E
100
AcDbEntity
  8
0
100
AcDbLine
 10
113.79885
 20
134.152
 30
0.0
 11
114.3413266169619
 21
133.611948762846
 31
0.0
  0
LINE
  5
1AC
330
1E
100
AcDbEntity
  8
0
100
AcDbLine
 10
112.15685
 20
135.2789999999999
 30
0.0
 11
112.22585
 21
135.525
 31
0.0
  0
LINE
  5
1AD
330
1E
100
AcDbEntity
  8
0
100
AcDbLine
 10
112.15885
 20
135.277
 30
0.0
 11
112.16085
 21
123.682
 31
0.0
  0
LINE
  5
1AE
330
1E
100
AcDbEntity
  8
0
100
AcDbLine
 10
112.22585
 20
135.525
 30
0.0
 11
112.40885
 21
135.708
 31
0.0
  0
LINE
  5
1B3
330
1E
100
AcDbEntity
  8
0
100
AcDbLine
 10
112.7558499999999
 20
135.7729999999999
 30
0.0
 11
112.94085
 21
135.7729999999999
 31
0.0
  0
LINE
  5
1B4
330
1E
100
AcDbEntity
  8
0
100
AcDbLine
 10
112.94085
 20
135.7729999999999
 30
0.0
 11
113.4888499999999
 21
135.7729999999999
 31
0.0
  0
LINE
  5
1B6
330
1E
100
AcDbEntity
  8
0
100
AcDbLine
 10
113.4888499999999
 20
135.7729999999999
 30
0.0
 11
114.092325146199
 21
135.7729999999999
 31
0.0
  0
LINE
  5
1B9
330
1E
100
AcDbEntity
  8
0
100
AcDbLine
 10
112.6588499999999
 20
135.7729999999999
 30
0.0
 11
112.7558499999999
 21
135.7729999999999
 31
0.0
  0
LINE
  5
1BA
330
1E
100
AcDbEntity
  8
0
100
AcDbLine
 10
112.40885
 20
135.708
 30
0.0
 11
112.6588499999999
 21
135.7729999999999
 31
0.0
  0
LINE
  5
1BB
330
1E
100
AcDbEntity
  8
0
100
AcDbLine
 10
113.77144847039
 20
167.571819258948
 30
0.0
 11
113.87285
 21
137.176
 31
0.0
  0
LINE
  5
1BD
330
1E
100
AcDbEntity
  8
0
100
AcDbLine
 10
113.87285
 20
137.176
 30
0.0
 11
114.1938499999999
 21
135.1239999999999
 31
0.0
  0
LINE
  5
1BE
330
1E
100
AcDbEntity
  8
0
100
AcDbLine
 10
114.1938499999999
 20
135.1239999999999
 30
0.0
 11
114.6498697519539
 21
133.398682332063
 31
0.0
  0
LINE
  5
1BF
330
1E
100
AcDbEntity
  8
0
100
AcDbLine
 10
116.8718499999999
 20
98.16580000000001
 30
0.0
 11
117.65985
 21
98.1529
 31
0.0
  0
LINE
  5
1C0
330
1E
100
AcDbEntity
  8
0
100
AcDbLine
 10
117.65985
 20
98.1529
 30
0.0
 11
118.5178499999999
 21
98.14
 31
0.0
  0
LINE
  5
1C1
330
1E
100
AcDbEntity
  8
0
100
AcDbLine
 10
118.5178499999999
 20
98.14
 30
0.0
 11
119.4458499999999
 21
98.1271
 31
0.0
  0
LINE
  5
1C2
330
1E
100
AcDbEntity
  8
0
100
AcDbLine
 10
119.4458499999999
 20
98.1271
 30
0.0
 11
120.43685
 21
98.1131
 31
0.0
  0
LINE
  5
1C3
330
1E
100
AcDbEntity
  8
0
100
AcDbLine
 10
117.44185
 20
94.7986
 30
0.0
 11
118.44185
 21
94.7141
 31
0.0
  0
LINE
  5
1C4
330
1E
100
AcDbEntity
  8
0
100
AcDbLine
 10
116.96385
 20
94.8662
 30
0.0
 11
117.44185
 21
94.7986
 31
0.0
  0
LINE
  5
1C5
330
1E
100
AcDbEntity
  8
0
100
AcDbLine
 10
118.44185
 20
94.7141
 30
0.0
 11
122.3558499999999
 21
94.49850000000001
 31
0.0
  0
LINE
  5
1C7
330
1E
100
AcDbEntity
  8
0
100
AcDbLine
 10
122.3558499999999
 20
94.49850000000001
 30
0.0
 11
126.28185
 21
94.3524
 31
0.0
  0
LINE
  5
1C8
330
1E
100
AcDbEntity
  8
0
100
AcDbLine
 10
121.48585
 20
98.10120000000001
 30
0.0
 11
122.5918499999999
 21
98.0883
 31
0.0
  0
LINE
  5
1C9
330
1E
100
AcDbEntity
  8
0
100
AcDbLine
 10
120.43685
 20
98.1131
 30
0.0
 11
121.48585
 21
98.10120000000001
 31
0.0
  0
LINE
  5
1CA
330
1E
100
AcDbEntity
  8
0
100
AcDbLine
 10
124.94685
 20
98.06440000000002
 30
0.0
 11
126.1878499999999
 21
98.0535
 31
0.0
  0
LINE
  5
1CB
330
1E
100
AcDbEntity
  8
0
100
AcDbLine
 10
123.74685
 20
98.07640000000001
 30
0.0
 11
124.94685
 21
98.06440000000002
 31
0.0
  0
LINE
  5
1CC
330
1E
100
AcDbEntity
  8
0
100
AcDbLine
 10
122.5918499999999
 20
98.0883
 30
0.0
 11
123.74685
 21
98.07640000000001
 31
0.0
  0
LINE
  5
1CD
330
1E
100
AcDbEntity
  8
0
100
AcDbLine
 10
124.26585
 20
130.174
 30
0.0
 11
126.5208499999999
 21
129.86
 31
0.0
  0
LINE
  5
1CF
330
1E
100
AcDbEntity
  8
0
100
AcDbLine
 10
126.28185
 20
94.3524
 30
0.0
 11
130.21685
 21
94.2669
 31
0.0
  0
LINE
  5
1D9
330
1E
100
AcDbEntity
  8
0
100
AcDbLine
 10
130.21685
 20
94.2669
 30
0.0
 11
134.1568499999999
 21
94.25
 31
0.0
  0
LINE
  5
1E0
330
1E
100
AcDbEntity
  8
0
100
AcDbLine
 10
128.76585
 20
98.0356
 30
0.0
 11
130.0928499999999
 21
98.0277
 31
0.0
  0
LINE
  5
1E1
330
1E
100
AcDbEntity
  8
0
100
AcDbLine
 10
126.1878499999999
 20
98.0535
 30
0.0
 11
127.46285
 21
98.0436
 31
0.0
  0
LINE
  5
1E2
330
1E
100
AcDbEntity
  8
0
100
AcDbLine
 10
127.46285
 20
98.0436
 30
0.0
 11
128.76585
 21
98.0356
 31
0.0
  0
LINE
  5
1E4
330
1E
100
AcDbEntity
  8
0
100
AcDbLine
 10
131.4378499999999
 20
98.0227
 30
0.0
 11
132.7938499999999
 21
98.0197
 31
0.0
  0
LINE
  5
1E5
330
1E
100
AcDbEntity
  8
0
100
AcDbLine
 10
130.0928499999999
 20
98.0277
 30
0.0
 11
131.4378499999999
 21
98.0227
 31
0.0
  0
LINE
  5
1E6
330
1E
100
AcDbEntity
  8
0
100
AcDbLine
 10
132.7938499999999
 20
98.0197
 30
0.0
 11
134.1568499999999
 21
98.0187
 31
0.0
  0
LINE
  5
1E9
330
1E
100
AcDbEntity
  8
0
100
AcDbLine
 10
134.1568499999999
 20
94.25
 30
0.0
 11
138.0968499999999
 21
94.2669
 31
0.0
  0
LINE
  5
1EA
330
1E
100
AcDbEntity
  8
0
100
AcDbLine
 10
138.0968499999999
 20
94.2669
 30
0.0
 11
142.03185
 21
94.3524
 31
0.0
  0
LINE
  5
1EB
330
1E
100
AcDbEntity
  8
0
100
AcDbLine
 10
142.03185
 20
94.3524
 30
0.0
 11
145.95785
 21
94.49850000000001
 31
0.0
  0
LINE
  5
1F0
330
1E
100
AcDbEntity
  8
0
100
AcDbLine
 10
150.87185
 20
94.7986
 30
0.0
 11
151.34985
 21
94.8662
 31
0.0
  0
LINE
  5
1F1
330
1E
100
AcDbEntity
  8
0
100
AcDbLine
 10
152.00985
 20
95.0023
 30
0.0
 11
152.56985
 21
95.1773
 31
0.0
  0
LINE
  5
1F2
330
1E
100
AcDbEntity
  8
0
100
AcDbLine
 10
151.34985
 20
94.8662
 30
0.0
 11
152.00985
 21
95.0023
 31
0.0
  0
LINE
  5
1F3
330
1E
100
AcDbEntity
  8
0
100
AcDbLine
 10
149.87185
 20
94.7141
 30
0.0
 11
150.87185
 21
94.7986
 31
0.0
  0
LINE
  5
1F4
330
1E
100
AcDbEntity
  8
0
100
AcDbLine
 10
145.95785
 20
94.49850000000001
 30
0.0
 11
149.87185
 21
94.7141
 31
0.0
  0
LINE
  5
1F5
330
1E
100
AcDbEntity
  8
0
100
AcDbLine
 10
152.56985
 20
95.1773
 30
0.0
 11
153.00485
 21
95.38
 31
0.0
  0
LINE
  5
1F6
330
1E
100
AcDbEntity
  8
0
100
AcDbLine
 10
153.00485
 20
95.38
 30
0.0
 11
153.2158499999999
 21
95.49330000000001
 31
0.0
  0
LINE
  5
1FD
330
1E
100
AcDbEntity
  8
0
100
AcDbLine
 10
134.1568499999999
 20
98.0187
 30
0.0
 11
135.5198499999999
 21
98.0197
 31
0.0
  0
LINE
  5
202
330
1E
100
AcDbEntity
  8
0
100
AcDbLine
 10
153.2158499999999
 20
95.49330000000001
 30
0.0
 11
153.5318499999999
 21
95.7299
 31
0.0
  0
LINE
  5
203
330
1E
100
AcDbEntity
  8
0
100
AcDbLine
 10
153.82385
 20
96.1254
 30
0.0
 11
153.9198499999999
 21
96.4315
 31
0.0
  0
LINE
  5
204
330
1E
100
AcDbEntity
  8
0
100
AcDbLine
 10
153.9198499999999
 20
96.4315
 30
0.0
 11
153.98085
 21
96.6412
 31
0.0
  0
LINE
  5
205
330
1E
100
AcDbEntity
  8
0
100
AcDbLine
 10
154.1318499999999
 20
97.68880000000001
 30
0.0
 11
154.2048499999999
 21
98.0933
 31
0.0
  0
LINE
  5
206
330
1E
100
AcDbEntity
  8
0
100
AcDbLine
 10
154.0808499999999
 20
97.37670000000001
 30
0.0
 11
154.1318499999999
 21
97.68880000000001
 31
0.0
  0
LINE
  5
207
330
1E
100
AcDbEntity
  8
0
100
AcDbLine
 10
153.98085
 20
96.6412
 30
0.0
 11
154.0808499999999
 21
97.37670000000001
 31
0.0
  0
LINE
  5
208
330
1E
100
AcDbEntity
  8
0
100
AcDbLine
 10
153.65685
 20
95.8849
 30
0.0
 11
153.82385
 21
96.1254
 31
0.0
  0
LINE
  5
209
330
1E
100
AcDbEntity
  8
0
100
AcDbLine
 10
153.5318499999999
 20
95.7299
 30
0.0
 11
153.65685
 21
95.8849
 31
0.0
  0
LINE
  5
20C
330
1E
100
AcDbEntity
  8
0
100
AcDbLine
 10
136.87585
 20
98.0227
 30
0.0
 11
138.22085
 21
98.0277
 31
0.0
  0
LINE
  5
20D
330
1E
100
AcDbEntity
  8
0
100
AcDbLine
 10
135.5198499999999
 20
98.0197
 30
0.0
 11
136.87585
 21
98.0227
 31
0.0
  0
LINE
  5
20E
330
1E
100
AcDbEntity
  8
0
100
AcDbLine
 10
139.54785
 20
98.0356
 30
0.0
 11
140.85085
 21
98.0436
 31
0.0
  0
LINE
  5
20F
330
1E
100
AcDbEntity
  8
0
100
AcDbLine
 10
138.22085
 20
98.0277
 30
0.0
 11
139.54785
 21
98.0356
 31
0.0
  0
LINE
  5
210
330
1E
100
AcDbEntity
  8
0
100
AcDbLine
 10
142.12585
 20
98.0535
 30
0.0
 11
143.36685
 21
98.06440000000002
 31
0.0
  0
LINE
  5
211
330
1E
100
AcDbEntity
  8
0
100
AcDbLine
 10
140.85085
 20
98.0436
 30
0.0
 11
142.12585
 21
98.0535
 31
0.0
  0
LINE
  5
212
330
1E
100
AcDbEntity
  8
0
100
AcDbLine
 10
146.82785
 20
98.10120000000001
 30
0.0
 11
147.8768499999999
 21
98.1131
 31
0.0
  0
LINE
  5
213
330
1E
100
AcDbEntity
  8
0
100
AcDbLine
 10
145.7218499999999
 20
98.0883
 30
0.0
 11
146.82785
 21
98.10120000000001
 31
0.0
  0
LINE
  5
214
330
1E
100
AcDbEntity
  8
0
100
AcDbLine
 10
144.5668499999999
 20
98.07640000000001
 30
0.0
 11
145.7218499999999
 21
98.0883
 31
0.0
  0
LINE
  5
215
330
1E
100
AcDbEntity
  8
0
100
AcDbLine
 10
143.36685
 20
98.06440000000002
 30
0.0
 11
144.5668499999999
 21
98.07640000000001
 31
0.0
  0
LINE
  5
216
330
1E
100
AcDbEntity
  8
0
100
AcDbLine
 10
148.8678499999999
 20
98.1271
 30
0.0
 11
149.79585
 21
98.14
 31
0.0
  0
LINE
  5
217
330
1E
100
AcDbEntity
  8
0
100
AcDbLine
 10
147.8768499999999
 20
98.1131
 30
0.0
 11
148.8678499999999
 21
98.1271
 31
0.0
  0
LINE
  5
218
330
1E
100
AcDbEntity
  8
0
100
AcDbLine
 10
150.65385
 20
98.1529
 30
0.0
 11
151.4418499999999
 21
98.16580000000001
 31
0.0
  0
LINE
  5
219
330
1E
100
AcDbEntity
  8
0
100
AcDbLine
 10
149.79585
 20
98.14
 30
0.0
 11
150.65385
 21
98.1529
 31
0.0
  0
LINE
  5
21A
330
1E
100
AcDbEntity
  8
0
100
AcDbLine
 10
154.2048499999999
 20
98.0933
 30
0.0
 11
154.2346346824369
 21
98.2252783428513
 31
0.0
  0
LINE
  5
21B
330
1E
100
AcDbEntity
  8
0
100
AcDbLine
 10
154.7538499999999
 20
98.24330000000001
 30
0.0
 11
155.3308499999999
 21
98.28310000000001
 31
0.0
  0
LINE
  5
21C
330
1E
100
AcDbEntity
  8
0
100
AcDbLine
 10
155.3308499999999
 20
98.28310000000001
 30
0.0
 11
155.40285
 21
98.29
 31
0.0
  0
LINE
  5
21D
330
1E
100
AcDbEntity
  8
0
100
AcDbLine
 10
155.6318499999999
 20
98.3556
 30
0.0
 11
155.89285
 21
98.5246
 31
0.0
  0
LINE
  5
21E
330
1E
100
AcDbEntity
  8
0
100
AcDbLine
 10
156.05885
 20
98.78399999999999
 30
0.0
 11
156.11785
 21
99.00660000000002
 31
0.0
  0
LINE
  5
21F
330
1E
100
AcDbEntity
  8
0
100
AcDbLine
 10
155.89285
 20
98.5246
 30
0.0
 11
156.05885
 21
98.78399999999999
 31
0.0
  0
LINE
  5
220
330
1E
100
AcDbEntity
  8
0
100
AcDbLine
 10
156.11785
 20
99.00660000000002
 30
0.0
 11
156.14585
 21
99.5682
 31
0.0
  0
LINE
  5
221
330
1E
100
AcDbEntity
  8
0
100
AcDbLine
 10
155.40285
 20
98.29
 30
0.0
 11
155.62485
 21
98.35169999999999
 31
0.0
  0
LINE
  5
222
330
1E
100
AcDbEntity
  8
0
100
AcDbLine
 10
154.4548499999999
 20
98.2314
 30
0.0
 11
154.7538499999999
 21
98.24330000000001
 31
0.0
  0
LINE
  5
223
330
1E
100
AcDbEntity
  8
0
100
AcDbLine
 10
153.9188499999999
 20
98.21649999999999
 30
0.0
 11
154.4548499999999
 21
98.2314
 31
0.0
  0
LINE
  5
224
330
1E
100
AcDbEntity
  8
0
100
AcDbLine
 10
153.14685
 20
98.1986
 30
0.0
 11
153.9188499999999
 21
98.21649999999999
 31
0.0
  0
LINE
  5
225
330
1E
100
AcDbEntity
  8
0
100
AcDbLine
 10
152.15485
 20
98.1787
 30
0.0
 11
153.14685
 21
98.1986
 31
0.0
  0
LINE
  5
226
330
1E
100
AcDbEntity
  8
0
100
AcDbLine
 10
151.4418499999999
 20
98.16580000000001
 30
0.0
 11
152.15485
 21
98.1787
 31
0.0
  0
LINE
  5
23D
330
1E
100
AcDbEntity
  8
0
100
AcDbLine
 10
156.14285
 20
99.56420000000001
 30
0.0
 11
156.15285
 21
109.785
 31
0.0
  0
LINE
  5
23E
330
1E
100
AcDbEntity
  8
0
100
AcDbLine
 10
156.14885
 20
115.0879999999999
 30
0.0
 11
156.15385
 21
116.0189999999999
 31
0.0
  0
LINE
  5
23F
330
1E
100
AcDbEntity
  8
0
100
AcDbLine
 10
156.14885
 20
115.0879999999999
 30
0.0
 11
156.15385
 21
114.7639999999999
 31
0.0
  0
LINE
  5
240
330
1E
100
AcDbEntity
  8
0
100
AcDbLine
 10
156.15185
 20
114.049
 30
0.0
 11
156.15485
 21
113.029
 31
0.0
  0
LINE
  5
241
330
1E
100
AcDbEntity
  8
0
100
AcDbLine
 10
156.15185
 20
114.049
 30
0.0
 11
156.15285
 21
113.5299999999999
 31
0.0
  0
LINE
  5
242
330
1E
100
AcDbEntity
  8
0
100
AcDbLine
 10
156.1498499999999
 20
110.759
 30
0.0
 11
156.15285
 21
109.785
 31
0.0
  0
LINE
  5
243
330
1E
100
AcDbEntity
  8
0
100
AcDbLine
 10
156.1498499999999
 20
110.759
 30
0.0
 11
156.15485
 21
111.462
 31
0.0
  0
LINE
  5
244
330
1E
100
AcDbEntity
  8
0
100
AcDbLine
 10
156.15385
 20
111.892
 30
0.0
 11
156.15485
 21
113.029
 31
0.0
  0
LINE
  5
245
330
1E
100
AcDbEntity
  8
0
100
AcDbLine
 10
156.15385
 20
111.892
 30
0.0
 11
156.15485
 21
111.462
 31
0.0
  0
LINE
  5
246
330
1E
100
AcDbEntity
  8
0
100
AcDbLine
 10
156.15285
 20
113.5299999999999
 30
0.0
 11
156.15385
 21
114.7639999999999
 31
0.0
  0
LINE
  5
247
330
1E
100
AcDbEntity
  8
0
100
AcDbLine
 10
156.15185
 20
117.1149999999999
 30
0.0
 11
156.15385
 21
116.0189999999999
 31
0.0
  0
LINE
  5
248
330
1E
100
AcDbEntity
  8
0
100
AcDbLine
 10
156.15185
 20
117.1149999999999
 30
0.0
 11
156.15385
 21
117.286
 31
0.0
  0
LINE
  5
24D
330
1E
100
AcDbEntity
  8
0
100
AcDbLine
 10
156.15285
 20
120.266
 30
0.0
 11
156.15485
 21
120.3929999999999
 31
0.0
  0
LINE
  5
24E
330
1E
100
AcDbEntity
  8
0
100
AcDbLine
 10
156.15285
 20
120.266
 30
0.0
 11
156.15285
 21
123.682
 31
0.0
  0
LINE
  5
24F
330
1E
100
AcDbEntity
  8
0
100
AcDbLine
 10
156.15385
 20
118.751
 30
0.0
 11
156.15485
 21
120.3929999999999
 31
0.0
  0
LINE
  5
250
330
1E
100
AcDbEntity
  8
0
100
AcDbLine
 10
156.15385
 20
118.751
 30
0.0
 11
156.15385
 21
117.286
 31
0.0
  0
LINE
  5
251
330
1E
100
AcDbEntity
  8
0
100
AcDbLine
 10
156.15285
 20
123.682
 30
0.0
 11
156.15485
 21
135.277
 31
0.0
  0
LINE
  5
252
330
1E
100
AcDbEntity
  8
0
100
AcDbLine
 10
156.15285
 20
123.682
 30
0.0
 11
156.15285
 21
120.266
 31
0.0
  0
LINE
  5
253
330
1E
100
AcDbEntity
  8
0
100
AcDbLine
 10
156.15385
 20
117.286
 30
0.0
 11
156.15385
 21
118.751
 31
0.0
  0
LINE
  5
256
330
1E
100
AcDbEntity
  8
0
100
AcDbLine
 10
134.1568499999999
 20
129.432
 30
0.0
 11
134.54485
 21
129.427
 31
0.0
  0
LINE
  5
257
330
1E
100
AcDbEntity
  8
0
100
AcDbLine
 10
134.541639757882
 20
129.427041369099
 30
0.0
 11
137.007833852416
 21
129.4841183780249
 31
0.0
  0
LINE
  5
258
330
1E
100
AcDbEntity
  8
0
100
AcDbLine
 10
134.541639757882
 20
129.427041369099
 30
0.0
 11
137.007833852416
 21
129.4841183780249
 31
0.0
  0
LINE
  5
259
330
1E
100
AcDbEntity
  8
0
100
AcDbLine
 10
139.4358499999999
 20
129.6289999999999
 30
0.0
 11
141.7928499999999
 21
129.86
 31
0.0
  0
LINE
  5
25B
330
1E
100
AcDbEntity
  8
0
100
AcDbLine
 10
137.007833852416
 20
129.4841183780249
 30
0.0
 11
139.4358499999999
 21
129.6289999999999
 31
0.0
  0
LINE
  5
25C
330
1E
100
AcDbEntity
  8
0
100
AcDbLine
 10
133.7688499999999
 20
129.427
 30
0.0
 11
134.1568499999999
 21
129.432
 31
0.0
  0
LINE
  5
25D
330
1E
100
AcDbEntity
  8
0
100
AcDbLine
 10
131.3058661475839
 20
129.4841183780249
 30
0.0
 11
133.7720602421179
 21
129.427041369099
 31
0.0
  0
LINE
  5
25E
330
1E
100
AcDbEntity
  8
0
100
AcDbLine
 10
141.7928499999999
 20
129.86
 30
0.0
 11
144.04785
 21
130.174
 31
0.0
  0
LINE
  5
261
330
1E
100
AcDbEntity
  8
0
100
AcDbLine
 10
144.04785
 20
130.174
 30
0.0
 11
146.23885
 21
130.581
 31
0.0
  0
LINE
  5
262
330
1E
100
AcDbEntity
  8
0
100
AcDbLine
 10
128.87785
 20
129.6289999999999
 30
0.0
 11
131.3058661475839
 21
129.4841183780249
 31
0.0
  0
LINE
  5
263
330
1E
100
AcDbEntity
  8
0
100
AcDbLine
 10
126.5208499999999
 20
129.86
 30
0.0
 11
128.87785
 21
129.6289999999999
 31
0.0
  0
LINE
  5
268
330
1E
100
AcDbEntity
  8
0
100
AcDbLine
 10
146.23885
 20
130.581
 30
0.0
 11
148.2538499999999
 21
131.066
 31
0.0
  0
LINE
  5
269
330
1E
100
AcDbEntity
  8
0
100
AcDbLine
 10
122.07485
 20
130.581
 30
0.0
 11
124.26585
 21
130.174
 31
0.0
  0
LINE
  5
26C
330
1E
100
AcDbEntity
  8
0
100
AcDbLine
 10
116.6678499999999
 20
132.242
 30
0.0
 11
118.2468499999999
 21
131.622
 31
0.0
  0
LINE
  5
26E
330
1E
100
AcDbEntity
  8
0
100
AcDbLine
 10
148.2538499999999
 20
131.066
 30
0.0
 11
150.0668499999999
 21
131.622
 31
0.0
  0
LINE
  5
270
330
1E
100
AcDbEntity
  8
0
100
AcDbLine
 10
150.0668499999999
 20
131.622
 30
0.0
 11
151.6458499999999
 21
132.242
 31
0.0
  0
LINE
  5
271
330
1E
100
AcDbEntity
  8
0
100
AcDbLine
 10
151.6458499999999
 20
132.242
 30
0.0
 11
152.96985
 21
132.9189999999999
 31
0.0
  0
LINE
  5
272
330
1E
100
AcDbEntity
  8
0
100
AcDbLine
 10
154.11985
 20
135.1239999999999
 30
0.0
 11
154.4418499999999
 21
137.176
 31
0.0
  0
LINE
  5
273
330
1E
100
AcDbEntity
  8
0
100
AcDbLine
 10
153.972373383038
 20
133.611948762846
 30
0.0
 11
154.5148499999999
 21
134.152
 31
0.0
  0
LINE
  5
274
330
1E
100
AcDbEntity
  8
0
100
AcDbLine
 10
153.663830248046
 20
133.398682332063
 30
0.0
 11
154.11985
 21
135.1239999999999
 31
0.0
  0
LINE
  5
275
330
1E
100
AcDbEntity
  8
0
100
AcDbLine
 10
152.96985
 20
132.9189999999999
 30
0.0
 11
154.0158499999999
 21
133.6419999999999
 31
0.0
  0
LINE
  5
277
330
1E
100
AcDbEntity
  8
0
100
AcDbLine
 10
154.5148499999999
 20
134.152
 30
0.0
 11
154.9101511572742
 21
134.7503352147068
 31
0.0
  0
LINE
  5
278
330
1E
100
AcDbEntity
  8
0
100
AcDbLine
 10
154.910151157274
 20
134.750335214706
 30
0.0
 11
155.05985
 21
135.3199999999999
 31
0.0
  0
LINE
  5
27A
330
1E
100
AcDbEntity
  8
0
100
AcDbLine
 10
154.85785
 20
135.3199999999999
 30
0.0
 11
155.05985
 21
135.3199999999999
 31
0.0
  0
LINE
  5
27B
330
1E
100
AcDbEntity
  8
0
100
AcDbLine
 10
154.26485
 20
135.3199999999999
 30
0.0
 11
154.85785
 21
135.3199999999999
 31
0.0
  0
LINE
  5
27D
330
1E
100
AcDbEntity
  8
0
100
AcDbLine
 10
156.08785
 20
135.525
 30
0.0
 11
156.1568499999999
 21
135.2789999999999
 31
0.0
  0
LINE
  5
27F
330
1E
100
AcDbEntity
  8
0
100
AcDbLine
 10
154.1506063352829
 20
135.3199999999999
 30
0.0
 11
154.26485
 21
135.3199999999999
 31
0.0
  0
LINE
  5
281
330
1E
100
AcDbEntity
  8
0
100
AcDbLine
 10
155.90485
 20
135.708
 30
0.0
 11
156.08785
 21
135.525
 31
0.0
  0
LINE
  5
282
330
1E
100
AcDbEntity
  8
0
100
AcDbLine
 10
155.65485
 20
135.7729999999999
 30
0.0
 11
155.90485
 21
135.708
 31
0.0
  0
LINE
  5
283
330
1E
100
AcDbEntity
  8
0
100
AcDbLine
 10
155.55785
 20
135.7729999999999
 30
0.0
 11
155.65485
 21
135.7729999999999
 31
0.0
  0
LINE
  5
284
330
1E
100
AcDbEntity
  8
0
100
AcDbLine
 10
155.37285
 20
135.7729999999999
 30
0.0
 11
155.55785
 21
135.7729999999999
 31
0.0
  0
LINE
  5
285
330
1E
100
AcDbEntity
  8
0
100
AcDbLine
 10
154.4418499999999
 20
137.176
 30
0.0
 11
154.542852855856
 21
167.737939610503
 31
0.0
  0
LINE
  5
286
330
1E
100
AcDbEntity
  8
0
100
AcDbLine
 10
154.8248499999999
 20
135.7729999999999
 30
0.0
 11
155.37285
 21
135.7729999999999
 31
0.0
  0
LINE
  5
287
330
1E
100
AcDbEntity
  8
0
100
AcDbLine
 10
154.221691130604
 20
135.7729999999999
 30
0.0
 11
154.8248499999999
 21
135.7729999999999
 31
0.0
  0
LINE
  5
289
330
1E
100
AcDbEntity
  8
0
100
AcDbLine
 10
118.2468499999999
 20
131.622
 30
0.0
 11
120.0598499999999
 21
131.066
 31
0.0
  0
LINE
  5
28A
330
1E
100
AcDbEntity
  8
0
100
AcDbLine
 10
120.0598499999999
 20
131.066
 30
0.0
 11
122.07485
 21
130.581
 31
0.0
  0
LINE
  5
28D
330
1E
100
AcDbEntity
  8
0
100
AcDbLine
 10
119.2198499999999
 20
167.7159999999999
 30
0.0
 11
142.58985
 21
167.7279999999999
 31
0.0
  0
LINE
  5
28E
330
1E
100
AcDbEntity
  8
0
100
AcDbLine
 10
84.00015000000001
 20
167.7089999999999
 30
0.0
 11
119.2198499999999
 21
167.7159999999999
 31
0.0
  0
LINE
  5
28F
330
1E
100
AcDbEntity
  8
0
100
AcDbLine
 10
154.542850782437
 20
167.7373122253879
 30
0.0
 11
157.873392499395
 21
167.7403688899589
 31
0.0
  0
LINE
  5
290
330
1E
100
AcDbEntity
  8
0
100
AcDbLine
 10
154.542850782437
 20
167.7373122253879
 30
0.0
 11
157.873392499395
 21
167.7403688899589
 31
0.0
  0
LINE
  5
291
330
1E
100
AcDbEntity
  8
0
100
AcDbLine
 10
161.436008280244
 20
167.7436385446769
 30
0.0
 11
161.820204321124
 21
167.7439911475049
 31
0.0
  0
LINE
  5
2C2
330
1E
100
AcDbEntity
  8
0
100
AcDbLine
 10
165.44585
 20
177.2499999999999
 30
0.0
 11
166.1798499999999
 21
177.2499999999999
 31
0.0
  0
LINE
  5
2C3
330
1E
100
AcDbEntity
  8
0
100
AcDbLine
 10
164.6038499999999
 20
177.2499999999999
 30
0.0
 11
165.44585
 21
177.2499999999999
 31
0.0
  0
LINE
  5
2C4
330
1E
100
AcDbEntity
  8
0
100
AcDbLine
 10
163.98685
 20
177.2499999999999
 30
0.0
 11
164.6038499999999
 21
177.2499999999999
 31
0.0
  0
LINE
  5
2C5
330
1E
100
AcDbEntity
  8
0
100
AcDbLine
 10
167.2218499999999
 20
177.2499999999999
 30
0.0
 11
167.3818499999999
 21
177.2499999999999
 31
0.0
  0
LINE
  5
2C6
330
1E
100
AcDbEntity
  8
0
100
AcDbLine
 10
167.3818499999999
 20
177.2499999999999
 30
0.0
 11
167.67585
 21
177.2499999999999
 31
0.0
  0
LINE
  5
2C7
330
1E
100
AcDbEntity
  8
0
100
AcDbLine
 10
166.6438499999999
 20
177.2499999999999
 30
0.0
 11
167.2218499999999
 21
177.2499999999999
 31
0.0
  0
LINE
  5
2C8
330
1E
100
AcDbEntity
  8
0
100
AcDbLine
 10
166.1798499999999
 20
177.2499999999999
 30
0.0
 11
166.6438499999999
 21
177.2499999999999
 31
0.0
  0
LINE
  5
2C9
330
1E
100
AcDbEntity
  8
0
100
AcDbLine
 10
162.90985
 20
177.2499999999999
 30
0.0
 11
163.98685
 21
177.2499999999999
 31
0.0
  0
LINE
  5
2CA
330
1E
100
AcDbEntity
  8
0
100
AcDbLine
 10
161.82885
 20
177.2499999999999
 30
0.0
 11
162.90985
 21
177.2499999999999
 31
0.0
  0
LINE
  5
399
330
1E
100
AcDbEntity
  8
0
100
AcDbLine
 10
167.67585
 20
177.2499999999999
 30
0.0
 11
167.8838499999999
 21
177.2499999999999
 31
0.0
  0
LINE
  5
39A
330
1E
100
AcDbEntity
  8
0
100
AcDbLine
 10
84.00015000000001
 20
177.2499999999999
 30
0.0
 11
161.82885
 21
177.2499999999999
 31
0.0
  0
LINE
  5
39B
330
1E
100
AcDbEntity
  8
0
100
AcDbLine
 10
161.8308499999999
 20
167.744
 30
0.0
 11
163.59185
 21
167.745
 31
0.0
  0
LINE
  5
39C
330
1E
100
AcDbEntity
  8
0
100
AcDbLine
 10
167.8838499999999
 20
177.2499999999999
 30
0.0
 11
167.9838499999999
 21
177.2499999999999
 31
0.0
  0
LINE
  5
39D
330
1E
100
AcDbEntity
  8
0
100
AcDbLine
 10
167.84485
 20
169.2149999999999
 30
0.0
 11
167.99985
 21
177.2499999999999
 31
0.0
  0
LINE
  5
39E
330
1E
100
AcDbEntity
  8
0
100
AcDbLine
 10
142.58985
 20
167.7279999999999
 30
0.0
 11
161.8308499999999
 21
167.744
 31
0.0
  0
LINE
  5
3A4
330
1E
100
AcDbEntity
  8
0
100
AcDbLine
 10
163.59185
 20
167.745
 30
0.0
 11
166.2510848606309
 21
167.8868710440858
 31
0.0
  0
LINE
  5
3A5
330
1E
100
AcDbEntity
  8
0
100
AcDbLine
 10
166.2510848606309
 20
167.8868710440858
 30
0.0
 11
167.2502492282392
 21
168.3306850644158
 31
0.0
  0
LINE
  5
3A6
330
1E
100
AcDbEntity
  8
0
100
AcDbLine
 10
167.2502492282392
 20
168.3306850644158
 30
0.0
 11
167.84485
 21
169.2149999999999
 31
0.0
  0
LINE
  5
3A7
330
1E
100
AcDbEntity
  8
0
100
AcDbLine
 10
84.00015000000001
 20
167.7089999999999
 30
0.0
 11
48.78045000000001
 21
167.7159999999999
 31
0.0
  0
LINE
  5
3A8
330
1E
100
AcDbEntity
  8
0
100
AcDbLine
 10
6.169450000000011
 20
167.744
 30
0.0
 11
4.408450000000016
 21
167.745
 31
0.0
  0
LINE
  5
3A9
330
1E
100
AcDbEntity
  8
0
100
AcDbLine
 10
0.7500507717607832
 20
168.3306850644158
 30
0.0
 11
0.1554500000000019
 21
169.2149999999999
 31
0.0
  0
LINE
  5
3AA
330
1E
100
AcDbEntity
  8
0
100
AcDbLine
 10
4.408450000000016
 20
167.745
 30
0.0
 11
1.749215139369056
 21
167.8868710440858
 31
0.0
  0
LINE
  5
3AB
330
1E
100
AcDbEntity
  8
0
100
AcDbLine
 10
1.749215139369056
 20
167.8868710440858
 30
0.0
 11
0.7500507717607832
 21
168.3306850644158
 31
0.0
  0
LINE
  5
3AC
330
1E
100
AcDbEntity
  8
0
100
AcDbLine
 10
0.1554500000000019
 20
169.2149999999999
 30
0.0
 11
0.0004500000000007
 21
177.2499999999999
 31
0.0
  0
LINE
  5
3AD
330
1E
100
AcDbEntity
  8
0
100
AcDbLine
 10
48.78045000000001
 20
167.7159999999999
 30
0.0
 11
25.41044999999999
 21
167.7279999999999
 31
0.0
  0
LINE
  5
3AE
330
1E
100
AcDbEntity
  8
0
100
AcDbLine
 10
25.41044999999999
 20
167.7279999999999
 30
0.0
 11
6.169450000000011
 21
167.744
 31
0.0
  0
ENDSEC
  0
SECTION
  2
OBJECTS
  0
DICTIONARY
  5
C
330
0
100
AcDbDictionary
281
     1
  3
ACAD_GROUP
350
D
  3
ACAD_LAYOUT
350
19
  3
ACAD_MLINESTYLE
350
16
  3
ACAD_PLOTSETTINGS
350
18
  3
ACAD_PLOTSTYLENAME
350
E
  3
AcDbVariableDictionary
350
3B0
  0
DICTIONARY
  5
D
102
{ACAD_REACTORS
330
C
102
}
330
C
100
AcDbDictionary
281
     1
  0
DICTIONARY
  5
19
102
{ACAD_REACTORS
330
C
102
}
330
C
100
AcDbDictionary
281
     1
  3
Layout1
350
1D
  3
Model
350
21
  0
DICTIONARY
  5
16
102
{ACAD_REACTORS
330
C
102
}
330
C
100
AcDbDictionary
281
     1
  3
Standard
350
17
  0
DICTIONARY
  5
18
102
{ACAD_REACTORS
330
C
102
}
330
C
100
AcDbDictionary
281
     1
  0
ACDBDICTIONARYWDFLT
  5
E
102
{ACAD_REACTORS
330
C
102
}
330
C
100
AcDbDictionary
281
     1
  3
Normal
350
F
100
AcDbDictionaryWithDefault
340
F
  0
DICTIONARY
  5
3B0
102
{ACAD_REACTORS
330
C
102
}
330
C
100
AcDbDictionary
281
     1
  3
DIMASSOC
350
3B1
  0
LAYOUT
  5
1D
102
{ACAD_REACTORS
330
19
102
}
330
19
100
AcDbPlotSettings
  1

  2
C:\Programme\AutoCAD LT 2002 Deu\plotters\DWF ePlot (optimized for plotting).pc3
  4

  6

 40
0.0
 41
0.0
 42
0.0
 43
0.0
 44
0.0
 45
0.0
 46
0.0
 47
0.0
 48
0.0
 49
0.0
140
0.0
141
0.0
142
1.0
143
1.0
 70
   688
 72
     0
 73
     0
 74
     5
  7

 75
    16
147
1.0
148
0.0
149
0.0
100
AcDbLayout
  1
Layout1
 70
     1
 71
     1
 10
0.0
 20
0.0
 11
12.0
 21
9.0
 12
0.0
 22
0.0
 32
0.0
 14
1.000000000000000E+20
 24
1.000000000000000E+20
 34
1.000000000000000E+20
 15
-1.000000000000000E+20
 25
-1.000000000000000E+20
 35
-1.000000000000000E+20
146
0.0
 13
0.0
 23
0.0
 33
0.0
 16
1.0
 26
0.0
 36
0.0
 17
0.0
 27
1.0
 37
0.0
 76
     0
330
1A
  0
LAYOUT
  5
21
102
{ACAD_REACTORS
330
19
102
}
330
19
100
AcDbPlotSettings
  1

  2
C:\Programme\AutoCAD LT 2002 Deu\plotters\DWF ePlot (optimized for plotting).pc3
  4

  6

 40
0.0
 41
0.0
 42
0.0
 43
0.0
 44
0.0
 45
0.0
 46
0.0
 47
0.0
 48
0.0
 49
0.0
140
0.0
141
0.0
142
1.0
143
1.0
 70
  1712
 72
     0
 73
     0
 74
     0
  7

 75
     0
147
1.0
148
0.0
149
0.0
100
AcDbLayout
  1
Model
 70
     1
 71
     0
 10
0.0
 20
0.0
 11
12.0
 21
9.0
 12
0.0
 22
0.0
 32
0.0
 14
0.0
 24
0.0
 34
0.0
 15
0.0
 25
0.0
 35
0.0
146
0.0
 13
0.0
 23
0.0
 33
0.0
 16
1.0
 26
0.0
 36
0.0
 17
0.0
 27
1.0
 37
0.0
 76
     0
330
1E
  0
MLINESTYLE
  5
17
102
{ACAD_REACTORS
330
16
102
}
330
16
100
AcDbMlineStyle
  2
STANDARD
 70
     0
  3

 62
   256
 51
90.0
 52
90.0
 71
     2
 49
0.5
 62
   256
  6
BYLAYER
 49
-0.5
 62
   256
  6
BYLAYER
  0
ACDBPLACEHOLDER
  5
F
102
{ACAD_REACTORS
330
E
102
}
330
E
  0
DICTIONARYVAR
  5
3B1
102
{ACAD_REACTORS
330
3B0
102
}
330
3B0
100
DictionaryVariables
280
     0
  1
1
  0
ENDSEC
  0
EOF
