  0
SECTION
  2
HEADER
  9
$ACADVER
  1
AC1015
  9
$ACADMAINTVER
 70
    13
  9
$DWGCODEPAGE
  3
ANSI_1252
  9
$INSBASE
 10
0.0
 20
0.0
 30
0.0
  9
$EXTMIN
 10
-59.75030000000001
 20
0.0000000000000006
 30
0.0
  9
$EXTMAX
 10
177.2499999999999
 20
118.0
 30
0.0
  9
$LIMMIN
 10
0.0
 20
0.0
  9
$LIMMAX
 10
12.0
 20
9.0
  9
$ORTHOMODE
 70
     0
  9
$REGENMODE
 70
     1
  9
$FILLMODE
 70
     1
  9
$QTEXTMODE
 70
     0
  9
$MIRRTEXT
 70
     1
  9
$LTSCALE
 40
1.0
  9
$ATTMODE
 70
     1
  9
$TEXTSIZE
 40
0.2
  9
$TRACEWID
 40
0.05
  9
$TEXTSTYLE
  7
Standard
  9
$CLAYER
  8
0
  9
$CELTYPE
  6
Continuous
  9
$CECOLOR
 62
   256
  9
$CELTSCALE
 40
1.0
  9
$DISPSILH
 70
     0
  9
$DIMSCALE
 40
1.0
  9
$DIMASZ
 40
0.18
  9
$DIMEXO
 40
0.0625
  9
$DIMDLI
 40
0.38
  9
$DIMRND
 40
0.0
  9
$DIMDLE
 40
0.0
  9
$DIMEXE
 40
0.18
  9
$DIMTP
 40
0.0
  9
$DIMTM
 40
0.0
  9
$DIMTXT
 40
0.18
  9
$DIMCEN
 40
0.09
  9
$DIMTSZ
 40
0.0
  9
$DIMTOL
 70
     0
  9
$DIMLIM
 70
     0
  9
$DIMTIH
 70
     1
  9
$DIMTOH
 70
     1
  9
$DIMSE1
 70
     0
  9
$DIMSE2
 70
     0
  9
$DIMTAD
 70
     0
  9
$DIMZIN
 70
     0
  9
$DIMBLK
  1

  9
$DIMASO
 70
     1
  9
$DIMSHO
 70
     1
  9
$DIMPOST
  1

  9
$DIMAPOST
  1

  9
$DIMALT
 70
     0
  9
$DIMALTD
 70
     2
  9
$DIMALTF
 40
25.4
  9
$DIMLFAC
 40
1.0
  9
$DIMTOFL
 70
     0
  9
$DIMTVP
 40
0.0
  9
$DIMTIX
 70
     0
  9
$DIMSOXD
 70
     0
  9
$DIMSAH
 70
     0
  9
$DIMBLK1
  1

  9
$DIMBLK2
  1

  9
$DIMSTYLE
  2
Standard
  9
$DIMCLRD
 70
     0
  9
$DIMCLRE
 70
     0
  9
$DIMCLRT
 70
     0
  9
$DIMTFAC
 40
1.0
  9
$DIMGAP
 40
0.09
  9
$DIMJUST
 70
     0
  9
$DIMSD1
 70
     0
  9
$DIMSD2
 70
     0
  9
$DIMTOLJ
 70
     1
  9
$DIMTZIN
 70
     0
  9
$DIMALTZ
 70
     0
  9
$DIMALTTZ
 70
     0
  9
$DIMUPT
 70
     0
  9
$DIMDEC
 70
     4
  9
$DIMTDEC
 70
     4
  9
$DIMALTU
 70
     2
  9
$DIMALTTD
 70
     2
  9
$DIMTXSTY
  7
Standard
  9
$DIMAUNIT
 70
     0
  9
$DIMADEC
 70
     0
  9
$DIMALTRND
 40
0.0
  9
$DIMAZIN
 70
     0
  9
$DIMDSEP
 70
    46
  9
$DIMATFIT
 70
     3
  9
$DIMFRAC
 70
     0
  9
$DIMLDRBLK
  1

  9
$DIMLUNIT
 70
     2
  9
$DIMLWD
 70
    -2
  9
$DIMLWE
 70
    -2
  9
$DIMTMOVE
 70
     0
  9
$LUNITS
 70
     2
  9
$LUPREC
 70
     4
  9
$SKETCHINC
 40
0.1
  9
$FILLETRAD
 40
0.0
  9
$AUNITS
 70
     0
  9
$AUPREC
 70
     0
  9
$MENU
  1
.
  9
$ELEVATION
 40
0.0
  9
$PELEVATION
 40
0.0
  9
$THICKNESS
 40
0.0
  9
$LIMCHECK
 70
     0
  9
$CHAMFERA
 40
0.0
  9
$CHAMFERB
 40
0.0
  9
$CHAMFERC
 40
0.0
  9
$CHAMFERD
 40
0.0
  9
$SKPOLY
 70
     0
  9
$TDCREATE
 40
2455653.938688322
  9
$TDUCREATE
 40
2455653.855354988
  9
$TDUPDATE
 40
2455653.943110891
  9
$TDUUPDATE
 40
2455653.859777557
  9
$TDINDWG
 40
0.0044227431
  9
$TDUSRTIMER
 40
0.0044227431
  9
$USRTIMER
 70
     1
  9
$ANGBASE
 50
0.0
  9
$ANGDIR
 70
     0
  9
$PDMODE
 70
     0
  9
$PDSIZE
 40
0.0
  9
$PLINEWID
 40
0.0
  9
$SPLFRAME
 70
     0
  9
$SPLINETYPE
 70
     6
  9
$SPLINESEGS
 70
     8
  9
$HANDSEED
  5
574
  9
$SURFTAB1
 70
     6
  9
$SURFTAB2
 70
     6
  9
$SURFTYPE
 70
     6
  9
$SURFU
 70
     6
  9
$SURFV
 70
     6
  9
$UCSBASE
  2

  9
$UCSNAME
  2

  9
$UCSORG
 10
0.0
 20
0.0
 30
0.0
  9
$UCSXDIR
 10
1.0
 20
0.0
 30
0.0
  9
$UCSYDIR
 10
0.0
 20
1.0
 30
0.0
  9
$UCSORTHOREF
  2

  9
$UCSORTHOVIEW
 70
     1
  9
$UCSORGTOP
 10
0.0
 20
0.0
 30
0.0
  9
$UCSORGBOTTOM
 10
0.0
 20
0.0
 30
0.0
  9
$UCSORGLEFT
 10
0.0
 20
0.0
 30
0.0
  9
$UCSORGRIGHT
 10
0.0
 20
0.0
 30
0.0
  9
$UCSORGFRONT
 10
0.0
 20
0.0
 30
0.0
  9
$UCSORGBACK
 10
0.0
 20
0.0
 30
0.0
  9
$PUCSBASE
  2

  9
$PUCSNAME
  2

  9
$PUCSORG
 10
0.0
 20
0.0
 30
0.0
  9
$PUCSXDIR
 10
1.0
 20
0.0
 30
0.0
  9
$PUCSYDIR
 10
0.0
 20
1.0
 30
0.0
  9
$PUCSORTHOREF
  2

  9
$PUCSORTHOVIEW
 70
     0
  9
$PUCSORGTOP
 10
0.0
 20
0.0
 30
0.0
  9
$PUCSORGBOTTOM
 10
0.0
 20
0.0
 30
0.0
  9
$PUCSORGLEFT
 10
0.0
 20
0.0
 30
0.0
  9
$PUCSORGRIGHT
 10
0.0
 20
0.0
 30
0.0
  9
$PUCSORGFRONT
 10
0.0
 20
0.0
 30
0.0
  9
$PUCSORGBACK
 10
0.0
 20
0.0
 30
0.0
  9
$USERI1
 70
     0
  9
$USERI2
 70
     0
  9
$USERI3
 70
     0
  9
$USERI4
 70
     0
  9
$USERI5
 70
     0
  9
$USERR1
 40
0.0
  9
$USERR2
 40
0.0
  9
$USERR3
 40
0.0
  9
$USERR4
 40
0.0
  9
$USERR5
 40
0.0
  9
$WORLDVIEW
 70
     1
  9
$SHADEDGE
 70
     3
  9
$SHADEDIF
 70
    70
  9
$TILEMODE
 70
     1
  9
$MAXACTVP
 70
    64
  9
$PINSBASE
 10
0.0
 20
0.0
 30
0.0
  9
$PLIMCHECK
 70
     0
  9
$PEXTMIN
 10
1.000000000000000E+20
 20
1.000000000000000E+20
 30
1.000000000000000E+20
  9
$PEXTMAX
 10
-1.000000000000000E+20
 20
-1.000000000000000E+20
 30
-1.000000000000000E+20
  9
$PLIMMIN
 10
0.0
 20
0.0
  9
$PLIMMAX
 10
12.0
 20
9.0
  9
$UNITMODE
 70
     0
  9
$VISRETAIN
 70
     1
  9
$PLINEGEN
 70
     0
  9
$PSLTSCALE
 70
     1
  9
$TREEDEPTH
 70
  3020
  9
$CMLSTYLE
  2
Standard
  9
$CMLJUST
 70
     0
  9
$CMLSCALE
 40
1.0
  9
$PROXYGRAPHICS
 70
     1
  9
$MEASUREMENT
 70
     0
  9
$CELWEIGHT
370
    -1
  9
$ENDCAPS
280
     0
  9
$JOINSTYLE
280
     0
  9
$LWDISPLAY
290
     0
  9
$INSUNITS
 70
     0
  9
$HYPERLINKBASE
  1

  9
$STYLESHEET
  1

  9
$XEDIT
290
     1
  9
$CEPSNTYPE
380
     0
  9
$PSTYLEMODE
290
     1
  9
$FINGERPRINTGUID
  2
{537A9233-729E-481E-9DEB-6E47EEE78352}
  9
$VERSIONGUID
  2
{7105ABF8-37DE-4587-A86C-4C9C93AF21F9}
  9
$EXTNAMES
290
     1
  9
$PSVPSCALE
 40
0.0
  9
$OLESTARTUP
290
     0
  0
ENDSEC
  0
SECTION
  2
CLASSES
  0
CLASS
  1
ACDBDICTIONARYWDFLT
  2
AcDbDictionaryWithDefault
  3
AutoCAD 2000
 90
        0
280
     0
281
     0
  0
CLASS
  1
ACDBPLACEHOLDER
  2
AcDbPlaceHolder
  3
AutoCAD 2000
 90
        0
280
     0
281
     0
  0
CLASS
  1
LAYOUT
  2
AcDbLayout
  3
AutoCAD 2000
 90
        0
280
     0
281
     0
  0
CLASS
  1
DICTIONARYVAR
  2
AcDbDictionaryVar
  3
AutoCAD 2000
 90
        0
280
     0
281
     0
  0
ENDSEC
  0
SECTION
  2
TABLES
  0
TABLE
  2
VPORT
  5
8
330
0
100
AcDbSymbolTable
 70
     7
  0
VPORT
  5
573
330
8
100
AcDbSymbolTableRecord
100
AcDbViewportTableRecord
  2
*Active
 70
     0
 10
0.0
 20
0.0
 11
1.0
 21
1.0
 12
58.74984999999999
 22
59.0
 13
0.0
 23
0.0
 14
1.0
 24
1.0
 15
0.0
 25
0.0
 16
0.0
 26
0.0
 36
1.0
 17
0.0
 27
0.0
 37
0.0
 40
118.7981961668545
 41
2.073363431151241
 42
50.0
 43
0.0
 44
0.0
 50
0.0
 51
0.0
 71
     0
 72
   100
 73
     1
 74
     3
 75
     0
 76
     0
 77
     0
 78
     0
281
     0
 65
     1
110
0.0
120
0.0
130
0.0
111
1.0
121
0.0
131
0.0
112
0.0
122
1.0
132
0.0
 79
     1
146
0.0
  0
ENDTAB
  0
TABLE
  2
LTYPE
  5
5
330
0
100
AcDbSymbolTable
 70
     1
  0
LTYPE
  5
13
330
5
100
AcDbSymbolTableRecord
100
AcDbLinetypeTableRecord
  2
ByBlock
 70
     0
  3

 72
    65
 73
     0
 40
0.0
  0
LTYPE
  5
14
330
5
100
AcDbSymbolTableRecord
100
AcDbLinetypeTableRecord
  2
ByLayer
 70
     0
  3

 72
    65
 73
     0
 40
0.0
  0
LTYPE
  5
15
330
5
100
AcDbSymbolTableRecord
100
AcDbLinetypeTableRecord
  2
Continuous
 70
     0
  3
Solid line
 72
    65
 73
     0
 40
0.0
  0
ENDTAB
  0
TABLE
  2
LAYER
  5
2
330
0
100
AcDbSymbolTable
 70
     1
  0
LAYER
  5
10
330
2
100
AcDbSymbolTableRecord
100
AcDbLayerTableRecord
  2
0
 70
     0
 62
     7
  6
Continuous
370
    -3
390
F
  0
ENDTAB
  0
TABLE
  2
STYLE
  5
3
330
0
100
AcDbSymbolTable
 70
     1
  0
STYLE
  5
11
330
3
100
AcDbSymbolTableRecord
100
AcDbTextStyleTableRecord
  2
Standard
 70
     0
 40
0.0
 41
1.0
 50
0.0
 71
     0
 42
0.2
  3
txt
  4

  0
ENDTAB
  0
TABLE
  2
VIEW
  5
6
330
0
100
AcDbSymbolTable
 70
     0
  0
ENDTAB
  0
TABLE
  2
UCS
  5
7
330
0
100
AcDbSymbolTable
 70
     0
  0
ENDTAB
  0
TABLE
  2
APPID
  5
9
330
0
100
AcDbSymbolTable
 70
     1
  0
APPID
  5
12
330
9
100
AcDbSymbolTableRecord
100
AcDbRegAppTableRecord
  2
ACAD
 70
     0
  0
ENDTAB
  0
TABLE
  2
DIMSTYLE
  5
A
330
0
100
AcDbSymbolTable
 70
     1
100
AcDbDimStyleTable
 71
     0
  0
DIMSTYLE
105
3B0
330
A
100
AcDbSymbolTableRecord
100
AcDbDimStyleTableRecord
  2
Standard
 70
     0
340
11
  0
ENDTAB
  0
TABLE
  2
BLOCK_RECORD
  5
1
330
0
100
AcDbSymbolTable
 70
     1
  0
BLOCK_RECORD
  5
1E
330
1
100
AcDbSymbolTableRecord
100
AcDbBlockTableRecord
  2
*Model_Space
340
21
  0
BLOCK_RECORD
  5
1A
330
1
100
AcDbSymbolTableRecord
100
AcDbBlockTableRecord
  2
*Paper_Space
340
1D
  0
ENDTAB
  0
ENDSEC
  0
SECTION
  2
BLOCKS
  0
BLOCK
  5
1F
330
1E
100
AcDbEntity
  8
0
100
AcDbBlockBegin
  2
*Model_Space
 70
     0
 10
0.0
 20
0.0
 30
0.0
  3
*Model_Space
  1

  0
ENDBLK
  5
20
330
1E
100
AcDbEntity
  8
0
100
AcDbBlockEnd
  0
BLOCK
  5
1B
330
1A
100
AcDbEntity
 67
     1
  8
0
100
AcDbBlockBegin
  2
*Paper_Space
 70
     0
 10
0.0
 20
0.0
 30
0.0
  3
*Paper_Space
  1

  0
ENDBLK
  5
1C
330
1A
100
AcDbEntity
 67
     1
  8
0
100
AcDbBlockEnd
  0
ENDSEC
  0
SECTION
  2
ENTITIES
  0
LINE
  5
4C
330
1E
100
AcDbEntity
  8
0
100
AcDbLine
 10
94.2917
 20
1.425389999999999
 30
0.0
 11
94.577
 21
1.065029999999999
 31
0.0
  0
LINE
  5
4F
330
1E
100
AcDbEntity
  8
0
100
AcDbLine
 10
94.25
 20
1.884769999999999
 30
0.0
 11
94.2838
 21
2.036359999999999
 31
0.0
  0
LINE
  5
52
330
1E
100
AcDbEntity
  8
0
100
AcDbLine
 10
94.25
 20
1.884769999999999
 30
0.0
 11
94.2917
 21
1.425389999999999
 31
0.0
  0
LINE
  5
54
330
1E
100
AcDbEntity
  8
0
100
AcDbLine
 10
94.2838
 20
2.036359999999999
 30
0.0
 11
94.35529999999999
 21
2.35619
 31
0.0
  0
LINE
  5
56
330
1E
100
AcDbEntity
  8
0
100
AcDbLine
 10
94.577
 20
1.065029999999999
 30
0.0
 11
94.9765
 21
0.800779000000001
 31
0.0
  0
LINE
  5
57
330
1E
100
AcDbEntity
  8
0
100
AcDbLine
 10
94.9765
 20
0.800779000000001
 30
0.0
 11
95.5579
 21
0.4494480000000011
 31
0.0
  0
LINE
  5
58
330
1E
100
AcDbEntity
  8
0
100
AcDbLine
 10
94.35529999999999
 20
2.35619
 30
0.0
 11
95.41479999999999
 21
6.846449999999999
 31
0.0
  0
LINE
  5
5E
330
1E
100
AcDbEntity
  8
0
100
AcDbLine
 10
95.41479999999999
 20
6.846449999999999
 30
0.0
 11
96.2278
 21
11.1535
 31
0.0
  0
LINE
  5
61
330
1E
100
AcDbEntity
  8
0
100
AcDbLine
 10
94.35529999999999
 20
2.35619
 30
0.0
 11
95.41479999999999
 21
6.846449999999999
 31
0.0
  0
LINE
  5
62
330
1E
100
AcDbEntity
  8
0
100
AcDbLine
 10
95.67619999999999
 20
8.230909999999999
 30
0.0
 11
96.2278
 21
11.1535
 31
0.0
  0
LINE
  5
63
330
1E
100
AcDbEntity
  8
0
100
AcDbLine
 10
95.5579
 20
0.4494480000000011
 30
0.0
 11
96.22880000000002
 21
0.0931000000000007
 31
0.0
  0
LINE
  5
64
330
1E
100
AcDbEntity
  8
0
100
AcDbLine
 10
95.5579
 20
0.4494480000000011
 30
0.0
 11
96.22880000000002
 21
0.0931000000000007
 31
0.0
  0
LINE
  5
65
330
1E
100
AcDbEntity
  8
0
100
AcDbLine
 10
96.22880000000002
 20
0.0931000000000007
 30
0.0
 11
96.5468
 21
0.0020060000000007
 31
0.0
  0
LINE
  5
66
330
1E
100
AcDbEntity
  8
0
100
AcDbLine
 10
96.22880000000002
 20
0.0931000000000007
 30
0.0
 11
96.5468
 21
0.0020060000000007
 31
0.0
  0
LINE
  5
67
330
1E
100
AcDbEntity
  8
0
100
AcDbLine
 10
97.008
 20
0.0000000000000006
 30
0.0
 11
97.43529999999999
 21
0.168142000000001
 31
0.0
  0
LINE
  5
68
330
1E
100
AcDbEntity
  8
0
100
AcDbLine
 10
96.5468
 20
0.0020060000000007
 30
0.0
 11
97.008
 21
0.0000000000000006
 31
0.0
  0
LINE
  5
69
330
1E
100
AcDbEntity
  8
0
100
AcDbLine
 10
96.5468
 20
0.0020060000000007
 30
0.0
 11
97.008
 21
0.0000000000000006
 31
0.0
  0
LINE
  5
6A
330
1E
100
AcDbEntity
  8
0
100
AcDbLine
 10
97.008
 20
0.0000000000000006
 30
0.0
 11
97.43529999999999
 21
0.168142000000001
 31
0.0
  0
LINE
  5
6B
330
1E
100
AcDbEntity
  8
0
100
AcDbLine
 10
97.6947
 20
0.369390000000001
 30
0.0
 11
98.1797
 21
0.9508620000000011
 31
0.0
  0
LINE
  5
6C
330
1E
100
AcDbEntity
  8
0
100
AcDbLine
 10
97.43529999999999
 20
0.168142000000001
 30
0.0
 11
97.6947
 21
0.369390000000001
 31
0.0
  0
LINE
  5
6E
330
1E
100
AcDbEntity
  8
0
100
AcDbLine
 10
96.7337
 20
14.5257
 30
0.0
 11
97.12420000000001
 21
17.7888
 31
0.0
  0
LINE
  5
72
330
1E
100
AcDbEntity
  8
0
100
AcDbLine
 10
97.12420000000001
 20
17.7888
 30
0.0
 11
97.3956
 21
20.89139999999999
 31
0.0
  0
LINE
  5
74
330
1E
100
AcDbEntity
  8
0
100
AcDbLine
 10
97.3956
 20
20.89139999999999
 30
0.0
 11
97.5248
 21
22.3611
 31
0.0
  0
LINE
  5
75
330
1E
100
AcDbEntity
  8
0
100
AcDbLine
 10
97.5248
 20
22.3611
 30
0.0
 11
97.77320000000001
 21
26.7242
 31
0.0
  0
LINE
  5
76
330
1E
100
AcDbEntity
  8
0
100
AcDbLine
 10
97.77320000000001
 20
26.7242
 30
0.0
 11
97.96700000000001
 21
33.65079999999999
 31
0.0
  0
LINE
  5
77
330
1E
100
AcDbEntity
  8
0
100
AcDbLine
 10
97.96700000000001
 20
33.65079999999999
 30
0.0
 11
98.00679999999999
 21
38.0118
 31
0.0
  0
LINE
  5
78
330
1E
100
AcDbEntity
  8
0
100
AcDbLine
 10
98.00679999999999
 20
38.0118
 30
0.0
 11
98.0108
 21
40.66429999999999
 31
0.0
  0
LINE
  5
7B
330
1E
100
AcDbEntity
  8
0
100
AcDbLine
 10
98.0108
 20
40.66429999999999
 30
0.0
 11
98.0187
 21
46.2636
 31
0.0
  0
LINE
  5
7C
330
1E
100
AcDbEntity
  8
0
100
AcDbLine
 10
96.2278
 20
11.1535
 30
0.0
 11
96.7337
 21
14.5257
 31
0.0
  0
LINE
  5
7D
330
1E
100
AcDbEntity
  8
0
100
AcDbLine
 10
98.1797
 20
0.9508620000000011
 30
0.0
 11
99.17059999999999
 21
2.37124
 31
0.0
  0
LINE
  5
84
330
1E
100
AcDbEntity
  8
0
100
AcDbLine
 10
103.726
 20
11.57189999999999
 30
0.0
 11
104.356
 21
13.5137
 31
0.0
  0
LINE
  5
85
330
1E
100
AcDbEntity
  8
0
100
AcDbLine
 10
102.995
 20
9.625099999999999
 30
0.0
 11
103.726
 21
11.572
 31
0.0
  0
LINE
  5
87
330
1E
100
AcDbEntity
  8
0
100
AcDbLine
 10
101.679
 20
6.702289999999999
 30
0.0
 11
102.995
 21
9.625099999999999
 31
0.0
  0
LINE
  5
88
330
1E
100
AcDbEntity
  8
0
100
AcDbLine
 10
100.082
 20
3.804549999999999
 30
0.0
 11
101.679
 21
6.702289999999999
 31
0.0
  0
LINE
  5
89
330
1E
100
AcDbEntity
  8
0
100
AcDbLine
 10
99.17059999999999
 20
2.37124
 30
0.0
 11
100.082
 21
3.804549999999999
 31
0.0
  0
LINE
  5
8E
330
1E
100
AcDbEntity
  8
0
100
AcDbLine
 10
106.3989999999999
 20
23.8425
 30
0.0
 11
106.7439999999999
 21
27.2757
 31
0.0
  0
LINE
  5
8F
330
1E
100
AcDbEntity
  8
0
100
AcDbLine
 10
106.7439999999999
 20
27.2757
 30
0.0
 11
106.9139999999999
 21
29.4228
 31
0.0
  0
LINE
  5
90
330
1E
100
AcDbEntity
  8
0
100
AcDbLine
 10
106.0329999999999
 20
21.131
 30
0.0
 11
106.3989999999999
 21
23.8425
 31
0.0
  0
LINE
  5
91
330
1E
100
AcDbEntity
  8
0
100
AcDbLine
 10
105.5429999999999
 20
18.3293
 30
0.0
 11
106.0329999999999
 21
21.131
 31
0.0
  0
LINE
  5
92
330
1E
100
AcDbEntity
  8
0
100
AcDbLine
 10
105.013
 20
15.937
 30
0.0
 11
105.5429999999999
 21
18.3293
 31
0.0
  0
LINE
  5
93
330
1E
100
AcDbEntity
  8
0
100
AcDbLine
 10
108.1649999999999
 20
45.8543
 30
0.0
 11
108.412
 21
48.5097
 31
0.0
  0
LINE
  5
94
330
1E
100
AcDbEntity
  8
0
100
AcDbLine
 10
111.3809999999999
 20
58.7799
 30
0.0
 11
112.2889999999999
 21
59.6888
 31
0.0
  0
LINE
  5
95
330
1E
100
AcDbEntity
  8
0
100
AcDbLine
 10
110.812
 20
57.9823
 30
0.0
 11
111.3809999999999
 21
58.7799
 31
0.0
  0
LINE
  5
96
330
1E
100
AcDbEntity
  8
0
100
AcDbLine
 10
110.327
 20
57.0925
 30
0.0
 11
110.812
 21
57.9823
 31
0.0
  0
LINE
  5
97
330
1E
100
AcDbEntity
  8
0
100
AcDbLine
 10
109.911
 20
56.121
 30
0.0
 11
110.327
 21
57.0925
 31
0.0
  0
LINE
  5
98
330
1E
100
AcDbEntity
  8
0
100
AcDbLine
 10
114.7179999999999
 20
60.97699999999999
 30
0.0
 11
116.5029999999999
 21
61.3963
 31
0.0
  0
LINE
  5
99
330
1E
100
AcDbEntity
  8
0
100
AcDbLine
 10
113.3909999999999
 20
60.4202
 30
0.0
 11
114.7179999999999
 21
60.97699999999999
 31
0.0
  0
LINE
  5
9A
330
1E
100
AcDbEntity
  8
0
100
AcDbLine
 10
112.2889999999999
 20
59.6888
 30
0.0
 11
113.3909999999999
 21
60.4202
 31
0.0
  0
LINE
  5
9B
330
1E
100
AcDbEntity
  8
0
100
AcDbLine
 10
109.561
 20
55.076
 30
0.0
 11
109.911
 21
56.121
 31
0.0
  0
LINE
  5
9C
330
1E
100
AcDbEntity
  8
0
100
AcDbLine
 10
109.179
 20
53.5915
 30
0.0
 11
109.561
 21
55.076
 31
0.0
  0
LINE
  5
9D
330
1E
100
AcDbEntity
  8
0
100
AcDbLine
 10
108.8779999999999
 20
52.0351
 30
0.0
 11
109.179
 21
53.5915
 31
0.0
  0
LINE
  5
9E
330
1E
100
AcDbEntity
  8
0
100
AcDbLine
 10
108.5699999999999
 20
49.9131
 30
0.0
 11
108.8779999999999
 21
52.0351
 31
0.0
  0
LINE
  5
9F
330
1E
100
AcDbEntity
  8
0
100
AcDbLine
 10
108.412
 20
48.5097
 30
0.0
 11
108.5699999999999
 21
49.9131
 31
0.0
  0
LINE
  5
A0
330
1E
100
AcDbEntity
  8
0
100
AcDbLine
 10
107.652
 20
39.6874
 30
0.0
 11
108.1649999999999
 21
45.8543
 31
0.0
  0
LINE
  5
A1
330
1E
100
AcDbEntity
  8
0
100
AcDbLine
 10
107.18
 20
33.3065
 30
0.0
 11
107.652
 21
39.6874
 31
0.0
  0
LINE
  5
A7
330
1E
100
AcDbEntity
  8
0
100
AcDbLine
 10
118.592
 20
61.60899999999999
 30
0.0
 11
120.154
 21
61.67819999999999
 31
0.0
  0
LINE
  5
EF
330
1E
100
AcDbEntity
  8
0
100
AcDbLine
 10
116.5029999999999
 20
61.3963
 30
0.0
 11
118.592
 21
61.60899999999999
 31
0.0
  0
LINE
  5
F0
330
1E
100
AcDbEntity
  8
0
100
AcDbLine
 10
106.9139999999999
 20
29.4228
 30
0.0
 11
107.18
 21
33.3065
 31
0.0
  0
LINE
  5
F1
330
1E
100
AcDbEntity
  8
0
100
AcDbLine
 10
104.356
 20
13.5137
 30
0.0
 11
105.013
 21
15.937
 31
0.0
  0
LINE
  5
F2
330
1E
100
AcDbEntity
  8
0
100
AcDbLine
 10
98.0187
 20
46.2636
 30
0.0
 11
98.0187
 21
103.793
 31
0.0
  0
LINE
  5
F3
330
1E
100
AcDbEntity
  8
0
100
AcDbLine
 10
135.7729999999999
 20
62.6233
 30
0.0
 11
135.7729999999999
 21
63.02559999999999
 31
0.0
  0
LINE
  5
F4
330
1E
100
AcDbEntity
  8
0
100
AcDbLine
 10
135.7729999999999
 20
63.02559999999999
 30
0.0
 11
135.7729999999999
 21
63.6616
 31
0.0
  0
LINE
  5
F5
330
1E
100
AcDbEntity
  8
0
100
AcDbLine
 10
135.7729999999999
 20
63.02559999999999
 30
0.0
 11
135.7729999999999
 21
62.6233
 31
0.0
  0
LINE
  5
F6
330
1E
100
AcDbEntity
  8
0
100
AcDbLine
 10
135.7729999999999
 20
63.6616
 30
0.0
 11
135.7729999999999
 21
63.02559999999999
 31
0.0
  0
LINE
  5
F7
330
1E
100
AcDbEntity
  8
0
100
AcDbLine
 10
135.7729999999999
 20
63.6616
 30
0.0
 11
135.7729999999999
 21
64.57959999999999
 31
0.0
  0
LINE
  5
F8
330
1E
100
AcDbEntity
  8
0
100
AcDbLine
 10
135.71
 20
62.3775
 30
0.0
 11
135.7729999999999
 21
62.6233
 31
0.0
  0
LINE
  5
F9
330
1E
100
AcDbEntity
  8
0
100
AcDbLine
 10
135.5339999999999
 20
62.1949
 30
0.0
 11
135.71
 21
62.3775
 31
0.0
  0
LINE
  5
FA
330
1E
100
AcDbEntity
  8
0
100
AcDbLine
 10
135.292
 20
62.12369999999999
 30
0.0
 11
135.5339999999999
 21
62.1949
 31
0.0
  0
LINE
  5
13E
330
1E
100
AcDbEntity
  8
0
100
AcDbLine
 10
137.176
 20
63.8623
 30
0.0
 11
167.463068250251
 21
63.7608835527194
 31
0.0
  0
LINE
  5
13F
330
1E
100
AcDbEntity
  8
0
100
AcDbLine
 10
135.7729999999999
 20
65.7654
 30
0.0
 11
135.7729999999999
 21
64.57959999999999
 31
0.0
  0
LINE
  5
140
330
1E
100
AcDbEntity
  8
0
100
AcDbLine
 10
135.7729999999999
 20
64.57959999999999
 30
0.0
 11
135.7729999999999
 21
63.6616
 31
0.0
  0
LINE
  5
141
330
1E
100
AcDbEntity
  8
0
100
AcDbLine
 10
135.7729999999999
 20
64.57959999999999
 30
0.0
 11
135.7729999999999
 21
65.7654
 31
0.0
  0
LINE
  5
146
330
1E
100
AcDbEntity
  8
0
100
AcDbLine
 10
135.7729999999999
 20
64.08245886939571
 30
0.0
 11
137.176
 21
63.8623
 31
0.0
  0
LINE
  5
148
330
1E
100
AcDbEntity
  8
0
100
AcDbLine
 10
41.32119999999999
 20
72.66119999999999
 30
0.0
 11
98.0187
 21
72.66119999999999
 31
0.0
  0
LINE
  5
15A
330
1E
100
AcDbEntity
  8
0
100
AcDbLine
 10
41.32119999999999
 20
72.66119999999999
 30
0.0
 11
98.0187
 21
72.66119999999999
 31
0.0
  0
LINE
  5
15C
330
1E
100
AcDbEntity
  8
0
100
AcDbLine
 10
167.463068250251
 20
63.7608835527194
 30
0.0
 11
167.7089999999999
 21
51.6062
 31
0.0
  0
LINE
  5
15D
330
1E
100
AcDbEntity
  8
0
100
AcDbLine
 10
177.2499999999999
 20
50.61659999999999
 30
0.0
 11
177.2499999999999
 21
50.3242
 31
0.0
  0
LINE
  5
15E
330
1E
100
AcDbEntity
  8
0
100
AcDbLine
 10
177.2499999999999
 20
51.35159999999999
 30
0.0
 11
177.2499999999999
 21
50.7748
 31
0.0
  0
LINE
  5
15F
330
1E
100
AcDbEntity
  8
0
100
AcDbLine
 10
177.2499999999999
 20
51.8151
 30
0.0
 11
177.2499999999999
 21
51.35159999999999
 31
0.0
  0
LINE
  5
160
330
1E
100
AcDbEntity
  8
0
100
AcDbLine
 10
177.2499999999999
 20
52.5461
 30
0.0
 11
177.2499999999999
 21
51.8151
 31
0.0
  0
LINE
  5
161
330
1E
100
AcDbEntity
  8
0
100
AcDbLine
 10
177.2499999999999
 20
53.3865
 30
0.0
 11
177.2499999999999
 21
52.5461
 31
0.0
  0
LINE
  5
162
330
1E
100
AcDbEntity
  8
0
100
AcDbLine
 10
177.2499999999999
 20
50.3242
 30
0.0
 11
177.2499999999999
 21
50.11639999999999
 31
0.0
  0
LINE
  5
163
330
1E
100
AcDbEntity
  8
0
100
AcDbLine
 10
177.2499999999999
 20
50.7748
 30
0.0
 11
177.2499999999999
 21
50.61659999999999
 31
0.0
  0
LINE
  5
164
330
1E
100
AcDbEntity
  8
0
100
AcDbLine
 10
177.2499999999999
 20
54.0002
 30
0.0
 11
177.2499999999999
 21
53.3865
 31
0.0
  0
LINE
  5
165
330
1E
100
AcDbEntity
  8
0
100
AcDbLine
 10
177.2499999999999
 20
50.11639999999999
 30
0.0
 11
177.2499999999999
 21
50.01689999999999
 31
0.0
  0
LINE
  5
184
330
1E
100
AcDbEntity
  8
0
100
AcDbLine
 10
177.2499999999999
 20
55.0743
 30
0.0
 11
177.2499999999999
 21
54.0002
 31
0.0
  0
LINE
  5
20F
330
1E
100
AcDbEntity
  8
0
100
AcDbLine
 10
177.2499999999999
 20
56.1514
 30
0.0
 11
177.2499999999999
 21
55.0743
 31
0.0
  0
LINE
  5
260
330
1E
100
AcDbEntity
  8
0
100
AcDbLine
 10
135.752
 20
84.3021
 30
0.0
 11
135.7729999999999
 21
84.15560000000001
 31
0.0
  0
LINE
  5
261
330
1E
100
AcDbEntity
  8
0
100
AcDbLine
 10
135.2229999999999
 20
86.04969999999999
 30
0.0
 11
135.752
 21
84.3021
 31
0.0
  0
LINE
  5
262
330
1E
100
AcDbEntity
  8
0
100
AcDbLine
 10
135.7729999999999
 20
84.15560000000001
 30
0.0
 11
135.7729999999999
 21
82.398
 31
0.0
  0
LINE
  5
263
330
1E
100
AcDbEntity
  8
0
100
AcDbLine
 10
135.7729999999999
 20
82.398
 30
0.0
 11
135.7729999999999
 21
65.7654
 31
0.0
  0
LINE
  5
264
330
1E
100
AcDbEntity
  8
0
100
AcDbLine
 10
135.7729999999999
 20
82.398
 30
0.0
 11
135.7729999999999
 21
84.15560000000001
 31
0.0
  0
LINE
  5
265
330
1E
100
AcDbEntity
  8
0
100
AcDbLine
 10
135.7729999999999
 20
65.7654
 30
0.0
 11
135.7729999999999
 21
82.398
 31
0.0
  0
LINE
  5
26A
330
1E
100
AcDbEntity
  8
0
100
AcDbLine
 10
129.287
 20
105.647
 30
0.0
 11
135.2229999999999
 21
86.04969999999999
 31
0.0
  0
LINE
  5
27A
330
1E
100
AcDbEntity
  8
0
100
AcDbLine
 10
130.263789340377
 20
102.4196962043639
 30
0.0
 11
131.1719999999999
 21
102.876
 31
0.0
  0
LINE
  5
27F
330
1E
100
AcDbEntity
  8
0
100
AcDbLine
 10
131.1719999999999
 20
102.876
 30
0.0
 11
133.115
 21
103.612
 31
0.0
  0
LINE
  5
280
330
1E
100
AcDbEntity
  8
0
100
AcDbLine
 10
98.0187
 20
103.793
 30
0.0
 11
98.0475
 21
104.357
 31
0.0
  0
LINE
  5
281
330
1E
100
AcDbEntity
  8
0
100
AcDbLine
 10
98.0197
 20
103.7479999999999
 30
0.0
 11
98.0227
 21
103.6129999999999
 31
0.0
  0
LINE
  5
284
330
1E
100
AcDbEntity
  8
0
100
AcDbLine
 10
98.0475
 20
104.357
 30
0.0
 11
98.1062
 21
104.581
 31
0.0
  0
LINE
  5
285
330
1E
100
AcDbEntity
  8
0
100
AcDbLine
 10
98.0227
 20
103.6129999999999
 30
0.0
 11
98.0277
 21
103.391
 31
0.0
  0
LINE
  5
286
330
1E
100
AcDbEntity
  8
0
100
AcDbLine
 10
137.176
 20
104.466
 30
0.0
 11
167.4694381790819
 21
104.566115496882
 31
0.0
  0
LINE
  5
287
330
1E
100
AcDbEntity
  8
0
100
AcDbLine
 10
135.1239999999999
 20
104.1439999999999
 30
0.0
 11
137.176
 21
104.466
 31
0.0
  0
LINE
  5
288
330
1E
100
AcDbEntity
  8
0
100
AcDbLine
 10
133.115
 20
103.612
 30
0.0
 11
135.1239999999999
 21
104.1439999999999
 31
0.0
  0
LINE
  5
318
330
1E
100
AcDbEntity
  8
0
100
AcDbLine
 10
98.1062
 20
104.581
 30
0.0
 11
98.2702
 21
104.847
 31
0.0
  0
LINE
  5
319
330
1E
100
AcDbEntity
  8
0
100
AcDbLine
 10
98.2702
 20
104.847
 30
0.0
 11
98.52859999999999
 21
105.021
 31
0.0
  0
LINE
  5
31A
330
1E
100
AcDbEntity
  8
0
100
AcDbLine
 10
98.74920000000001
 20
105.0859999999999
 30
0.0
 11
99.3077
 21
105.132
 31
0.0
  0
LINE
  5
31B
330
1E
100
AcDbEntity
  8
0
100
AcDbLine
 10
98.52859999999999
 20
105.021
 30
0.0
 11
98.74920000000001
 21
105.0859999999999
 31
0.0
  0
LINE
  5
31D
330
1E
100
AcDbEntity
  8
0
100
AcDbLine
 10
99.3077
 20
105.132
 30
0.0
 11
128.799
 21
106.0
 31
0.0
  0
LINE
  5
320
330
1E
100
AcDbEntity
  8
0
100
AcDbLine
 10
129.102
 20
105.905
 30
0.0
 11
129.181
 21
105.8329999999999
 31
0.0
  0
LINE
  5
323
330
1E
100
AcDbEntity
  8
0
100
AcDbLine
 10
129.181
 20
105.8329999999999
 30
0.0
 11
129.287
 21
105.647
 31
0.0
  0
LINE
  5
326
330
1E
100
AcDbEntity
  8
0
100
AcDbLine
 10
129.007
 20
105.9599999999999
 30
0.0
 11
129.102
 21
105.905
 31
0.0
  0
LINE
  5
328
330
1E
100
AcDbEntity
  8
0
100
AcDbLine
 10
128.799
 20
106.0
 30
0.0
 11
129.007
 21
105.9599999999999
 31
0.0
  0
LINE
  5
32C
330
1E
100
AcDbEntity
  8
0
100
AcDbLine
 10
167.4694381790819
 20
104.566115496882
 30
0.0
 11
167.7089999999999
 21
116.3939999999999
 31
0.0
  0
LINE
  5
32E
330
1E
100
AcDbEntity
  8
0
100
AcDbLine
 10
177.2499999999999
 20
111.8479999999999
 30
0.0
 11
177.2499999999999
 21
56.1514
 31
0.0
  0
LINE
  5
32F
330
1E
100
AcDbEntity
  8
0
100
AcDbLine
 10
177.2499999999999
 20
116.215
 30
0.0
 11
177.2499999999999
 21
115.937
 31
0.0
  0
LINE
  5
330
330
1E
100
AcDbEntity
  8
0
100
AcDbLine
 10
177.2499999999999
 20
115.937
 30
0.0
 11
177.2499999999999
 21
115.206
 31
0.0
  0
LINE
  5
331
330
1E
100
AcDbEntity
  8
0
100
AcDbLine
 10
177.2499999999999
 20
116.8979999999999
 30
0.0
 11
177.2499999999999
 21
116.215
 31
0.0
  0
LINE
  5
332
330
1E
100
AcDbEntity
  8
0
100
AcDbLine
 10
177.2499999999999
 20
117.5939999999999
 30
0.0
 11
177.2499999999999
 21
117.243
 31
0.0
  0
LINE
  5
333
330
1E
100
AcDbEntity
  8
0
100
AcDbLine
 10
177.2499999999999
 20
117.822
 30
0.0
 11
177.2499999999999
 21
117.5939999999999
 31
0.0
  0
LINE
  5
334
330
1E
100
AcDbEntity
  8
0
100
AcDbLine
 10
177.2499999999999
 20
117.243
 30
0.0
 11
177.2499999999999
 21
116.8979999999999
 31
0.0
  0
LINE
  5
335
330
1E
100
AcDbEntity
  8
0
100
AcDbLine
 10
177.2499999999999
 20
115.206
 30
0.0
 11
177.2499999999999
 21
114.244
 31
0.0
  0
LINE
  5
336
330
1E
100
AcDbEntity
  8
0
100
AcDbLine
 10
177.2499999999999
 20
114.244
 30
0.0
 11
177.2499999999999
 21
113.0489999999999
 31
0.0
  0
LINE
  5
3A6
330
1E
100
AcDbEntity
  8
0
100
AcDbLine
 10
177.2499999999999
 20
113.0489999999999
 30
0.0
 11
177.2499999999999
 21
111.8479999999999
 31
0.0
  0
LINE
  5
3A7
330
1E
100
AcDbEntity
  8
0
100
AcDbLine
 10
177.2499999999999
 20
117.914
 30
0.0
 11
177.2499999999999
 21
117.822
 31
0.0
  0
LINE
  5
3A8
330
1E
100
AcDbEntity
  8
0
100
AcDbLine
 10
177.2499999999999
 20
117.987
 30
0.0
 11
177.2499999999999
 21
117.914
 31
0.0
  0
LINE
  5
3A9
330
1E
100
AcDbEntity
  8
0
100
AcDbLine
 10
169.214
 20
117.8439999999999
 30
0.0
 11
177.2499999999999
 21
118.0
 31
0.0
  0
LINE
  5
3AA
330
1E
100
AcDbEntity
  8
0
100
AcDbLine
 10
167.4694381790819
 20
104.566115496882
 30
0.0
 11
167.7089999999999
 21
116.3939999999999
 31
0.0
  0
LINE
  5
3B4
330
1E
100
AcDbEntity
  8
0
100
AcDbLine
 10
169.214
 20
117.8439999999999
 30
0.0
 11
168.4093085264056
 21
117.6312210511689
 31
0.0
  0
LINE
  5
3B5
330
1E
100
AcDbEntity
  8
0
100
AcDbLine
 10
168.4093085264056
 20
117.6312210511689
 30
0.0
 11
167.8824564012582
 21
117.2216863905576
 31
0.0
  0
LINE
  5
3B6
330
1E
100
AcDbEntity
  8
0
100
AcDbLine
 10
167.8824564012582
 20
117.2216863905576
 30
0.0
 11
167.7089999999999
 21
116.3939999999999
 31
0.0
  0
LINE
  5
3B7
330
1E
100
AcDbEntity
  8
0
100
AcDbLine
 10
120.154
 20
61.67819999999999
 30
0.0
 11
135.292
 21
62.12369999999999
 31
0.0
  0
LINE
  5
3B8
330
1E
100
AcDbEntity
  8
0
100
AcDbLine
 10
177.2499999999999
 20
50.01689999999999
 30
0.0
 11
168.4112899323959
 21
50.23462547253874
 31
0.0
  0
LINE
  5
3B9
330
1E
100
AcDbEntity
  8
0
100
AcDbLine
 10
168.4112899323959
 20
50.23462547253874
 30
0.0
 11
167.9129798028296
 21
50.49828285864672
 31
0.0
  0
LINE
  5
3BA
330
1E
100
AcDbEntity
  8
0
100
AcDbLine
 10
167.9129798028296
 20
50.49828285864672
 30
0.0
 11
167.7371055045146
 21
51.02559763086262
 31
0.0
  0
LINE
  5
3BB
330
1E
100
AcDbEntity
  8
0
100
AcDbLine
 10
167.7371055045146
 20
51.02559763086262
 30
0.0
 11
167.7089999999999
 21
51.6062
 31
0.0
  0
LINE
  5
49A
330
1E
100
AcDbEntity
  8
0
100
AcDbLine
 10
-18.6791
 20
72.66119999999999
 30
0.0
 11
98.0187
 21
72.66119999999999
 31
0.0
  0
LINE
  5
4A1
330
1E
100
AcDbEntity
  8
0
100
AcDbLine
 10
-26.26790000000001
 20
95.50000000000002
 30
0.0
 11
98.0187
 21
95.46780854264452
 31
0.0
  0
LINE
  5
4A2
330
1E
100
AcDbEntity
  8
0
100
AcDbLine
 10
-26.26790000000001
 20
95.50000000000002
 30
0.0
 11
98.0187
 21
95.46780854264452
 31
0.0
  0
LINE
  5
4AE
330
1E
100
AcDbEntity
  8
0
100
AcDbLine
 10
-18.6791
 20
72.66119999999999
 30
0.0
 11
98.0187
 21
72.66119999999999
 31
0.0
  0
LINE
  5
4C7
330
1E
100
AcDbEntity
  8
0
100
AcDbLine
 10
-52.1063
 20
89.68740000000002
 30
0.0
 11
-49.4503
 21
91.20470000000002
 31
0.0
  0
LINE
  5
4DF
330
1E
100
AcDbEntity
  8
0
100
AcDbLine
 10
-57.64230000000001
 20
85.4832
 30
0.0
 11
-55.87190000000001
 21
86.99350000000002
 31
0.0
  0
LINE
  5
4E3
330
1E
100
AcDbEntity
  8
0
100
AcDbLine
 10
-59.0823
 20
82.29700000000001
 30
0.0
 11
-57.09317710965777
 21
81.4095853771878
 31
0.0
  0
LINE
  5
4E4
330
1E
100
AcDbEntity
  8
0
100
AcDbLine
 10
-59.0823
 20
82.29700000000001
 30
0.0
 11
-57.09317710965777
 21
81.4095853771878
 31
0.0
  0
LINE
  5
4E7
330
1E
100
AcDbEntity
  8
0
100
AcDbLine
 10
-58.42383000000001
 20
78.31789999999999
 30
0.0
 11
-57.09093798608254
 21
81.4147878350681
 31
0.0
  0
LINE
  5
4E8
330
1E
100
AcDbEntity
  8
0
100
AcDbLine
 10
-58.42383000000001
 20
78.31789999999999
 30
0.0
 11
-57.09093798608254
 21
81.4147878350681
 31
0.0
  0
LINE
  5
4EA
330
1E
100
AcDbEntity
  8
0
100
AcDbLine
 10
-58.3786
 20
77.91340000000001
 30
0.0
 11
-58.21459000000001
 21
77.78360000000002
 31
0.0
  0
LINE
  5
4ED
330
1E
100
AcDbEntity
  8
0
100
AcDbLine
 10
-58.45558000000003
 20
78.10980000000002
 30
0.0
 11
-58.42383000000001
 21
78.31789999999999
 31
0.0
  0
LINE
  5
4EE
330
1E
100
AcDbEntity
  8
0
100
AcDbLine
 10
-58.45558000000003
 20
78.10980000000002
 30
0.0
 11
-58.3786
 21
77.91340000000001
 31
0.0
  0
LINE
  5
4F1
330
1E
100
AcDbEntity
  8
0
100
AcDbLine
 10
-59.3287
 20
83.88530000000001
 30
0.0
 11
-57.64230000000001
 21
85.4832
 31
0.0
  0
LINE
  5
4F2
330
1E
100
AcDbEntity
  8
0
100
AcDbLine
 10
-59.4959
 20
82.53170000000002
 30
0.0
 11
-59.0823
 21
82.29700000000001
 31
0.0
  0
LINE
  5
4F5
330
1E
100
AcDbEntity
  8
0
100
AcDbLine
 10
-59.64790000000002
 20
83.50240000000001
 30
0.0
 11
-59.3287
 21
83.88530000000001
 31
0.0
  0
LINE
  5
4F6
330
1E
100
AcDbEntity
  8
0
100
AcDbLine
 10
-59.63750000000001
 20
82.69030000000002
 30
0.0
 11
-59.4959
 21
82.53170000000002
 31
0.0
  0
LINE
  5
4F7
330
1E
100
AcDbEntity
  8
0
100
AcDbLine
 10
-59.75030000000001
 20
82.98120000000002
 30
0.0
 11
-59.73269999999999
 21
83.29830000000002
 31
0.0
  0
LINE
  5
4F8
330
1E
100
AcDbEntity
  8
0
100
AcDbLine
 10
-59.75030000000001
 20
82.98120000000002
 30
0.0
 11
-59.63750000000001
 21
82.69030000000002
 31
0.0
  0
LINE
  5
4F9
330
1E
100
AcDbEntity
  8
0
100
AcDbLine
 10
-59.73269999999999
 20
83.29830000000002
 30
0.0
 11
-59.64790000000002
 21
83.50240000000001
 31
0.0
  0
LINE
  5
4FF
330
1E
100
AcDbEntity
  8
0
100
AcDbLine
 10
-54.0239
 20
88.39960000000001
 30
0.0
 11
-52.1063
 21
89.68740000000002
 31
0.0
  0
LINE
  5
500
330
1E
100
AcDbEntity
  8
0
100
AcDbLine
 10
-55.87190000000001
 20
86.99350000000002
 30
0.0
 11
-54.0239
 21
88.39960000000001
 31
0.0
  0
LINE
  5
503
330
1E
100
AcDbEntity
  8
0
100
AcDbLine
 10
-31.17109999999999
 20
70.78470000000002
 30
0.0
 11
-29.00390000000001
 21
71.59770000000001
 31
0.0
  0
LINE
  5
531
330
1E
100
AcDbEntity
  8
0
100
AcDbLine
 10
-35.17413929558702
 20
71.62926661409092
 30
0.0
 11
-33.1783
 21
70.73830000000002
 31
0.0
  0
LINE
  5
532
330
1E
100
AcDbEntity
  8
0
100
AcDbLine
 10
-36.37899999999999
 20
68.82989999999999
 30
0.0
 11
-35.16915048762252
 21
71.64085758258112
 31
0.0
  0
LINE
  5
542
330
1E
100
AcDbEntity
  8
0
100
AcDbLine
 10
-36.91089999999999
 20
68.61470000000001
 30
0.0
 11
-36.7037
 21
68.58490000000002
 31
0.0
  0
LINE
  5
543
330
1E
100
AcDbEntity
  8
0
100
AcDbLine
 10
-36.91670000000002
 20
68.61720000000001
 30
0.0
 11
-36.7098
 21
68.58740000000001
 31
0.0
  0
LINE
  5
544
330
1E
100
AcDbEntity
  8
0
100
AcDbLine
 10
-36.5085
 20
68.66360000000002
 30
0.0
 11
-36.37899999999999
 21
68.82989999999999
 31
0.0
  0
LINE
  5
545
330
1E
100
AcDbEntity
  8
0
100
AcDbLine
 10
-36.983
 20
68.64570000000002
 30
0.0
 11
-36.91089999999999
 21
68.61470000000001
 31
0.0
  0
LINE
  5
546
330
1E
100
AcDbEntity
  8
0
100
AcDbLine
 10
-37.15150000000003
 20
68.71790000000003
 30
0.0
 11
-36.983
 21
68.64570000000002
 31
0.0
  0
LINE
  5
547
330
1E
100
AcDbEntity
  8
0
100
AcDbLine
 10
-36.7037
 20
68.58490000000002
 30
0.0
 11
-36.5085
 21
68.66360000000002
 31
0.0
  0
LINE
  5
548
330
1E
100
AcDbEntity
  8
0
100
AcDbLine
 10
-33.1783
 20
70.73830000000002
 30
0.0
 11
-32.50550000000001
 21
70.50000000000001
 31
0.0
  0
LINE
  5
549
330
1E
100
AcDbEntity
  8
0
100
AcDbLine
 10
-31.84310000000002
 20
70.5219
 30
0.0
 11
-31.17109999999999
 21
70.78470000000002
 31
0.0
  0
LINE
  5
54A
330
1E
100
AcDbEntity
  8
0
100
AcDbLine
 10
-32.50550000000001
 20
70.50000000000001
 30
0.0
 11
-31.84310000000002
 21
70.5219
 31
0.0
  0
LINE
  5
54B
330
1E
100
AcDbEntity
  8
0
100
AcDbLine
 10
-21.3975
 20
72.6171
 30
0.0
 11
-18.6791
 21
72.66119999999999
 31
0.0
  0
LINE
  5
54C
330
1E
100
AcDbEntity
  8
0
100
AcDbLine
 10
-24.6903
 20
72.4413
 30
0.0
 11
-22.6175
 21
72.59730000000001
 31
0.0
  0
LINE
  5
550
330
1E
100
AcDbEntity
  8
0
100
AcDbLine
 10
-26.95110000000001
 20
72.09850000000002
 30
0.0
 11
-26.8279
 21
72.12860000000002
 31
0.0
  0
LINE
  5
553
330
1E
100
AcDbEntity
  8
0
100
AcDbLine
 10
-29.00390000000001
 20
71.59770000000001
 30
0.0
 11
-26.95110000000001
 21
72.09850000000002
 31
0.0
  0
LINE
  5
554
330
1E
100
AcDbEntity
  8
0
100
AcDbLine
 10
-26.8279
 20
72.12860000000002
 30
0.0
 11
-24.6903
 21
72.4413
 31
0.0
  0
LINE
  5
555
330
1E
100
AcDbEntity
  8
0
100
AcDbLine
 10
-22.6175
 20
72.59730000000001
 30
0.0
 11
-21.3975
 21
72.6171
 31
0.0
  0
LINE
  5
557
330
1E
100
AcDbEntity
  8
0
100
AcDbLine
 10
-31.45510000000001
 20
95.4404
 30
0.0
 11
-26.26790000000001
 21
95.50000000000002
 31
0.0
  0
LINE
  5
559
330
1E
100
AcDbEntity
  8
0
100
AcDbLine
 10
-40.97030000000001
 20
94.29720000000001
 30
0.0
 11
-38.0335
 21
94.85960000000002
 31
0.0
  0
LINE
  5
55C
330
1E
100
AcDbEntity
  8
0
100
AcDbLine
 10
-49.4503
 20
91.20470000000002
 30
0.0
 11
-46.69669999999999
 21
92.48110000000002
 31
0.0
  0
LINE
  5
55F
330
1E
100
AcDbEntity
  8
0
100
AcDbLine
 10
-46.69669999999999
 20
92.48110000000002
 30
0.0
 11
-43.86390000000003
 21
93.50960000000002
 31
0.0
  0
LINE
  5
560
330
1E
100
AcDbEntity
  8
0
100
AcDbLine
 10
-43.86390000000003
 20
93.50960000000002
 30
0.0
 11
-40.97030000000001
 21
94.29720000000001
 31
0.0
  0
LINE
  5
565
330
1E
100
AcDbEntity
  8
0
100
AcDbLine
 10
-38.0335
 20
94.85960000000002
 30
0.0
 11
-34.08549999999999
 21
95.3011
 31
0.0
  0
LINE
  5
569
330
1E
100
AcDbEntity
  8
0
100
AcDbLine
 10
-34.08549999999999
 20
95.3011
 30
0.0
 11
-31.45510000000001
 21
95.4404
 31
0.0
  0
LINE
  5
56E
330
1E
100
AcDbEntity
  8
0
100
AcDbLine
 10
-58.21459000000001
 20
77.78360000000002
 30
0.0
 11
-37.15150000000003
 21
68.71790000000003
 31
0.0
  0
LINE
  5
56F
330
1E
100
AcDbEntity
  8
0
100
AcDbLine
 10
-57.09093798608254
 20
81.4147878350681
 30
0.0
 11
-35.17413929558702
 21
71.62926661409092
 31
0.0
  0
ENDSEC
  0
SECTION
  2
OBJECTS
  0
DICTIONARY
  5
C
330
0
100
AcDbDictionary
281
     1
  3
ACAD_GROUP
350
D
  3
ACAD_LAYOUT
350
19
  3
ACAD_MLINESTYLE
350
16
  3
ACAD_PLOTSETTINGS
350
18
  3
ACAD_PLOTSTYLENAME
350
E
  3
AcDbVariableDictionary
350
3BF
  0
DICTIONARY
  5
D
102
{ACAD_REACTORS
330
C
102
}
330
C
100
AcDbDictionary
281
     1
  0
DICTIONARY
  5
19
102
{ACAD_REACTORS
330
C
102
}
330
C
100
AcDbDictionary
281
     1
  3
Layout1
350
1D
  3
Model
350
21
  0
DICTIONARY
  5
16
102
{ACAD_REACTORS
330
C
102
}
330
C
100
AcDbDictionary
281
     1
  3
Standard
350
17
  0
DICTIONARY
  5
18
102
{ACAD_REACTORS
330
C
102
}
330
C
100
AcDbDictionary
281
     1
  0
ACDBDICTIONARYWDFLT
  5
E
102
{ACAD_REACTORS
330
C
102
}
330
C
100
AcDbDictionary
281
     1
  3
Normal
350
F
100
AcDbDictionaryWithDefault
340
F
  0
DICTIONARY
  5
3BF
102
{ACAD_REACTORS
330
C
102
}
330
C
100
AcDbDictionary
281
     1
  3
DIMASSOC
350
3C0
  0
LAYOUT
  5
1D
102
{ACAD_REACTORS
330
19
102
}
330
19
100
AcDbPlotSettings
  1

  2
C:\Programme\AutoCAD LT 2002 Deu\plotters\DWF ePlot (optimized for plotting).pc3
  4

  6

 40
0.0
 41
0.0
 42
0.0
 43
0.0
 44
0.0
 45
0.0
 46
0.0
 47
0.0
 48
0.0
 49
0.0
140
0.0
141
0.0
142
1.0
143
1.0
 70
   688
 72
     0
 73
     0
 74
     5
  7

 75
    16
147
1.0
148
0.0
149
0.0
100
AcDbLayout
  1
Layout1
 70
     1
 71
     1
 10
0.0
 20
0.0
 11
12.0
 21
9.0
 12
0.0
 22
0.0
 32
0.0
 14
1.000000000000000E+20
 24
1.000000000000000E+20
 34
1.000000000000000E+20
 15
-1.000000000000000E+20
 25
-1.000000000000000E+20
 35
-1.000000000000000E+20
146
0.0
 13
0.0
 23
0.0
 33
0.0
 16
1.0
 26
0.0
 36
0.0
 17
0.0
 27
1.0
 37
0.0
 76
     0
330
1A
  0
LAYOUT
  5
21
102
{ACAD_REACTORS
330
19
102
}
330
19
100
AcDbPlotSettings
  1

  2
C:\Programme\AutoCAD LT 2002 Deu\plotters\DWF ePlot (optimized for plotting).pc3
  4

  6

 40
0.0
 41
0.0
 42
0.0
 43
0.0
 44
0.0
 45
0.0
 46
0.0
 47
0.0
 48
0.0
 49
0.0
140
0.0
141
0.0
142
1.0
143
1.0
 70
  1712
 72
     0
 73
     0
 74
     0
  7

 75
     0
147
1.0
148
0.0
149
0.0
100
AcDbLayout
  1
Model
 70
     1
 71
     0
 10
0.0
 20
0.0
 11
12.0
 21
9.0
 12
0.0
 22
0.0
 32
0.0
 14
0.0
 24
0.0
 34
0.0
 15
0.0
 25
0.0
 35
0.0
146
0.0
 13
0.0
 23
0.0
 33
0.0
 16
1.0
 26
0.0
 36
0.0
 17
0.0
 27
1.0
 37
0.0
 76
     0
330
1E
  0
MLINESTYLE
  5
17
102
{ACAD_REACTORS
330
16
102
}
330
16
100
AcDbMlineStyle
  2
STANDARD
 70
     0
  3

 62
   256
 51
90.0
 52
90.0
 71
     2
 49
0.5
 62
   256
  6
BYLAYER
 49
-0.5
 62
   256
  6
BYLAYER
  0
ACDBPLACEHOLDER
  5
F
102
{ACAD_REACTORS
330
E
102
}
330
E
  0
DICTIONARYVAR
  5
3C0
102
{ACAD_REACTORS
330
3BF
102
}
330
3BF
100
DictionaryVariables
280
     0
  1
1
  0
ENDSEC
  0
EOF
