  0
SECTION
  2
HEADER
  9
$ACADVER
  1
AC1015
  9
$ACADMAINTVER
 70
    13
  9
$DWGCODEPAGE
  3
ANSI_1252
  9
$INSBASE
 10
0.0
 20
0.0
 30
0.0
  9
$EXTMIN
 10
0.0001500000000123
 20
0.0000000000000006
 30
0.0
  9
$EXTMAX
 10
167.99985
 20
118.0
 30
0.0
  9
$LIMMIN
 10
0.0
 20
0.0
  9
$LIMMAX
 10
12.0
 20
9.0
  9
$ORTHOMODE
 70
     0
  9
$REGENMODE
 70
     1
  9
$FILLMODE
 70
     1
  9
$QTEXTMODE
 70
     0
  9
$MIRRTEXT
 70
     1
  9
$LTSCALE
 40
1.0
  9
$ATTMODE
 70
     1
  9
$TEXTSIZE
 40
0.2
  9
$TRACEWID
 40
0.05
  9
$TEXTSTYLE
  7
Standard
  9
$CLAYER
  8
0
  9
$CELTYPE
  6
Continuous
  9
$CECOLOR
 62
   256
  9
$CELTSCALE
 40
1.0
  9
$DISPSILH
 70
     0
  9
$DIMSCALE
 40
1.0
  9
$DIMASZ
 40
0.18
  9
$DIMEXO
 40
0.0625
  9
$DIMDLI
 40
0.38
  9
$DIMRND
 40
0.0
  9
$DIMDLE
 40
0.0
  9
$DIMEXE
 40
0.18
  9
$DIMTP
 40
0.0
  9
$DIMTM
 40
0.0
  9
$DIMTXT
 40
0.18
  9
$DIMCEN
 40
0.09
  9
$DIMTSZ
 40
0.0
  9
$DIMTOL
 70
     0
  9
$DIMLIM
 70
     0
  9
$DIMTIH
 70
     1
  9
$DIMTOH
 70
     1
  9
$DIMSE1
 70
     0
  9
$DIMSE2
 70
     0
  9
$DIMTAD
 70
     0
  9
$DIMZIN
 70
     0
  9
$DIMBLK
  1

  9
$DIMASO
 70
     1
  9
$DIMSHO
 70
     1
  9
$DIMPOST
  1

  9
$DIMAPOST
  1

  9
$DIMALT
 70
     0
  9
$DIMALTD
 70
     2
  9
$DIMALTF
 40
25.4
  9
$DIMLFAC
 40
1.0
  9
$DIMTOFL
 70
     0
  9
$DIMTVP
 40
0.0
  9
$DIMTIX
 70
     0
  9
$DIMSOXD
 70
     0
  9
$DIMSAH
 70
     0
  9
$DIMBLK1
  1

  9
$DIMBLK2
  1

  9
$DIMSTYLE
  2
Standard
  9
$DIMCLRD
 70
     0
  9
$DIMCLRE
 70
     0
  9
$DIMCLRT
 70
     0
  9
$DIMTFAC
 40
1.0
  9
$DIMGAP
 40
0.09
  9
$DIMJUST
 70
     0
  9
$DIMSD1
 70
     0
  9
$DIMSD2
 70
     0
  9
$DIMTOLJ
 70
     1
  9
$DIMTZIN
 70
     0
  9
$DIMALTZ
 70
     0
  9
$DIMALTTZ
 70
     0
  9
$DIMUPT
 70
     0
  9
$DIMDEC
 70
     4
  9
$DIMTDEC
 70
     4
  9
$DIMALTU
 70
     2
  9
$DIMALTTD
 70
     2
  9
$DIMTXSTY
  7
Standard
  9
$DIMAUNIT
 70
     0
  9
$DIMADEC
 70
     0
  9
$DIMALTRND
 40
0.0
  9
$DIMAZIN
 70
     0
  9
$DIMDSEP
 70
    46
  9
$DIMATFIT
 70
     3
  9
$DIMFRAC
 70
     0
  9
$DIMLDRBLK
  1

  9
$DIMLUNIT
 70
     2
  9
$DIMLWD
 70
    -2
  9
$DIMLWE
 70
    -2
  9
$DIMTMOVE
 70
     0
  9
$LUNITS
 70
     2
  9
$LUPREC
 70
     4
  9
$SKETCHINC
 40
0.1
  9
$FILLETRAD
 40
0.0
  9
$AUNITS
 70
     0
  9
$AUPREC
 70
     0
  9
$MENU
  1
.
  9
$ELEVATION
 40
0.0
  9
$PELEVATION
 40
0.0
  9
$THICKNESS
 40
0.0
  9
$LIMCHECK
 70
     0
  9
$CHAMFERA
 40
0.0
  9
$CHAMFERB
 40
0.0
  9
$CHAMFERC
 40
0.0
  9
$CHAMFERD
 40
0.0
  9
$SKPOLY
 70
     0
  9
$TDCREATE
 40
2455653.938685255
  9
$TDUCREATE
 40
2455653.855351921
  9
$TDUPDATE
 40
2455653.945757013
  9
$TDUUPDATE
 40
2455653.862423680
  9
$TDINDWG
 40
0.0070717593
  9
$TDUSRTIMER
 40
0.0070717593
  9
$USRTIMER
 70
     1
  9
$ANGBASE
 50
0.0
  9
$ANGDIR
 70
     0
  9
$PDMODE
 70
     0
  9
$PDSIZE
 40
0.0
  9
$PLINEWID
 40
0.0
  9
$SPLFRAME
 70
     0
  9
$SPLINETYPE
 70
     6
  9
$SPLINESEGS
 70
     8
  9
$HANDSEED
  5
30F
  9
$SURFTAB1
 70
     6
  9
$SURFTAB2
 70
     6
  9
$SURFTYPE
 70
     6
  9
$SURFU
 70
     6
  9
$SURFV
 70
     6
  9
$UCSBASE
  2

  9
$UCSNAME
  2

  9
$UCSORG
 10
0.0
 20
0.0
 30
0.0
  9
$UCSXDIR
 10
1.0
 20
0.0
 30
0.0
  9
$UCSYDIR
 10
0.0
 20
1.0
 30
0.0
  9
$UCSORTHOREF
  2

  9
$UCSORTHOVIEW
 70
     1
  9
$UCSORGTOP
 10
0.0
 20
0.0
 30
0.0
  9
$UCSORGBOTTOM
 10
0.0
 20
0.0
 30
0.0
  9
$UCSORGLEFT
 10
0.0
 20
0.0
 30
0.0
  9
$UCSORGRIGHT
 10
0.0
 20
0.0
 30
0.0
  9
$UCSORGFRONT
 10
0.0
 20
0.0
 30
0.0
  9
$UCSORGBACK
 10
0.0
 20
0.0
 30
0.0
  9
$PUCSBASE
  2

  9
$PUCSNAME
  2

  9
$PUCSORG
 10
0.0
 20
0.0
 30
0.0
  9
$PUCSXDIR
 10
1.0
 20
0.0
 30
0.0
  9
$PUCSYDIR
 10
0.0
 20
1.0
 30
0.0
  9
$PUCSORTHOREF
  2

  9
$PUCSORTHOVIEW
 70
     0
  9
$PUCSORGTOP
 10
0.0
 20
0.0
 30
0.0
  9
$PUCSORGBOTTOM
 10
0.0
 20
0.0
 30
0.0
  9
$PUCSORGLEFT
 10
0.0
 20
0.0
 30
0.0
  9
$PUCSORGRIGHT
 10
0.0
 20
0.0
 30
0.0
  9
$PUCSORGFRONT
 10
0.0
 20
0.0
 30
0.0
  9
$PUCSORGBACK
 10
0.0
 20
0.0
 30
0.0
  9
$USERI1
 70
     0
  9
$USERI2
 70
     0
  9
$USERI3
 70
     0
  9
$USERI4
 70
     0
  9
$USERI5
 70
     0
  9
$USERR1
 40
0.0
  9
$USERR2
 40
0.0
  9
$USERR3
 40
0.0
  9
$USERR4
 40
0.0
  9
$USERR5
 40
0.0
  9
$WORLDVIEW
 70
     1
  9
$SHADEDGE
 70
     3
  9
$SHADEDIF
 70
    70
  9
$TILEMODE
 70
     1
  9
$MAXACTVP
 70
    64
  9
$PINSBASE
 10
0.0
 20
0.0
 30
0.0
  9
$PLIMCHECK
 70
     0
  9
$PEXTMIN
 10
1.000000000000000E+20
 20
1.000000000000000E+20
 30
1.000000000000000E+20
  9
$PEXTMAX
 10
-1.000000000000000E+20
 20
-1.000000000000000E+20
 30
-1.000000000000000E+20
  9
$PLIMMIN
 10
0.0
 20
0.0
  9
$PLIMMAX
 10
12.0
 20
9.0
  9
$UNITMODE
 70
     0
  9
$VISRETAIN
 70
     1
  9
$PLINEGEN
 70
     0
  9
$PSLTSCALE
 70
     1
  9
$TREEDEPTH
 70
  3020
  9
$CMLSTYLE
  2
Standard
  9
$CMLJUST
 70
     0
  9
$CMLSCALE
 40
1.0
  9
$PROXYGRAPHICS
 70
     1
  9
$MEASUREMENT
 70
     0
  9
$CELWEIGHT
370
    -1
  9
$ENDCAPS
280
     0
  9
$JOINSTYLE
280
     0
  9
$LWDISPLAY
290
     0
  9
$INSUNITS
 70
     0
  9
$HYPERLINKBASE
  1

  9
$STYLESHEET
  1

  9
$XEDIT
290
     1
  9
$CEPSNTYPE
380
     0
  9
$PSTYLEMODE
290
     1
  9
$FINGERPRINTGUID
  2
{54FB687E-FD1D-4756-9D32-DF81A18A3CEF}
  9
$VERSIONGUID
  2
{D2D86E99-18F3-4787-8570-A58D32952E8E}
  9
$EXTNAMES
290
     1
  9
$PSVPSCALE
 40
0.0
  9
$OLESTARTUP
290
     0
  0
ENDSEC
  0
SECTION
  2
CLASSES
  0
CLASS
  1
ACDBDICTIONARYWDFLT
  2
AcDbDictionaryWithDefault
  3
AutoCAD 2000
 90
        0
280
     0
281
     0
  0
CLASS
  1
ACDBPLACEHOLDER
  2
AcDbPlaceHolder
  3
AutoCAD 2000
 90
        0
280
     0
281
     0
  0
CLASS
  1
LAYOUT
  2
AcDbLayout
  3
AutoCAD 2000
 90
        0
280
     0
281
     0
  0
CLASS
  1
DICTIONARYVAR
  2
AcDbDictionaryVar
  3
AutoCAD 2000
 90
        0
280
     0
281
     0
  0
ENDSEC
  0
SECTION
  2
TABLES
  0
TABLE
  2
VPORT
  5
8
330
0
100
AcDbSymbolTable
 70
     8
  0
VPORT
  5
30E
330
8
100
AcDbSymbolTableRecord
100
AcDbViewportTableRecord
  2
*Active
 70
     0
 10
0.0
 20
0.0
 11
1.0
 21
1.0
 12
84.00000000000002
 22
59.0
 13
0.0
 23
0.0
 14
1.0
 24
1.0
 15
0.0
 25
0.0
 16
0.0
 26
0.0
 36
1.0
 17
0.0
 27
0.0
 37
0.0
 40
118.7981961668545
 41
2.073363431151241
 42
50.0
 43
0.0
 44
0.0
 50
0.0
 51
0.0
 71
     0
 72
   100
 73
     1
 74
     3
 75
     0
 76
     0
 77
     0
 78
     0
281
     0
 65
     1
110
0.0
120
0.0
130
0.0
111
1.0
121
0.0
131
0.0
112
0.0
122
1.0
132
0.0
 79
     1
146
0.0
  0
ENDTAB
  0
TABLE
  2
LTYPE
  5
5
330
0
100
AcDbSymbolTable
 70
     1
  0
LTYPE
  5
13
330
5
100
AcDbSymbolTableRecord
100
AcDbLinetypeTableRecord
  2
ByBlock
 70
     0
  3

 72
    65
 73
     0
 40
0.0
  0
LTYPE
  5
14
330
5
100
AcDbSymbolTableRecord
100
AcDbLinetypeTableRecord
  2
ByLayer
 70
     0
  3

 72
    65
 73
     0
 40
0.0
  0
LTYPE
  5
15
330
5
100
AcDbSymbolTableRecord
100
AcDbLinetypeTableRecord
  2
Continuous
 70
     0
  3
Solid line
 72
    65
 73
     0
 40
0.0
  0
ENDTAB
  0
TABLE
  2
LAYER
  5
2
330
0
100
AcDbSymbolTable
 70
     1
  0
LAYER
  5
10
330
2
100
AcDbSymbolTableRecord
100
AcDbLayerTableRecord
  2
0
 70
     0
 62
     7
  6
Continuous
370
    -3
390
F
  0
ENDTAB
  0
TABLE
  2
STYLE
  5
3
330
0
100
AcDbSymbolTable
 70
     1
  0
STYLE
  5
11
330
3
100
AcDbSymbolTableRecord
100
AcDbTextStyleTableRecord
  2
Standard
 70
     0
 40
0.0
 41
1.0
 50
0.0
 71
     0
 42
0.2
  3
txt
  4

  0
ENDTAB
  0
TABLE
  2
VIEW
  5
6
330
0
100
AcDbSymbolTable
 70
     0
  0
ENDTAB
  0
TABLE
  2
UCS
  5
7
330
0
100
AcDbSymbolTable
 70
     0
  0
ENDTAB
  0
TABLE
  2
APPID
  5
9
330
0
100
AcDbSymbolTable
 70
     1
  0
APPID
  5
12
330
9
100
AcDbSymbolTableRecord
100
AcDbRegAppTableRecord
  2
ACAD
 70
     0
  0
ENDTAB
  0
TABLE
  2
DIMSTYLE
  5
A
330
0
100
AcDbSymbolTable
 70
     1
100
AcDbDimStyleTable
 71
     0
  0
DIMSTYLE
105
2F4
330
A
100
AcDbSymbolTableRecord
100
AcDbDimStyleTableRecord
  2
Standard
 70
     0
340
11
  0
ENDTAB
  0
TABLE
  2
BLOCK_RECORD
  5
1
330
0
100
AcDbSymbolTable
 70
     0
  0
BLOCK_RECORD
  5
1E
330
1
100
AcDbSymbolTableRecord
100
AcDbBlockTableRecord
  2
*Model_Space
340
21
  0
BLOCK_RECORD
  5
1A
330
1
100
AcDbSymbolTableRecord
100
AcDbBlockTableRecord
  2
*Paper_Space
340
1D
  0
ENDTAB
  0
ENDSEC
  0
SECTION
  2
BLOCKS
  0
BLOCK
  5
1F
330
1E
100
AcDbEntity
  8
0
100
AcDbBlockBegin
  2
*Model_Space
 70
     0
 10
0.0
 20
0.0
 30
0.0
  3
*Model_Space
  1

  0
ENDBLK
  5
20
330
1E
100
AcDbEntity
  8
0
100
AcDbBlockEnd
  0
BLOCK
  5
1B
330
1A
100
AcDbEntity
 67
     1
  8
0
100
AcDbBlockBegin
  2
*Paper_Space
 70
     0
 10
0.0
 20
0.0
 30
0.0
  3
*Paper_Space
  1

  0
ENDBLK
  5
1C
330
1A
100
AcDbEntity
 67
     1
  8
0
100
AcDbBlockEnd
  0
ENDSEC
  0
SECTION
  2
ENTITIES
  0
LINE
  5
22
330
1E
100
AcDbEntity
  8
0
100
AcDbLine
 10
6.171560000000009
 20
50.0
 30
0.0
 11
84.00015000000001
 21
50.0
 31
0.0
  0
LINE
  5
23
330
1E
100
AcDbEntity
  8
0
100
AcDbLine
 10
4.967210000000009
 20
50.01689999999999
 30
0.0
 11
6.171560000000009
 21
50.0
 31
0.0
  0
LINE
  5
24
330
1E
100
AcDbEntity
  8
0
100
AcDbLine
 10
3.766850000000009
 20
50.11639999999999
 30
0.0
 11
4.967210000000009
 21
50.01689999999999
 31
0.0
  0
LINE
  5
25
330
1E
100
AcDbEntity
  8
0
100
AcDbLine
 10
2.801980000000009
 20
50.3242
 30
0.0
 11
3.766850000000009
 21
50.11639999999999
 31
0.0
  0
LINE
  5
26
330
1E
100
AcDbEntity
  8
0
100
AcDbLine
 10
0.0849630000000124
 20
54.0002
 30
0.0
 11
0.178757000000012
 21
53.3865
 31
0.0
  0
LINE
  5
27
330
1E
100
AcDbEntity
  8
0
100
AcDbLine
 10
0.0121240000000124
 20
55.0743
 30
0.0
 11
0.0849630000000124
 21
54.0002
 31
0.0
  0
LINE
  5
28
330
1E
100
AcDbEntity
  8
0
100
AcDbLine
 10
0.178757000000012
 20
53.3865
 30
0.0
 11
0.4072530000000121
 21
52.5461
 31
0.0
  0
LINE
  5
29
330
1E
100
AcDbEntity
  8
0
100
AcDbLine
 10
0.4072530000000121
 20
52.5461
 30
0.0
 11
0.7584800000000121
 21
51.8151
 31
0.0
  0
LINE
  5
2A
330
1E
100
AcDbEntity
  8
0
100
AcDbLine
 10
0.7584800000000121
 20
51.8151
 30
0.0
 11
1.104720000000009
 21
51.35159999999999
 31
0.0
  0
LINE
  5
2B
330
1E
100
AcDbEntity
  8
0
100
AcDbLine
 10
22.23854999999999
 20
73.0111
 30
0.0
 11
22.29204999999999
 21
72.827
 31
0.0
  0
LINE
  5
2C
330
1E
100
AcDbEntity
  8
0
100
AcDbLine
 10
22.29204999999999
 20
72.827
 30
0.0
 11
22.48075
 21
72.38249999999999
 31
0.0
  0
LINE
  5
2D
330
1E
100
AcDbEntity
  8
0
100
AcDbLine
 10
22.48075
 20
72.38249999999999
 30
0.0
 11
22.77435
 21
71.9489
 31
0.0
  0
LINE
  5
2F
330
1E
100
AcDbEntity
  8
0
100
AcDbLine
 10
22.77435
 20
71.9489
 30
0.0
 11
23.17184999999999
 21
71.527
 31
0.0
  0
LINE
  5
30
330
1E
100
AcDbEntity
  8
0
100
AcDbLine
 10
23.17184999999999
 20
71.527
 30
0.0
 11
23.30805
 21
71.41339999999999
 31
0.0
  0
LINE
  5
35
330
1E
100
AcDbEntity
  8
0
100
AcDbLine
 10
23.93664999999999
 20
72.9679
 30
0.0
 11
24.04865
 21
72.5598
 31
0.0
  0
LINE
  5
36
330
1E
100
AcDbEntity
  8
0
100
AcDbLine
 10
23.30805
 20
71.41339999999999
 30
0.0
 11
23.79834999999999
 21
71.0147
 31
0.0
  0
LINE
  5
37
330
1E
100
AcDbEntity
  8
0
100
AcDbLine
 10
23.79834999999999
 20
71.0147
 30
0.0
 11
24.38254999999999
 21
70.6353
 31
0.0
  0
LINE
  5
38
330
1E
100
AcDbEntity
  8
0
100
AcDbLine
 10
1.79021000000001
 20
50.7748
 30
0.0
 11
2.06859000000001
 21
50.61659999999999
 31
0.0
  0
LINE
  5
39
330
1E
100
AcDbEntity
  8
0
100
AcDbLine
 10
1.104720000000009
 20
51.35159999999999
 30
0.0
 11
1.79021000000001
 21
50.7748
 31
0.0
  0
LINE
  5
3A
330
1E
100
AcDbEntity
  8
0
100
AcDbLine
 10
2.06859000000001
 20
50.61659999999999
 30
0.0
 11
2.801980000000009
 21
50.3242
 31
0.0
  0
LINE
  5
3B
330
1E
100
AcDbEntity
  8
0
100
AcDbLine
 10
0.0001500000000123
 20
56.1514
 30
0.0
 11
0.0001500000000123
 21
111.8479999999999
 31
0.0
  0
LINE
  5
3C
330
1E
100
AcDbEntity
  8
0
100
AcDbLine
 10
0.0001500000000123
 20
56.1514
 30
0.0
 11
0.0121240000000124
 21
55.0743
 31
0.0
  0
LINE
  5
3D
330
1E
100
AcDbEntity
  8
0
100
AcDbLine
 10
22.15685
 20
73.68529999999999
 30
0.0
 11
22.16365
 21
73.5732
 31
0.0
  0
LINE
  5
3E
330
1E
100
AcDbEntity
  8
0
100
AcDbLine
 10
22.15685
 20
73.68529999999999
 30
0.0
 11
22.15685
 21
79.3048
 31
0.0
  0
LINE
  5
40
330
1E
100
AcDbEntity
  8
0
100
AcDbLine
 10
22.16365
 20
73.6618680733945
 30
0.0
 11
22.16365
 21
73.5732
 31
0.0
  0
LINE
  5
41
330
1E
100
AcDbEntity
  8
0
100
AcDbLine
 10
22.16365
 20
73.5732
 30
0.0
 11
22.16365
 21
73.6618680733945
 31
0.0
  0
LINE
  5
42
330
1E
100
AcDbEntity
  8
0
100
AcDbLine
 10
22.15685
 20
73.46210000000001
 30
0.0
 11
22.23854999999999
 21
73.0111
 31
0.0
  0
LINE
  5
43
330
1E
100
AcDbEntity
  8
0
100
AcDbLine
 10
22.15685
 20
73.46210000000001
 30
0.0
 11
22.15685
 21
79.0817
 31
0.0
  0
LINE
  5
48
330
1E
100
AcDbEntity
  8
0
100
AcDbLine
 10
23.93264999999999
 20
73.19880000000001
 30
0.0
 11
23.93664999999999
 21
73.4317
 31
0.0
  0
LINE
  5
49
330
1E
100
AcDbEntity
  8
0
100
AcDbLine
 10
23.93264999999999
 20
73.19880000000001
 30
0.0
 11
23.93664999999999
 21
72.9679
 31
0.0
  0
LINE
  5
4A
330
1E
100
AcDbEntity
  8
0
100
AcDbLine
 10
23.9881435631361
 20
72.780270329323
 30
0.0
 11
24.16665
 21
72.3631
 31
0.0
  0
LINE
  5
4B
330
1E
100
AcDbEntity
  8
0
100
AcDbLine
 10
23.98505
 20
72.79154250000001
 30
0.0
 11
23.98505
 21
73.6076253571429
 31
0.0
  0
LINE
  5
4C
330
1E
100
AcDbEntity
  8
0
100
AcDbLine
 10
23.98505
 20
73.6076253571429
 30
0.0
 11
23.98505
 21
72.79154250000001
 31
0.0
  0
LINE
  5
4D
330
1E
100
AcDbEntity
  8
0
100
AcDbLine
 10
23.9861594339623
 20
72.78749999999999
 30
0.0
 11
25.40865
 21
72.78749999999999
 31
0.0
  0
LINE
  5
4E
330
1E
100
AcDbEntity
  8
0
100
AcDbLine
 10
24.45925
 20
71.94849999999999
 30
0.0
 11
24.86285
 21
71.5491
 31
0.0
  0
LINE
  5
4F
330
1E
100
AcDbEntity
  8
0
100
AcDbLine
 10
24.16665
 20
72.3631
 30
0.0
 11
24.45925
 21
71.94849999999999
 31
0.0
  0
LINE
  5
50
330
1E
100
AcDbEntity
  8
0
100
AcDbLine
 10
24.04865
 20
72.5598
 30
0.0
 11
24.26355
 21
72.15810000000001
 31
0.0
  0
LINE
  5
51
330
1E
100
AcDbEntity
  8
0
100
AcDbLine
 10
24.26355
 20
72.15810000000001
 30
0.0
 11
24.58135
 21
71.7685
 31
0.0
  0
LINE
  5
52
330
1E
100
AcDbEntity
  8
0
100
AcDbLine
 10
24.86285
 20
71.5491
 30
0.0
 11
25.37135
 21
71.1683
 31
0.0
  0
LINE
  5
53
330
1E
100
AcDbEntity
  8
0
100
AcDbLine
 10
24.58135
 20
71.7685
 30
0.0
 11
24.99605
 21
71.39199999999999
 31
0.0
  0
LINE
  5
54
330
1E
100
AcDbEntity
  8
0
100
AcDbLine
 10
24.38254999999999
 20
70.6353
 30
0.0
 11
25.05555
 21
70.27930000000001
 31
0.0
  0
LINE
  5
55
330
1E
100
AcDbEntity
  8
0
100
AcDbLine
 10
25.37135
 20
71.1683
 30
0.0
 11
25.97875
 21
70.81189999999999
 31
0.0
  0
LINE
  5
56
330
1E
100
AcDbEntity
  8
0
100
AcDbLine
 10
25.05555
 20
70.27930000000001
 30
0.0
 11
25.81125
 21
69.9513
 31
0.0
  0
LINE
  5
57
330
1E
100
AcDbEntity
  8
0
100
AcDbLine
 10
24.99605
 20
71.39199999999999
 30
0.0
 11
25.50555
 21
71.0356
 31
0.0
  0
LINE
  5
58
330
1E
100
AcDbEntity
  8
0
100
AcDbLine
 10
25.97875
 20
70.81189999999999
 30
0.0
 11
26.67895
 21
70.48180000000001
 31
0.0
  0
LINE
  5
59
330
1E
100
AcDbEntity
  8
0
100
AcDbLine
 10
26.10485
 20
70.7001
 30
0.0
 11
26.78485
 21
70.3905
 31
0.0
  0
LINE
  5
5A
330
1E
100
AcDbEntity
  8
0
100
AcDbLine
 10
25.81125
 20
69.9513
 30
0.0
 11
26.64255
 21
69.65219999999999
 31
0.0
  0
LINE
  5
5B
330
1E
100
AcDbEntity
  8
0
100
AcDbLine
 10
27.46385
 20
70.1836
 30
0.0
 11
28.32454999999999
 21
69.9202
 31
0.0
  0
LINE
  5
5C
330
1E
100
AcDbEntity
  8
0
100
AcDbLine
 10
26.67895
 20
70.48180000000001
 30
0.0
 11
27.46385
 21
70.1836
 31
0.0
  0
LINE
  5
5D
330
1E
100
AcDbEntity
  8
0
100
AcDbLine
 10
26.78485
 20
70.3905
 30
0.0
 11
27.54155
 21
70.11029999999999
 31
0.0
  0
LINE
  5
5E
330
1E
100
AcDbEntity
  8
0
100
AcDbLine
 10
27.54155
 20
70.11029999999999
 30
0.0
 11
28.36685
 21
69.8613
 31
0.0
  0
LINE
  5
5F
330
1E
100
AcDbEntity
  8
0
100
AcDbLine
 10
27.54155
 20
69.3862
 30
0.0
 11
28.50105
 21
69.15519999999999
 31
0.0
  0
LINE
  5
60
330
1E
100
AcDbEntity
  8
0
100
AcDbLine
 10
26.64255
 20
69.65219999999999
 30
0.0
 11
27.54155
 21
69.3862
 31
0.0
  0
LINE
  5
61
330
1E
100
AcDbEntity
  8
0
100
AcDbLine
 10
26.63054999999999
 20
71.4245
 30
0.0
 11
27.15115
 21
71.12439999999999
 31
0.0
  0
LINE
  5
62
330
1E
100
AcDbEntity
  8
0
100
AcDbLine
 10
26.19055
 20
71.7444
 30
0.0
 11
26.63054999999999
 21
71.4245
 31
0.0
  0
LINE
  5
63
330
1E
100
AcDbEntity
  8
0
100
AcDbLine
 10
25.83845
 20
72.08079999999999
 30
0.0
 11
26.19055
 21
71.7444
 31
0.0
  0
LINE
  5
64
330
1E
100
AcDbEntity
  8
0
100
AcDbLine
 10
25.57714999999999
 20
72.4298
 30
0.0
 11
25.83845
 21
72.08079999999999
 31
0.0
  0
LINE
  5
65
330
1E
100
AcDbEntity
  8
0
100
AcDbLine
 10
27.15115
 20
71.12439999999999
 30
0.0
 11
27.74735
 21
70.848
 31
0.0
  0
LINE
  5
66
330
1E
100
AcDbEntity
  8
0
100
AcDbLine
 10
25.40865
 20
72.78749999999999
 30
0.0
 11
25.40865
 21
73.7048
 31
0.0
  0
LINE
  5
67
330
1E
100
AcDbEntity
  8
0
100
AcDbLine
 10
25.40865
 20
72.78749999999999
 30
0.0
 11
25.57714999999999
 21
72.4298
 31
0.0
  0
LINE
  5
68
330
1E
100
AcDbEntity
  8
0
100
AcDbLine
 10
25.50555
 20
71.0356
 30
0.0
 11
26.10485
 21
70.7001
 31
0.0
  0
LINE
  5
69
330
1E
100
AcDbEntity
  8
0
100
AcDbLine
 10
24.0117843650209
 20
73.7048
 30
0.0
 11
25.40865
 21
73.7048
 31
0.0
  0
LINE
  5
6A
330
1E
100
AcDbEntity
  8
0
100
AcDbLine
 10
25.40865
 20
73.7048
 30
0.0
 11
25.57714999999999
 21
74.0626
 31
0.0
  0
LINE
  5
6B
330
1E
100
AcDbEntity
  8
0
100
AcDbLine
 10
25.40865
 20
73.7048
 30
0.0
 11
25.40865
 21
72.78749999999999
 31
0.0
  0
LINE
  5
6C
330
1E
100
AcDbEntity
  8
0
100
AcDbLine
 10
23.93664999999999
 20
73.4317
 30
0.0
 11
24.04865
 21
73.83880000000001
 31
0.0
  0
LINE
  5
6D
330
1E
100
AcDbEntity
  8
0
100
AcDbLine
 10
0.0001500000000123
 20
111.8479999999999
 30
0.0
 11
0.0161150000000124
 21
113.0489999999999
 31
0.0
  0
LINE
  5
6E
330
1E
100
AcDbEntity
  8
0
100
AcDbLine
 10
0.0161150000000124
 20
113.0489999999999
 30
0.0
 11
0.116893000000012
 21
114.244
 31
0.0
  0
LINE
  5
6F
330
1E
100
AcDbEntity
  8
0
100
AcDbLine
 10
0.116893000000012
 20
114.244
 30
0.0
 11
0.3244360000000119
 21
115.206
 31
0.0
  0
LINE
  5
70
330
1E
100
AcDbEntity
  8
0
100
AcDbLine
 10
0.3244360000000119
 20
115.206
 30
0.0
 11
0.6187880000000121
 21
115.937
 31
0.0
  0
LINE
  5
71
330
1E
100
AcDbEntity
  8
0
100
AcDbLine
 10
17.29575
 20
81.3061
 30
0.0
 11
17.31234999999999
 21
80.77530000000001
 31
0.0
  0
LINE
  5
75
330
1E
100
AcDbEntity
  8
0
100
AcDbLine
 10
17.29435
 20
81.6233
 30
0.0
 11
17.29865
 21
82.4248
 31
0.0
  0
LINE
  5
76
330
1E
100
AcDbEntity
  8
0
100
AcDbLine
 10
17.29435
 20
81.6233
 30
0.0
 11
17.29575
 21
81.3061
 31
0.0
  0
LINE
  5
77
330
1E
100
AcDbEntity
  8
0
100
AcDbLine
 10
17.33035
 20
80.59739999999999
 30
0.0
 11
17.37435
 21
80.28730000000001
 31
0.0
  0
LINE
  5
78
330
1E
100
AcDbEntity
  8
0
100
AcDbLine
 10
17.37435
 20
80.28730000000001
 30
0.0
 11
17.51935
 21
79.68980000000001
 31
0.0
  0
LINE
  5
79
330
1E
100
AcDbEntity
  8
0
100
AcDbLine
 10
17.31234999999999
 20
80.77530000000001
 30
0.0
 11
17.33035
 21
80.59739999999999
 31
0.0
  0
LINE
  5
7B
330
1E
100
AcDbEntity
  8
0
100
AcDbLine
 10
17.30154999999999
 20
83.1231
 30
0.0
 11
17.30225
 21
82.77269999999999
 31
0.0
  0
LINE
  5
7C
330
1E
100
AcDbEntity
  8
0
100
AcDbLine
 10
17.30154999999999
 20
83.1231
 30
0.0
 11
17.29725
 21
84.97329999999999
 31
0.0
  0
LINE
  5
7D
330
1E
100
AcDbEntity
  8
0
100
AcDbLine
 10
17.29865
 20
82.4248
 30
0.0
 11
17.30225
 21
82.77269999999999
 31
0.0
  0
LINE
  5
80
330
1E
100
AcDbEntity
  8
0
100
AcDbLine
 10
16.92215
 20
92.81170000000001
 30
0.0
 11
17.29725
 21
84.97329999999999
 31
0.0
  0
LINE
  5
84
330
1E
100
AcDbEntity
  8
0
100
AcDbLine
 10
17.92964999999999
 20
78.72969999999999
 30
0.0
 11
18.21815
 21
78.2531
 31
0.0
  0
LINE
  5
85
330
1E
100
AcDbEntity
  8
0
100
AcDbLine
 10
18.21815
 20
78.2531
 30
0.0
 11
18.48785
 21
77.85540000000001
 31
0.0
  0
LINE
  5
86
330
1E
100
AcDbEntity
  8
0
100
AcDbLine
 10
18.48785
 20
77.85540000000001
 30
0.0
 11
18.80885
 21
77.4427
 31
0.0
  0
LINE
  5
87
330
1E
100
AcDbEntity
  8
0
100
AcDbLine
 10
18.80885
 20
77.4427
 30
0.0
 11
19.21845
 21
77.01260000000001
 31
0.0
  0
LINE
  5
8A
330
1E
100
AcDbEntity
  8
0
100
AcDbLine
 10
17.51935
 20
79.68980000000001
 30
0.0
 11
17.66715
 21
79.2754
 31
0.0
  0
LINE
  5
8B
330
1E
100
AcDbEntity
  8
0
100
AcDbLine
 10
17.66715
 20
79.2754
 30
0.0
 11
17.92964999999999
 21
78.72969999999999
 31
0.0
  0
LINE
  5
8C
330
1E
100
AcDbEntity
  8
0
100
AcDbLine
 10
19.21845
 20
77.01260000000001
 30
0.0
 11
19.65474999999999
 21
76.6394
 31
0.0
  0
LINE
  5
8D
330
1E
100
AcDbEntity
  8
0
100
AcDbLine
 10
19.65474999999999
 20
76.6394
 30
0.0
 11
19.98505
 21
76.40550000000001
 31
0.0
  0
LINE
  5
8E
330
1E
100
AcDbEntity
  8
0
100
AcDbLine
 10
22.15685
 20
79.3048
 30
0.0
 11
22.15685
 21
73.68529999999999
 31
0.0
  0
LINE
  5
8F
330
1E
100
AcDbEntity
  8
0
100
AcDbLine
 10
22.15685
 20
79.0817
 30
0.0
 11
22.15685
 21
73.46210000000001
 31
0.0
  0
LINE
  5
90
330
1E
100
AcDbEntity
  8
0
100
AcDbLine
 10
20.13355
 20
83.1038
 30
0.0
 11
20.43864999999999
 21
83.06090000000001
 31
0.0
  0
LINE
  5
91
330
1E
100
AcDbEntity
  8
0
100
AcDbLine
 10
19.98505
 20
76.40550000000001
 30
0.0
 11
21.63145
 21
75.14490000000001
 31
0.0
  0
LINE
  5
92
330
1E
100
AcDbEntity
  8
0
100
AcDbLine
 10
19.98505
 20
76.40550000000001
 30
0.0
 11
21.63145
 21
75.14490000000001
 31
0.0
  0
LINE
  5
93
330
1E
100
AcDbEntity
  8
0
100
AcDbLine
 10
21.63145
 20
75.14490000000001
 30
0.0
 11
22.15685
 21
74.76356193558209
 31
0.0
  0
LINE
  5
94
330
1E
100
AcDbEntity
  8
0
100
AcDbLine
 10
19.83214999999999
 20
83.15369999999999
 30
0.0
 11
20.43864999999999
 21
83.06090000000001
 31
0.0
  0
LINE
  5
95
330
1E
100
AcDbEntity
  8
0
100
AcDbLine
 10
19.83214999999999
 20
83.15369999999999
 30
0.0
 11
20.13355
 21
83.1038
 31
0.0
  0
LINE
  5
A4
330
1E
100
AcDbEntity
  8
0
100
AcDbLine
 10
18.35444999999999
 20
95.1548
 30
0.0
 11
26.32995
 21
95.4141
 31
0.0
  0
LINE
  5
A5
330
1E
100
AcDbEntity
  8
0
100
AcDbLine
 10
17.89705
 20
95.1476
 30
0.0
 11
18.35444999999999
 21
95.1548
 31
0.0
  0
LINE
  5
AB
330
1E
100
AcDbEntity
  8
0
100
AcDbLine
 10
1.35616000000001
 20
116.8979999999999
 30
0.0
 11
1.82014000000001
 21
117.243
 31
0.0
  0
LINE
  5
AC
330
1E
100
AcDbEntity
  8
0
100
AcDbLine
 10
0.7784360000000122
 20
116.215
 30
0.0
 11
1.35616000000001
 21
116.8979999999999
 31
0.0
  0
LINE
  5
AD
330
1E
100
AcDbEntity
  8
0
100
AcDbLine
 10
0.6187880000000121
 20
115.937
 30
0.0
 11
0.7784360000000122
 21
116.215
 31
0.0
  0
LINE
  5
AE
330
1E
100
AcDbEntity
  8
0
100
AcDbLine
 10
6.171560000000009
 20
118.0
 30
0.0
 11
84.00015000000001
 21
118.0
 31
0.0
  0
LINE
  5
AF
330
1E
100
AcDbEntity
  8
0
100
AcDbLine
 10
5.090940000000009
 20
117.987
 30
0.0
 11
6.171560000000009
 21
118.0
 31
0.0
  0
LINE
  5
B0
330
1E
100
AcDbEntity
  8
0
100
AcDbLine
 10
4.013310000000009
 20
117.914
 30
0.0
 11
5.090940000000009
 21
117.987
 31
0.0
  0
LINE
  5
B1
330
1E
100
AcDbEntity
  8
0
100
AcDbLine
 10
3.396670000000009
 20
117.822
 30
0.0
 11
4.013310000000009
 21
117.914
 31
0.0
  0
LINE
  5
B2
330
1E
100
AcDbEntity
  8
0
100
AcDbLine
 10
2.554520000000009
 20
117.5939999999999
 30
0.0
 11
3.396670000000009
 21
117.822
 31
0.0
  0
LINE
  5
B3
330
1E
100
AcDbEntity
  8
0
100
AcDbLine
 10
1.82014000000001
 20
117.243
 30
0.0
 11
2.554520000000009
 21
117.5939999999999
 31
0.0
  0
LINE
  5
B4
330
1E
100
AcDbEntity
  8
0
100
AcDbLine
 10
26.45495
 20
74.2594
 30
0.0
 11
26.98565
 21
73.9292
 31
0.0
  0
LINE
  5
B5
330
1E
100
AcDbEntity
  8
0
100
AcDbLine
 10
26.98565
 20
73.9292
 30
0.0
 11
27.60615
 21
73.6243
 31
0.0
  0
LINE
  5
B6
330
1E
100
AcDbEntity
  8
0
100
AcDbLine
 10
26.0351651997377
 20
74.5995437466395
 30
0.0
 11
26.45495
 21
74.2594
 31
0.0
  0
LINE
  5
B7
330
1E
100
AcDbEntity
  8
0
100
AcDbLine
 10
25.83845
 20
74.4116
 30
0.0
 11
26.19055
 21
74.748
 31
0.0
  0
LINE
  5
B8
330
1E
100
AcDbEntity
  8
0
100
AcDbLine
 10
25.57714999999999
 20
74.0626
 30
0.0
 11
25.83845
 21
74.4116
 31
0.0
  0
LINE
  5
B9
330
1E
100
AcDbEntity
  8
0
100
AcDbLine
 10
24.99605
 20
75.0066
 30
0.0
 11
25.50555
 21
75.3632
 31
0.0
  0
LINE
  5
BA
330
1E
100
AcDbEntity
  8
0
100
AcDbLine
 10
26.10485
 20
75.6983
 30
0.0
 11
26.78485
 21
76.00719999999999
 31
0.0
  0
LINE
  5
BB
330
1E
100
AcDbEntity
  8
0
100
AcDbLine
 10
25.50555
 20
75.3632
 30
0.0
 11
26.10485
 21
75.6983
 31
0.0
  0
LINE
  5
BC
330
1E
100
AcDbEntity
  8
0
100
AcDbLine
 10
26.78485
 20
76.00719999999999
 30
0.0
 11
27.54155
 21
76.288
 31
0.0
  0
LINE
  5
BD
330
1E
100
AcDbEntity
  8
0
100
AcDbLine
 10
26.32995
 20
95.4141
 30
0.0
 11
34.30545
 21
95.5
 31
0.0
  0
LINE
  5
BE
330
1E
100
AcDbEntity
  8
0
100
AcDbLine
 10
27.20615
 20
82.4993
 30
0.0
 11
34.30545
 21
82.5317
 31
0.0
  0
LINE
  5
BF
330
1E
100
AcDbEntity
  8
0
100
AcDbLine
 10
27.15115
 20
75.3669
 30
0.0
 11
27.74735
 21
75.64499999999999
 31
0.0
  0
LINE
  5
C0
330
1E
100
AcDbEntity
  8
0
100
AcDbLine
 10
26.63054999999999
 20
75.0669
 30
0.0
 11
27.15115
 21
75.3669
 31
0.0
  0
LINE
  5
C1
330
1E
100
AcDbEntity
  8
0
100
AcDbLine
 10
26.19055
 20
74.748
 30
0.0
 11
26.63054999999999
 21
75.0669
 31
0.0
  0
LINE
  5
C2
330
1E
100
AcDbEntity
  8
0
100
AcDbLine
 10
24.58135
 20
74.6311
 30
0.0
 11
24.99605
 21
75.0066
 31
0.0
  0
LINE
  5
C3
330
1E
100
AcDbEntity
  8
0
100
AcDbLine
 10
24.26355
 20
74.23950000000001
 30
0.0
 11
24.58135
 21
74.6311
 31
0.0
  0
LINE
  5
C4
330
1E
100
AcDbEntity
  8
0
100
AcDbLine
 10
24.04865
 20
73.83880000000001
 30
0.0
 11
24.26355
 21
74.23950000000001
 31
0.0
  0
LINE
  5
C5
330
1E
100
AcDbEntity
  8
0
100
AcDbLine
 10
27.74735
 20
70.848
 30
0.0
 11
28.41435
 21
70.59650000000001
 31
0.0
  0
LINE
  5
C6
330
1E
100
AcDbEntity
  8
0
100
AcDbLine
 10
27.60615
 20
73.6243
 30
0.0
 11
28.30935
 21
73.3486
 31
0.0
  0
LINE
  5
C7
330
1E
100
AcDbEntity
  8
0
100
AcDbLine
 10
113.15085
 20
45.7732
 30
0.0
 11
113.3688499999999
 21
37.83059999999999
 31
0.0
  0
LINE
  5
C8
330
1E
100
AcDbEntity
  8
0
100
AcDbLine
 10
113.3688499999999
 20
37.83059999999999
 30
0.0
 11
113.47685
 21
33.859
 31
0.0
  0
LINE
  5
C9
330
1E
100
AcDbEntity
  8
0
100
AcDbLine
 10
113.47685
 20
33.859
 30
0.0
 11
113.6518499999999
 21
27.52499999999999
 31
0.0
  0
LINE
  5
CA
330
1E
100
AcDbEntity
  8
0
100
AcDbLine
 10
114.01285
 20
14.9221
 30
0.0
 11
114.08385
 21
12.5878
 31
0.0
  0
LINE
  5
CB
330
1E
100
AcDbEntity
  8
0
100
AcDbLine
 10
114.08385
 20
12.5878
 30
0.0
 11
114.15585
 21
10.27169999999999
 31
0.0
  0
LINE
  5
CC
330
1E
100
AcDbEntity
  8
0
100
AcDbLine
 10
114.5868499999999
 20
3.702519999999999
 30
0.0
 11
114.9398499999999
 21
2.95482
 31
0.0
  0
LINE
  5
CD
330
1E
100
AcDbEntity
  8
0
100
AcDbLine
 10
114.44685
 20
4.23404
 30
0.0
 11
114.5868499999999
 21
3.702519999999999
 31
0.0
  0
LINE
  5
CE
330
1E
100
AcDbEntity
  8
0
100
AcDbLine
 10
114.3218499999999
 20
5.29204
 30
0.0
 11
114.44685
 21
4.23404
 31
0.0
  0
LINE
  5
CF
330
1E
100
AcDbEntity
  8
0
100
AcDbLine
 10
114.30385
 20
5.714409999999999
 30
0.0
 11
114.3218499999999
 21
5.29204
 31
0.0
  0
LINE
  5
D0
330
1E
100
AcDbEntity
  8
0
100
AcDbLine
 10
114.22885
 20
7.977489999999999
 30
0.0
 11
114.30385
 21
5.714409999999999
 31
0.0
  0
LINE
  5
D1
330
1E
100
AcDbEntity
  8
0
100
AcDbLine
 10
114.15585
 20
10.27169999999999
 30
0.0
 11
114.22885
 21
7.977489999999999
 31
0.0
  0
LINE
  5
D2
330
1E
100
AcDbEntity
  8
0
100
AcDbLine
 10
113.94485
 20
17.2693
 30
0.0
 11
114.01285
 21
14.9221
 31
0.0
  0
LINE
  5
D3
330
1E
100
AcDbEntity
  8
0
100
AcDbLine
 10
113.87585
 20
19.6265
 30
0.0
 11
113.94485
 21
17.2693
 31
0.0
  0
LINE
  5
D4
330
1E
100
AcDbEntity
  8
0
100
AcDbLine
 10
114.9398499999999
 20
2.95482
 30
0.0
 11
115.01185
 21
2.85068
 31
0.0
  0
LINE
  5
D5
330
1E
100
AcDbEntity
  8
0
100
AcDbLine
 10
134.1568499999999
 20
0.0000000000000006
 30
0.0
 11
138.10785
 21
0.0570840000000007
 31
0.0
  0
LINE
  5
D6
330
1E
100
AcDbEntity
  8
0
100
AcDbLine
 10
134.1568499999999
 20
0.0000000000000006
 30
0.0
 11
138.10785
 21
0.0570840000000007
 31
0.0
  0
LINE
  5
D7
330
1E
100
AcDbEntity
  8
0
100
AcDbLine
 10
138.10785
 20
0.0570840000000007
 30
0.0
 11
142.0548499999999
 21
0.226229000000001
 31
0.0
  0
LINE
  5
D8
330
1E
100
AcDbEntity
  8
0
100
AcDbLine
 10
142.0548499999999
 20
0.226229000000001
 30
0.0
 11
145.99285
 21
0.5194730000000011
 31
0.0
  0
LINE
  5
D9
330
1E
100
AcDbEntity
  8
0
100
AcDbLine
 10
138.10785
 20
0.0570840000000007
 30
0.0
 11
142.0548499999999
 21
0.226229000000001
 31
0.0
  0
LINE
  5
DA
330
1E
100
AcDbEntity
  8
0
100
AcDbLine
 10
145.99285
 20
0.5194730000000011
 30
0.0
 11
149.91685
 21
0.9528690000000011
 31
0.0
  0
LINE
  5
DB
330
1E
100
AcDbEntity
  8
0
100
AcDbLine
 10
130.20585
 20
0.0570840000000007
 30
0.0
 11
134.1568499999999
 21
0.0000000000000006
 31
0.0
  0
LINE
  5
DC
330
1E
100
AcDbEntity
  8
0
100
AcDbLine
 10
130.20585
 20
0.0570840000000007
 30
0.0
 11
134.1568499999999
 21
0.0000000000000006
 31
0.0
  0
LINE
  5
DD
330
1E
100
AcDbEntity
  8
0
100
AcDbLine
 10
126.2588499999999
 20
0.226229000000001
 30
0.0
 11
130.20585
 21
0.0570840000000007
 31
0.0
  0
LINE
  5
DE
330
1E
100
AcDbEntity
  8
0
100
AcDbLine
 10
126.2588499999999
 20
0.226229000000001
 30
0.0
 11
130.20585
 21
0.0570840000000007
 31
0.0
  0
LINE
  5
DF
330
1E
100
AcDbEntity
  8
0
100
AcDbLine
 10
150.9838499999999
 20
1.148099999999999
 30
0.0
 11
151.49385
 21
1.32125
 31
0.0
  0
LINE
  5
E0
330
1E
100
AcDbEntity
  8
0
100
AcDbLine
 10
149.91685
 20
0.9528690000000011
 30
0.0
 11
150.9838499999999
 21
1.148099999999999
 31
0.0
  0
LINE
  5
E1
330
1E
100
AcDbEntity
  8
0
100
AcDbLine
 10
122.3208499999999
 20
0.5194730000000011
 30
0.0
 11
126.2588499999999
 21
0.226229000000001
 31
0.0
  0
LINE
  5
E2
330
1E
100
AcDbEntity
  8
0
100
AcDbLine
 10
118.3968499999999
 20
0.9528690000000011
 30
0.0
 11
122.3208499999999
 21
0.5194730000000011
 31
0.0
  0
LINE
  5
E3
330
1E
100
AcDbEntity
  8
0
100
AcDbLine
 10
151.49385
 20
1.32125
 30
0.0
 11
152.1978499999999
 21
1.69857
 31
0.0
  0
LINE
  5
E4
330
1E
100
AcDbEntity
  8
0
100
AcDbLine
 10
152.1978499999999
 20
1.69857
 30
0.0
 11
152.80085
 21
2.204099999999999
 31
0.0
  0
LINE
  5
E5
330
1E
100
AcDbEntity
  8
0
100
AcDbLine
 10
116.81985
 20
1.32125
 30
0.0
 11
117.32985
 21
1.148099999999999
 31
0.0
  0
LINE
  5
F6
330
1E
100
AcDbEntity
  8
0
100
AcDbLine
 10
152.80085
 20
2.204099999999999
 30
0.0
 11
153.30185
 21
2.85068
 31
0.0
  0
LINE
  5
F7
330
1E
100
AcDbEntity
  8
0
100
AcDbLine
 10
153.8668499999999
 20
4.23404
 30
0.0
 11
153.9918499999999
 21
5.29204
 31
0.0
  0
LINE
  5
F8
330
1E
100
AcDbEntity
  8
0
100
AcDbLine
 10
153.72685
 20
3.702519999999999
 30
0.0
 11
153.8668499999999
 21
4.23404
 31
0.0
  0
LINE
  5
F9
330
1E
100
AcDbEntity
  8
0
100
AcDbLine
 10
153.9918499999999
 20
5.29204
 30
0.0
 11
154.00985
 21
5.714409999999999
 31
0.0
  0
LINE
  5
FA
330
1E
100
AcDbEntity
  8
0
100
AcDbLine
 10
153.37385
 20
2.95482
 30
0.0
 11
153.72685
 21
3.702519999999999
 31
0.0
  0
LINE
  5
FB
330
1E
100
AcDbEntity
  8
0
100
AcDbLine
 10
153.30185
 20
2.85068
 30
0.0
 11
153.37385
 21
2.95482
 31
0.0
  0
LINE
  5
FC
330
1E
100
AcDbEntity
  8
0
100
AcDbLine
 10
154.00985
 20
5.714409999999999
 30
0.0
 11
154.0848499999999
 21
7.977489999999999
 31
0.0
  0
LINE
  5
103
330
1E
100
AcDbEntity
  8
0
100
AcDbLine
 10
154.2288499999999
 20
12.5878
 30
0.0
 11
154.2998499999999
 21
14.9221
 31
0.0
  0
LINE
  5
104
330
1E
100
AcDbEntity
  8
0
100
AcDbLine
 10
154.1578499999999
 20
10.27169999999999
 30
0.0
 11
154.2288499999999
 21
12.5878
 31
0.0
  0
LINE
  5
105
330
1E
100
AcDbEntity
  8
0
100
AcDbLine
 10
154.36885
 20
17.2693
 30
0.0
 11
154.43785
 21
19.6265
 31
0.0
  0
LINE
  5
106
330
1E
100
AcDbEntity
  8
0
100
AcDbLine
 10
154.2998499999999
 20
14.9221
 30
0.0
 11
154.36885
 21
17.2693
 31
0.0
  0
LINE
  5
107
330
1E
100
AcDbEntity
  8
0
100
AcDbLine
 10
154.0848499999999
 20
7.977489999999999
 30
0.0
 11
154.1578499999999
 21
10.27169999999999
 31
0.0
  0
LINE
  5
109
330
1E
100
AcDbEntity
  8
0
100
AcDbLine
 10
154.43785
 20
19.6265
 30
0.0
 11
154.5738499999999
 21
24.361
 31
0.0
  0
LINE
  5
10F
330
1E
100
AcDbEntity
  8
0
100
AcDbLine
 10
154.5738499999999
 20
24.361
 30
0.0
 11
154.6618499999999
 21
27.52499999999999
 31
0.0
  0
LINE
  5
11F
330
1E
100
AcDbEntity
  8
0
100
AcDbLine
 10
116.1158499999999
 20
1.69857
 30
0.0
 11
116.81985
 21
1.32125
 31
0.0
  0
LINE
  5
120
330
1E
100
AcDbEntity
  8
0
100
AcDbLine
 10
115.51285
 20
2.204099999999999
 30
0.0
 11
116.1158499999999
 21
1.69857
 31
0.0
  0
LINE
  5
121
330
1E
100
AcDbEntity
  8
0
100
AcDbLine
 10
117.32985
 20
1.148099999999999
 30
0.0
 11
118.3968499999999
 21
0.9528690000000011
 31
0.0
  0
LINE
  5
122
330
1E
100
AcDbEntity
  8
0
100
AcDbLine
 10
115.01185
 20
2.85068
 30
0.0
 11
115.51285
 21
2.204099999999999
 31
0.0
  0
LINE
  5
125
330
1E
100
AcDbEntity
  8
0
100
AcDbLine
 10
154.83685
 20
33.859
 30
0.0
 11
154.94485
 21
37.83059999999999
 31
0.0
  0
LINE
  5
126
330
1E
100
AcDbEntity
  8
0
100
AcDbLine
 10
154.94485
 20
37.83059999999999
 30
0.0
 11
155.1628499999999
 21
45.7732
 31
0.0
  0
LINE
  5
127
330
1E
100
AcDbEntity
  8
0
100
AcDbLine
 10
154.6618499999999
 20
27.52499999999999
 30
0.0
 11
154.83685
 21
33.859
 31
0.0
  0
LINE
  5
129
330
1E
100
AcDbEntity
  8
0
100
AcDbLine
 10
155.1628499999999
 20
45.7732
 30
0.0
 11
156.03385
 21
77.5454
 31
0.0
  0
LINE
  5
12D
330
1E
100
AcDbEntity
  8
0
100
AcDbLine
 10
113.74085
 20
24.361
 30
0.0
 11
113.87585
 21
19.6265
 31
0.0
  0
LINE
  5
12E
330
1E
100
AcDbEntity
  8
0
100
AcDbLine
 10
113.6518499999999
 20
27.52499999999999
 30
0.0
 11
113.74085
 21
24.361
 31
0.0
  0
LINE
  5
12F
330
1E
100
AcDbEntity
  8
0
100
AcDbLine
 10
29.51105
 20
68.96049999999999
 30
0.0
 11
30.56335
 21
68.80549999999999
 31
0.0
  0
LINE
  5
130
330
1E
100
AcDbEntity
  8
0
100
AcDbLine
 10
30.56335
 20
68.80549999999999
 30
0.0
 11
31.64895
 21
68.6907
 31
0.0
  0
LINE
  5
131
330
1E
100
AcDbEntity
  8
0
100
AcDbLine
 10
31.64895
 20
68.6907
 30
0.0
 11
32.75674999999999
 21
68.61709999999999
 31
0.0
  0
LINE
  5
132
330
1E
100
AcDbEntity
  8
0
100
AcDbLine
 10
32.75674999999999
 20
68.61709999999999
 30
0.0
 11
33.87675
 21
68.5849
 31
0.0
  0
LINE
  5
133
330
1E
100
AcDbEntity
  8
0
100
AcDbLine
 10
33.87675
 20
68.5849
 30
0.0
 11
34.15684999999999
 21
68.5874
 31
0.0
  0
LINE
  5
136
330
1E
100
AcDbEntity
  8
0
100
AcDbLine
 10
29.25075
 20
69.6944
 30
0.0
 11
30.20115
 21
69.5137
 31
0.0
  0
LINE
  5
137
330
1E
100
AcDbEntity
  8
0
100
AcDbLine
 10
30.20115
 20
69.5137
 30
0.0
 11
31.19295
 21
69.3719
 31
0.0
  0
LINE
  5
138
330
1E
100
AcDbEntity
  8
0
100
AcDbLine
 10
29.25075
 20
69.64699999999999
 30
0.0
 11
30.18495
 21
69.46899999999999
 31
0.0
  0
LINE
  5
139
330
1E
100
AcDbEntity
  8
0
100
AcDbLine
 10
30.18495
 20
69.46899999999999
 30
0.0
 11
31.16065
 21
69.32949999999999
 31
0.0
  0
LINE
  5
13A
330
1E
100
AcDbEntity
  8
0
100
AcDbLine
 10
32.21595
 20
69.27240000000001
 30
0.0
 11
33.26124999999999
 21
69.21429999999999
 31
0.0
  0
LINE
  5
13B
330
1E
100
AcDbEntity
  8
0
100
AcDbLine
 10
31.19295
 20
69.3719
 30
0.0
 11
32.21595
 21
69.27240000000001
 31
0.0
  0
LINE
  5
13C
330
1E
100
AcDbEntity
  8
0
100
AcDbLine
 10
31.16065
 20
69.32949999999999
 30
0.0
 11
32.16555
 21
69.22889999999999
 31
0.0
  0
LINE
  5
13D
330
1E
100
AcDbEntity
  8
0
100
AcDbLine
 10
32.16555
 20
69.22889999999999
 30
0.0
 11
33.19265
 21
69.16949999999999
 31
0.0
  0
LINE
  5
13E
330
1E
100
AcDbEntity
  8
0
100
AcDbLine
 10
33.77385
 20
69.7602
 30
0.0
 11
34.15684999999999
 21
69.76220000000001
 31
0.0
  0
LINE
  5
140
330
1E
100
AcDbEntity
  8
0
100
AcDbLine
 10
33.26124999999999
 20
69.21429999999999
 30
0.0
 11
34.15684999999999
 21
69.2012
 31
0.0
  0
LINE
  5
141
330
1E
100
AcDbEntity
  8
0
100
AcDbLine
 10
33.19265
 20
69.16949999999999
 30
0.0
 11
34.15684999999999
 21
69.1528
 31
0.0
  0
LINE
  5
143
330
1E
100
AcDbEntity
  8
0
100
AcDbLine
 10
28.50105
 20
69.15519999999999
 30
0.0
 11
29.51105
 21
68.96049999999999
 31
0.0
  0
LINE
  5
146
330
1E
100
AcDbEntity
  8
0
100
AcDbLine
 10
32.77295
 20
69.8002
 30
0.0
 11
33.77385
 21
69.7602
 31
0.0
  0
LINE
  5
148
330
1E
100
AcDbEntity
  8
0
100
AcDbLine
 10
28.32454999999999
 20
69.9202
 30
0.0
 11
29.25075
 21
69.6944
 31
0.0
  0
LINE
  5
149
330
1E
100
AcDbEntity
  8
0
100
AcDbLine
 10
28.41435
 20
70.59650000000001
 30
0.0
 11
29.14375
 21
70.37449999999999
 31
0.0
  0
LINE
  5
14A
330
1E
100
AcDbEntity
  8
0
100
AcDbLine
 10
29.14375
 20
70.37449999999999
 30
0.0
 11
29.92774999999999
 21
70.1836
 31
0.0
  0
LINE
  5
14B
330
1E
100
AcDbEntity
  8
0
100
AcDbLine
 10
29.92774999999999
 20
70.1836
 30
0.0
 11
30.83674999999999
 21
70.01319999999999
 31
0.0
  0
LINE
  5
14C
330
1E
100
AcDbEntity
  8
0
100
AcDbLine
 10
30.83674999999999
 20
70.01319999999999
 30
0.0
 11
31.78925
 21
69.8853
 31
0.0
  0
LINE
  5
14D
330
1E
100
AcDbEntity
  8
0
100
AcDbLine
 10
31.78925
 20
69.8853
 30
0.0
 11
32.77295
 21
69.8002
 31
0.0
  0
LINE
  5
14E
330
1E
100
AcDbEntity
  8
0
100
AcDbLine
 10
28.30935
 20
73.3486
 30
0.0
 11
29.08725
 21
73.10559999999999
 31
0.0
  0
LINE
  5
14F
330
1E
100
AcDbEntity
  8
0
100
AcDbLine
 10
29.08725
 20
73.10559999999999
 30
0.0
 11
29.92774999999999
 21
72.89889999999999
 31
0.0
  0
LINE
  5
150
330
1E
100
AcDbEntity
  8
0
100
AcDbLine
 10
29.92774999999999
 20
72.89889999999999
 30
0.0
 11
30.82165
 21
72.7312
 31
0.0
  0
LINE
  5
151
330
1E
100
AcDbEntity
  8
0
100
AcDbLine
 10
30.82165
 20
72.7312
 30
0.0
 11
31.75795
 21
72.6039
 31
0.0
  0
LINE
  5
152
330
1E
100
AcDbEntity
  8
0
100
AcDbLine
 10
31.75795
 20
72.6039
 30
0.0
 11
32.72455
 21
72.5184
 31
0.0
  0
LINE
  5
153
330
1E
100
AcDbEntity
  8
0
100
AcDbLine
 10
32.72455
 20
72.5184
 30
0.0
 11
33.70824999999999
 21
72.47669999999999
 31
0.0
  0
LINE
  5
154
330
1E
100
AcDbEntity
  8
0
100
AcDbLine
 10
33.70824999999999
 20
72.47669999999999
 30
0.0
 11
34.15684999999999
 21
72.47790000000001
 31
0.0
  0
LINE
  5
155
330
1E
100
AcDbEntity
  8
0
100
AcDbLine
 10
28.36685
 20
69.8613
 30
0.0
 11
29.25075
 21
69.64699999999999
 31
0.0
  0
LINE
  5
156
330
1E
100
AcDbEntity
  8
0
100
AcDbLine
 10
34.15684999999999
 20
72.47790000000001
 30
0.0
 11
34.60544999999999
 21
72.47669999999999
 31
0.0
  0
LINE
  5
157
330
1E
100
AcDbEntity
  8
0
100
AcDbLine
 10
34.15684999999999
 20
69.76220000000001
 30
0.0
 11
34.53985
 21
69.7602
 31
0.0
  0
LINE
  5
158
330
1E
100
AcDbEntity
  8
0
100
AcDbLine
 10
34.15684999999999
 20
69.2012
 30
0.0
 11
35.05245
 21
69.21429999999999
 31
0.0
  0
LINE
  5
159
330
1E
100
AcDbEntity
  8
0
100
AcDbLine
 10
34.15684999999999
 20
69.1528
 30
0.0
 11
35.12105
 21
69.16949999999999
 31
0.0
  0
LINE
  5
15B
330
1E
100
AcDbEntity
  8
0
100
AcDbLine
 10
34.60544999999999
 20
72.47669999999999
 30
0.0
 11
35.58914999999999
 21
72.5184
 31
0.0
  0
LINE
  5
15C
330
1E
100
AcDbEntity
  8
0
100
AcDbLine
 10
34.53985
 20
69.7602
 30
0.0
 11
35.54075
 21
69.8002
 31
0.0
  0
LINE
  5
15D
330
1E
100
AcDbEntity
  8
0
100
AcDbLine
 10
35.54075
 20
69.8002
 30
0.0
 11
36.52445
 21
69.8853
 31
0.0
  0
LINE
  5
15E
330
1E
100
AcDbEntity
  8
0
100
AcDbLine
 10
35.05245
 20
69.21429999999999
 30
0.0
 11
36.09774999999999
 21
69.27240000000001
 31
0.0
  0
LINE
  5
15F
330
1E
100
AcDbEntity
  8
0
100
AcDbLine
 10
35.12105
 20
69.16949999999999
 30
0.0
 11
36.14815
 21
69.22889999999999
 31
0.0
  0
LINE
  5
160
330
1E
100
AcDbEntity
  8
0
100
AcDbLine
 10
35.58914999999999
 20
72.5184
 30
0.0
 11
36.55575
 21
72.6039
 31
0.0
  0
LINE
  5
161
330
1E
100
AcDbEntity
  8
0
100
AcDbLine
 10
35.55695
 20
68.61709999999999
 30
0.0
 11
36.66475
 21
68.6907
 31
0.0
  0
LINE
  5
162
330
1E
100
AcDbEntity
  8
0
100
AcDbLine
 10
34.43695
 20
68.5849
 30
0.0
 11
35.55695
 21
68.61709999999999
 31
0.0
  0
LINE
  5
163
330
1E
100
AcDbEntity
  8
0
100
AcDbLine
 10
34.15684999999999
 20
68.5874
 30
0.0
 11
34.43695
 21
68.5849
 31
0.0
  0
LINE
  5
164
330
1E
100
AcDbEntity
  8
0
100
AcDbLine
 10
36.09774999999999
 20
69.27240000000001
 30
0.0
 11
37.12075
 21
69.3719
 31
0.0
  0
LINE
  5
165
330
1E
100
AcDbEntity
  8
0
100
AcDbLine
 10
37.12075
 20
69.3719
 30
0.0
 11
38.11255
 21
69.5137
 31
0.0
  0
LINE
  5
166
330
1E
100
AcDbEntity
  8
0
100
AcDbLine
 10
37.15305
 20
69.32949999999999
 30
0.0
 11
38.12875
 21
69.46899999999999
 31
0.0
  0
LINE
  5
167
330
1E
100
AcDbEntity
  8
0
100
AcDbLine
 10
36.14815
 20
69.22889999999999
 30
0.0
 11
37.15305
 21
69.32949999999999
 31
0.0
  0
LINE
  5
168
330
1E
100
AcDbEntity
  8
0
100
AcDbLine
 10
38.80264999999999
 20
68.96049999999999
 30
0.0
 11
39.81265
 21
69.15519999999999
 31
0.0
  0
LINE
  5
169
330
1E
100
AcDbEntity
  8
0
100
AcDbLine
 10
37.75034999999999
 20
68.80549999999999
 30
0.0
 11
38.80264999999999
 21
68.96049999999999
 31
0.0
  0
LINE
  5
16A
330
1E
100
AcDbEntity
  8
0
100
AcDbLine
 10
36.66475
 20
68.6907
 30
0.0
 11
37.75034999999999
 21
68.80549999999999
 31
0.0
  0
LINE
  5
16B
330
1E
100
AcDbEntity
  8
0
100
AcDbLine
 10
39.81265
 20
69.15519999999999
 30
0.0
 11
40.77215
 21
69.3862
 31
0.0
  0
LINE
  5
16C
330
1E
100
AcDbEntity
  8
0
100
AcDbLine
 10
38.11255
 20
69.5137
 30
0.0
 11
39.06295
 21
69.6944
 31
0.0
  0
LINE
  5
16D
330
1E
100
AcDbEntity
  8
0
100
AcDbLine
 10
38.12875
 20
69.46899999999999
 30
0.0
 11
39.06295
 21
69.64699999999999
 31
0.0
  0
LINE
  5
16E
330
1E
100
AcDbEntity
  8
0
100
AcDbLine
 10
39.06295
 20
69.6944
 30
0.0
 11
39.98915
 21
69.9202
 31
0.0
  0
LINE
  5
16F
330
1E
100
AcDbEntity
  8
0
100
AcDbLine
 10
39.16995
 20
70.37449999999999
 30
0.0
 11
39.89935
 21
70.59650000000001
 31
0.0
  0
LINE
  5
170
330
1E
100
AcDbEntity
  8
0
100
AcDbLine
 10
39.22645
 20
73.10559999999999
 30
0.0
 11
40.00435
 21
73.3486
 31
0.0
  0
LINE
  5
171
330
1E
100
AcDbEntity
  8
0
100
AcDbLine
 10
39.89935
 20
70.59650000000001
 30
0.0
 11
40.56634999999999
 21
70.848
 31
0.0
  0
LINE
  5
172
330
1E
100
AcDbEntity
  8
0
100
AcDbLine
 10
38.38595
 20
72.89889999999999
 30
0.0
 11
39.22645
 21
73.10559999999999
 31
0.0
  0
LINE
  5
173
330
1E
100
AcDbEntity
  8
0
100
AcDbLine
 10
38.38595
 20
70.1836
 30
0.0
 11
39.16995
 21
70.37449999999999
 31
0.0
  0
LINE
  5
174
330
1E
100
AcDbEntity
  8
0
100
AcDbLine
 10
37.49204999999999
 20
72.7312
 30
0.0
 11
38.38595
 21
72.89889999999999
 31
0.0
  0
LINE
  5
175
330
1E
100
AcDbEntity
  8
0
100
AcDbLine
 10
37.47695
 20
70.01319999999999
 30
0.0
 11
38.38595
 21
70.1836
 31
0.0
  0
LINE
  5
176
330
1E
100
AcDbEntity
  8
0
100
AcDbLine
 10
36.55575
 20
72.6039
 30
0.0
 11
37.49204999999999
 21
72.7312
 31
0.0
  0
LINE
  5
177
330
1E
100
AcDbEntity
  8
0
100
AcDbLine
 10
36.52445
 20
69.8853
 30
0.0
 11
37.47695
 21
70.01319999999999
 31
0.0
  0
LINE
  5
178
330
1E
100
AcDbEntity
  8
0
100
AcDbLine
 10
39.98915
 20
69.9202
 30
0.0
 11
40.84985
 21
70.1836
 31
0.0
  0
LINE
  5
179
330
1E
100
AcDbEntity
  8
0
100
AcDbLine
 10
41.32805
 20
73.9292
 30
0.0
 11
41.85875
 21
74.2594
 31
0.0
  0
LINE
  5
17A
330
1E
100
AcDbEntity
  8
0
100
AcDbLine
 10
41.16255
 20
71.12439999999999
 30
0.0
 11
41.68314999999999
 21
71.4245
 31
0.0
  0
LINE
  5
17B
330
1E
100
AcDbEntity
  8
0
100
AcDbLine
 10
40.70755
 20
73.6243
 30
0.0
 11
41.32805
 21
73.9292
 31
0.0
  0
LINE
  5
17C
330
1E
100
AcDbEntity
  8
0
100
AcDbLine
 10
40.56634999999999
 20
70.848
 30
0.0
 11
41.16255
 21
71.12439999999999
 31
0.0
  0
LINE
  5
17D
330
1E
100
AcDbEntity
  8
0
100
AcDbLine
 10
40.00435
 20
73.3486
 30
0.0
 11
40.70755
 21
73.6243
 31
0.0
  0
LINE
  5
17E
330
1E
100
AcDbEntity
  8
0
100
AcDbLine
 10
40.84985
 20
70.1836
 30
0.0
 11
41.63475
 21
70.48180000000001
 31
0.0
  0
LINE
  5
17F
330
1E
100
AcDbEntity
  8
0
100
AcDbLine
 10
41.63475
 20
70.48180000000001
 30
0.0
 11
42.33495
 21
70.81189999999999
 31
0.0
  0
LINE
  5
180
330
1E
100
AcDbEntity
  8
0
100
AcDbLine
 10
41.52885
 20
70.3905
 30
0.0
 11
42.20884999999999
 21
70.7001
 31
0.0
  0
LINE
  5
181
330
1E
100
AcDbEntity
  8
0
100
AcDbLine
 10
40.77215
 20
70.11029999999999
 30
0.0
 11
41.52885
 21
70.3905
 31
0.0
  0
LINE
  5
182
330
1E
100
AcDbEntity
  8
0
100
AcDbLine
 10
39.94685
 20
69.8613
 30
0.0
 11
40.77215
 21
70.11029999999999
 31
0.0
  0
LINE
  5
183
330
1E
100
AcDbEntity
  8
0
100
AcDbLine
 10
39.06295
 20
69.64699999999999
 30
0.0
 11
39.94685
 21
69.8613
 31
0.0
  0
LINE
  5
184
330
1E
100
AcDbEntity
  8
0
100
AcDbLine
 10
41.68314999999999
 20
71.4245
 30
0.0
 11
42.12315
 21
71.7444
 31
0.0
  0
LINE
  5
185
330
1E
100
AcDbEntity
  8
0
100
AcDbLine
 10
41.85875
 20
74.2594
 30
0.0
 11
42.27853480026229
 21
74.5995437466395
 31
0.0
  0
LINE
  5
186
330
1E
100
AcDbEntity
  8
0
100
AcDbLine
 10
42.12315
 20
71.7444
 30
0.0
 11
42.47525
 21
72.08079999999999
 31
0.0
  0
LINE
  5
187
330
1E
100
AcDbEntity
  8
0
100
AcDbLine
 10
41.67114999999999
 20
69.65219999999999
 30
0.0
 11
42.50245
 21
69.9513
 31
0.0
  0
LINE
  5
188
330
1E
100
AcDbEntity
  8
0
100
AcDbLine
 10
40.77215
 20
69.3862
 30
0.0
 11
41.67114999999999
 21
69.65219999999999
 31
0.0
  0
LINE
  5
189
330
1E
100
AcDbEntity
  8
0
100
AcDbLine
 10
42.33495
 20
70.81189999999999
 30
0.0
 11
42.94234999999999
 21
71.1683
 31
0.0
  0
LINE
  5
18A
330
1E
100
AcDbEntity
  8
0
100
AcDbLine
 10
44.51534999999999
 20
71.0147
 30
0.0
 11
45.00565
 21
71.41339999999999
 31
0.0
  0
LINE
  5
18B
330
1E
100
AcDbEntity
  8
0
100
AcDbLine
 10
43.93115
 20
70.6353
 30
0.0
 11
44.51534999999999
 21
71.0147
 31
0.0
  0
LINE
  5
18C
330
1E
100
AcDbEntity
  8
0
100
AcDbLine
 10
43.25815
 20
70.27930000000001
 30
0.0
 11
43.93115
 21
70.6353
 31
0.0
  0
LINE
  5
18D
330
1E
100
AcDbEntity
  8
0
100
AcDbLine
 10
42.50245
 20
69.9513
 30
0.0
 11
43.25815
 21
70.27930000000001
 31
0.0
  0
LINE
  5
18E
330
1E
100
AcDbEntity
  8
0
100
AcDbLine
 10
42.94234999999999
 20
71.1683
 30
0.0
 11
43.45085
 21
71.5491
 31
0.0
  0
LINE
  5
18F
330
1E
100
AcDbEntity
  8
0
100
AcDbLine
 10
42.47525
 20
72.08079999999999
 30
0.0
 11
42.73655
 21
72.4298
 31
0.0
  0
LINE
  5
190
330
1E
100
AcDbEntity
  8
0
100
AcDbLine
 10
42.73655
 20
72.4298
 30
0.0
 11
42.90505
 21
72.78749999999999
 31
0.0
  0
LINE
  5
191
330
1E
100
AcDbEntity
  8
0
100
AcDbLine
 10
43.45085
 20
71.5491
 30
0.0
 11
43.85444999999999
 21
71.94849999999999
 31
0.0
  0
LINE
  5
192
330
1E
100
AcDbEntity
  8
0
100
AcDbLine
 10
43.85444999999999
 20
71.94849999999999
 30
0.0
 11
44.14705
 21
72.3631
 31
0.0
  0
LINE
  5
193
330
1E
100
AcDbEntity
  8
0
100
AcDbLine
 10
44.14705
 20
72.3631
 30
0.0
 11
44.325556436864
 21
72.780270329323
 31
0.0
  0
LINE
  5
194
330
1E
100
AcDbEntity
  8
0
100
AcDbLine
 10
44.26505
 20
72.5598
 30
0.0
 11
44.37705
 21
72.9679
 31
0.0
  0
LINE
  5
195
330
1E
100
AcDbEntity
  8
0
100
AcDbLine
 10
44.05015
 20
72.15810000000001
 30
0.0
 11
44.26505
 21
72.5598
 31
0.0
  0
LINE
  5
196
330
1E
100
AcDbEntity
  8
0
100
AcDbLine
 10
43.73235
 20
71.7685
 30
0.0
 11
44.05015
 21
72.15810000000001
 31
0.0
  0
LINE
  5
197
330
1E
100
AcDbEntity
  8
0
100
AcDbLine
 10
43.31764999999999
 20
71.39199999999999
 30
0.0
 11
43.73235
 21
71.7685
 31
0.0
  0
LINE
  5
198
330
1E
100
AcDbEntity
  8
0
100
AcDbLine
 10
45.83294999999999
 20
72.38249999999999
 30
0.0
 11
46.02165
 21
72.827
 31
0.0
  0
LINE
  5
199
330
1E
100
AcDbEntity
  8
0
100
AcDbLine
 10
45.53935
 20
71.9489
 30
0.0
 11
45.83294999999999
 21
72.38249999999999
 31
0.0
  0
LINE
  5
19A
330
1E
100
AcDbEntity
  8
0
100
AcDbLine
 10
45.14185
 20
71.527
 30
0.0
 11
45.53935
 21
71.9489
 31
0.0
  0
LINE
  5
19B
330
1E
100
AcDbEntity
  8
0
100
AcDbLine
 10
45.00565
 20
71.41339999999999
 30
0.0
 11
45.14185
 21
71.527
 31
0.0
  0
LINE
  5
19C
330
1E
100
AcDbEntity
  8
0
100
AcDbLine
 10
44.32865
 20
72.79154250000001
 30
0.0
 11
44.32865
 21
73.6076253571429
 31
0.0
  0
LINE
  5
19D
330
1E
100
AcDbEntity
  8
0
100
AcDbLine
 10
42.90505
 20
72.78749999999999
 30
0.0
 11
44.32754056603779
 21
72.78749999999999
 31
0.0
  0
LINE
  5
19E
330
1E
100
AcDbEntity
  8
0
100
AcDbLine
 10
42.90505
 20
72.78749999999999
 30
0.0
 11
42.90505
 21
73.7048
 31
0.0
  0
LINE
  5
1A3
330
1E
100
AcDbEntity
  8
0
100
AcDbLine
 10
44.37705
 20
72.9679
 30
0.0
 11
44.38105
 21
73.19880000000001
 31
0.0
  0
LINE
  5
1A4
330
1E
100
AcDbEntity
  8
0
100
AcDbLine
 10
42.47525
 20
74.4116
 30
0.0
 11
42.73655
 21
74.0626
 31
0.0
  0
LINE
  5
1A5
330
1E
100
AcDbEntity
  8
0
100
AcDbLine
 10
42.73655
 20
74.0626
 30
0.0
 11
42.90505
 21
73.7048
 31
0.0
  0
LINE
  5
1A6
330
1E
100
AcDbEntity
  8
0
100
AcDbLine
 10
44.37705
 20
73.4317
 30
0.0
 11
44.38105
 21
73.19880000000001
 31
0.0
  0
LINE
  5
1A8
330
1E
100
AcDbEntity
  8
0
100
AcDbLine
 10
44.26505
 20
73.83880000000001
 30
0.0
 11
44.37705
 21
73.4317
 31
0.0
  0
LINE
  5
1A9
330
1E
100
AcDbEntity
  8
0
100
AcDbLine
 10
44.05015
 20
74.23950000000001
 30
0.0
 11
44.26505
 21
73.83880000000001
 31
0.0
  0
LINE
  5
1AB
330
1E
100
AcDbEntity
  8
0
100
AcDbLine
 10
44.32865
 20
73.6076253571429
 30
0.0
 11
44.32865
 21
72.79154250000001
 31
0.0
  0
LINE
  5
1AC
330
1E
100
AcDbEntity
  8
0
100
AcDbLine
 10
42.90505
 20
73.7048
 30
0.0
 11
42.90505
 21
72.78749999999999
 31
0.0
  0
LINE
  5
1AD
330
1E
100
AcDbEntity
  8
0
100
AcDbLine
 10
42.90505
 20
73.7048
 30
0.0
 11
44.3019156349791
 21
73.7048
 31
0.0
  0
LINE
  5
1B0
330
1E
100
AcDbEntity
  8
0
100
AcDbLine
 10
46.02165
 20
72.827
 30
0.0
 11
46.07515
 21
73.0111
 31
0.0
  0
LINE
  5
1B3
330
1E
100
AcDbEntity
  8
0
100
AcDbLine
 10
46.15005
 20
73.5732
 30
0.0
 11
46.15005
 21
73.6618680733945
 31
0.0
  0
LINE
  5
1B4
330
1E
100
AcDbEntity
  8
0
100
AcDbLine
 10
46.15005
 20
73.5732
 30
0.0
 11
46.15685
 21
73.68529999999999
 31
0.0
  0
LINE
  5
1B5
330
1E
100
AcDbEntity
  8
0
100
AcDbLine
 10
46.15005
 20
73.6618680733945
 30
0.0
 11
46.15005
 21
73.5732
 31
0.0
  0
LINE
  5
1B6
330
1E
100
AcDbEntity
  8
0
100
AcDbLine
 10
46.15685
 20
73.46210000000001
 30
0.0
 11
46.15685
 21
73.68529999999999
 31
0.0
  0
LINE
  5
1B7
330
1E
100
AcDbEntity
  8
0
100
AcDbLine
 10
46.15685
 20
73.68529999999999
 30
0.0
 11
46.15685
 21
73.46210000000001
 31
0.0
  0
LINE
  5
1B8
330
1E
100
AcDbEntity
  8
0
100
AcDbLine
 10
46.15685
 20
73.68529999999999
 30
0.0
 11
46.15685
 21
79.3048
 31
0.0
  0
LINE
  5
1B9
330
1E
100
AcDbEntity
  8
0
100
AcDbLine
 10
46.07515
 20
73.0111
 30
0.0
 11
46.15685
 21
73.46210000000001
 31
0.0
  0
LINE
  5
1BA
330
1E
100
AcDbEntity
  8
0
100
AcDbLine
 10
42.80814999999999
 20
71.0356
 30
0.0
 11
43.31764999999999
 21
71.39199999999999
 31
0.0
  0
LINE
  5
1BB
330
1E
100
AcDbEntity
  8
0
100
AcDbLine
 10
42.20884999999999
 20
70.7001
 30
0.0
 11
42.80814999999999
 21
71.0356
 31
0.0
  0
LINE
  5
1BC
330
1E
100
AcDbEntity
  8
0
100
AcDbLine
 10
41.68314999999999
 20
75.0669
 30
0.0
 11
42.12315
 21
74.748
 31
0.0
  0
LINE
  5
1BD
330
1E
100
AcDbEntity
  8
0
100
AcDbLine
 10
42.12315
 20
74.748
 30
0.0
 11
42.47525
 21
74.4116
 31
0.0
  0
LINE
  5
1BE
330
1E
100
AcDbEntity
  8
0
100
AcDbLine
 10
43.73235
 20
74.6311
 30
0.0
 11
44.05015
 21
74.23950000000001
 31
0.0
  0
LINE
  5
1BF
330
1E
100
AcDbEntity
  8
0
100
AcDbLine
 10
43.31764999999999
 20
75.0066
 30
0.0
 11
43.73235
 21
74.6311
 31
0.0
  0
LINE
  5
1C0
330
1E
100
AcDbEntity
  8
0
100
AcDbLine
 10
41.16255
 20
75.3669
 30
0.0
 11
41.68314999999999
 21
75.0669
 31
0.0
  0
LINE
  5
1C1
330
1E
100
AcDbEntity
  8
0
100
AcDbLine
 10
42.80814999999999
 20
75.3632
 30
0.0
 11
43.31764999999999
 21
75.0066
 31
0.0
  0
LINE
  5
1C2
330
1E
100
AcDbEntity
  8
0
100
AcDbLine
 10
46.15685
 20
74.54787974413649
 30
0.0
 11
46.97935
 21
75.14490000000001
 31
0.0
  0
LINE
  5
1C3
330
1E
100
AcDbEntity
  8
0
100
AcDbLine
 10
47.24224768741239
 20
75.353128485221
 30
0.0
 11
48.62585
 21
76.40550000000001
 31
0.0
  0
LINE
  5
1D0
330
1E
100
AcDbEntity
  8
0
100
AcDbLine
 10
112.1958499999999
 20
80.6925
 30
0.0
 11
113.15085
 21
45.7732
 31
0.0
  0
LINE
  5
1D3
330
1E
100
AcDbEntity
  8
0
100
AcDbLine
 10
40.56634999999999
 20
75.64499999999999
 30
0.0
 11
41.16255
 21
75.3669
 31
0.0
  0
LINE
  5
1D4
330
1E
100
AcDbEntity
  8
0
100
AcDbLine
 10
39.89935
 20
75.8948
 30
0.0
 11
40.56634999999999
 21
75.64499999999999
 31
0.0
  0
LINE
  5
1D5
330
1E
100
AcDbEntity
  8
0
100
AcDbLine
 10
42.20884999999999
 20
75.6983
 30
0.0
 11
42.80814999999999
 21
75.3632
 31
0.0
  0
LINE
  5
1D8
330
1E
100
AcDbEntity
  8
0
100
AcDbLine
 10
84.00015000000001
 20
50.0
 30
0.0
 11
113.0355497700219
 21
50.0
 31
0.0
  0
LINE
  5
1E5
330
1E
100
AcDbEntity
  8
0
100
AcDbLine
 10
165.19785
 20
50.3242
 30
0.0
 11
165.9318499999999
 21
50.61659999999999
 31
0.0
  0
LINE
  5
1E6
330
1E
100
AcDbEntity
  8
0
100
AcDbLine
 10
164.2338499999999
 20
50.11639999999999
 30
0.0
 11
165.19785
 21
50.3242
 31
0.0
  0
LINE
  5
1E7
330
1E
100
AcDbEntity
  8
0
100
AcDbLine
 10
166.2098499999999
 20
50.7748
 30
0.0
 11
166.89585
 21
51.35159999999999
 31
0.0
  0
LINE
  5
1E8
330
1E
100
AcDbEntity
  8
0
100
AcDbLine
 10
166.89585
 20
51.35159999999999
 30
0.0
 11
167.24185
 21
51.8151
 31
0.0
  0
LINE
  5
1E9
330
1E
100
AcDbEntity
  8
0
100
AcDbLine
 10
167.24185
 20
51.8151
 30
0.0
 11
167.5928499999999
 21
52.5461
 31
0.0
  0
LINE
  5
1EA
330
1E
100
AcDbEntity
  8
0
100
AcDbLine
 10
167.5928499999999
 20
52.5461
 30
0.0
 11
167.82185
 21
53.3865
 31
0.0
  0
LINE
  5
1EB
330
1E
100
AcDbEntity
  8
0
100
AcDbLine
 10
165.9318499999999
 20
50.61659999999999
 30
0.0
 11
166.2098499999999
 21
50.7748
 31
0.0
  0
LINE
  5
1EC
330
1E
100
AcDbEntity
  8
0
100
AcDbLine
 10
167.91485
 20
54.0002
 30
0.0
 11
167.98785
 21
55.0743
 31
0.0
  0
LINE
  5
1ED
330
1E
100
AcDbEntity
  8
0
100
AcDbLine
 10
167.82185
 20
53.3865
 30
0.0
 11
167.91485
 21
54.0002
 31
0.0
  0
LINE
  5
1EE
330
1E
100
AcDbEntity
  8
0
100
AcDbLine
 10
167.98785
 20
55.0743
 30
0.0
 11
167.99985
 21
56.1514
 31
0.0
  0
LINE
  5
1EF
330
1E
100
AcDbEntity
  8
0
100
AcDbLine
 10
163.03285
 20
50.01689999999999
 30
0.0
 11
164.2338499999999
 21
50.11639999999999
 31
0.0
  0
LINE
  5
1F0
330
1E
100
AcDbEntity
  8
0
100
AcDbLine
 10
161.82885
 20
50.0
 30
0.0
 11
163.03285
 21
50.01689999999999
 31
0.0
  0
LINE
  5
1F1
330
1E
100
AcDbEntity
  8
0
100
AcDbLine
 10
155.2781502299779
 20
50.0
 30
0.0
 11
161.82885
 21
50.0
 31
0.0
  0
LINE
  5
1F2
330
1E
100
AcDbEntity
  8
0
100
AcDbLine
 10
39.16995
 20
76.1176
 30
0.0
 11
39.89935
 21
75.8948
 31
0.0
  0
LINE
  5
1F3
330
1E
100
AcDbEntity
  8
0
100
AcDbLine
 10
38.38595
 20
76.308
 30
0.0
 11
39.16995
 21
76.1176
 31
0.0
  0
LINE
  5
1F4
330
1E
100
AcDbEntity
  8
0
100
AcDbLine
 10
41.52885
 20
76.00719999999999
 30
0.0
 11
42.20884999999999
 21
75.6983
 31
0.0
  0
LINE
  5
1F5
330
1E
100
AcDbEntity
  8
0
100
AcDbLine
 10
40.77215
 20
76.288
 30
0.0
 11
41.52885
 21
76.00719999999999
 31
0.0
  0
LINE
  5
1F6
330
1E
100
AcDbEntity
  8
0
100
AcDbLine
 10
37.47695
 20
76.4792
 30
0.0
 11
38.38595
 21
76.308
 31
0.0
  0
LINE
  5
1F7
330
1E
100
AcDbEntity
  8
0
100
AcDbLine
 10
39.94685
 20
76.5364
 30
0.0
 11
40.77215
 21
76.288
 31
0.0
  0
LINE
  5
1F8
330
1E
100
AcDbEntity
  8
0
100
AcDbLine
 10
48.62585
 20
76.40550000000001
 30
0.0
 11
48.95615
 21
76.6394
 31
0.0
  0
LINE
  5
1F9
330
1E
100
AcDbEntity
  8
0
100
AcDbLine
 10
30.83674999999999
 20
76.4792
 30
0.0
 11
31.78925
 21
76.6076
 31
0.0
  0
LINE
  5
1FA
330
1E
100
AcDbEntity
  8
0
100
AcDbLine
 10
29.92774999999999
 20
76.308
 30
0.0
 11
30.83674999999999
 21
76.4792
 31
0.0
  0
LINE
  5
1FB
330
1E
100
AcDbEntity
  8
0
100
AcDbLine
 10
29.14375
 20
76.1176
 30
0.0
 11
29.92774999999999
 21
76.308
 31
0.0
  0
LINE
  5
1FC
330
1E
100
AcDbEntity
  8
0
100
AcDbLine
 10
28.41435
 20
75.8948
 30
0.0
 11
29.14375
 21
76.1176
 31
0.0
  0
LINE
  5
1FD
330
1E
100
AcDbEntity
  8
0
100
AcDbLine
 10
27.74735
 20
75.64499999999999
 30
0.0
 11
28.41435
 21
75.8948
 31
0.0
  0
LINE
  5
1FE
330
1E
100
AcDbEntity
  8
0
100
AcDbLine
 10
36.52445
 20
76.6076
 30
0.0
 11
37.47695
 21
76.4792
 31
0.0
  0
LINE
  5
1FF
330
1E
100
AcDbEntity
  8
0
100
AcDbLine
 10
30.18495
 20
76.9294
 30
0.0
 11
31.16065
 21
77.0692
 31
0.0
  0
LINE
  5
200
330
1E
100
AcDbEntity
  8
0
100
AcDbLine
 10
31.16065
 20
77.0692
 30
0.0
 11
32.16555
 21
77.1699
 31
0.0
  0
LINE
  5
201
330
1E
100
AcDbEntity
  8
0
100
AcDbLine
 10
32.16555
 20
77.1699
 30
0.0
 11
33.19265
 21
77.2291
 31
0.0
  0
LINE
  5
206
330
1E
100
AcDbEntity
  8
0
100
AcDbLine
 10
35.54075
 20
76.69209999999999
 30
0.0
 11
36.52445
 21
76.6076
 31
0.0
  0
LINE
  5
207
330
1E
100
AcDbEntity
  8
0
100
AcDbLine
 10
34.53985
 20
76.73239999999999
 30
0.0
 11
35.54075
 21
76.69209999999999
 31
0.0
  0
LINE
  5
208
330
1E
100
AcDbEntity
  8
0
100
AcDbLine
 10
34.15684999999999
 20
76.73
 30
0.0
 11
34.53985
 21
76.73239999999999
 31
0.0
  0
LINE
  5
209
330
1E
100
AcDbEntity
  8
0
100
AcDbLine
 10
48.95615
 20
76.6394
 30
0.0
 11
49.39244999999999
 21
77.01260000000001
 31
0.0
  0
LINE
  5
20A
330
1E
100
AcDbEntity
  8
0
100
AcDbLine
 10
33.19265
 20
77.2291
 30
0.0
 11
34.15684999999999
 21
77.2455
 31
0.0
  0
LINE
  5
210
330
1E
100
AcDbEntity
  8
0
100
AcDbLine
 10
38.12875
 20
76.9294
 30
0.0
 11
39.06295
 21
76.75159999999999
 31
0.0
  0
LINE
  5
211
330
1E
100
AcDbEntity
  8
0
100
AcDbLine
 10
37.15305
 20
77.0692
 30
0.0
 11
38.12875
 21
76.9294
 31
0.0
  0
LINE
  5
212
330
1E
100
AcDbEntity
  8
0
100
AcDbLine
 10
36.14815
 20
77.1699
 30
0.0
 11
37.15305
 21
77.0692
 31
0.0
  0
LINE
  5
213
330
1E
100
AcDbEntity
  8
0
100
AcDbLine
 10
35.12105
 20
77.2291
 30
0.0
 11
36.14815
 21
77.1699
 31
0.0
  0
LINE
  5
214
330
1E
100
AcDbEntity
  8
0
100
AcDbLine
 10
34.15684999999999
 20
77.2455
 30
0.0
 11
35.12105
 21
77.2291
 31
0.0
  0
LINE
  5
216
330
1E
100
AcDbEntity
  8
0
100
AcDbLine
 10
39.06295
 20
76.75159999999999
 30
0.0
 11
39.94685
 21
76.5364
 31
0.0
  0
LINE
  5
217
330
1E
100
AcDbEntity
  8
0
100
AcDbLine
 10
49.39244999999999
 20
77.01260000000001
 30
0.0
 11
49.80205
 21
77.4427
 31
0.0
  0
LINE
  5
218
330
1E
100
AcDbEntity
  8
0
100
AcDbLine
 10
46.15685
 20
79.3048
 30
0.0
 11
46.15685
 21
73.68529999999999
 31
0.0
  0
LINE
  5
219
330
1E
100
AcDbEntity
  8
0
100
AcDbLine
 10
49.80205
 20
77.4427
 30
0.0
 11
50.12295
 21
77.85540000000001
 31
0.0
  0
LINE
  5
21A
330
1E
100
AcDbEntity
  8
0
100
AcDbLine
 10
50.39265
 20
78.2531
 30
0.0
 11
50.68115
 21
78.72969999999999
 31
0.0
  0
LINE
  5
21B
330
1E
100
AcDbEntity
  8
0
100
AcDbLine
 10
50.94364999999999
 20
79.2754
 30
0.0
 11
51.09155
 21
79.68980000000001
 31
0.0
  0
LINE
  5
21C
330
1E
100
AcDbEntity
  8
0
100
AcDbLine
 10
50.68115
 20
78.72969999999999
 30
0.0
 11
50.94364999999999
 21
79.2754
 31
0.0
  0
LINE
  5
21D
330
1E
100
AcDbEntity
  8
0
100
AcDbLine
 10
50.12295
 20
77.85540000000001
 30
0.0
 11
50.39265
 21
78.2531
 31
0.0
  0
LINE
  5
21E
330
1E
100
AcDbEntity
  8
0
100
AcDbLine
 10
51.09155
 20
79.68980000000001
 30
0.0
 11
51.23644999999999
 21
80.28730000000001
 31
0.0
  0
LINE
  5
21F
330
1E
100
AcDbEntity
  8
0
100
AcDbLine
 10
51.23644999999999
 20
80.28730000000001
 30
0.0
 11
51.28045
 21
80.59739999999999
 31
0.0
  0
LINE
  5
223
330
1E
100
AcDbEntity
  8
0
100
AcDbLine
 10
34.30545
 20
95.4404
 30
0.0
 11
34.30545
 21
95.5
 31
0.0
  0
LINE
  5
229
330
1E
100
AcDbEntity
  8
0
100
AcDbLine
 10
34.30545
 20
95.5
 30
0.0
 11
42.28085
 21
95.4141
 31
0.0
  0
LINE
  5
22A
330
1E
100
AcDbEntity
  8
0
100
AcDbLine
 10
34.30545
 20
95.5
 30
0.0
 11
34.30545
 21
95.4404
 31
0.0
  0
LINE
  5
22B
330
1E
100
AcDbEntity
  8
0
100
AcDbLine
 10
48.47725
 20
83.1038
 30
0.0
 11
48.77864999999999
 21
83.15369999999999
 31
0.0
  0
LINE
  5
22C
330
1E
100
AcDbEntity
  8
0
100
AcDbLine
 10
48.17215
 20
83.06090000000001
 30
0.0
 11
48.47725
 21
83.1038
 31
0.0
  0
LINE
  5
22D
330
1E
100
AcDbEntity
  8
0
100
AcDbLine
 10
48.17215
 20
83.06090000000001
 30
0.0
 11
48.77864999999999
 21
83.15369999999999
 31
0.0
  0
LINE
  5
22E
330
1E
100
AcDbEntity
  8
0
100
AcDbLine
 10
42.28085
 20
95.4141
 30
0.0
 11
50.25635
 21
95.1548
 31
0.0
  0
LINE
  5
230
330
1E
100
AcDbEntity
  8
0
100
AcDbLine
 10
34.30545
 20
82.5317
 30
0.0
 11
41.40464999999999
 21
82.4993
 31
0.0
  0
LINE
  5
23E
330
1E
100
AcDbEntity
  8
0
100
AcDbLine
 10
51.31935
 20
85.0197
 30
0.0
 11
51.68874999999999
 21
92.81170000000001
 31
0.0
  0
LINE
  5
243
330
1E
100
AcDbEntity
  8
0
100
AcDbLine
 10
51.31505
 20
81.3061
 30
0.0
 11
51.31655
 21
81.6233
 31
0.0
  0
LINE
  5
244
330
1E
100
AcDbEntity
  8
0
100
AcDbLine
 10
51.29845
 20
80.77530000000001
 30
0.0
 11
51.31505
 21
81.3061
 31
0.0
  0
LINE
  5
245
330
1E
100
AcDbEntity
  8
0
100
AcDbLine
 10
51.28045
 20
80.59739999999999
 30
0.0
 11
51.29845
 21
80.77530000000001
 31
0.0
  0
LINE
  5
246
330
1E
100
AcDbEntity
  8
0
100
AcDbLine
 10
51.30855
 20
82.77269999999999
 30
0.0
 11
51.31215
 21
82.4248
 31
0.0
  0
LINE
  5
247
330
1E
100
AcDbEntity
  8
0
100
AcDbLine
 10
51.30855
 20
82.77269999999999
 30
0.0
 11
51.30935
 21
83.1231
 31
0.0
  0
LINE
  5
248
330
1E
100
AcDbEntity
  8
0
100
AcDbLine
 10
51.31005
 20
84.5817
 30
0.0
 11
51.31935
 21
85.0197
 31
0.0
  0
LINE
  5
24B
330
1E
100
AcDbEntity
  8
0
100
AcDbLine
 10
51.31005
 20
84.5817
 30
0.0
 11
51.30935
 21
83.1231
 31
0.0
  0
LINE
  5
24C
330
1E
100
AcDbEntity
  8
0
100
AcDbLine
 10
51.31215
 20
82.4248
 30
0.0
 11
51.31655
 21
81.6233
 31
0.0
  0
LINE
  5
255
330
1E
100
AcDbEntity
  8
0
100
AcDbLine
 10
50.25635
 20
95.1548
 30
0.0
 11
50.71374999999999
 21
95.1476
 31
0.0
  0
LINE
  5
25F
330
1E
100
AcDbEntity
  8
0
100
AcDbLine
 10
112.15885
 20
83.10729999999999
 30
0.0
 11
112.16185
 21
83.42730000000001
 31
0.0
  0
LINE
  5
260
330
1E
100
AcDbEntity
  8
0
100
AcDbLine
 10
112.15885
 20
83.10729999999999
 30
0.0
 11
112.15985
 21
82.6538
 31
0.0
  0
LINE
  5
261
330
1E
100
AcDbEntity
  8
0
100
AcDbLine
 10
112.15885
 20
82.8424
 30
0.0
 11
112.16485
 21
82.094
 31
0.0
  0
LINE
  5
262
330
1E
100
AcDbEntity
  8
0
100
AcDbLine
 10
112.15885
 20
82.8424
 30
0.0
 11
112.1638499999999
 21
83.36109999999999
 31
0.0
  0
LINE
  5
263
330
1E
100
AcDbEntity
  8
0
100
AcDbLine
 10
112.15885
 20
82.8424
 30
0.0
 11
112.1728499999999
 21
83.81959999999999
 31
0.0
  0
LINE
  5
264
330
1E
100
AcDbEntity
  8
0
100
AcDbLine
 10
112.15885
 20
82.8424
 30
0.0
 11
112.16185
 21
83.34000000000001
 31
0.0
  0
LINE
  5
265
330
1E
100
AcDbEntity
  8
0
100
AcDbLine
 10
112.15885
 20
83.2216
 30
0.0
 11
112.16085
 21
83.75539999999999
 31
0.0
  0
LINE
  5
266
330
1E
100
AcDbEntity
  8
0
100
AcDbLine
 10
112.15885
 20
83.2216
 30
0.0
 11
112.1594103856839
 21
83.1670744729538
 31
0.0
  0
LINE
  5
267
330
1E
100
AcDbEntity
  8
0
100
AcDbLine
 10
112.15685
 20
83.9169
 30
0.0
 11
112.16028981368
 21
83.579072076488
 31
0.0
  0
LINE
  5
268
330
1E
100
AcDbEntity
  8
0
100
AcDbLine
 10
112.15685
 20
83.9169
 30
0.0
 11
112.15885
 21
84.16169999999999
 31
0.0
  0
LINE
  5
269
330
1E
100
AcDbEntity
  8
0
100
AcDbLine
 10
112.16485
 20
82.1672
 30
0.0
 11
112.1698499999999
 21
81.76489999999999
 31
0.0
  0
LINE
  5
270
330
1E
100
AcDbEntity
  8
0
100
AcDbLine
 10
112.1698499999999
 20
81.76489999999999
 30
0.0
 11
112.1958499999999
 21
80.6925
 31
0.0
  0
LINE
  5
271
330
1E
100
AcDbEntity
  8
0
100
AcDbLine
 10
112.16085
 20
82.80230000000001
 30
0.0
 11
112.1698499999999
 21
81.76489999999999
 31
0.0
  0
LINE
  5
272
330
1E
100
AcDbEntity
  8
0
100
AcDbLine
 10
112.16085
 20
82.80230000000001
 30
0.0
 11
112.16485
 21
82.1672
 31
0.0
  0
LINE
  5
273
330
1E
100
AcDbEntity
  8
0
100
AcDbLine
 10
112.15985
 20
82.6538
 30
0.0
 11
112.16185
 21
83.34000000000001
 31
0.0
  0
LINE
  5
274
330
1E
100
AcDbEntity
  8
0
100
AcDbLine
 10
112.163451980053
 20
82.9126907272656
 30
0.0
 11
112.1696006391829
 21
82.75490667450091
 31
0.0
  0
LINE
  5
275
330
1E
100
AcDbEntity
  8
0
100
AcDbLine
 10
112.160940097103
 20
82.7919148072274
 30
0.0
 11
112.16185
 21
83.42730000000001
 31
0.0
  0
LINE
  5
276
330
1E
100
AcDbEntity
  8
0
100
AcDbLine
 10
112.16085
 20
82.72899999999999
 30
0.0
 11
112.1609246283849
 21
82.78111300142541
 31
0.0
  0
LINE
  5
277
330
1E
100
AcDbEntity
  8
0
100
AcDbLine
 10
112.15985
 20
83.07720000000001
 30
0.0
 11
112.16485
 21
83.6841
 31
0.0
  0
LINE
  5
278
330
1E
100
AcDbEntity
  8
0
100
AcDbLine
 10
112.15985
 20
83.07720000000001
 30
0.0
 11
112.16085
 21
82.72899999999999
 31
0.0
  0
LINE
  5
279
330
1E
100
AcDbEntity
  8
0
100
AcDbLine
 10
112.1634531897309
 20
82.91405355142192
 30
0.0
 11
112.169621562889
 21
82.761126594797
 31
0.0
  0
LINE
  5
27A
330
1E
100
AcDbEntity
  8
0
100
AcDbLine
 10
112.16285
 20
82.23449999999999
 30
0.0
 11
112.16485
 21
82.094
 31
0.0
  0
LINE
  5
27B
330
1E
100
AcDbEntity
  8
0
100
AcDbLine
 10
112.16285
 20
82.23449999999999
 30
0.0
 11
112.1698499999999
 21
81.76489999999999
 31
0.0
  0
LINE
  5
27C
330
1E
100
AcDbEntity
  8
0
100
AcDbLine
 10
156.0868499999999
 20
79.5789
 30
0.0
 11
156.1168499999999
 21
80.6764
 31
0.0
  0
LINE
  5
27D
330
1E
100
AcDbEntity
  8
0
100
AcDbLine
 10
156.0868499999999
 20
79.5789
 30
0.0
 11
156.11785
 21
80.6925
 31
0.0
  0
LINE
  5
27E
330
1E
100
AcDbEntity
  8
0
100
AcDbLine
 10
156.03385
 20
77.5454
 30
0.0
 11
156.07785
 21
79.1917
 31
0.0
  0
LINE
  5
27F
330
1E
100
AcDbEntity
  8
0
100
AcDbLine
 10
156.11785
 20
80.6925
 30
0.0
 11
156.1438499999999
 21
81.76489999999999
 31
0.0
  0
LINE
  5
280
330
1E
100
AcDbEntity
  8
0
100
AcDbLine
 10
156.14885
 20
82.094
 30
0.0
 11
156.15485
 21
82.8424
 31
0.0
  0
LINE
  5
281
330
1E
100
AcDbEntity
  8
0
100
AcDbLine
 10
156.14885
 20
82.094
 30
0.0
 11
156.1508499999999
 21
82.23449999999999
 31
0.0
  0
LINE
  5
282
330
1E
100
AcDbEntity
  8
0
100
AcDbLine
 10
156.1438499999999
 20
81.76489999999999
 30
0.0
 11
156.1508499999999
 21
82.23449999999999
 31
0.0
  0
LINE
  5
283
330
1E
100
AcDbEntity
  8
0
100
AcDbLine
 10
156.1438499999999
 20
81.76489999999999
 30
0.0
 11
156.15285
 21
82.80230000000001
 31
0.0
  0
LINE
  5
284
330
1E
100
AcDbEntity
  8
0
100
AcDbLine
 10
156.1438499999999
 20
81.76489999999999
 30
0.0
 11
156.14885
 21
82.1672
 31
0.0
  0
LINE
  5
285
330
1E
100
AcDbEntity
  8
0
100
AcDbLine
 10
156.15285
 20
82.72899999999999
 30
0.0
 11
156.15385
 21
83.07720000000001
 31
0.0
  0
LINE
  5
286
330
1E
100
AcDbEntity
  8
0
100
AcDbLine
 10
156.14885
 20
82.1672
 30
0.0
 11
156.15285
 21
82.80230000000001
 31
0.0
  0
LINE
  5
287
330
1E
100
AcDbEntity
  8
0
100
AcDbLine
 10
156.152775371615
 20
82.78111300142541
 30
0.0
 11
156.15285
 21
82.72899999999999
 31
0.0
  0
LINE
  5
288
330
1E
100
AcDbEntity
  8
0
100
AcDbLine
 10
156.1478499999999
 20
83.03299999999998
 30
0.0
 11
156.1496236922159
 21
83.20719628331501
 31
0.0
  0
LINE
  5
289
330
1E
100
AcDbEntity
  8
0
100
AcDbLine
 10
156.144078437111
 20
82.761126594797
 30
0.0
 11
156.1502468102689
 21
82.9140535514213
 31
0.0
  0
LINE
  5
28A
330
1E
100
AcDbEntity
  8
0
100
AcDbLine
 10
156.1440993608169
 20
82.75490667450091
 30
0.0
 11
156.1502480199469
 21
82.912690727265
 31
0.0
  0
LINE
  5
28B
330
1E
100
AcDbEntity
  8
0
100
AcDbLine
 10
156.15385
 20
82.6538
 30
0.0
 11
156.15485
 21
83.10729999999999
 31
0.0
  0
LINE
  5
28C
330
1E
100
AcDbEntity
  8
0
100
AcDbLine
 10
156.154289614316
 20
83.1670744729538
 30
0.0
 11
156.15485
 21
83.2216
 31
0.0
  0
LINE
  5
28D
330
1E
100
AcDbEntity
  8
0
100
AcDbLine
 10
156.1529303804549
 20
83.16080089518951
 30
0.0
 11
156.15385
 21
83.337
 31
0.0
  0
LINE
  5
28E
330
1E
100
AcDbEntity
  8
0
100
AcDbLine
 10
112.15985
 20
83.337
 30
0.0
 11
112.160769619545
 21
83.16080089518951
 31
0.0
  0
LINE
  5
28F
330
1E
100
AcDbEntity
  8
0
100
AcDbLine
 10
112.15985
 20
83.337
 30
0.0
 11
112.16485
 21
83.6841
 31
0.0
  0
LINE
  5
290
330
1E
100
AcDbEntity
  8
0
100
AcDbLine
 10
112.16085
 20
83.75539999999999
 30
0.0
 11
112.16085
 21
83.85569999999999
 31
0.0
  0
LINE
  5
291
330
1E
100
AcDbEntity
  8
0
100
AcDbLine
 10
112.1638499999999
 20
83.36109999999999
 30
0.0
 11
112.1728499999999
 21
83.81959999999999
 31
0.0
  0
LINE
  5
292
330
1E
100
AcDbEntity
  8
0
100
AcDbLine
 10
112.17585
 20
84.28
 30
0.0
 11
112.19285
 21
84.6502
 31
0.0
  0
LINE
  5
293
330
1E
100
AcDbEntity
  8
0
100
AcDbLine
 10
156.1498499999999
 20
83.36109999999999
 30
0.0
 11
156.15485
 21
82.8424
 31
0.0
  0
LINE
  5
294
330
1E
100
AcDbEntity
  8
0
100
AcDbLine
 10
156.15185
 20
83.34000000000001
 30
0.0
 11
156.15385
 21
82.6538
 31
0.0
  0
LINE
  5
295
330
1E
100
AcDbEntity
  8
0
100
AcDbLine
 10
156.15185
 20
83.34000000000001
 30
0.0
 11
156.15485
 21
82.8424
 31
0.0
  0
LINE
  5
296
330
1E
100
AcDbEntity
  8
0
100
AcDbLine
 10
156.14885
 20
83.6841
 30
0.0
 11
156.15385
 21
83.337
 31
0.0
  0
LINE
  5
297
330
1E
100
AcDbEntity
  8
0
100
AcDbLine
 10
156.14885
 20
83.6841
 30
0.0
 11
156.15385
 21
83.07720000000001
 31
0.0
  0
LINE
  5
298
330
1E
100
AcDbEntity
  8
0
100
AcDbLine
 10
156.15185
 20
83.42730000000001
 30
0.0
 11
156.15485
 21
83.10729999999999
 31
0.0
  0
LINE
  5
299
330
1E
100
AcDbEntity
  8
0
100
AcDbLine
 10
156.15185
 20
83.42730000000001
 30
0.0
 11
156.152759902897
 21
82.7919148072274
 31
0.0
  0
LINE
  5
29A
330
1E
100
AcDbEntity
  8
0
100
AcDbLine
 10
156.1408499999999
 20
83.81959999999999
 30
0.0
 11
156.1498499999999
 21
83.36109999999999
 31
0.0
  0
LINE
  5
29B
330
1E
100
AcDbEntity
  8
0
100
AcDbLine
 10
156.1408499999999
 20
83.81959999999999
 30
0.0
 11
156.15485
 21
82.8424
 31
0.0
  0
LINE
  5
29C
330
1E
100
AcDbEntity
  8
0
100
AcDbLine
 10
156.15285
 20
83.85569999999999
 30
0.0
 11
156.15285
 21
83.75539999999999
 31
0.0
  0
LINE
  5
29D
330
1E
100
AcDbEntity
  8
0
100
AcDbLine
 10
156.15285
 20
83.75539999999999
 30
0.0
 11
156.15485
 21
83.2216
 31
0.0
  0
LINE
  5
29E
330
1E
100
AcDbEntity
  8
0
100
AcDbLine
 10
156.15285
 20
83.75539999999999
 30
0.0
 11
156.15285
 21
83.85569999999999
 31
0.0
  0
LINE
  5
29F
330
1E
100
AcDbEntity
  8
0
100
AcDbLine
 10
156.13785
 20
84.28
 30
0.0
 11
156.15285
 21
83.85569999999999
 31
0.0
  0
LINE
  5
2A0
330
1E
100
AcDbEntity
  8
0
100
AcDbLine
 10
156.133962454655
 20
84.22967339782401
 30
0.0
 11
156.15285
 21
83.85569999999999
 31
0.0
  0
LINE
  5
2A1
330
1E
100
AcDbEntity
  8
0
100
AcDbLine
 10
156.12085
 20
84.6502
 30
0.0
 11
156.13785
 21
84.28
 31
0.0
  0
LINE
  5
2A2
330
1E
100
AcDbEntity
  8
0
100
AcDbLine
 10
156.15485
 20
84.16169999999999
 30
0.0
 11
156.1568499999999
 21
83.9169
 31
0.0
  0
LINE
  5
2A3
330
1E
100
AcDbEntity
  8
0
100
AcDbLine
 10
156.15341018632
 20
83.5790720764893
 30
0.0
 11
156.1568499999999
 21
83.9169
 31
0.0
  0
LINE
  5
2A4
330
1E
100
AcDbEntity
  8
0
100
AcDbLine
 10
112.19285
 20
84.6502
 30
0.0
 11
112.2518499999999
 21
85.65749999999999
 31
0.0
  0
LINE
  5
2A5
330
1E
100
AcDbEntity
  8
0
100
AcDbLine
 10
112.24585
 20
85.9464
 30
0.0
 11
112.3498499999999
 21
86.93559999999999
 31
0.0
  0
LINE
  5
2A6
330
1E
100
AcDbEntity
  8
0
100
AcDbLine
 10
112.3498499999999
 20
86.93559999999999
 30
0.0
 11
112.4958499999999
 21
87.9218
 31
0.0
  0
LINE
  5
2A7
330
1E
100
AcDbEntity
  8
0
100
AcDbLine
 10
112.4958499999999
 20
87.9218
 30
0.0
 11
112.68685
 21
88.8999
 31
0.0
  0
LINE
  5
2A8
330
1E
100
AcDbEntity
  8
0
100
AcDbLine
 10
112.68685
 20
88.8999
 30
0.0
 11
112.9228499999999
 21
89.869
 31
0.0
  0
LINE
  5
2A9
330
1E
100
AcDbEntity
  8
0
100
AcDbLine
 10
156.0678499999999
 20
85.9464
 30
0.0
 11
156.15485
 21
84.16169999999999
 31
0.0
  0
LINE
  5
2AA
330
1E
100
AcDbEntity
  8
0
100
AcDbLine
 10
156.0618499999999
 20
85.65749999999999
 30
0.0
 11
156.101264545455
 21
84.87709200000029
 31
0.0
  0
LINE
  5
2AB
330
1E
100
AcDbEntity
  8
0
100
AcDbLine
 10
156.0618499999999
 20
85.65749999999999
 30
0.0
 11
156.12085
 21
84.6502
 31
0.0
  0
LINE
  5
2AC
330
1E
100
AcDbEntity
  8
0
100
AcDbLine
 10
155.96385
 20
86.93559999999999
 30
0.0
 11
156.0678499999999
 21
85.9464
 31
0.0
  0
LINE
  5
2AD
330
1E
100
AcDbEntity
  8
0
100
AcDbLine
 10
155.39085
 20
89.869
 30
0.0
 11
155.6268499999999
 21
88.8999
 31
0.0
  0
LINE
  5
2AE
330
1E
100
AcDbEntity
  8
0
100
AcDbLine
 10
155.6268499999999
 20
88.8999
 30
0.0
 11
155.8178499999999
 21
87.9218
 31
0.0
  0
LINE
  5
2AF
330
1E
100
AcDbEntity
  8
0
100
AcDbLine
 10
155.8178499999999
 20
87.9218
 30
0.0
 11
155.96385
 21
86.93559999999999
 31
0.0
  0
LINE
  5
2B0
330
1E
100
AcDbEntity
  8
0
100
AcDbLine
 10
112.9228499999999
 20
89.869
 30
0.0
 11
113.3188499999999
 21
91.17220000000001
 31
0.0
  0
LINE
  5
2B1
330
1E
100
AcDbEntity
  8
0
100
AcDbLine
 10
112.212435454546
 20
84.87709200000029
 30
0.0
 11
112.2518499999999
 21
85.65749999999999
 31
0.0
  0
LINE
  5
2B2
330
1E
100
AcDbEntity
  8
0
100
AcDbLine
 10
112.16085
 20
83.85569999999999
 30
0.0
 11
112.179737545345
 21
84.22967339782241
 31
0.0
  0
LINE
  5
2B3
330
1E
100
AcDbEntity
  8
0
100
AcDbLine
 10
112.16085
 20
83.85569999999999
 30
0.0
 11
112.17585
 21
84.28
 31
0.0
  0
LINE
  5
2B4
330
1E
100
AcDbEntity
  8
0
100
AcDbLine
 10
112.16085
 20
83.85569999999999
 30
0.0
 11
112.16085
 21
83.75539999999999
 31
0.0
  0
LINE
  5
2B5
330
1E
100
AcDbEntity
  8
0
100
AcDbLine
 10
112.1640763077839
 20
83.2071962833147
 30
0.0
 11
112.16585
 21
83.03299999999998
 31
0.0
  0
LINE
  5
2B6
330
1E
100
AcDbEntity
  8
0
100
AcDbLine
 10
112.15885
 20
84.16169999999999
 30
0.0
 11
112.24585
 21
85.9464
 31
0.0
  0
LINE
  5
2B7
330
1E
100
AcDbEntity
  8
0
100
AcDbLine
 10
113.3188499999999
 20
91.17220000000001
 30
0.0
 11
113.79885
 21
92.44939999999999
 31
0.0
  0
LINE
  5
2B8
330
1E
100
AcDbEntity
  8
0
100
AcDbLine
 10
115.00485
 20
94.9173
 30
0.0
 11
115.7588499999999
 21
96.1423
 31
0.0
  0
LINE
  5
2B9
330
1E
100
AcDbEntity
  8
0
100
AcDbLine
 10
114.35885
 20
93.6964
 30
0.0
 11
115.00485
 21
94.9173
 31
0.0
  0
LINE
  5
2BA
330
1E
100
AcDbEntity
  8
0
100
AcDbLine
 10
113.79885
 20
92.44939999999999
 30
0.0
 11
114.35885
 21
93.6964
 31
0.0
  0
LINE
  5
2BB
330
1E
100
AcDbEntity
  8
0
100
AcDbLine
 10
115.7588499999999
 20
96.1423
 30
0.0
 11
116.60085
 21
97.3281
 31
0.0
  0
LINE
  5
2BC
330
1E
100
AcDbEntity
  8
0
100
AcDbLine
 10
116.60085
 20
97.3281
 30
0.0
 11
117.52785
 21
98.4637
 31
0.0
  0
LINE
  5
2BD
330
1E
100
AcDbEntity
  8
0
100
AcDbLine
 10
118.53485
 20
99.5432
 30
0.0
 11
120.00085
 21
100.882
 31
0.0
  0
LINE
  5
2BE
330
1E
100
AcDbEntity
  8
0
100
AcDbLine
 10
117.52785
 20
98.4637
 30
0.0
 11
118.53485
 21
99.5432
 31
0.0
  0
LINE
  5
2BF
330
1E
100
AcDbEntity
  8
0
100
AcDbLine
 10
154.5148499999999
 20
92.44939999999999
 30
0.0
 11
154.99485
 21
91.17220000000001
 31
0.0
  0
LINE
  5
2C0
330
1E
100
AcDbEntity
  8
0
100
AcDbLine
 10
154.99485
 20
91.17220000000001
 30
0.0
 11
155.39085
 21
89.869
 31
0.0
  0
LINE
  5
2C1
330
1E
100
AcDbEntity
  8
0
100
AcDbLine
 10
153.9548499999999
 20
93.6964
 30
0.0
 11
154.5148499999999
 21
92.44939999999999
 31
0.0
  0
LINE
  5
2C2
330
1E
100
AcDbEntity
  8
0
100
AcDbLine
 10
153.30885
 20
94.9173
 30
0.0
 11
153.9548499999999
 21
93.6964
 31
0.0
  0
LINE
  5
2C3
330
1E
100
AcDbEntity
  8
0
100
AcDbLine
 10
149.77885
 20
99.5432
 30
0.0
 11
150.7868499999999
 21
98.4637
 31
0.0
  0
LINE
  5
2C4
330
1E
100
AcDbEntity
  8
0
100
AcDbLine
 10
151.71285
 20
97.3281
 30
0.0
 11
152.55485
 21
96.1423
 31
0.0
  0
LINE
  5
2C5
330
1E
100
AcDbEntity
  8
0
100
AcDbLine
 10
150.7868499999999
 20
98.4637
 30
0.0
 11
151.71285
 21
97.3281
 31
0.0
  0
LINE
  5
2C6
330
1E
100
AcDbEntity
  8
0
100
AcDbLine
 10
152.55485
 20
96.1423
 30
0.0
 11
153.30885
 21
94.9173
 31
0.0
  0
LINE
  5
2C7
330
1E
100
AcDbEntity
  8
0
100
AcDbLine
 10
148.31285
 20
100.882
 30
0.0
 11
149.77885
 21
99.5432
 31
0.0
  0
LINE
  5
2C8
330
1E
100
AcDbEntity
  8
0
100
AcDbLine
 10
123.29385
 20
103.1529999999999
 30
0.0
 11
124.5318499999999
 21
103.8
 31
0.0
  0
LINE
  5
2C9
330
1E
100
AcDbEntity
  8
0
100
AcDbLine
 10
124.5318499999999
 20
103.8
 30
0.0
 11
125.80685
 21
104.367
 31
0.0
  0
LINE
  5
2CA
330
1E
100
AcDbEntity
  8
0
100
AcDbLine
 10
125.80685
 20
104.367
 30
0.0
 11
127.11485
 21
104.852
 31
0.0
  0
LINE
  5
2CB
330
1E
100
AcDbEntity
  8
0
100
AcDbLine
 10
146.72285
 20
102.089
 30
0.0
 11
148.31285
 21
100.882
 31
0.0
  0
LINE
  5
2CC
330
1E
100
AcDbEntity
  8
0
100
AcDbLine
 10
141.1988499999999
 20
104.852
 30
0.0
 11
142.5068499999999
 21
104.367
 31
0.0
  0
LINE
  5
2CD
330
1E
100
AcDbEntity
  8
0
100
AcDbLine
 10
142.5068499999999
 20
104.367
 30
0.0
 11
143.7818499999999
 21
103.8
 31
0.0
  0
LINE
  5
2CE
330
1E
100
AcDbEntity
  8
0
100
AcDbLine
 10
143.7818499999999
 20
103.8
 30
0.0
 11
145.0198499999999
 21
103.1529999999999
 31
0.0
  0
LINE
  5
2CF
330
1E
100
AcDbEntity
  8
0
100
AcDbLine
 10
145.0198499999999
 20
103.1529999999999
 30
0.0
 11
146.72285
 21
102.089
 31
0.0
  0
LINE
  5
2D0
330
1E
100
AcDbEntity
  8
0
100
AcDbLine
 10
127.11485
 20
104.852
 30
0.0
 11
128.44685
 21
105.2529999999999
 31
0.0
  0
LINE
  5
2D1
330
1E
100
AcDbEntity
  8
0
100
AcDbLine
 10
128.44685
 20
105.2529999999999
 30
0.0
 11
129.79585
 21
105.567
 31
0.0
  0
LINE
  5
2D2
330
1E
100
AcDbEntity
  8
0
100
AcDbLine
 10
129.79585
 20
105.567
 30
0.0
 11
131.15485
 21
105.7949999999999
 31
0.0
  0
LINE
  5
2D3
330
1E
100
AcDbEntity
  8
0
100
AcDbLine
 10
131.15485
 20
105.7949999999999
 30
0.0
 11
132.51485
 21
105.939
 31
0.0
  0
LINE
  5
2D4
330
1E
100
AcDbEntity
  8
0
100
AcDbLine
 10
135.7988499999999
 20
105.939
 30
0.0
 11
137.15885
 21
105.7949999999999
 31
0.0
  0
LINE
  5
2D5
330
1E
100
AcDbEntity
  8
0
100
AcDbLine
 10
138.51785
 20
105.567
 30
0.0
 11
139.86685
 21
105.2529999999999
 31
0.0
  0
LINE
  5
2D6
330
1E
100
AcDbEntity
  8
0
100
AcDbLine
 10
139.86685
 20
105.2529999999999
 30
0.0
 11
141.1988499999999
 21
104.852
 31
0.0
  0
LINE
  5
2D7
330
1E
100
AcDbEntity
  8
0
100
AcDbLine
 10
137.15885
 20
105.7949999999999
 30
0.0
 11
138.51785
 21
105.567
 31
0.0
  0
LINE
  5
2D9
330
1E
100
AcDbEntity
  8
0
100
AcDbLine
 10
134.1568499999999
 20
106.0
 30
0.0
 11
135.7988499999999
 21
105.939
 31
0.0
  0
LINE
  5
2DA
330
1E
100
AcDbEntity
  8
0
100
AcDbLine
 10
132.51485
 20
105.939
 30
0.0
 11
134.1568499999999
 21
106.0
 31
0.0
  0
LINE
  5
2DC
330
1E
100
AcDbEntity
  8
0
100
AcDbLine
 10
121.59085
 20
102.089
 30
0.0
 11
123.29385
 21
103.1529999999999
 31
0.0
  0
LINE
  5
2DD
330
1E
100
AcDbEntity
  8
0
100
AcDbLine
 10
120.00085
 20
100.882
 30
0.0
 11
121.59085
 21
102.089
 31
0.0
  0
LINE
  5
2DE
330
1E
100
AcDbEntity
  8
0
100
AcDbLine
 10
167.99985
 20
111.8479999999999
 30
0.0
 11
167.99985
 21
56.1514
 31
0.0
  0
LINE
  5
2DF
330
1E
100
AcDbEntity
  8
0
100
AcDbLine
 10
165.44585
 20
117.5939999999999
 30
0.0
 11
166.1798499999999
 21
117.243
 31
0.0
  0
LINE
  5
2E0
330
1E
100
AcDbEntity
  8
0
100
AcDbLine
 10
164.6038499999999
 20
117.822
 30
0.0
 11
165.44585
 21
117.5939999999999
 31
0.0
  0
LINE
  5
2E1
330
1E
100
AcDbEntity
  8
0
100
AcDbLine
 10
163.98685
 20
117.914
 30
0.0
 11
164.6038499999999
 21
117.822
 31
0.0
  0
LINE
  5
2E2
330
1E
100
AcDbEntity
  8
0
100
AcDbLine
 10
167.2218499999999
 20
116.215
 30
0.0
 11
167.3818499999999
 21
115.937
 31
0.0
  0
LINE
  5
2E3
330
1E
100
AcDbEntity
  8
0
100
AcDbLine
 10
167.3818499999999
 20
115.937
 30
0.0
 11
167.67585
 21
115.206
 31
0.0
  0
LINE
  5
2E4
330
1E
100
AcDbEntity
  8
0
100
AcDbLine
 10
166.6438499999999
 20
116.8979999999999
 30
0.0
 11
167.2218499999999
 21
116.215
 31
0.0
  0
LINE
  5
2E5
330
1E
100
AcDbEntity
  8
0
100
AcDbLine
 10
166.1798499999999
 20
117.243
 30
0.0
 11
166.6438499999999
 21
116.8979999999999
 31
0.0
  0
LINE
  5
2E6
330
1E
100
AcDbEntity
  8
0
100
AcDbLine
 10
162.90985
 20
117.987
 30
0.0
 11
163.98685
 21
117.914
 31
0.0
  0
LINE
  5
2E7
330
1E
100
AcDbEntity
  8
0
100
AcDbLine
 10
161.82885
 20
118.0
 30
0.0
 11
162.90985
 21
117.987
 31
0.0
  0
LINE
  5
2E8
330
1E
100
AcDbEntity
  8
0
100
AcDbLine
 10
167.67585
 20
115.206
 30
0.0
 11
167.8838499999999
 21
114.244
 31
0.0
  0
LINE
  5
2E9
330
1E
100
AcDbEntity
  8
0
100
AcDbLine
 10
167.8838499999999
 20
114.244
 30
0.0
 11
167.9838499999999
 21
113.0489999999999
 31
0.0
  0
LINE
  5
2EA
330
1E
100
AcDbEntity
  8
0
100
AcDbLine
 10
167.9838499999999
 20
113.0489999999999
 30
0.0
 11
167.99985
 21
111.8479999999999
 31
0.0
  0
LINE
  5
2EB
330
1E
100
AcDbEntity
  8
0
100
AcDbLine
 10
84.00015000000001
 20
118.0
 30
0.0
 11
161.82885
 21
118.0
 31
0.0
  0
LINE
  5
2ED
330
1E
100
AcDbEntity
  8
0
100
AcDbLine
 10
33.77385
 20
76.73239999999999
 30
0.0
 11
34.15684999999999
 21
76.73
 31
0.0
  0
LINE
  5
2EF
330
1E
100
AcDbEntity
  8
0
100
AcDbLine
 10
32.77295
 20
76.69209999999999
 30
0.0
 11
33.77385
 21
76.73239999999999
 31
0.0
  0
LINE
  5
2F0
330
1E
100
AcDbEntity
  8
0
100
AcDbLine
 10
31.78925
 20
76.6076
 30
0.0
 11
32.77295
 21
76.69209999999999
 31
0.0
  0
LINE
  5
2F1
330
1E
100
AcDbEntity
  8
0
100
AcDbLine
 10
29.25075
 20
76.75159999999999
 30
0.0
 11
30.18495
 21
76.9294
 31
0.0
  0
LINE
  5
2F2
330
1E
100
AcDbEntity
  8
0
100
AcDbLine
 10
28.36685
 20
76.5364
 30
0.0
 11
29.25075
 21
76.75159999999999
 31
0.0
  0
LINE
  5
2F3
330
1E
100
AcDbEntity
  8
0
100
AcDbLine
 10
27.54155
 20
76.288
 30
0.0
 11
28.36685
 21
76.5364
 31
0.0
  0
LINE
  5
2F8
330
1E
100
AcDbEntity
  8
0
100
AcDbLine
 10
27.20615
 20
82.4993
 30
0.0
 11
20.43864999999999
 21
83.06090000000001
 31
0.0
  0
LINE
  5
2F9
330
1E
100
AcDbEntity
  8
0
100
AcDbLine
 10
20.43864999999999
 20
83.06090000000001
 30
0.0
 11
20.13355
 21
83.1038
 31
0.0
  0
LINE
  5
2FA
330
1E
100
AcDbEntity
  8
0
100
AcDbLine
 10
19.83214999999999
 20
83.15369999999999
 30
0.0
 11
17.29725
 21
84.97329999999999
 31
0.0
  0
LINE
  5
2FB
330
1E
100
AcDbEntity
  8
0
100
AcDbLine
 10
41.40464999999999
 20
82.4993
 30
0.0
 11
48.17215
 21
83.06090000000001
 31
0.0
  0
LINE
  5
2FC
330
1E
100
AcDbEntity
  8
0
100
AcDbLine
 10
48.17215
 20
83.06090000000001
 30
0.0
 11
48.77864999999999
 21
83.15369999999999
 31
0.0
  0
LINE
  5
2FD
330
1E
100
AcDbEntity
  8
0
100
AcDbLine
 10
48.77864999999999
 20
83.15369999999999
 30
0.0
 11
51.31935
 21
85.0197
 31
0.0
  0
LINE
  5
2FE
330
1E
100
AcDbEntity
  8
0
100
AcDbLine
 10
51.68874999999999
 20
92.81170000000001
 30
0.0
 11
51.81615755583379
 21
94.41958888740131
 31
0.0
  0
LINE
  5
2FF
330
1E
100
AcDbEntity
  8
0
100
AcDbLine
 10
51.81615755583379
 20
94.41958888740131
 30
0.0
 11
51.68487148742975
 21
94.90864205118041
 31
0.0
  0
LINE
  5
300
330
1E
100
AcDbEntity
  8
0
100
AcDbLine
 10
51.68487148742975
 20
94.90864205118041
 30
0.0
 11
51.26714350504528
 21
95.11142036091721
 31
0.0
  0
LINE
  5
301
330
1E
100
AcDbEntity
  8
0
100
AcDbLine
 10
51.26714350504528
 20
95.11142036091721
 30
0.0
 11
50.71374999999999
 21
95.1476
 31
0.0
  0
LINE
  5
302
330
1E
100
AcDbEntity
  8
0
100
AcDbLine
 10
16.92215
 20
92.81170000000001
 30
0.0
 11
16.7372031041657
 21
94.53302252852628
 31
0.0
  0
LINE
  5
303
330
1E
100
AcDbEntity
  8
0
100
AcDbLine
 10
16.7372031041657
 20
94.53302252852628
 30
0.0
 11
16.85712605294827
 21
94.98846564260949
 31
0.0
  0
LINE
  5
304
330
1E
100
AcDbEntity
  8
0
100
AcDbLine
 10
16.85712605294827
 20
94.98846564260949
 30
0.0
 11
17.31283566697777
 21
95.13228972566762
 31
0.0
  0
LINE
  5
305
330
1E
100
AcDbEntity
  8
0
100
AcDbLine
 10
17.31283566697777
 20
95.13228972566762
 30
0.0
 11
17.89705
 21
95.1476
 31
0.0
  0
ENDSEC
  0
SECTION
  2
OBJECTS
  0
DICTIONARY
  5
C
330
0
100
AcDbDictionary
281
     1
  3
ACAD_GROUP
350
D
  3
ACAD_LAYOUT
350
19
  3
ACAD_MLINESTYLE
350
16
  3
ACAD_PLOTSETTINGS
350
18
  3
ACAD_PLOTSTYLENAME
350
E
  3
AcDbVariableDictionary
350
307
  0
DICTIONARY
  5
D
102
{ACAD_REACTORS
330
C
102
}
330
C
100
AcDbDictionary
281
     1
  0
DICTIONARY
  5
19
102
{ACAD_REACTORS
330
C
102
}
330
C
100
AcDbDictionary
281
     1
  3
Layout1
350
1D
  3
Model
350
21
  0
DICTIONARY
  5
16
102
{ACAD_REACTORS
330
C
102
}
330
C
100
AcDbDictionary
281
     1
  3
Standard
350
17
  0
DICTIONARY
  5
18
102
{ACAD_REACTORS
330
C
102
}
330
C
100
AcDbDictionary
281
     1
  0
ACDBDICTIONARYWDFLT
  5
E
102
{ACAD_REACTORS
330
C
102
}
330
C
100
AcDbDictionary
281
     1
  3
Normal
350
F
100
AcDbDictionaryWithDefault
340
F
  0
DICTIONARY
  5
307
102
{ACAD_REACTORS
330
C
102
}
330
C
100
AcDbDictionary
281
     1
  3
DIMASSOC
350
308
  0
LAYOUT
  5
1D
102
{ACAD_REACTORS
330
19
102
}
330
19
100
AcDbPlotSettings
  1

  2
C:\Programme\AutoCAD LT 2002 Deu\plotters\DWF ePlot (optimized for plotting).pc3
  4

  6

 40
0.0
 41
0.0
 42
0.0
 43
0.0
 44
0.0
 45
0.0
 46
0.0
 47
0.0
 48
0.0
 49
0.0
140
0.0
141
0.0
142
1.0
143
1.0
 70
   688
 72
     0
 73
     0
 74
     5
  7

 75
    16
147
1.0
148
0.0
149
0.0
100
AcDbLayout
  1
Layout1
 70
     1
 71
     1
 10
0.0
 20
0.0
 11
12.0
 21
9.0
 12
0.0
 22
0.0
 32
0.0
 14
1.000000000000000E+20
 24
1.000000000000000E+20
 34
1.000000000000000E+20
 15
-1.000000000000000E+20
 25
-1.000000000000000E+20
 35
-1.000000000000000E+20
146
0.0
 13
0.0
 23
0.0
 33
0.0
 16
1.0
 26
0.0
 36
0.0
 17
0.0
 27
1.0
 37
0.0
 76
     0
330
1A
  0
LAYOUT
  5
21
102
{ACAD_REACTORS
330
19
102
}
330
19
100
AcDbPlotSettings
  1

  2
C:\Programme\AutoCAD LT 2002 Deu\plotters\DWF ePlot (optimized for plotting).pc3
  4

  6

 40
0.0
 41
0.0
 42
0.0
 43
0.0
 44
0.0
 45
0.0
 46
0.0
 47
0.0
 48
0.0
 49
0.0
140
0.0
141
0.0
142
1.0
143
1.0
 70
  1712
 72
     0
 73
     0
 74
     0
  7

 75
     0
147
1.0
148
0.0
149
0.0
100
AcDbLayout
  1
Model
 70
     1
 71
     0
 10
0.0
 20
0.0
 11
12.0
 21
9.0
 12
0.0
 22
0.0
 32
0.0
 14
0.0
 24
0.0
 34
0.0
 15
0.0
 25
0.0
 35
0.0
146
0.0
 13
0.0
 23
0.0
 33
0.0
 16
1.0
 26
0.0
 36
0.0
 17
0.0
 27
1.0
 37
0.0
 76
     0
330
1E
  0
MLINESTYLE
  5
17
102
{ACAD_REACTORS
330
16
102
}
330
16
100
AcDbMlineStyle
  2
STANDARD
 70
     0
  3

 62
   256
 51
90.0
 52
90.0
 71
     2
 49
0.5
 62
   256
  6
BYLAYER
 49
-0.5
 62
   256
  6
BYLAYER
  0
ACDBPLACEHOLDER
  5
F
102
{ACAD_REACTORS
330
E
102
}
330
E
  0
DICTIONARYVAR
  5
308
102
{ACAD_REACTORS
330
307
102
}
330
307
100
DictionaryVariables
280
     0
  1
1
  0
ENDSEC
  0
EOF
