  0
SECTION
  2
HEADER
  9
$ACADVER
  1
AC1015
  9
$ACADMAINTVER
 70
    13
  9
$DWGCODEPAGE
  3
ANSI_1252
  9
$INSBASE
 10
0.0
 20
0.0
 30
0.0
  9
$EXTMIN
 10
14.24
 20
-0.196999999999957
 30
0.0
  9
$EXTMAX
 10
137.7599999999999
 20
348.1969999999999
 30
0.0
  9
$LIMMIN
 10
0.0
 20
0.0
  9
$LIMMAX
 10
12.0
 20
9.0
  9
$ORTHOMODE
 70
     0
  9
$REGENMODE
 70
     1
  9
$FILLMODE
 70
     1
  9
$QTEXTMODE
 70
     0
  9
$MIRRTEXT
 70
     1
  9
$LTSCALE
 40
1.0
  9
$ATTMODE
 70
     1
  9
$TEXTSIZE
 40
0.2
  9
$TRACEWID
 40
0.05
  9
$TEXTSTYLE
  7
Standard
  9
$CLAYER
  8
0
  9
$CELTYPE
  6
Continuous
  9
$CECOLOR
 62
   256
  9
$CELTSCALE
 40
1.0
  9
$DISPSILH
 70
     0
  9
$DIMSCALE
 40
1.0
  9
$DIMASZ
 40
0.18
  9
$DIMEXO
 40
0.0625
  9
$DIMDLI
 40
0.38
  9
$DIMRND
 40
0.0
  9
$DIMDLE
 40
0.0
  9
$DIMEXE
 40
0.18
  9
$DIMTP
 40
0.0
  9
$DIMTM
 40
0.0
  9
$DIMTXT
 40
0.18
  9
$DIMCEN
 40
0.09
  9
$DIMTSZ
 40
0.0
  9
$DIMTOL
 70
     0
  9
$DIMLIM
 70
     0
  9
$DIMTIH
 70
     1
  9
$DIMTOH
 70
     1
  9
$DIMSE1
 70
     0
  9
$DIMSE2
 70
     0
  9
$DIMTAD
 70
     0
  9
$DIMZIN
 70
     0
  9
$DIMBLK
  1

  9
$DIMASO
 70
     1
  9
$DIMSHO
 70
     1
  9
$DIMPOST
  1

  9
$DIMAPOST
  1

  9
$DIMALT
 70
     0
  9
$DIMALTD
 70
     2
  9
$DIMALTF
 40
25.4
  9
$DIMLFAC
 40
1.0
  9
$DIMTOFL
 70
     0
  9
$DIMTVP
 40
0.0
  9
$DIMTIX
 70
     0
  9
$DIMSOXD
 70
     0
  9
$DIMSAH
 70
     0
  9
$DIMBLK1
  1

  9
$DIMBLK2
  1

  9
$DIMSTYLE
  2
Standard
  9
$DIMCLRD
 70
     0
  9
$DIMCLRE
 70
     0
  9
$DIMCLRT
 70
     0
  9
$DIMTFAC
 40
1.0
  9
$DIMGAP
 40
0.09
  9
$DIMJUST
 70
     0
  9
$DIMSD1
 70
     0
  9
$DIMSD2
 70
     0
  9
$DIMTOLJ
 70
     1
  9
$DIMTZIN
 70
     0
  9
$DIMALTZ
 70
     0
  9
$DIMALTTZ
 70
     0
  9
$DIMUPT
 70
     0
  9
$DIMDEC
 70
     4
  9
$DIMTDEC
 70
     4
  9
$DIMALTU
 70
     2
  9
$DIMALTTD
 70
     2
  9
$DIMTXSTY
  7
Standard
  9
$DIMAUNIT
 70
     0
  9
$DIMADEC
 70
     0
  9
$DIMALTRND
 40
0.0
  9
$DIMAZIN
 70
     0
  9
$DIMDSEP
 70
    46
  9
$DIMATFIT
 70
     3
  9
$DIMFRAC
 70
     0
  9
$DIMLDRBLK
  1

  9
$DIMLUNIT
 70
     2
  9
$DIMLWD
 70
    -2
  9
$DIMLWE
 70
    -2
  9
$DIMTMOVE
 70
     0
  9
$LUNITS
 70
     2
  9
$LUPREC
 70
     4
  9
$SKETCHINC
 40
0.1
  9
$FILLETRAD
 40
0.0
  9
$AUNITS
 70
     0
  9
$AUPREC
 70
     0
  9
$MENU
  1
.
  9
$ELEVATION
 40
0.0
  9
$PELEVATION
 40
0.0
  9
$THICKNESS
 40
0.0
  9
$LIMCHECK
 70
     0
  9
$CHAMFERA
 40
0.0
  9
$CHAMFERB
 40
0.0
  9
$CHAMFERC
 40
0.0
  9
$CHAMFERD
 40
0.0
  9
$SKPOLY
 70
     0
  9
$TDCREATE
 40
2455646.903015578
  9
$TDUCREATE
 40
2455646.861348912
  9
$TDUPDATE
 40
2455646.915002350
  9
$TDUUPDATE
 40
2455646.873335683
  9
$TDINDWG
 40
0.0119867708
  9
$TDUSRTIMER
 40
0.0119867708
  9
$USRTIMER
 70
     1
  9
$ANGBASE
 50
0.0
  9
$ANGDIR
 70
     0
  9
$PDMODE
 70
     0
  9
$PDSIZE
 40
0.0
  9
$PLINEWID
 40
0.0
  9
$SPLFRAME
 70
     0
  9
$SPLINETYPE
 70
     6
  9
$SPLINESEGS
 70
     8
  9
$HANDSEED
  5
3BC
  9
$SURFTAB1
 70
     6
  9
$SURFTAB2
 70
     6
  9
$SURFTYPE
 70
     6
  9
$SURFU
 70
     6
  9
$SURFV
 70
     6
  9
$UCSBASE
  2

  9
$UCSNAME
  2

  9
$UCSORG
 10
0.0
 20
0.0
 30
0.0
  9
$UCSXDIR
 10
1.0
 20
0.0
 30
0.0
  9
$UCSYDIR
 10
0.0
 20
1.0
 30
0.0
  9
$UCSORTHOREF
  2

  9
$UCSORTHOVIEW
 70
     1
  9
$UCSORGTOP
 10
0.0
 20
0.0
 30
0.0
  9
$UCSORGBOTTOM
 10
0.0
 20
0.0
 30
0.0
  9
$UCSORGLEFT
 10
0.0
 20
0.0
 30
0.0
  9
$UCSORGRIGHT
 10
0.0
 20
0.0
 30
0.0
  9
$UCSORGFRONT
 10
0.0
 20
0.0
 30
0.0
  9
$UCSORGBACK
 10
0.0
 20
0.0
 30
0.0
  9
$PUCSBASE
  2

  9
$PUCSNAME
  2

  9
$PUCSORG
 10
0.0
 20
0.0
 30
0.0
  9
$PUCSXDIR
 10
1.0
 20
0.0
 30
0.0
  9
$PUCSYDIR
 10
0.0
 20
1.0
 30
0.0
  9
$PUCSORTHOREF
  2

  9
$PUCSORTHOVIEW
 70
     0
  9
$PUCSORGTOP
 10
0.0
 20
0.0
 30
0.0
  9
$PUCSORGBOTTOM
 10
0.0
 20
0.0
 30
0.0
  9
$PUCSORGLEFT
 10
0.0
 20
0.0
 30
0.0
  9
$PUCSORGRIGHT
 10
0.0
 20
0.0
 30
0.0
  9
$PUCSORGFRONT
 10
0.0
 20
0.0
 30
0.0
  9
$PUCSORGBACK
 10
0.0
 20
0.0
 30
0.0
  9
$USERI1
 70
     0
  9
$USERI2
 70
     0
  9
$USERI3
 70
     0
  9
$USERI4
 70
     0
  9
$USERI5
 70
     0
  9
$USERR1
 40
0.0
  9
$USERR2
 40
0.0
  9
$USERR3
 40
0.0
  9
$USERR4
 40
0.0
  9
$USERR5
 40
0.0
  9
$WORLDVIEW
 70
     1
  9
$SHADEDGE
 70
     3
  9
$SHADEDIF
 70
    70
  9
$TILEMODE
 70
     1
  9
$MAXACTVP
 70
    64
  9
$PINSBASE
 10
0.0
 20
0.0
 30
0.0
  9
$PLIMCHECK
 70
     0
  9
$PEXTMIN
 10
1.000000000000000E+20
 20
1.000000000000000E+20
 30
1.000000000000000E+20
  9
$PEXTMAX
 10
-1.000000000000000E+20
 20
-1.000000000000000E+20
 30
-1.000000000000000E+20
  9
$PLIMMIN
 10
0.0
 20
0.0
  9
$PLIMMAX
 10
12.0
 20
9.0
  9
$UNITMODE
 70
     0
  9
$VISRETAIN
 70
     1
  9
$PLINEGEN
 70
     0
  9
$PSLTSCALE
 70
     1
  9
$TREEDEPTH
 70
  3020
  9
$CMLSTYLE
  2
Standard
  9
$CMLJUST
 70
     0
  9
$CMLSCALE
 40
1.0
  9
$PROXYGRAPHICS
 70
     1
  9
$MEASUREMENT
 70
     0
  9
$CELWEIGHT
370
    -1
  9
$ENDCAPS
280
     0
  9
$JOINSTYLE
280
     0
  9
$LWDISPLAY
290
     0
  9
$INSUNITS
 70
     0
  9
$HYPERLINKBASE
  1

  9
$STYLESHEET
  1

  9
$XEDIT
290
     1
  9
$CEPSNTYPE
380
     0
  9
$PSTYLEMODE
290
     1
  9
$FINGERPRINTGUID
  2
{035870A3-73E2-4901-B73F-02E7AD8D0553}
  9
$VERSIONGUID
  2
{DFB6A88D-0D8B-498B-A325-A372ED4AA14F}
  9
$EXTNAMES
290
     1
  9
$PSVPSCALE
 40
0.0
  9
$OLESTARTUP
290
     0
  0
ENDSEC
  0
SECTION
  2
CLASSES
  0
CLASS
  1
ACDBDICTIONARYWDFLT
  2
AcDbDictionaryWithDefault
  3
AutoCAD 2000
 90
        0
280
     0
281
     0
  0
CLASS
  1
ACDBPLACEHOLDER
  2
AcDbPlaceHolder
  3
AutoCAD 2000
 90
        0
280
     0
281
     0
  0
CLASS
  1
LAYOUT
  2
AcDbLayout
  3
AutoCAD 2000
 90
        0
280
     0
281
     0
  0
CLASS
  1
DICTIONARYVAR
  2
AcDbDictionaryVar
  3
AutoCAD 2000
 90
        0
280
     0
281
     0
  0
ENDSEC
  0
SECTION
  2
TABLES
  0
TABLE
  2
VPORT
  5
8
330
0
100
AcDbSymbolTable
 70
     7
  0
VPORT
  5
3BB
330
8
100
AcDbSymbolTableRecord
100
AcDbViewportTableRecord
  2
*Active
 70
     0
 10
0.0
 20
0.0
 11
1.0
 21
1.0
 12
76.0
 22
174.0
 13
0.0
 23
0.0
 14
1.0
 24
1.0
 15
0.0
 25
0.0
 16
0.0
 26
0.0
 36
1.0
 17
0.0
 27
0.0
 37
0.0
 40
350.7506674182636
 41
2.073363431151241
 42
50.0
 43
0.0
 44
0.0
 50
0.0
 51
0.0
 71
     0
 72
   100
 73
     1
 74
     3
 75
     0
 76
     0
 77
     0
 78
     0
281
     0
 65
     1
110
0.0
120
0.0
130
0.0
111
1.0
121
0.0
131
0.0
112
0.0
122
1.0
132
0.0
 79
     1
146
0.0
  0
ENDTAB
  0
TABLE
  2
LTYPE
  5
5
330
0
100
AcDbSymbolTable
 70
     1
  0
LTYPE
  5
13
330
5
100
AcDbSymbolTableRecord
100
AcDbLinetypeTableRecord
  2
ByBlock
 70
     0
  3

 72
    65
 73
     0
 40
0.0
  0
LTYPE
  5
14
330
5
100
AcDbSymbolTableRecord
100
AcDbLinetypeTableRecord
  2
ByLayer
 70
     0
  3

 72
    65
 73
     0
 40
0.0
  0
LTYPE
  5
15
330
5
100
AcDbSymbolTableRecord
100
AcDbLinetypeTableRecord
  2
Continuous
 70
     0
  3
Solid line
 72
    65
 73
     0
 40
0.0
  0
ENDTAB
  0
TABLE
  2
LAYER
  5
2
330
0
100
AcDbSymbolTable
 70
     1
  0
LAYER
  5
10
330
2
100
AcDbSymbolTableRecord
100
AcDbLayerTableRecord
  2
0
 70
     0
 62
     7
  6
Continuous
370
    -3
390
F
  0
ENDTAB
  0
TABLE
  2
STYLE
  5
3
330
0
100
AcDbSymbolTable
 70
     1
  0
STYLE
  5
11
330
3
100
AcDbSymbolTableRecord
100
AcDbTextStyleTableRecord
  2
Standard
 70
     0
 40
0.0
 41
1.0
 50
0.0
 71
     0
 42
0.2
  3
txt
  4

  0
ENDTAB
  0
TABLE
  2
VIEW
  5
6
330
0
100
AcDbSymbolTable
 70
     0
  0
ENDTAB
  0
TABLE
  2
UCS
  5
7
330
0
100
AcDbSymbolTable
 70
     0
  0
ENDTAB
  0
TABLE
  2
APPID
  5
9
330
0
100
AcDbSymbolTable
 70
     1
  0
APPID
  5
12
330
9
100
AcDbSymbolTableRecord
100
AcDbRegAppTableRecord
  2
ACAD
 70
     0
  0
ENDTAB
  0
TABLE
  2
DIMSTYLE
  5
A
330
0
100
AcDbSymbolTable
 70
     1
100
AcDbDimStyleTable
 71
     0
  0
DIMSTYLE
105
3A6
330
A
100
AcDbSymbolTableRecord
100
AcDbDimStyleTableRecord
  2
Standard
 70
     0
340
11
  0
ENDTAB
  0
TABLE
  2
BLOCK_RECORD
  5
1
330
0
100
AcDbSymbolTable
 70
     0
  0
BLOCK_RECORD
  5
1E
330
1
100
AcDbSymbolTableRecord
100
AcDbBlockTableRecord
  2
*Model_Space
340
21
  0
BLOCK_RECORD
  5
1A
330
1
100
AcDbSymbolTableRecord
100
AcDbBlockTableRecord
  2
*Paper_Space
340
1D
  0
ENDTAB
  0
ENDSEC
  0
SECTION
  2
BLOCKS
  0
BLOCK
  5
1F
330
1E
100
AcDbEntity
  8
0
100
AcDbBlockBegin
  2
*Model_Space
 70
     0
 10
0.0
 20
0.0
 30
0.0
  3
*Model_Space
  1

  0
ENDBLK
  5
20
330
1E
100
AcDbEntity
  8
0
100
AcDbBlockEnd
  0
BLOCK
  5
1B
330
1A
100
AcDbEntity
 67
     1
  8
0
100
AcDbBlockBegin
  2
*Paper_Space
 70
     0
 10
0.0
 20
0.0
 30
0.0
  3
*Paper_Space
  1

  0
ENDBLK
  5
1C
330
1A
100
AcDbEntity
 67
     1
  8
0
100
AcDbBlockEnd
  0
ENDSEC
  0
SECTION
  2
ENTITIES
  0
LINE
  5
22
330
1E
100
AcDbEntity
  8
0
100
AcDbLine
 10
25.0098
 20
103.8379999999999
 30
0.0
 11
26.16519999999999
 21
92.5623
 31
0.0
  0
LINE
  5
23
330
1E
100
AcDbEntity
  8
0
100
AcDbLine
 10
50.0
 20
19.26
 30
0.0
 11
50.0
 21
12.34799999999999
 31
0.0
  0
LINE
  5
24
330
1E
100
AcDbEntity
  8
0
100
AcDbLine
 10
50.0
 20
19.26
 30
0.0
 11
50.0
 21
23.206
 31
0.0
  0
LINE
  5
25
330
1E
100
AcDbEntity
  8
0
100
AcDbLine
 10
50.0
 20
23.206
 30
0.0
 11
50.0
 21
19.26
 31
0.0
  0
LINE
  5
26
330
1E
100
AcDbEntity
  8
0
100
AcDbLine
 10
50.0
 20
23.206
 30
0.0
 11
50.0
 21
27.03
 31
0.0
  0
LINE
  5
27
330
1E
100
AcDbEntity
  8
0
100
AcDbLine
 10
50.0
 20
12.34799999999999
 30
0.0
 11
50.0
 21
8.695000000000041
 31
0.0
  0
LINE
  5
28
330
1E
100
AcDbEntity
  8
0
100
AcDbLine
 10
50.0
 20
12.34799999999999
 30
0.0
 11
50.0
 21
19.26
 31
0.0
  0
LINE
  5
29
330
1E
100
AcDbEntity
  8
0
100
AcDbLine
 10
50.0
 20
27.03
 30
0.0
 11
50.0
 21
23.206
 31
0.0
  0
LINE
  5
2A
330
1E
100
AcDbEntity
  8
0
100
AcDbLine
 10
50.0
 20
27.03
 30
0.0
 11
50.0
 21
33.891
 31
0.0
  0
LINE
  5
2B
330
1E
100
AcDbEntity
  8
0
100
AcDbLine
 10
50.0
 20
8.695000000000041
 30
0.0
 11
50.232
 21
6.78600000000004
 31
0.0
  0
LINE
  5
2C
330
1E
100
AcDbEntity
  8
0
100
AcDbLine
 10
50.0
 20
8.695000000000041
 30
0.0
 11
50.0
 21
12.34799999999999
 31
0.0
  0
LINE
  5
2D
330
1E
100
AcDbEntity
  8
0
100
AcDbLine
 10
50.0
 20
23.409
 30
0.0
 11
50.0
 21
8.695000000000041
 31
0.0
  0
LINE
  5
2E
330
1E
100
AcDbEntity
  8
0
100
AcDbLine
 10
50.0
 20
52.5020000000001
 30
0.0
 11
50.0
 21
33.891
 31
0.0
  0
LINE
  5
2F
330
1E
100
AcDbEntity
  8
0
100
AcDbLine
 10
50.0
 20
52.5020000000001
 30
0.0
 11
50.0
 21
85.96000000000008
 31
0.0
  0
LINE
  5
30
330
1E
100
AcDbEntity
  8
0
100
AcDbLine
 10
50.0
 20
33.891
 30
0.0
 11
50.0
 21
27.03
 31
0.0
  0
LINE
  5
31
330
1E
100
AcDbEntity
  8
0
100
AcDbLine
 10
50.0
 20
33.891
 30
0.0
 11
50.0
 21
52.5020000000001
 31
0.0
  0
LINE
  5
32
330
1E
100
AcDbEntity
  8
0
100
AcDbLine
 10
50.0
 20
33.5020000000001
 30
0.0
 11
50.0
 21
23.409
 31
0.0
  0
LINE
  5
33
330
1E
100
AcDbEntity
  8
0
100
AcDbLine
 10
50.828
 20
5.16000000000004
 30
0.0
 11
51.628
 21
3.867000000000039
 31
0.0
  0
LINE
  5
34
330
1E
100
AcDbEntity
  8
0
100
AcDbLine
 10
50.232
 20
6.78600000000004
 30
0.0
 11
50.828
 21
5.16000000000004
 31
0.0
  0
LINE
  5
38
330
1E
100
AcDbEntity
  8
0
100
AcDbLine
 10
54.121
 20
1.531000000000039
 30
0.0
 11
55.665
 21
0.8830000000000428
 31
0.0
  0
LINE
  5
3C
330
1E
100
AcDbEntity
  8
0
100
AcDbLine
 10
52.614
 20
2.70000000000004
 30
0.0
 11
54.121
 21
1.531000000000039
 31
0.0
  0
LINE
  5
3D
330
1E
100
AcDbEntity
  8
0
100
AcDbLine
 10
51.628
 20
3.867000000000039
 30
0.0
 11
52.614
 21
2.70000000000004
 31
0.0
  0
LINE
  5
3E
330
1E
100
AcDbEntity
  8
0
100
AcDbLine
 10
55.665
 20
0.8830000000000428
 30
0.0
 11
57.303
 21
0.475000000000043
 31
0.0
  0
LINE
  5
41
330
1E
100
AcDbEntity
  8
0
100
AcDbLine
 10
57.303
 20
0.475000000000043
 30
0.0
 11
60.354
 21
0.253000000000043
 31
0.0
  0
LINE
  5
42
330
1E
100
AcDbEntity
  8
0
100
AcDbLine
 10
60.354
 20
0.253000000000043
 30
0.0
 11
64.26100000000001
 21
0.142000000000043
 31
0.0
  0
LINE
  5
44
330
1E
100
AcDbEntity
  8
0
100
AcDbLine
 10
64.26100000000001
 20
0.142000000000043
 30
0.0
 11
69.352
 21
-0.0269999999999574
 31
0.0
  0
LINE
  5
45
330
1E
100
AcDbEntity
  8
0
100
AcDbLine
 10
69.352
 20
-0.0269999999999574
 30
0.0
 11
72.576
 21
-0.113999999999957
 31
0.0
  0
LINE
  5
4B
330
1E
100
AcDbEntity
  8
0
100
AcDbLine
 10
50.0
 20
52.1950000000001
 30
0.0
 11
50.0
 21
33.5020000000001
 31
0.0
  0
LINE
  5
4C
330
1E
100
AcDbEntity
  8
0
100
AcDbLine
 10
43.27399
 20
63.02649999999999
 30
0.0
 11
45.07750999999999
 21
64.1336
 31
0.0
  0
LINE
  5
4D
330
1E
100
AcDbEntity
  8
0
100
AcDbLine
 10
47.64488
 20
65.70140000000001
 30
0.0
 11
49.562507
 21
68.20440000000001
 31
0.0
  0
LINE
  5
4E
330
1E
100
AcDbEntity
  8
0
100
AcDbLine
 10
45.07750999999999
 20
64.1336
 30
0.0
 11
47.64488
 21
65.70140000000001
 31
0.0
  0
LINE
  5
4F
330
1E
100
AcDbEntity
  8
0
100
AcDbLine
 10
40.15872
 20
62.5889
 30
0.0
 11
43.27399
 21
63.02649999999999
 31
0.0
  0
LINE
  5
50
330
1E
100
AcDbEntity
  8
0
100
AcDbLine
 10
37.1064
 20
63.3497
 30
0.0
 11
40.15872
 21
62.5889
 31
0.0
  0
LINE
  5
51
330
1E
100
AcDbEntity
  8
0
100
AcDbLine
 10
49.562507
 20
68.20440000000001
 30
0.0
 11
50.0
 21
68.96507576145329
 31
0.0
  0
LINE
  5
52
330
1E
100
AcDbEntity
  8
0
100
AcDbLine
 10
35.124
 20
75.0695
 30
0.0
 11
37.2462
 21
78.76349999999999
 31
0.0
  0
LINE
  5
53
330
1E
100
AcDbEntity
  8
0
100
AcDbLine
 10
37.2462
 20
78.76349999999999
 30
0.0
 11
39.46659999999999
 21
84.6554
 31
0.0
  0
LINE
  5
54
330
1E
100
AcDbEntity
  8
0
100
AcDbLine
 10
50.0
 20
85.96000000000008
 30
0.0
 11
50.0
 21
52.5020000000001
 31
0.0
  0
LINE
  5
55
330
1E
100
AcDbEntity
  8
0
100
AcDbLine
 10
50.0
 20
85.96000000000008
 30
0.0
 11
50.0
 21
126.597
 31
0.0
  0
LINE
  5
56
330
1E
100
AcDbEntity
  8
0
100
AcDbLine
 10
50.0
 20
85.7860000000001
 30
0.0
 11
50.0
 21
52.1950000000001
 31
0.0
  0
LINE
  5
59
330
1E
100
AcDbEntity
  8
0
100
AcDbLine
 10
39.46659999999999
 20
84.6554
 30
0.0
 11
41.6409650202205
 21
93.4356337348313
 31
0.0
  0
LINE
  5
5A
330
1E
100
AcDbEntity
  8
0
100
AcDbLine
 10
31.3924
 20
69.1567
 30
0.0
 11
33.03889999999999
 21
66.4668
 31
0.0
  0
LINE
  5
5B
330
1E
100
AcDbEntity
  8
0
100
AcDbLine
 10
29.6213
 20
73.1549
 30
0.0
 11
31.3924
 21
69.1567
 31
0.0
  0
LINE
  5
5C
330
1E
100
AcDbEntity
  8
0
100
AcDbLine
 10
27.94869999999999
 20
79.55119999999999
 30
0.0
 11
29.6213
 21
73.1549
 31
0.0
  0
LINE
  5
5E
330
1E
100
AcDbEntity
  8
0
100
AcDbLine
 10
43.61855
 20
102.8629999999999
 30
0.0
 11
46.20668
 21
115.4449999999999
 31
0.0
  0
LINE
  5
64
330
1E
100
AcDbEntity
  8
0
100
AcDbLine
 10
46.77780999999999
 20
117.9179999999999
 30
0.0
 11
49.013838
 21
127.1139999999999
 31
0.0
  0
LINE
  5
65
330
1E
100
AcDbEntity
  8
0
100
AcDbLine
 10
46.20668
 20
115.4449999999999
 30
0.0
 11
46.77780999999999
 21
117.9179999999999
 31
0.0
  0
LINE
  5
66
330
1E
100
AcDbEntity
  8
0
100
AcDbLine
 10
40.92794
 20
103.0039999999999
 30
0.0
 11
41.820131759998
 21
94.2897413942693
 31
0.0
  0
LINE
  5
67
330
1E
100
AcDbEntity
  8
0
100
AcDbLine
 10
40.31465999999999
 20
117.957
 30
0.0
 11
40.92794
 21
103.0039999999999
 31
0.0
  0
LINE
  5
68
330
1E
100
AcDbEntity
  8
0
100
AcDbLine
 10
26.4955
 20
89.94150000000001
 30
0.0
 11
27.94869999999999
 21
79.55119999999999
 31
0.0
  0
LINE
  5
69
330
1E
100
AcDbEntity
  8
0
100
AcDbLine
 10
26.16519999999999
 20
92.5623
 30
0.0
 11
26.4955
 21
89.94150000000001
 31
0.0
  0
LINE
  5
6A
330
1E
100
AcDbEntity
  8
0
100
AcDbLine
 10
50.0
 20
126.597
 30
0.0
 11
50.0
 21
85.96000000000008
 31
0.0
  0
LINE
  5
6B
330
1E
100
AcDbEntity
  8
0
100
AcDbLine
 10
50.0
 20
126.597
 30
0.0
 11
50.0
 21
166.86
 31
0.0
  0
LINE
  5
6C
330
1E
100
AcDbEntity
  8
0
100
AcDbLine
 10
50.0
 20
126.539
 30
0.0
 11
50.0
 21
85.7860000000001
 31
0.0
  0
LINE
  5
6F
330
1E
100
AcDbEntity
  8
0
100
AcDbLine
 10
49.013838
 20
127.1139999999999
 30
0.0
 11
50.0
 21
130.3573678270929
 31
0.0
  0
LINE
  5
70
330
1E
100
AcDbEntity
  8
0
100
AcDbLine
 10
39.88199999999999
 20
137.0049999999999
 30
0.0
 11
40.03382
 21
155.7229999999999
 31
0.0
  0
LINE
  5
71
330
1E
100
AcDbEntity
  8
0
100
AcDbLine
 10
39.88199999999999
 20
137.0049999999999
 30
0.0
 11
40.31465999999999
 21
117.957
 31
0.0
  0
LINE
  5
72
330
1E
100
AcDbEntity
  8
0
100
AcDbLine
 10
24.3975
 20
118.791
 30
0.0
 11
25.0098
 21
103.8379999999999
 31
0.0
  0
LINE
  5
73
330
1E
100
AcDbEntity
  8
0
100
AcDbLine
 10
23.96479999999999
 20
137.84
 30
0.0
 11
24.1167
 21
156.557
 31
0.0
  0
LINE
  5
74
330
1E
100
AcDbEntity
  8
0
100
AcDbLine
 10
23.96479999999999
 20
137.84
 30
0.0
 11
24.3975
 21
118.791
 31
0.0
  0
LINE
  5
75
330
1E
100
AcDbEntity
  8
0
100
AcDbLine
 10
17.6569
 20
173.887
 30
0.0
 11
18.1796
 21
171.69
 31
0.0
  0
LINE
  5
7B
330
1E
100
AcDbEntity
  8
0
100
AcDbLine
 10
21.84
 20
165.643
 30
0.0
 11
23.13109999999999
 21
164.5159999999999
 31
0.0
  0
LINE
  5
7D
330
1E
100
AcDbEntity
  8
0
100
AcDbLine
 10
24.1145567805018
 20
163.519259033584
 30
0.0
 11
24.2933408726731
 21
163.384327643266
 31
0.0
  0
LINE
  5
7E
330
1E
100
AcDbEntity
  8
0
100
AcDbLine
 10
24.1145567805018
 20
163.519259033584
 30
0.0
 11
24.2933408726731
 21
163.384327643266
 31
0.0
  0
LINE
  5
80
330
1E
100
AcDbEntity
  8
0
100
AcDbLine
 10
23.13109999999999
 20
164.5159999999999
 30
0.0
 11
24.3013924901093
 21
163.695529855208
 31
0.0
  0
LINE
  5
84
330
1E
100
AcDbEntity
  8
0
100
AcDbLine
 10
20.7129
 20
166.934
 30
0.0
 11
21.84
 21
165.643
 31
0.0
  0
LINE
  5
85
330
1E
100
AcDbEntity
  8
0
100
AcDbLine
 10
19.70769999999999
 20
168.368
 30
0.0
 11
20.7129
 21
166.934
 31
0.0
  0
LINE
  5
8B
330
1E
100
AcDbEntity
  8
0
100
AcDbLine
 10
18.93019999999999
 20
169.734
 30
0.0
 11
19.70769999999999
 21
168.368
 31
0.0
  0
LINE
  5
8C
330
1E
100
AcDbEntity
  8
0
100
AcDbLine
 10
18.1796
 20
171.69
 30
0.0
 11
18.93019999999999
 21
169.734
 31
0.0
  0
LINE
  5
90
330
1E
100
AcDbEntity
  8
0
100
AcDbLine
 10
17.16479999999999
 20
176.589
 30
0.0
 11
17.6569
 21
173.887
 31
0.0
  0
LINE
  5
94
330
1E
100
AcDbEntity
  8
0
100
AcDbLine
 10
40.15872213662639
 20
160.549743456317
 30
0.0
 11
44.1422
 21
160.0989999999999
 31
0.0
  0
LINE
  5
95
330
1E
100
AcDbEntity
  8
0
100
AcDbLine
 10
50.0
 20
166.86
 30
0.0
 11
50.0
 21
126.597
 31
0.0
  0
LINE
  5
96
330
1E
100
AcDbEntity
  8
0
100
AcDbLine
 10
50.0
 20
166.86
 30
0.0
 11
50.0
 21
181.41
 31
0.0
  0
LINE
  5
97
330
1E
100
AcDbEntity
  8
0
100
AcDbLine
 10
50.0
 20
161.932
 30
0.0
 11
50.0
 21
126.539
 31
0.0
  0
LINE
  5
9A
330
1E
100
AcDbEntity
  8
0
100
AcDbLine
 10
50.0
 20
171.484
 30
0.0
 11
50.0
 21
161.932
 31
0.0
  0
LINE
  5
9D
330
1E
100
AcDbEntity
  8
0
100
AcDbLine
 10
44.1422
 20
160.0989999999999
 30
0.0
 11
50.0
 21
159.674797300322
 31
0.0
  0
LINE
  5
A1
330
1E
100
AcDbEntity
  8
0
100
AcDbLine
 10
40.03382
 20
155.7229999999999
 30
0.0
 11
40.58759000000001
 21
177.1229999999999
 31
0.0
  0
LINE
  5
A2
330
1E
100
AcDbEntity
  8
0
100
AcDbLine
 10
40.58759000000001
 20
177.1229999999999
 30
0.0
 11
41.9366
 21
205.692
 31
0.0
  0
LINE
  5
A3
330
1E
100
AcDbEntity
  8
0
100
AcDbLine
 10
24.1167
 20
156.557
 30
0.0
 11
24.6704
 21
177.9579999999999
 31
0.0
  0
LINE
  5
AD
330
1E
100
AcDbEntity
  8
0
100
AcDbLine
 10
16.5748
 20
181.608
 30
0.0
 11
17.16479999999999
 21
176.589
 31
0.0
  0
LINE
  5
B2
330
1E
100
AcDbEntity
  8
0
100
AcDbLine
 10
15.15649999999999
 20
196.634
 30
0.0
 11
15.875
 21
187.7829999999999
 31
0.0
  0
LINE
  5
B3
330
1E
100
AcDbEntity
  8
0
100
AcDbLine
 10
14.6194
 20
206.7209999999999
 30
0.0
 11
15.15649999999999
 21
196.634
 31
0.0
  0
LINE
  5
B7
330
1E
100
AcDbEntity
  8
0
100
AcDbLine
 10
14.3508
 20
214.5379999999999
 30
0.0
 11
14.6194
 21
206.7209999999999
 31
0.0
  0
LINE
  5
B8
330
1E
100
AcDbEntity
  8
0
100
AcDbLine
 10
14.24
 20
219.803
 30
0.0
 11
14.3508
 21
214.5379999999999
 31
0.0
  0
LINE
  5
B9
330
1E
100
AcDbEntity
  8
0
100
AcDbLine
 10
14.24
 20
219.803
 30
0.0
 11
14.3508
 21
225.068
 31
0.0
  0
LINE
  5
BE
330
1E
100
AcDbEntity
  8
0
100
AcDbLine
 10
50.0
 20
181.41
 30
0.0
 11
50.0
 21
166.86
 31
0.0
  0
LINE
  5
BF
330
1E
100
AcDbEntity
  8
0
100
AcDbLine
 10
50.0
 20
181.41
 30
0.0
 11
50.0
 21
195.0509999999999
 31
0.0
  0
LINE
  5
C0
330
1E
100
AcDbEntity
  8
0
100
AcDbLine
 10
50.0
 20
181.564
 30
0.0
 11
50.0
 21
171.484
 31
0.0
  0
LINE
  5
C1
330
1E
100
AcDbEntity
  8
0
100
AcDbLine
 10
50.0
 20
195.0509999999999
 30
0.0
 11
50.0
 21
181.41
 31
0.0
  0
LINE
  5
C2
330
1E
100
AcDbEntity
  8
0
100
AcDbLine
 10
50.0
 20
195.0509999999999
 30
0.0
 11
50.0
 21
195.964
 31
0.0
  0
LINE
  5
C3
330
1E
100
AcDbEntity
  8
0
100
AcDbLine
 10
50.0
 20
190.9959999999999
 30
0.0
 11
50.0
 21
181.564
 31
0.0
  0
LINE
  5
CA
330
1E
100
AcDbEntity
  8
0
100
AcDbLine
 10
50.0
 20
195.964
 30
0.0
 11
50.0
 21
190.9959999999999
 31
0.0
  0
LINE
  5
CB
330
1E
100
AcDbEntity
  8
0
100
AcDbLine
 10
50.0
 20
195.964
 30
0.0
 11
50.0
 21
195.0509999999999
 31
0.0
  0
LINE
  5
CD
330
1E
100
AcDbEntity
  8
0
100
AcDbLine
 10
60.09399999999999
 20
215.5659999999999
 30
0.0
 11
60.82
 21
213.519
 31
0.0
  0
LINE
  5
CE
330
1E
100
AcDbEntity
  8
0
100
AcDbLine
 10
59.698
 20
217.613
 30
0.0
 11
60.09399999999999
 21
215.5659999999999
 31
0.0
  0
LINE
  5
CF
330
1E
100
AcDbEntity
  8
0
100
AcDbLine
 10
59.5
 20
219.7919999999999
 30
0.0
 11
59.698
 21
217.613
 31
0.0
  0
LINE
  5
D0
330
1E
100
AcDbEntity
  8
0
100
AcDbLine
 10
59.5
 20
219.7919999999999
 30
0.0
 11
59.698
 21
221.9709999999999
 31
0.0
  0
LINE
  5
D1
330
1E
100
AcDbEntity
  8
0
100
AcDbLine
 10
60.82
 20
213.519
 30
0.0
 11
61.678
 21
211.604
 31
0.0
  0
LINE
  5
D2
330
1E
100
AcDbEntity
  8
0
100
AcDbLine
 10
62.93199999999999
 20
209.7559999999999
 30
0.0
 11
64.384
 21
208.171
 31
0.0
  0
LINE
  5
D3
330
1E
100
AcDbEntity
  8
0
100
AcDbLine
 10
61.678
 20
211.604
 30
0.0
 11
62.93199999999999
 21
209.7559999999999
 31
0.0
  0
LINE
  5
D4
330
1E
100
AcDbEntity
  8
0
100
AcDbLine
 10
65.968
 20
206.718
 30
0.0
 11
67.816
 21
205.464
 31
0.0
  0
LINE
  5
D5
330
1E
100
AcDbEntity
  8
0
100
AcDbLine
 10
64.384
 20
208.171
 30
0.0
 11
65.968
 21
206.718
 31
0.0
  0
LINE
  5
D6
330
1E
100
AcDbEntity
  8
0
100
AcDbLine
 10
64.69899999999999
 20
208.4859999999999
 30
0.0
 11
66.265
 21
207.1209999999999
 31
0.0
  0
LINE
  5
D7
330
1E
100
AcDbEntity
  8
0
100
AcDbLine
 10
66.265
 20
207.1209999999999
 30
0.0
 11
68.03399999999999
 21
205.925
 31
0.0
  0
LINE
  5
D8
330
1E
100
AcDbEntity
  8
0
100
AcDbLine
 10
63.335
 20
210.053
 30
0.0
 11
64.69899999999999
 21
208.4859999999999
 31
0.0
  0
LINE
  5
D9
330
1E
100
AcDbEntity
  8
0
100
AcDbLine
 10
62.13899999999999
 20
211.8219999999999
 30
0.0
 11
63.335
 21
210.053
 31
0.0
  0
LINE
  5
DA
330
1E
100
AcDbEntity
  8
0
100
AcDbLine
 10
61.246
 20
213.6759999999999
 30
0.0
 11
62.13899999999999
 21
211.8219999999999
 31
0.0
  0
LINE
  5
DB
330
1E
100
AcDbEntity
  8
0
100
AcDbLine
 10
60.573
 20
215.664
 30
0.0
 11
61.246
 21
213.6759999999999
 31
0.0
  0
LINE
  5
DC
330
1E
100
AcDbEntity
  8
0
100
AcDbLine
 10
60.16799999999999
 20
217.703
 30
0.0
 11
60.573
 21
215.664
 31
0.0
  0
LINE
  5
DD
330
1E
100
AcDbEntity
  8
0
100
AcDbLine
 10
60.0
 20
219.7919999999999
 30
0.0
 11
60.16799999999999
 21
217.703
 31
0.0
  0
LINE
  5
DE
330
1E
100
AcDbEntity
  8
0
100
AcDbLine
 10
60.0
 20
219.7919999999999
 30
0.0
 11
60.16799999999999
 21
221.8809999999999
 31
0.0
  0
LINE
  5
DF
330
1E
100
AcDbEntity
  8
0
100
AcDbLine
 10
50.0
 20
207.7869999999999
 30
0.0
 11
50.0
 21
195.964
 31
0.0
  0
LINE
  5
E0
330
1E
100
AcDbEntity
  8
0
100
AcDbLine
 10
41.9366
 20
205.692
 30
0.0
 11
43.5812
 21
234.2449999999999
 31
0.0
  0
LINE
  5
E1
330
1E
100
AcDbEntity
  8
0
100
AcDbLine
 10
26.0194
 20
206.5259999999999
 30
0.0
 11
27.664
 21
235.0789999999999
 31
0.0
  0
LINE
  5
E2
330
1E
100
AcDbEntity
  8
0
100
AcDbLine
 10
24.6704
 20
177.9579999999999
 30
0.0
 11
26.0194
 21
206.5259999999999
 31
0.0
  0
LINE
  5
E3
330
1E
100
AcDbEntity
  8
0
100
AcDbLine
 10
67.3
 20
148.143
 30
0.0
 11
68.2
 21
150.303
 31
0.0
  0
LINE
  5
E4
330
1E
100
AcDbEntity
  8
0
100
AcDbLine
 10
67.816
 20
205.464
 30
0.0
 11
69.73
 21
204.6059999999999
 31
0.0
  0
LINE
  5
E5
330
1E
100
AcDbEntity
  8
0
100
AcDbLine
 10
68.03399999999999
 20
205.925
 30
0.0
 11
69.88600000000001
 21
205.032
 31
0.0
  0
LINE
  5
E6
330
1E
100
AcDbEntity
  8
0
100
AcDbLine
 10
68.2
 20
150.303
 30
0.0
 11
69.64
 21
152.1629999999999
 31
0.0
  0
LINE
  5
E7
330
1E
100
AcDbEntity
  8
0
100
AcDbLine
 10
67.0
 20
145.8029999999999
 30
0.0
 11
67.3
 21
143.463
 31
0.0
  0
LINE
  5
E8
330
1E
100
AcDbEntity
  8
0
100
AcDbLine
 10
67.0
 20
145.8029999999999
 30
0.0
 11
67.3
 21
148.143
 31
0.0
  0
LINE
  5
E9
330
1E
100
AcDbEntity
  8
0
100
AcDbLine
 10
67.3
 20
143.463
 30
0.0
 11
68.2
 21
141.303
 31
0.0
  0
LINE
  5
EA
330
1E
100
AcDbEntity
  8
0
100
AcDbLine
 10
69.73
 20
204.6059999999999
 30
0.0
 11
71.77600000000001
 21
203.879
 31
0.0
  0
LINE
  5
EB
330
1E
100
AcDbEntity
  8
0
100
AcDbLine
 10
69.88600000000001
 20
205.032
 30
0.0
 11
71.874
 21
204.3579999999999
 31
0.0
  0
LINE
  5
EC
330
1E
100
AcDbEntity
  8
0
100
AcDbLine
 10
69.64
 20
152.1629999999999
 30
0.0
 11
71.5
 21
153.6029999999999
 31
0.0
  0
LINE
  5
ED
330
1E
100
AcDbEntity
  8
0
100
AcDbLine
 10
68.2
 20
141.303
 30
0.0
 11
69.64
 21
139.4429999999999
 31
0.0
  0
LINE
  5
EE
330
1E
100
AcDbEntity
  8
0
100
AcDbLine
 10
69.64
 20
139.4429999999999
 30
0.0
 11
71.5
 21
138.0029999999999
 31
0.0
  0
LINE
  5
F1
330
1E
100
AcDbEntity
  8
0
100
AcDbLine
 10
14.3508
 20
225.068
 30
0.0
 11
14.6194
 21
232.885
 31
0.0
  0
LINE
  5
F4
330
1E
100
AcDbEntity
  8
0
100
AcDbLine
 10
14.6194
 20
232.885
 30
0.0
 11
15.15649999999999
 21
242.9729999999999
 31
0.0
  0
LINE
  5
F7
330
1E
100
AcDbEntity
  8
0
100
AcDbLine
 10
60.09399999999999
 20
224.018
 30
0.0
 11
60.82
 21
226.065
 31
0.0
  0
LINE
  5
F8
330
1E
100
AcDbEntity
  8
0
100
AcDbLine
 10
59.698
 20
221.9709999999999
 30
0.0
 11
60.09399999999999
 21
224.018
 31
0.0
  0
LINE
  5
F9
330
1E
100
AcDbEntity
  8
0
100
AcDbLine
 10
60.82
 20
226.065
 30
0.0
 11
61.678
 21
227.979
 31
0.0
  0
LINE
  5
FA
330
1E
100
AcDbEntity
  8
0
100
AcDbLine
 10
62.93199999999999
 20
229.828
 30
0.0
 11
64.384
 21
231.413
 31
0.0
  0
LINE
  5
FB
330
1E
100
AcDbEntity
  8
0
100
AcDbLine
 10
61.678
 20
227.979
 30
0.0
 11
62.93199999999999
 21
229.828
 31
0.0
  0
LINE
  5
FC
330
1E
100
AcDbEntity
  8
0
100
AcDbLine
 10
63.335
 20
229.5309999999999
 30
0.0
 11
64.69899999999999
 21
231.0979999999999
 31
0.0
  0
LINE
  5
FD
330
1E
100
AcDbEntity
  8
0
100
AcDbLine
 10
62.13899999999999
 20
227.762
 30
0.0
 11
63.335
 21
229.5309999999999
 31
0.0
  0
LINE
  5
FE
330
1E
100
AcDbEntity
  8
0
100
AcDbLine
 10
61.246
 20
225.9079999999999
 30
0.0
 11
62.13899999999999
 21
227.762
 31
0.0
  0
LINE
  5
FF
330
1E
100
AcDbEntity
  8
0
100
AcDbLine
 10
60.573
 20
223.9199999999999
 30
0.0
 11
61.246
 21
225.9079999999999
 31
0.0
  0
LINE
  5
100
330
1E
100
AcDbEntity
  8
0
100
AcDbLine
 10
60.16799999999999
 20
221.8809999999999
 30
0.0
 11
60.573
 21
223.9199999999999
 31
0.0
  0
LINE
  5
101
330
1E
100
AcDbEntity
  8
0
100
AcDbLine
 10
50.312
 20
233.6459999999999
 30
0.0
 11
50.93600000000001
 21
235.3829999999999
 31
0.0
  0
LINE
  5
102
330
1E
100
AcDbEntity
  8
0
100
AcDbLine
 10
50.0
 20
231.7969999999999
 30
0.0
 11
50.312
 21
233.6459999999999
 31
0.0
  0
LINE
  5
103
330
1E
100
AcDbEntity
  8
0
100
AcDbLine
 10
50.0
 20
231.7969999999999
 30
0.0
 11
50.0
 21
207.7869999999999
 31
0.0
  0
LINE
  5
104
330
1E
100
AcDbEntity
  8
0
100
AcDbLine
 10
43.5812
 20
234.2449999999999
 30
0.0
 11
45.26742
 21
255.586
 31
0.0
  0
LINE
  5
10A
330
1E
100
AcDbEntity
  8
0
100
AcDbLine
 10
55.408
 20
240.3129999999999
 30
0.0
 11
57.696
 21
241.657
 31
0.0
  0
LINE
  5
10B
330
1E
100
AcDbEntity
  8
0
100
AcDbLine
 10
53.43199999999999
 20
238.744
 30
0.0
 11
55.408
 21
240.3129999999999
 31
0.0
  0
LINE
  5
10C
330
1E
100
AcDbEntity
  8
0
100
AcDbLine
 10
52.08
 20
237.119
 30
0.0
 11
53.43199999999999
 21
238.744
 31
0.0
  0
LINE
  5
10D
330
1E
100
AcDbEntity
  8
0
100
AcDbLine
 10
50.93600000000001
 20
235.3829999999999
 30
0.0
 11
52.08
 21
237.119
 31
0.0
  0
LINE
  5
10E
330
1E
100
AcDbEntity
  8
0
100
AcDbLine
 10
57.696
 20
241.657
 30
0.0
 11
60.192
 21
242.89
 31
0.0
  0
LINE
  5
10F
330
1E
100
AcDbEntity
  8
0
100
AcDbLine
 10
60.192
 20
242.89
 30
0.0
 11
63.104
 21
243.954
 31
0.0
  0
LINE
  5
111
330
1E
100
AcDbEntity
  8
0
100
AcDbLine
 10
63.104
 20
243.954
 30
0.0
 11
66.12
 21
244.6829999999999
 31
0.0
  0
LINE
  5
112
330
1E
100
AcDbEntity
  8
0
100
AcDbLine
 10
15.15649999999999
 20
242.9729999999999
 30
0.0
 11
15.875
 21
251.8229999999999
 31
0.0
  0
LINE
  5
114
330
1E
100
AcDbEntity
  8
0
100
AcDbLine
 10
27.664
 20
235.0789999999999
 30
0.0
 11
29.3503
 21
256.42
 31
0.0
  0
LINE
  5
115
330
1E
100
AcDbEntity
  8
0
100
AcDbLine
 10
63.3787
 20
250.903
 30
0.0
 11
63.7113
 21
250.4109999999999
 31
0.0
  0
LINE
  5
11B
330
1E
100
AcDbEntity
  8
0
100
AcDbLine
 10
45.26742
 20
255.586
 30
0.0
 11
47.07295999999999
 21
274.2169999999999
 31
0.0
  0
LINE
  5
11C
330
1E
100
AcDbEntity
  8
0
100
AcDbLine
 10
29.3503
 20
256.42
 30
0.0
 11
31.1558
 21
275.0509999999999
 31
0.0
  0
LINE
  5
11E
330
1E
100
AcDbEntity
  8
0
100
AcDbLine
 10
16.5748
 20
257.997
 30
0.0
 11
17.16479999999999
 21
263.017
 31
0.0
  0
LINE
  5
121
330
1E
100
AcDbEntity
  8
0
100
AcDbLine
 10
18.1796
 20
267.9159999999999
 30
0.0
 11
18.93019999999999
 21
269.872
 31
0.0
  0
LINE
  5
123
330
1E
100
AcDbEntity
  8
0
100
AcDbLine
 10
17.6569
 20
265.7189999999999
 30
0.0
 11
18.1796
 21
267.9159999999999
 31
0.0
  0
LINE
  5
125
330
1E
100
AcDbEntity
  8
0
100
AcDbLine
 10
17.16479999999999
 20
263.017
 30
0.0
 11
17.6569
 21
265.7189999999999
 31
0.0
  0
LINE
  5
127
330
1E
100
AcDbEntity
  8
0
100
AcDbLine
 10
19.70769999999999
 20
271.238
 30
0.0
 11
20.7129
 21
272.672
 31
0.0
  0
LINE
  5
129
330
1E
100
AcDbEntity
  8
0
100
AcDbLine
 10
18.93019999999999
 20
269.872
 30
0.0
 11
19.70769999999999
 21
271.238
 31
0.0
  0
LINE
  5
12B
330
1E
100
AcDbEntity
  8
0
100
AcDbLine
 10
20.7129
 20
272.672
 30
0.0
 11
21.84
 21
273.9629999999999
 31
0.0
  0
LINE
  5
131
330
1E
100
AcDbEntity
  8
0
100
AcDbLine
 10
62.0536
 20
267.8859999999999
 30
0.0
 11
62.1073
 21
263.624
 31
0.0
  0
LINE
  5
132
330
1E
100
AcDbEntity
  8
0
100
AcDbLine
 10
62.0
 20
272.77
 30
0.0
 11
62.0536
 21
277.654
 31
0.0
  0
LINE
  5
133
330
1E
100
AcDbEntity
  8
0
100
AcDbLine
 10
62.0
 20
272.77
 30
0.0
 11
62.0536
 21
267.8859999999999
 31
0.0
  0
LINE
  5
134
330
1E
100
AcDbEntity
  8
0
100
AcDbLine
 10
60.6443
 20
268.098
 30
0.0
 11
62.0987279808327
 21
264.30433418419
 31
0.0
  0
LINE
  5
137
330
1E
100
AcDbEntity
  8
0
100
AcDbLine
 10
62.0536
 20
267.9419999999999
 30
0.0
 11
62.1073
 21
263.679
 31
0.0
  0
LINE
  5
13A
330
1E
100
AcDbEntity
  8
0
100
AcDbLine
 10
21.84
 20
273.9629999999999
 30
0.0
 11
23.13109999999999
 21
275.0899999999999
 31
0.0
  0
LINE
  5
13D
330
1E
100
AcDbEntity
  8
0
100
AcDbLine
 10
47.07295999999999
 20
274.2169999999999
 30
0.0
 11
49.494388
 21
293.1159999999999
 31
0.0
  0
LINE
  5
13E
330
1E
100
AcDbEntity
  8
0
100
AcDbLine
 10
58.78778
 20
274.805
 30
0.0
 11
60.6443
 21
268.098
 31
0.0
  0
LINE
  5
13F
330
1E
100
AcDbEntity
  8
0
100
AcDbLine
 10
23.13109999999999
 20
275.0899999999999
 30
0.0
 11
24.56459999999999
 21
276.095
 31
0.0
  0
LINE
  5
143
330
1E
100
AcDbEntity
  8
0
100
AcDbLine
 10
24.56459999999999
 20
276.095
 30
0.0
 11
25.93099999999999
 21
276.873
 31
0.0
  0
LINE
  5
144
330
1E
100
AcDbEntity
  8
0
100
AcDbLine
 10
25.93099999999999
 20
276.873
 30
0.0
 11
27.8868
 21
277.6229999999999
 31
0.0
  0
LINE
  5
149
330
1E
100
AcDbEntity
  8
0
100
AcDbLine
 10
27.8868
 20
277.6229999999999
 30
0.0
 11
30.0838
 21
278.1459999999999
 31
0.0
  0
LINE
  5
14A
330
1E
100
AcDbEntity
  8
0
100
AcDbLine
 10
30.0838
 20
278.1459999999999
 30
0.0
 11
31.5874134707663
 21
278.4197383265929
 31
0.0
  0
LINE
  5
14B
330
1E
100
AcDbEntity
  8
0
100
AcDbLine
 10
30.0838
 20
278.1459999999999
 30
0.0
 11
31.5874134707663
 21
278.4197383265929
 31
0.0
  0
LINE
  5
150
330
1E
100
AcDbEntity
  8
0
100
AcDbLine
 10
47.8814561400991
 20
280.5272303895609
 30
0.0
 11
52.7188
 21
280.8929999999999
 31
0.0
  0
LINE
  5
152
330
1E
100
AcDbEntity
  8
0
100
AcDbLine
 10
47.8814561400991
 20
280.5272303895609
 30
0.0
 11
52.7188
 21
280.8929999999999
 31
0.0
  0
LINE
  5
156
330
1E
100
AcDbEntity
  8
0
100
AcDbLine
 10
52.7188
 20
280.8929999999999
 30
0.0
 11
57.56275884577829
 21
281.1596626941089
 31
0.0
  0
LINE
  5
157
330
1E
100
AcDbEntity
  8
0
100
AcDbLine
 10
49.494388
 20
293.1159999999999
 30
0.0
 11
51.66727999999999
 21
307.9229999999999
 31
0.0
  0
LINE
  5
158
330
1E
100
AcDbEntity
  8
0
100
AcDbLine
 10
62.0536
 20
277.654
 30
0.0
 11
62.1073
 21
281.916
 31
0.0
  0
LINE
  5
159
330
1E
100
AcDbEntity
  8
0
100
AcDbLine
 10
57.18871
 20
283.1
 30
0.0
 11
58.78778
 21
274.805
 31
0.0
  0
LINE
  5
15A
330
1E
100
AcDbEntity
  8
0
100
AcDbLine
 10
55.92614000000001
 20
292.479
 30
0.0
 11
57.18871
 21
283.1
 31
0.0
  0
LINE
  5
15B
330
1E
100
AcDbEntity
  8
0
100
AcDbLine
 10
31.1558
 20
275.0509999999999
 30
0.0
 11
33.5772
 21
293.9499999999999
 31
0.0
  0
LINE
  5
15C
330
1E
100
AcDbEntity
  8
0
100
AcDbLine
 10
62.0536
 20
277.7099999999999
 30
0.0
 11
62.1073
 21
281.9719999999999
 31
0.0
  0
LINE
  5
15D
330
1E
100
AcDbEntity
  8
0
100
AcDbLine
 10
62.0
 20
272.8259999999999
 30
0.0
 11
62.0536
 21
277.7099999999999
 31
0.0
  0
LINE
  5
15E
330
1E
100
AcDbEntity
  8
0
100
AcDbLine
 10
62.0
 20
272.8259999999999
 30
0.0
 11
62.0536
 21
267.9419999999999
 31
0.0
  0
LINE
  5
15F
330
1E
100
AcDbEntity
  8
0
100
AcDbLine
 10
62.1073
 20
263.624
 30
0.0
 11
62.2562
 21
259.809
 31
0.0
  0
LINE
  5
161
330
1E
100
AcDbEntity
  8
0
100
AcDbLine
 10
62.2562
 20
259.809
 30
0.0
 11
62.3804
 21
256.984
 31
0.0
  0
LINE
  5
162
330
1E
100
AcDbEntity
  8
0
100
AcDbLine
 10
62.2562
 20
259.865
 30
0.0
 11
62.3804
 21
257.0409999999999
 31
0.0
  0
LINE
  5
163
330
1E
100
AcDbEntity
  8
0
100
AcDbLine
 10
62.6132
 20
254.03
 30
0.0
 11
62.6356670713983
 21
253.8813988978379
 31
0.0
  0
LINE
  5
166
330
1E
100
AcDbEntity
  8
0
100
AcDbLine
 10
63.1011
 20
251.5029999999999
 30
0.0
 11
63.3787
 21
250.903
 31
0.0
  0
LINE
  5
167
330
1E
100
AcDbEntity
  8
0
100
AcDbLine
 10
62.839
 20
252.2229999999999
 30
0.0
 11
63.1011
 21
251.5029999999999
 31
0.0
  0
LINE
  5
168
330
1E
100
AcDbEntity
  8
0
100
AcDbLine
 10
62.6356670713983
 20
253.8813988978379
 30
0.0
 11
62.839
 21
252.2229999999999
 31
0.0
  0
LINE
  5
169
330
1E
100
AcDbEntity
  8
0
100
AcDbLine
 10
62.3804
 20
256.984
 30
0.0
 11
62.5046
 21
255.1349999999999
 31
0.0
  0
LINE
  5
16A
330
1E
100
AcDbEntity
  8
0
100
AcDbLine
 10
62.5046
 20
255.1349999999999
 30
0.0
 11
62.6132
 21
254.03
 31
0.0
  0
LINE
  5
16C
330
1E
100
AcDbEntity
  8
0
100
AcDbLine
 10
62.3804
 20
257.0409999999999
 30
0.0
 11
62.5046
 21
255.1909999999999
 31
0.0
  0
LINE
  5
171
330
1E
100
AcDbEntity
  8
0
100
AcDbLine
 10
62.1073
 20
281.916
 30
0.0
 11
62.2562
 21
285.731
 31
0.0
  0
LINE
  5
172
330
1E
100
AcDbEntity
  8
0
100
AcDbLine
 10
62.1073
 20
281.9719999999999
 30
0.0
 11
62.2562
 21
285.787
 31
0.0
  0
LINE
  5
173
330
1E
100
AcDbEntity
  8
0
100
AcDbLine
 10
62.2562
 20
285.731
 30
0.0
 11
62.3804
 21
288.5559999999999
 31
0.0
  0
LINE
  5
174
330
1E
100
AcDbEntity
  8
0
100
AcDbLine
 10
62.3804
 20
288.5559999999999
 30
0.0
 11
62.5046
 21
290.4049999999999
 31
0.0
  0
LINE
  5
175
330
1E
100
AcDbEntity
  8
0
100
AcDbLine
 10
62.5046
 20
290.4049999999999
 30
0.0
 11
62.6132
 21
291.509
 31
0.0
  0
LINE
  5
177
330
1E
100
AcDbEntity
  8
0
100
AcDbLine
 10
62.6132
 20
291.5649999999999
 30
0.0
 11
62.7529
 21
292.49
 31
0.0
  0
LINE
  5
17A
330
1E
100
AcDbEntity
  8
0
100
AcDbLine
 10
62.2562
 20
285.787
 30
0.0
 11
62.3804
 21
288.612
 31
0.0
  0
LINE
  5
17B
330
1E
100
AcDbEntity
  8
0
100
AcDbLine
 10
62.7529
 20
292.434
 30
0.0
 11
63.0473
 21
294.169
 31
0.0
  0
LINE
  5
17D
330
1E
100
AcDbEntity
  8
0
100
AcDbLine
 10
62.7529
 20
292.49
 30
0.0
 11
62.9858
 21
293.209
 31
0.0
  0
LINE
  5
180
330
1E
100
AcDbEntity
  8
0
100
AcDbLine
 10
62.9858
 20
293.209
 30
0.0
 11
63.28739999999999
 21
293.871
 31
0.0
  0
LINE
  5
18A
330
1E
100
AcDbEntity
  8
0
100
AcDbLine
 10
51.66727999999999
 20
307.9229999999999
 30
0.0
 11
53.4655008348262
 21
316.496076836111
 31
0.0
  0
LINE
  5
18B
330
1E
100
AcDbEntity
  8
0
100
AcDbLine
 10
63.275
 20
294.877
 30
0.0
 11
63.56989999999999
 21
295.529
 31
0.0
  0
LINE
  5
18C
330
1E
100
AcDbEntity
  8
0
100
AcDbLine
 10
63.0473
 20
294.169
 30
0.0
 11
63.275
 21
294.877
 31
0.0
  0
LINE
  5
18D
330
1E
100
AcDbEntity
  8
0
100
AcDbLine
 10
55.61668
 20
294.998
 30
0.0
 11
55.92614000000001
 21
292.479
 31
0.0
  0
LINE
  5
18E
330
1E
100
AcDbEntity
  8
0
100
AcDbLine
 10
54.35789
 20
307.782
 30
0.0
 11
55.61668
 21
294.998
 31
0.0
  0
LINE
  5
191
330
1E
100
AcDbEntity
  8
0
100
AcDbLine
 10
53.39438000000001
 20
316.344
 30
0.0
 11
53.4557207522935
 21
316.591578209256
 31
0.0
  0
LINE
  5
192
330
1E
100
AcDbEntity
  8
0
100
AcDbLine
 10
53.20314
 20
319.058
 30
0.0
 11
54.35789
 21
307.782
 31
0.0
  0
LINE
  5
196
330
1E
100
AcDbEntity
  8
0
100
AcDbLine
 10
48.81509000000001
 20
336.3109999999999
 30
0.0
 11
50.539579
 21
332.415
 31
0.0
  0
LINE
  5
197
330
1E
100
AcDbEntity
  8
0
100
AcDbLine
 10
50.539579
 20
332.415
 30
0.0
 11
52.13195
 21
326.324
 31
0.0
  0
LINE
  5
198
330
1E
100
AcDbEntity
  8
0
100
AcDbLine
 10
52.13195
 20
326.324
 30
0.0
 11
53.37680342670689
 21
317.3621967529359
 31
0.0
  0
LINE
  5
199
330
1E
100
AcDbEntity
  8
0
100
AcDbLine
 10
43.54262999999999
 20
338.79
 30
0.0
 11
45.72203
 21
342.5809999999999
 31
0.0
  0
LINE
  5
19A
330
1E
100
AcDbEntity
  8
0
100
AcDbLine
 10
62.2466
 20
344.319
 30
0.0
 11
63.8921
 21
341.629
 31
0.0
  0
LINE
  5
19B
330
1E
100
AcDbEntity
  8
0
100
AcDbLine
 10
58.17927
 20
347.4359999999999
 30
0.0
 11
59.85718000000001
 21
346.1469999999999
 31
0.0
  0
LINE
  5
19C
330
1E
100
AcDbEntity
  8
0
100
AcDbLine
 10
55.12681
 20
348.1969999999999
 30
0.0
 11
58.17927
 21
347.4359999999999
 31
0.0
  0
LINE
  5
19D
330
1E
100
AcDbEntity
  8
0
100
AcDbLine
 10
59.85718000000001
 20
346.1469999999999
 30
0.0
 11
62.2466
 21
344.319
 31
0.0
  0
LINE
  5
19E
330
1E
100
AcDbEntity
  8
0
100
AcDbLine
 10
52.01164
 20
347.759
 30
0.0
 11
55.12681
 21
348.1969999999999
 31
0.0
  0
LINE
  5
19F
330
1E
100
AcDbEntity
  8
0
100
AcDbLine
 10
45.72203
 20
342.5809999999999
 30
0.0
 11
47.64065999999999
 21
345.0839999999999
 31
0.0
  0
LINE
  5
1A0
330
1E
100
AcDbEntity
  8
0
100
AcDbLine
 10
41.21065999999999
 20
332.604
 30
0.0
 11
43.54262999999999
 21
338.79
 31
0.0
  0
LINE
  5
1A1
330
1E
100
AcDbEntity
  8
0
100
AcDbLine
 10
38.67929999999999
 20
322.422
 30
0.0
 11
41.21065999999999
 21
332.604
 31
0.0
  0
LINE
  5
1A2
330
1E
100
AcDbEntity
  8
0
100
AcDbLine
 10
38.0769
 20
319.85
 30
0.0
 11
38.67929999999999
 21
322.422
 31
0.0
  0
LINE
  5
1A3
330
1E
100
AcDbEntity
  8
0
100
AcDbLine
 10
35.7491
 20
308.7569999999999
 30
0.0
 11
38.0769
 21
319.85
 31
0.0
  0
LINE
  5
1A4
330
1E
100
AcDbEntity
  8
0
100
AcDbLine
 10
33.5772
 20
293.9499999999999
 30
0.0
 11
35.7491
 21
308.7569999999999
 31
0.0
  0
LINE
  5
1A5
330
1E
100
AcDbEntity
  8
0
100
AcDbLine
 10
63.28739999999999
 20
293.871
 30
0.0
 11
63.68719999999999
 21
294.37
 31
0.0
  0
LINE
  5
1A7
330
1E
100
AcDbEntity
  8
0
100
AcDbLine
 10
63.56989999999999
 20
295.529
 30
0.0
 11
64.1349
 21
296.423
 31
0.0
  0
LINE
  5
1A8
330
1E
100
AcDbEntity
  8
0
100
AcDbLine
 10
63.68719999999999
 20
294.37
 30
0.0
 11
64.1216
 21
294.7559999999999
 31
0.0
  0
LINE
  5
1AF
330
1E
100
AcDbEntity
  8
0
100
AcDbLine
 10
64.384
 20
231.413
 30
0.0
 11
65.968
 21
232.8659999999999
 31
0.0
  0
LINE
  5
1B0
330
1E
100
AcDbEntity
  8
0
100
AcDbLine
 10
65.968
 20
232.8659999999999
 30
0.0
 11
67.816
 21
234.12
 31
0.0
  0
LINE
  5
1B1
330
1E
100
AcDbEntity
  8
0
100
AcDbLine
 10
64.69899999999999
 20
231.0979999999999
 30
0.0
 11
66.265
 21
232.4629999999999
 31
0.0
  0
LINE
  5
1B2
330
1E
100
AcDbEntity
  8
0
100
AcDbLine
 10
66.265
 20
232.4629999999999
 30
0.0
 11
68.03399999999999
 21
233.659
 31
0.0
  0
LINE
  5
1B4
330
1E
100
AcDbEntity
  8
0
100
AcDbLine
 10
66.12
 20
244.6829999999999
 30
0.0
 11
69.344
 21
245.299
 31
0.0
  0
LINE
  5
1B5
330
1E
100
AcDbEntity
  8
0
100
AcDbLine
 10
67.0
 20
246.905
 30
0.0
 11
67.0
 21
244.851138957816
 31
0.0
  0
LINE
  5
1B6
330
1E
100
AcDbEntity
  8
0
100
AcDbLine
 10
67.0
 20
244.851138957816
 30
0.0
 11
67.0
 21
246.905
 31
0.0
  0
LINE
  5
1B7
330
1E
100
AcDbEntity
  8
0
100
AcDbLine
 10
66.37862537057261
 20
247.3399622405989
 30
0.0
 11
67.0
 21
246.905
 31
0.0
  0
LINE
  5
1B8
330
1E
100
AcDbEntity
  8
0
100
AcDbLine
 10
67.816
 20
234.12
 30
0.0
 11
69.73
 21
234.9779999999999
 31
0.0
  0
LINE
  5
1B9
330
1E
100
AcDbEntity
  8
0
100
AcDbLine
 10
68.03399999999999
 20
233.659
 30
0.0
 11
69.88600000000001
 21
234.552
 31
0.0
  0
LINE
  5
1BA
330
1E
100
AcDbEntity
  8
0
100
AcDbLine
 10
69.73
 20
234.9779999999999
 30
0.0
 11
71.77600000000001
 21
235.705
 31
0.0
  0
LINE
  5
1BB
330
1E
100
AcDbEntity
  8
0
100
AcDbLine
 10
69.88600000000001
 20
234.552
 30
0.0
 11
71.874
 21
235.226
 31
0.0
  0
LINE
  5
1BD
330
1E
100
AcDbEntity
  8
0
100
AcDbLine
 10
69.344
 20
245.299
 30
0.0
 11
72.568
 21
245.635
 31
0.0
  0
LINE
  5
1BE
330
1E
100
AcDbEntity
  8
0
100
AcDbLine
 10
67.4184
 20
247.002
 30
0.0
 11
76.0
 21
246.001
 31
0.0
  0
LINE
  5
1D0
330
1E
100
AcDbEntity
  8
0
100
AcDbLine
 10
64.1216
 20
294.7559999999999
 30
0.0
 11
64.68009999999999
 21
294.987
 31
0.0
  0
LINE
  5
1D5
330
1E
100
AcDbEntity
  8
0
100
AcDbLine
 10
64.68009999999999
 20
294.987
 30
0.0
 11
65.3472
 21
295.167
 31
0.0
  0
LINE
  5
1D7
330
1E
100
AcDbEntity
  8
0
100
AcDbLine
 10
65.3472
 20
295.167
 30
0.0
 11
66.46429999999999
 21
295.372
 31
0.0
  0
LINE
  5
1D9
330
1E
100
AcDbEntity
  8
0
100
AcDbLine
 10
66.46429999999999
 20
295.372
 30
0.0
 11
68.1708
 21
295.5779999999999
 31
0.0
  0
LINE
  5
1DA
330
1E
100
AcDbEntity
  8
0
100
AcDbLine
 10
64.1349
 20
296.423
 30
0.0
 11
64.5081
 21
296.899
 31
0.0
  0
LINE
  5
1DB
330
1E
100
AcDbEntity
  8
0
100
AcDbLine
 10
64.5081
 20
296.899
 30
0.0
 11
64.9135
 21
297.268
 31
0.0
  0
LINE
  5
1DC
330
1E
100
AcDbEntity
  8
0
100
AcDbLine
 10
65.7054
 20
297.8079999999999
 30
0.0
 11
66.18940000000001
 21
298.0179999999999
 31
0.0
  0
LINE
  5
1DD
330
1E
100
AcDbEntity
  8
0
100
AcDbLine
 10
64.9135
 20
297.268
 30
0.0
 11
65.7054
 21
297.8079999999999
 31
0.0
  0
LINE
  5
1DE
330
1E
100
AcDbEntity
  8
0
100
AcDbLine
 10
66.18940000000001
 20
298.0179999999999
 30
0.0
 11
66.7676
 21
298.182
 31
0.0
  0
LINE
  5
1DF
330
1E
100
AcDbEntity
  8
0
100
AcDbLine
 10
66.7676
 20
298.182
 30
0.0
 11
67.73569999999999
 21
298.369
 31
0.0
  0
LINE
  5
1E0
330
1E
100
AcDbEntity
  8
0
100
AcDbLine
 10
67.73569999999999
 20
298.369
 30
0.0
 11
69.21469999999999
 21
298.5559999999999
 31
0.0
  0
LINE
  5
1E2
330
1E
100
AcDbEntity
  8
0
100
AcDbLine
 10
63.8921
 20
341.629
 30
0.0
 11
65.6643
 21
337.6309999999999
 31
0.0
  0
LINE
  5
1E3
330
1E
100
AcDbEntity
  8
0
100
AcDbLine
 10
65.6643
 20
337.6309999999999
 30
0.0
 11
67.3358
 21
331.235
 31
0.0
  0
LINE
  5
1E4
330
1E
100
AcDbEntity
  8
0
100
AcDbLine
 10
67.3358
 20
331.235
 30
0.0
 11
68.79000000000001
 21
320.8439999999999
 31
0.0
  0
LINE
  5
1E5
330
1E
100
AcDbEntity
  8
0
100
AcDbLine
 10
69.21469999999999
 20
298.5559999999999
 30
0.0
 11
71.21179999999999
 21
298.7809999999999
 31
0.0
  0
LINE
  5
1E7
330
1E
100
AcDbEntity
  8
0
100
AcDbLine
 10
70.2747
 20
306.9479999999999
 30
0.0
 11
71.080906707037
 21
298.766253121568
 31
0.0
  0
LINE
  5
1E9
330
1E
100
AcDbEntity
  8
0
100
AcDbLine
 10
68.79000000000001
 20
320.8439999999999
 30
0.0
 11
69.1203
 21
318.224
 31
0.0
  0
LINE
  5
1EA
330
1E
100
AcDbEntity
  8
0
100
AcDbLine
 10
69.1203
 20
318.224
 30
0.0
 11
70.2747
 21
306.9479999999999
 31
0.0
  0
LINE
  5
1EC
330
1E
100
AcDbEntity
  8
0
100
AcDbLine
 10
68.1708
 20
295.5779999999999
 30
0.0
 11
70.47509999999999
 21
295.8239999999999
 31
0.0
  0
LINE
  5
1ED
330
1E
100
AcDbEntity
  8
0
100
AcDbLine
 10
70.47509999999999
 20
295.8239999999999
 30
0.0
 11
73.0498
 21
295.913
 31
0.0
  0
LINE
  5
1F6
330
1E
100
AcDbEntity
  8
0
100
AcDbLine
 10
72.576
 20
-0.113999999999957
 30
0.0
 11
76.0
 21
-0.196999999999957
 31
0.0
  0
LINE
  5
1F8
330
1E
100
AcDbEntity
  8
0
100
AcDbLine
 10
71.77600000000001
 20
203.879
 30
0.0
 11
73.822
 21
203.4829999999999
 31
0.0
  0
LINE
  5
1F9
330
1E
100
AcDbEntity
  8
0
100
AcDbLine
 10
71.874
 20
204.3579999999999
 30
0.0
 11
73.91199999999999
 21
203.954
 31
0.0
  0
LINE
  5
1FA
330
1E
100
AcDbEntity
  8
0
100
AcDbLine
 10
71.5
 20
153.6029999999999
 30
0.0
 11
73.65999999999999
 21
154.5029999999999
 31
0.0
  0
LINE
  5
1FB
330
1E
100
AcDbEntity
  8
0
100
AcDbLine
 10
71.5
 20
138.0029999999999
 30
0.0
 11
73.65999999999999
 21
137.1029999999999
 31
0.0
  0
LINE
  5
1FD
330
1E
100
AcDbEntity
  8
0
100
AcDbLine
 10
73.65999999999999
 20
154.5029999999999
 30
0.0
 11
76.0
 21
154.8029999999999
 31
0.0
  0
LINE
  5
1FF
330
1E
100
AcDbEntity
  8
0
100
AcDbLine
 10
76.0
 20
-0.196999999999957
 30
0.0
 11
79.42399999999999
 21
-0.113999999999957
 31
0.0
  0
LINE
  5
201
330
1E
100
AcDbEntity
  8
0
100
AcDbLine
 10
76.0
 20
203.2849999999999
 30
0.0
 11
78.178
 21
203.4829999999999
 31
0.0
  0
LINE
  5
202
330
1E
100
AcDbEntity
  8
0
100
AcDbLine
 10
76.0
 20
203.785
 30
0.0
 11
78.08800000000001
 21
203.954
 31
0.0
  0
LINE
  5
203
330
1E
100
AcDbEntity
  8
0
100
AcDbLine
 10
73.822
 20
203.4829999999999
 30
0.0
 11
76.0
 21
203.2849999999999
 31
0.0
  0
LINE
  5
204
330
1E
100
AcDbEntity
  8
0
100
AcDbLine
 10
73.91199999999999
 20
203.954
 30
0.0
 11
76.0
 21
203.785
 31
0.0
  0
LINE
  5
205
330
1E
100
AcDbEntity
  8
0
100
AcDbLine
 10
76.0
 20
154.8029999999999
 30
0.0
 11
78.34
 21
154.5029999999999
 31
0.0
  0
LINE
  5
206
330
1E
100
AcDbEntity
  8
0
100
AcDbLine
 10
76.0
 20
136.803
 30
0.0
 11
78.34
 21
137.1029999999999
 31
0.0
  0
LINE
  5
207
330
1E
100
AcDbEntity
  8
0
100
AcDbLine
 10
73.65999999999999
 20
137.1029999999999
 30
0.0
 11
76.0
 21
136.803
 31
0.0
  0
LINE
  5
208
330
1E
100
AcDbEntity
  8
0
100
AcDbLine
 10
76.0
 20
207.457
 30
0.0
 11
77.5377
 21
207.564
 31
0.0
  0
LINE
  5
210
330
1E
100
AcDbEntity
  8
0
100
AcDbLine
 10
96.33499999999999
 20
0.8830000000000428
 30
0.0
 11
97.879
 21
1.531000000000039
 31
0.0
  0
LINE
  5
211
330
1E
100
AcDbEntity
  8
0
100
AcDbLine
 10
97.879
 20
1.531000000000039
 30
0.0
 11
99.386
 21
2.70000000000004
 31
0.0
  0
LINE
  5
215
330
1E
100
AcDbEntity
  8
0
100
AcDbLine
 10
99.386
 20
2.70000000000004
 30
0.0
 11
100.372
 21
3.867000000000039
 31
0.0
  0
LINE
  5
216
330
1E
100
AcDbEntity
  8
0
100
AcDbLine
 10
100.372
 20
3.867000000000039
 30
0.0
 11
101.172
 21
5.16000000000004
 31
0.0
  0
LINE
  5
217
330
1E
100
AcDbEntity
  8
0
100
AcDbLine
 10
94.69700000000001
 20
0.475000000000043
 30
0.0
 11
96.33499999999999
 21
0.8830000000000428
 31
0.0
  0
LINE
  5
218
330
1E
100
AcDbEntity
  8
0
100
AcDbLine
 10
91.646
 20
0.253000000000043
 30
0.0
 11
94.69700000000001
 21
0.475000000000043
 31
0.0
  0
LINE
  5
219
330
1E
100
AcDbEntity
  8
0
100
AcDbLine
 10
87.73799999999999
 20
0.142000000000043
 30
0.0
 11
91.646
 21
0.253000000000043
 31
0.0
  0
LINE
  5
21A
330
1E
100
AcDbEntity
  8
0
100
AcDbLine
 10
82.64799999999999
 20
-0.0269999999999574
 30
0.0
 11
87.73799999999999
 21
0.142000000000043
 31
0.0
  0
LINE
  5
21B
330
1E
100
AcDbEntity
  8
0
100
AcDbLine
 10
79.42399999999999
 20
-0.113999999999957
 30
0.0
 11
82.64799999999999
 21
-0.0269999999999574
 31
0.0
  0
LINE
  5
21C
330
1E
100
AcDbEntity
  8
0
100
AcDbLine
 10
101.172
 20
5.16000000000004
 30
0.0
 11
101.7679999999999
 21
6.78600000000004
 31
0.0
  0
LINE
  5
21D
330
1E
100
AcDbEntity
  8
0
100
AcDbLine
 10
101.7679999999999
 20
6.78600000000004
 30
0.0
 11
102.0
 21
8.695000000000041
 31
0.0
  0
LINE
  5
221
330
1E
100
AcDbEntity
  8
0
100
AcDbLine
 10
102.0
 20
8.695000000000041
 30
0.0
 11
102.0
 21
23.409
 31
0.0
  0
LINE
  5
227
330
1E
100
AcDbEntity
  8
0
100
AcDbLine
 10
102.0
 20
52.1950000000001
 30
0.0
 11
102.0
 21
85.7860000000001
 31
0.0
  0
LINE
  5
228
330
1E
100
AcDbEntity
  8
0
100
AcDbLine
 10
102.0
 20
85.7860000000001
 30
0.0
 11
102.0
 21
126.539
 31
0.0
  0
LINE
  5
229
330
1E
100
AcDbEntity
  8
0
100
AcDbLine
 10
102.0
 20
126.539
 30
0.0
 11
102.0
 21
161.932
 31
0.0
  0
LINE
  5
22B
330
1E
100
AcDbEntity
  8
0
100
AcDbLine
 10
102.0
 20
23.409
 30
0.0
 11
102.0
 21
33.5020000000001
 31
0.0
  0
LINE
  5
22C
330
1E
100
AcDbEntity
  8
0
100
AcDbLine
 10
102.0
 20
33.5020000000001
 30
0.0
 11
102.0
 21
52.1950000000001
 31
0.0
  0
LINE
  5
22D
330
1E
100
AcDbEntity
  8
0
100
AcDbLine
 10
80.5
 20
153.6029999999999
 30
0.0
 11
82.36
 21
152.1629999999999
 31
0.0
  0
LINE
  5
22E
330
1E
100
AcDbEntity
  8
0
100
AcDbLine
 10
80.22399999999999
 20
203.879
 30
0.0
 11
82.27
 21
204.6059999999999
 31
0.0
  0
LINE
  5
22F
330
1E
100
AcDbEntity
  8
0
100
AcDbLine
 10
78.178
 20
203.4829999999999
 30
0.0
 11
80.22399999999999
 21
203.879
 31
0.0
  0
LINE
  5
230
330
1E
100
AcDbEntity
  8
0
100
AcDbLine
 10
80.126
 20
204.3579999999999
 30
0.0
 11
82.11399999999999
 21
205.032
 31
0.0
  0
LINE
  5
231
330
1E
100
AcDbEntity
  8
0
100
AcDbLine
 10
78.08800000000001
 20
203.954
 30
0.0
 11
80.126
 21
204.3579999999999
 31
0.0
  0
LINE
  5
232
330
1E
100
AcDbEntity
  8
0
100
AcDbLine
 10
78.34
 20
154.5029999999999
 30
0.0
 11
80.5
 21
153.6029999999999
 31
0.0
  0
LINE
  5
233
330
1E
100
AcDbEntity
  8
0
100
AcDbLine
 10
83.8
 20
150.303
 30
0.0
 11
84.7
 21
148.143
 31
0.0
  0
LINE
  5
234
330
1E
100
AcDbEntity
  8
0
100
AcDbLine
 10
82.27
 20
204.6059999999999
 30
0.0
 11
84.184
 21
205.464
 31
0.0
  0
LINE
  5
235
330
1E
100
AcDbEntity
  8
0
100
AcDbLine
 10
82.11399999999999
 20
205.032
 30
0.0
 11
83.96600000000001
 21
205.925
 31
0.0
  0
LINE
  5
236
330
1E
100
AcDbEntity
  8
0
100
AcDbLine
 10
82.36
 20
152.1629999999999
 30
0.0
 11
83.8
 21
150.303
 31
0.0
  0
LINE
  5
237
330
1E
100
AcDbEntity
  8
0
100
AcDbLine
 10
84.184
 20
205.464
 30
0.0
 11
86.03200000000001
 21
206.718
 31
0.0
  0
LINE
  5
238
330
1E
100
AcDbEntity
  8
0
100
AcDbLine
 10
83.96600000000001
 20
205.925
 30
0.0
 11
85.73500000000001
 21
207.1209999999999
 31
0.0
  0
LINE
  5
23D
330
1E
100
AcDbEntity
  8
0
100
AcDbLine
 10
102.0
 20
161.932
 30
0.0
 11
102.0
 21
171.484
 31
0.0
  0
LINE
  5
242
330
1E
100
AcDbEntity
  8
0
100
AcDbLine
 10
102.0
 20
171.484
 30
0.0
 11
102.0
 21
181.564
 31
0.0
  0
LINE
  5
245
330
1E
100
AcDbEntity
  8
0
100
AcDbLine
 10
102.0
 20
181.564
 30
0.0
 11
102.0
 21
190.9959999999999
 31
0.0
  0
LINE
  5
248
330
1E
100
AcDbEntity
  8
0
100
AcDbLine
 10
102.0
 20
190.9959999999999
 30
0.0
 11
102.0
 21
195.964
 31
0.0
  0
LINE
  5
249
330
1E
100
AcDbEntity
  8
0
100
AcDbLine
 10
86.03200000000001
 20
206.718
 30
0.0
 11
87.61599999999999
 21
208.171
 31
0.0
  0
LINE
  5
24A
330
1E
100
AcDbEntity
  8
0
100
AcDbLine
 10
85.73500000000001
 20
207.1209999999999
 30
0.0
 11
87.301
 21
208.4859999999999
 31
0.0
  0
LINE
  5
24B
330
1E
100
AcDbEntity
  8
0
100
AcDbLine
 10
102.0
 20
195.964
 30
0.0
 11
102.0
 21
207.7869999999999
 31
0.0
  0
LINE
  5
253
330
1E
100
AcDbEntity
  8
0
100
AcDbLine
 10
126.069
 20
162.733
 30
0.0
 11
127.435
 21
163.511
 31
0.0
  0
LINE
  5
254
330
1E
100
AcDbEntity
  8
0
100
AcDbLine
 10
124.113
 20
161.983
 30
0.0
 11
126.069
 21
162.733
 31
0.0
  0
LINE
  5
255
330
1E
100
AcDbEntity
  8
0
100
AcDbLine
 10
121.916
 20
161.46
 30
0.0
 11
124.113
 21
161.983
 31
0.0
  0
LINE
  5
256
330
1E
100
AcDbEntity
  8
0
100
AcDbLine
 10
119.2139999999999
 20
160.9679999999999
 30
0.0
 11
121.916
 21
161.46
 31
0.0
  0
LINE
  5
257
330
1E
100
AcDbEntity
  8
0
100
AcDbLine
 10
114.1939999999999
 20
160.3779999999999
 30
0.0
 11
119.2139999999999
 21
160.9679999999999
 31
0.0
  0
LINE
  5
258
330
1E
100
AcDbEntity
  8
0
100
AcDbLine
 10
102.0
 20
159.188939618548
 30
0.0
 11
108.02
 21
159.678
 31
0.0
  0
LINE
  5
25A
330
1E
100
AcDbEntity
  8
0
100
AcDbLine
 10
127.435
 20
163.511
 30
0.0
 11
128.869
 21
164.5159999999999
 31
0.0
  0
LINE
  5
25C
330
1E
100
AcDbEntity
  8
0
100
AcDbLine
 10
130.16
 20
165.643
 30
0.0
 11
131.2869999999999
 21
166.934
 31
0.0
  0
LINE
  5
25E
330
1E
100
AcDbEntity
  8
0
100
AcDbLine
 10
131.2869999999999
 20
166.934
 30
0.0
 11
132.292
 21
168.368
 31
0.0
  0
LINE
  5
260
330
1E
100
AcDbEntity
  8
0
100
AcDbLine
 10
132.292
 20
168.368
 30
0.0
 11
133.0699999999999
 21
169.734
 31
0.0
  0
LINE
  5
263
330
1E
100
AcDbEntity
  8
0
100
AcDbLine
 10
133.0699999999999
 20
169.734
 30
0.0
 11
133.82
 21
171.69
 31
0.0
  0
LINE
  5
265
330
1E
100
AcDbEntity
  8
0
100
AcDbLine
 10
133.82
 20
171.69
 30
0.0
 11
134.3429999999999
 21
173.887
 31
0.0
  0
LINE
  5
267
330
1E
100
AcDbEntity
  8
0
100
AcDbLine
 10
134.3429999999999
 20
173.887
 30
0.0
 11
134.835
 21
176.589
 31
0.0
  0
LINE
  5
26A
330
1E
100
AcDbEntity
  8
0
100
AcDbLine
 10
134.835
 20
176.589
 30
0.0
 11
135.425
 21
181.608
 31
0.0
  0
LINE
  5
26D
330
1E
100
AcDbEntity
  8
0
100
AcDbLine
 10
136.125
 20
187.7829999999999
 30
0.0
 11
136.8429999999999
 21
196.634
 31
0.0
  0
LINE
  5
26F
330
1E
100
AcDbEntity
  8
0
100
AcDbLine
 10
136.8429999999999
 20
196.634
 30
0.0
 11
137.3809999999999
 21
206.7209999999999
 31
0.0
  0
LINE
  5
273
330
1E
100
AcDbEntity
  8
0
100
AcDbLine
 10
137.3809999999999
 20
206.7209999999999
 30
0.0
 11
137.6489999999999
 21
214.5379999999999
 31
0.0
  0
LINE
  5
276
330
1E
100
AcDbEntity
  8
0
100
AcDbLine
 10
128.869
 20
164.5159999999999
 30
0.0
 11
130.16
 21
165.643
 31
0.0
  0
LINE
  5
279
330
1E
100
AcDbEntity
  8
0
100
AcDbLine
 10
84.7
 20
148.143
 30
0.0
 11
85.0
 21
145.8029999999999
 31
0.0
  0
LINE
  5
27A
330
1E
100
AcDbEntity
  8
0
100
AcDbLine
 10
84.7
 20
143.463
 30
0.0
 11
85.0
 21
145.8029999999999
 31
0.0
  0
LINE
  5
27B
330
1E
100
AcDbEntity
  8
0
100
AcDbLine
 10
83.8
 20
141.303
 30
0.0
 11
84.7
 21
143.463
 31
0.0
  0
LINE
  5
27C
330
1E
100
AcDbEntity
  8
0
100
AcDbLine
 10
82.36
 20
139.4429999999999
 30
0.0
 11
83.8
 21
141.303
 31
0.0
  0
LINE
  5
27D
330
1E
100
AcDbEntity
  8
0
100
AcDbLine
 10
80.5
 20
138.0029999999999
 30
0.0
 11
82.36
 21
139.4429999999999
 31
0.0
  0
LINE
  5
27E
330
1E
100
AcDbEntity
  8
0
100
AcDbLine
 10
78.34
 20
137.1029999999999
 30
0.0
 11
80.5
 21
138.0029999999999
 31
0.0
  0
LINE
  5
27F
330
1E
100
AcDbEntity
  8
0
100
AcDbLine
 10
77.5377
 20
207.564
 30
0.0
 11
79.20100000000001
 21
207.878
 31
0.0
  0
LINE
  5
280
330
1E
100
AcDbEntity
  8
0
100
AcDbLine
 10
79.20100000000001
 20
207.878
 30
0.0
 11
80.12249999999999
 21
208.214
 31
0.0
  0
LINE
  5
281
330
1E
100
AcDbEntity
  8
0
100
AcDbLine
 10
102.0
 20
207.7869999999999
 30
0.0
 11
102.0
 21
231.7969999999999
 31
0.0
  0
LINE
  5
282
330
1E
100
AcDbEntity
  8
0
100
AcDbLine
 10
87.61599999999999
 20
208.171
 30
0.0
 11
89.068
 21
209.7559999999999
 31
0.0
  0
LINE
  5
284
330
1E
100
AcDbEntity
  8
0
100
AcDbLine
 10
80.12249999999999
 20
208.214
 30
0.0
 11
80.5945
 21
208.775
 31
0.0
  0
LINE
  5
285
330
1E
100
AcDbEntity
  8
0
100
AcDbLine
 10
74.46229999999999
 20
207.564
 30
0.0
 11
76.0
 21
207.457
 31
0.0
  0
LINE
  5
286
330
1E
100
AcDbEntity
  8
0
100
AcDbLine
 10
72.79899999999999
 20
207.878
 30
0.0
 11
74.46229999999999
 21
207.564
 31
0.0
  0
LINE
  5
287
330
1E
100
AcDbEntity
  8
0
100
AcDbLine
 10
80.5945
 20
208.775
 30
0.0
 11
80.9317
 21
210.726
 31
0.0
  0
LINE
  5
288
330
1E
100
AcDbEntity
  8
0
100
AcDbLine
 10
89.068
 20
209.7559999999999
 30
0.0
 11
90.32200000000001
 21
211.604
 31
0.0
  0
LINE
  5
289
330
1E
100
AcDbEntity
  8
0
100
AcDbLine
 10
87.301
 20
208.4859999999999
 30
0.0
 11
88.665
 21
210.053
 31
0.0
  0
LINE
  5
28A
330
1E
100
AcDbEntity
  8
0
100
AcDbLine
 10
88.665
 20
210.053
 30
0.0
 11
89.861
 21
211.8219999999999
 31
0.0
  0
LINE
  5
28B
330
1E
100
AcDbEntity
  8
0
100
AcDbLine
 10
80.9317
 20
210.726
 30
0.0
 11
81.0
 21
214.9429999999999
 31
0.0
  0
LINE
  5
28C
330
1E
100
AcDbEntity
  8
0
100
AcDbLine
 10
71.8775
 20
208.214
 30
0.0
 11
72.79899999999999
 21
207.878
 31
0.0
  0
LINE
  5
28D
330
1E
100
AcDbEntity
  8
0
100
AcDbLine
 10
71.40550000000001
 20
208.775
 30
0.0
 11
71.8775
 21
208.214
 31
0.0
  0
LINE
  5
28F
330
1E
100
AcDbEntity
  8
0
100
AcDbLine
 10
80.5945
 20
221.112
 30
0.0
 11
80.9317
 21
219.1609999999999
 31
0.0
  0
LINE
  5
290
330
1E
100
AcDbEntity
  8
0
100
AcDbLine
 10
80.9317
 20
219.1609999999999
 30
0.0
 11
81.0
 21
214.9429999999999
 31
0.0
  0
LINE
  5
291
330
1E
100
AcDbEntity
  8
0
100
AcDbLine
 10
90.32200000000001
 20
211.604
 30
0.0
 11
91.18
 21
213.519
 31
0.0
  0
LINE
  5
292
330
1E
100
AcDbEntity
  8
0
100
AcDbLine
 10
91.18
 20
213.519
 30
0.0
 11
91.90600000000001
 21
215.5659999999999
 31
0.0
  0
LINE
  5
293
330
1E
100
AcDbEntity
  8
0
100
AcDbLine
 10
89.861
 20
211.8219999999999
 30
0.0
 11
90.754
 21
213.6759999999999
 31
0.0
  0
LINE
  5
294
330
1E
100
AcDbEntity
  8
0
100
AcDbLine
 10
90.754
 20
213.6759999999999
 30
0.0
 11
91.42700000000001
 21
215.664
 31
0.0
  0
LINE
  5
295
330
1E
100
AcDbEntity
  8
0
100
AcDbLine
 10
137.6489999999999
 20
214.5379999999999
 30
0.0
 11
137.7599999999999
 21
219.803
 31
0.0
  0
LINE
  5
296
330
1E
100
AcDbEntity
  8
0
100
AcDbLine
 10
91.42700000000001
 20
215.664
 30
0.0
 11
91.83200000000001
 21
217.703
 31
0.0
  0
LINE
  5
297
330
1E
100
AcDbEntity
  8
0
100
AcDbLine
 10
91.90600000000001
 20
215.5659999999999
 30
0.0
 11
92.30200000000001
 21
217.613
 31
0.0
  0
LINE
  5
298
330
1E
100
AcDbEntity
  8
0
100
AcDbLine
 10
92.30200000000001
 20
217.613
 30
0.0
 11
92.5
 21
219.7919999999999
 31
0.0
  0
LINE
  5
299
330
1E
100
AcDbEntity
  8
0
100
AcDbLine
 10
91.83200000000001
 20
217.703
 30
0.0
 11
92.0
 21
219.7919999999999
 31
0.0
  0
LINE
  5
29C
330
1E
100
AcDbEntity
  8
0
100
AcDbLine
 10
71.21179999999999
 20
298.7809999999999
 30
0.0
 11
73.4432
 21
298.862
 31
0.0
  0
LINE
  5
29D
330
1E
100
AcDbEntity
  8
0
100
AcDbLine
 10
71.77600000000001
 20
235.705
 30
0.0
 11
73.822
 21
236.1009999999999
 31
0.0
  0
LINE
  5
29E
330
1E
100
AcDbEntity
  8
0
100
AcDbLine
 10
71.874
 20
235.226
 30
0.0
 11
73.91199999999999
 21
235.63
 31
0.0
  0
LINE
  5
29F
330
1E
100
AcDbEntity
  8
0
100
AcDbLine
 10
79.20100000000001
 20
222.0079999999999
 30
0.0
 11
80.12249999999999
 21
221.672
 31
0.0
  0
LINE
  5
2A0
330
1E
100
AcDbEntity
  8
0
100
AcDbLine
 10
91.83200000000001
 20
221.8809999999999
 30
0.0
 11
92.0
 21
219.7919999999999
 31
0.0
  0
LINE
  5
2A1
330
1E
100
AcDbEntity
  8
0
100
AcDbLine
 10
92.30200000000001
 20
221.9709999999999
 30
0.0
 11
92.5
 21
219.7919999999999
 31
0.0
  0
LINE
  5
2A2
330
1E
100
AcDbEntity
  8
0
100
AcDbLine
 10
80.12249999999999
 20
221.672
 30
0.0
 11
80.5945
 21
221.112
 31
0.0
  0
LINE
  5
2A3
330
1E
100
AcDbEntity
  8
0
100
AcDbLine
 10
73.822
 20
236.1009999999999
 30
0.0
 11
76.0
 21
236.2989999999999
 31
0.0
  0
LINE
  5
2A4
330
1E
100
AcDbEntity
  8
0
100
AcDbLine
 10
73.91199999999999
 20
235.63
 30
0.0
 11
76.0
 21
235.799
 31
0.0
  0
LINE
  5
2A6
330
1E
100
AcDbEntity
  8
0
100
AcDbLine
 10
72.568
 20
245.635
 30
0.0
 11
76.0
 21
245.8029999999999
 31
0.0
  0
LINE
  5
2AB
330
1E
100
AcDbEntity
  8
0
100
AcDbLine
 10
73.4432
 20
298.862
 30
0.0
 11
76.0
 21
298.943
 31
0.0
  0
LINE
  5
2AF
330
1E
100
AcDbEntity
  8
0
100
AcDbLine
 10
73.0498
 20
295.913
 30
0.0
 11
76.0
 21
296.002
 31
0.0
  0
LINE
  5
2B1
330
1E
100
AcDbEntity
  8
0
100
AcDbLine
 10
76.0
 20
235.799
 30
0.0
 11
78.08800000000001
 21
235.63
 31
0.0
  0
LINE
  5
2B2
330
1E
100
AcDbEntity
  8
0
100
AcDbLine
 10
76.0
 20
245.8029999999999
 30
0.0
 11
79.432
 21
245.635
 31
0.0
  0
LINE
  5
2B4
330
1E
100
AcDbEntity
  8
0
100
AcDbLine
 10
76.0
 20
236.2989999999999
 30
0.0
 11
78.178
 21
236.1009999999999
 31
0.0
  0
LINE
  5
2B6
330
1E
100
AcDbEntity
  8
0
100
AcDbLine
 10
76.0
 20
246.001
 30
0.0
 11
84.58159999999999
 21
247.002
 31
0.0
  0
LINE
  5
2B8
330
1E
100
AcDbEntity
  8
0
100
AcDbLine
 10
76.0
 20
298.943
 30
0.0
 11
78.55679999999999
 21
298.862
 31
0.0
  0
LINE
  5
2B9
330
1E
100
AcDbEntity
  8
0
100
AcDbLine
 10
76.0
 20
296.002
 30
0.0
 11
78.95019999999999
 21
295.913
 31
0.0
  0
LINE
  5
2BD
330
1E
100
AcDbEntity
  8
0
100
AcDbLine
 10
91.42700000000001
 20
223.9199999999999
 30
0.0
 11
91.83200000000001
 21
221.8809999999999
 31
0.0
  0
LINE
  5
2BE
330
1E
100
AcDbEntity
  8
0
100
AcDbLine
 10
91.90600000000001
 20
224.018
 30
0.0
 11
92.30200000000001
 21
221.9709999999999
 31
0.0
  0
LINE
  5
2BF
330
1E
100
AcDbEntity
  8
0
100
AcDbLine
 10
78.08800000000001
 20
235.63
 30
0.0
 11
80.126
 21
235.226
 31
0.0
  0
LINE
  5
2C0
330
1E
100
AcDbEntity
  8
0
100
AcDbLine
 10
82.11399999999999
 20
234.552
 30
0.0
 11
83.96600000000001
 21
233.659
 31
0.0
  0
LINE
  5
2C1
330
1E
100
AcDbEntity
  8
0
100
AcDbLine
 10
80.126
 20
235.226
 30
0.0
 11
82.11399999999999
 21
234.552
 31
0.0
  0
LINE
  5
2C2
330
1E
100
AcDbEntity
  8
0
100
AcDbLine
 10
83.96600000000001
 20
233.659
 30
0.0
 11
85.73500000000001
 21
232.4629999999999
 31
0.0
  0
LINE
  5
2C3
330
1E
100
AcDbEntity
  8
0
100
AcDbLine
 10
84.184
 20
234.12
 30
0.0
 11
86.03200000000001
 21
232.8659999999999
 31
0.0
  0
LINE
  5
2C4
330
1E
100
AcDbEntity
  8
0
100
AcDbLine
 10
82.27
 20
234.9779999999999
 30
0.0
 11
84.184
 21
234.12
 31
0.0
  0
LINE
  5
2C5
330
1E
100
AcDbEntity
  8
0
100
AcDbLine
 10
82.656
 20
245.299
 30
0.0
 11
85.87999999999999
 21
244.6829999999999
 31
0.0
  0
LINE
  5
2C6
330
1E
100
AcDbEntity
  8
0
100
AcDbLine
 10
79.432
 20
245.635
 30
0.0
 11
82.656
 21
245.299
 31
0.0
  0
LINE
  5
2C9
330
1E
100
AcDbEntity
  8
0
100
AcDbLine
 10
80.22399999999999
 20
235.705
 30
0.0
 11
82.27
 21
234.9779999999999
 31
0.0
  0
LINE
  5
2CA
330
1E
100
AcDbEntity
  8
0
100
AcDbLine
 10
78.178
 20
236.1009999999999
 30
0.0
 11
80.22399999999999
 21
235.705
 31
0.0
  0
LINE
  5
2CB
330
1E
100
AcDbEntity
  8
0
100
AcDbLine
 10
85.73500000000001
 20
232.4629999999999
 30
0.0
 11
87.301
 21
231.0979999999999
 31
0.0
  0
LINE
  5
2CC
330
1E
100
AcDbEntity
  8
0
100
AcDbLine
 10
85.87999999999999
 20
244.6829999999999
 30
0.0
 11
88.89599999999999
 21
243.954
 31
0.0
  0
LINE
  5
2CD
330
1E
100
AcDbEntity
  8
0
100
AcDbLine
 10
86.03200000000001
 20
232.8659999999999
 30
0.0
 11
87.61599999999999
 21
231.413
 31
0.0
  0
LINE
  5
2CE
330
1E
100
AcDbEntity
  8
0
100
AcDbLine
 10
85.0
 20
244.851138957816
 30
0.0
 11
85.0
 21
246.905
 31
0.0
  0
LINE
  5
2CF
330
1E
100
AcDbEntity
  8
0
100
AcDbLine
 10
85.0
 20
246.905
 30
0.0
 11
85.62137462942741
 21
247.3399622405989
 31
0.0
  0
LINE
  5
2D0
330
1E
100
AcDbEntity
  8
0
100
AcDbLine
 10
85.0
 20
246.905
 30
0.0
 11
85.0
 21
244.851138957816
 31
0.0
  0
LINE
  5
2D4
330
1E
100
AcDbEntity
  8
0
100
AcDbLine
 10
78.55679999999999
 20
298.862
 30
0.0
 11
80.7882
 21
298.7809999999999
 31
0.0
  0
LINE
  5
2DE
330
1E
100
AcDbEntity
  8
0
100
AcDbLine
 10
85.5357
 20
295.372
 30
0.0
 11
86.6528
 21
295.167
 31
0.0
  0
LINE
  5
2DF
330
1E
100
AcDbEntity
  8
0
100
AcDbLine
 10
83.8292
 20
295.5779999999999
 30
0.0
 11
85.5357
 21
295.372
 31
0.0
  0
LINE
  5
2E0
330
1E
100
AcDbEntity
  8
0
100
AcDbLine
 10
86.29459999999999
 20
297.8079999999999
 30
0.0
 11
87.0865
 21
297.268
 31
0.0
  0
LINE
  5
2E1
330
1E
100
AcDbEntity
  8
0
100
AcDbLine
 10
85.81059999999999
 20
298.0179999999999
 30
0.0
 11
86.29459999999999
 21
297.8079999999999
 31
0.0
  0
LINE
  5
2E2
330
1E
100
AcDbEntity
  8
0
100
AcDbLine
 10
85.23239999999999
 20
298.182
 30
0.0
 11
85.81059999999999
 21
298.0179999999999
 31
0.0
  0
LINE
  5
2E3
330
1E
100
AcDbEntity
  8
0
100
AcDbLine
 10
84.26430000000001
 20
298.369
 30
0.0
 11
85.23239999999999
 21
298.182
 31
0.0
  0
LINE
  5
2E4
330
1E
100
AcDbEntity
  8
0
100
AcDbLine
 10
82.78530000000001
 20
298.5559999999999
 30
0.0
 11
84.26430000000001
 21
298.369
 31
0.0
  0
LINE
  5
2E5
330
1E
100
AcDbEntity
  8
0
100
AcDbLine
 10
80.7882
 20
298.7809999999999
 30
0.0
 11
82.78530000000001
 21
298.5559999999999
 31
0.0
  0
LINE
  5
2E8
330
1E
100
AcDbEntity
  8
0
100
AcDbLine
 10
81.5249
 20
295.8239999999999
 30
0.0
 11
83.8292
 21
295.5779999999999
 31
0.0
  0
LINE
  5
2E9
330
1E
100
AcDbEntity
  8
0
100
AcDbLine
 10
78.95019999999999
 20
295.913
 30
0.0
 11
81.5249
 21
295.8239999999999
 31
0.0
  0
LINE
  5
2ED
330
1E
100
AcDbEntity
  8
0
100
AcDbLine
 10
87.301
 20
231.0979999999999
 30
0.0
 11
88.665
 21
229.5309999999999
 31
0.0
  0
LINE
  5
2EE
330
1E
100
AcDbEntity
  8
0
100
AcDbLine
 10
87.61599999999999
 20
231.413
 30
0.0
 11
89.068
 21
229.828
 31
0.0
  0
LINE
  5
2F8
330
1E
100
AcDbEntity
  8
0
100
AcDbLine
 10
137.6489999999999
 20
225.068
 30
0.0
 11
137.7599999999999
 21
219.803
 31
0.0
  0
LINE
  5
2F9
330
1E
100
AcDbEntity
  8
0
100
AcDbLine
 10
89.861
 20
227.762
 30
0.0
 11
90.754
 21
225.9079999999999
 31
0.0
  0
LINE
  5
2FA
330
1E
100
AcDbEntity
  8
0
100
AcDbLine
 10
90.754
 20
225.9079999999999
 30
0.0
 11
91.42700000000001
 21
223.9199999999999
 31
0.0
  0
LINE
  5
2FB
330
1E
100
AcDbEntity
  8
0
100
AcDbLine
 10
88.665
 20
229.5309999999999
 30
0.0
 11
89.861
 21
227.762
 31
0.0
  0
LINE
  5
2FC
330
1E
100
AcDbEntity
  8
0
100
AcDbLine
 10
89.068
 20
229.828
 30
0.0
 11
90.32200000000001
 21
227.979
 31
0.0
  0
LINE
  5
2FD
330
1E
100
AcDbEntity
  8
0
100
AcDbLine
 10
90.32200000000001
 20
227.979
 30
0.0
 11
91.18
 21
226.065
 31
0.0
  0
LINE
  5
2FE
330
1E
100
AcDbEntity
  8
0
100
AcDbLine
 10
98.56799999999999
 20
238.744
 30
0.0
 11
99.92
 21
237.119
 31
0.0
  0
LINE
  5
2FF
330
1E
100
AcDbEntity
  8
0
100
AcDbLine
 10
99.92
 20
237.119
 30
0.0
 11
101.0639999999999
 21
235.3829999999999
 31
0.0
  0
LINE
  5
300
330
1E
100
AcDbEntity
  8
0
100
AcDbLine
 10
101.0639999999999
 20
235.3829999999999
 30
0.0
 11
101.688
 21
233.6459999999999
 31
0.0
  0
LINE
  5
301
330
1E
100
AcDbEntity
  8
0
100
AcDbLine
 10
101.688
 20
233.6459999999999
 30
0.0
 11
102.0
 21
231.7969999999999
 31
0.0
  0
LINE
  5
302
330
1E
100
AcDbEntity
  8
0
100
AcDbLine
 10
94.304
 20
241.657
 30
0.0
 11
96.59200000000002
 21
240.3129999999999
 31
0.0
  0
LINE
  5
303
330
1E
100
AcDbEntity
  8
0
100
AcDbLine
 10
96.59200000000002
 20
240.3129999999999
 30
0.0
 11
98.56799999999999
 21
238.744
 31
0.0
  0
LINE
  5
306
330
1E
100
AcDbEntity
  8
0
100
AcDbLine
 10
91.18
 20
226.065
 30
0.0
 11
91.90600000000001
 21
224.018
 31
0.0
  0
LINE
  5
307
330
1E
100
AcDbEntity
  8
0
100
AcDbLine
 10
91.80799999999999
 20
242.89
 30
0.0
 11
94.304
 21
241.657
 31
0.0
  0
LINE
  5
30A
330
1E
100
AcDbEntity
  8
0
100
AcDbLine
 10
137.09
 20
243.0849999999999
 30
0.0
 11
137.3809999999999
 21
232.885
 31
0.0
  0
LINE
  5
30B
330
1E
100
AcDbEntity
  8
0
100
AcDbLine
 10
137.3809999999999
 20
232.885
 30
0.0
 11
137.6489999999999
 21
225.068
 31
0.0
  0
LINE
  5
30C
330
1E
100
AcDbEntity
  8
0
100
AcDbLine
 10
88.89599999999999
 20
243.954
 30
0.0
 11
91.80799999999999
 21
242.89
 31
0.0
  0
LINE
  5
312
330
1E
100
AcDbEntity
  8
0
100
AcDbLine
 10
88.1732
 20
249.879
 30
0.0
 11
88.63519999999999
 21
250.929
 31
0.0
  0
LINE
  5
318
330
1E
100
AcDbEntity
  8
0
100
AcDbLine
 10
88.6213
 20
250.903
 30
0.0
 11
88.89889999999999
 21
251.5029999999999
 31
0.0
  0
LINE
  5
319
330
1E
100
AcDbEntity
  8
0
100
AcDbLine
 10
88.89889999999999
 20
251.5029999999999
 30
0.0
 11
89.161
 21
252.2229999999999
 31
0.0
  0
LINE
  5
31A
330
1E
100
AcDbEntity
  8
0
100
AcDbLine
 10
89.161
 20
252.2229999999999
 30
0.0
 11
89.2843
 21
253.149
 31
0.0
  0
LINE
  5
31B
330
1E
100
AcDbEntity
  8
0
100
AcDbLine
 10
89.3643329286017
 20
253.8813988978379
 30
0.0
 11
89.38679999999999
 21
254.03
 31
0.0
  0
LINE
  5
31C
330
1E
100
AcDbEntity
  8
0
100
AcDbLine
 10
89.38679999999999
 20
254.03
 30
0.0
 11
89.4954
 21
255.1349999999999
 31
0.0
  0
LINE
  5
31E
330
1E
100
AcDbEntity
  8
0
100
AcDbLine
 10
89.4954
 20
255.1349999999999
 30
0.0
 11
89.61960000000001
 21
256.984
 31
0.0
  0
LINE
  5
323
330
1E
100
AcDbEntity
  8
0
100
AcDbLine
 10
89.2843
 20
253.149
 30
0.0
 11
89.38679999999999
 21
254.087
 31
0.0
  0
LINE
  5
324
330
1E
100
AcDbEntity
  8
0
100
AcDbLine
 10
89.61960000000001
 20
256.984
 30
0.0
 11
89.7438
 21
259.809
 31
0.0
  0
LINE
  5
325
330
1E
100
AcDbEntity
  8
0
100
AcDbLine
 10
89.61960000000001
 20
257.0409999999999
 30
0.0
 11
89.7438
 21
259.865
 31
0.0
  0
LINE
  5
327
330
1E
100
AcDbEntity
  8
0
100
AcDbLine
 10
89.7438
 20
259.809
 30
0.0
 11
89.89270000000001
 21
263.624
 31
0.0
  0
LINE
  5
329
330
1E
100
AcDbEntity
  8
0
100
AcDbLine
 10
89.7438
 20
259.865
 30
0.0
 11
89.89270000000001
 21
263.679
 31
0.0
  0
LINE
  5
32C
330
1E
100
AcDbEntity
  8
0
100
AcDbLine
 10
87.0865
 20
297.268
 30
0.0
 11
87.4919
 21
296.899
 31
0.0
  0
LINE
  5
32D
330
1E
100
AcDbEntity
  8
0
100
AcDbLine
 10
86.6528
 20
295.167
 30
0.0
 11
87.31990000000001
 21
294.987
 31
0.0
  0
LINE
  5
32F
330
1E
100
AcDbEntity
  8
0
100
AcDbLine
 10
89.01419999999999
 20
293.209
 30
0.0
 11
89.24710000000001
 21
292.49
 31
0.0
  0
LINE
  5
332
330
1E
100
AcDbEntity
  8
0
100
AcDbLine
 10
89.38679999999999
 20
291.509
 30
0.0
 11
89.4954
 21
290.4049999999999
 31
0.0
  0
LINE
  5
333
330
1E
100
AcDbEntity
  8
0
100
AcDbLine
 10
89.24710000000001
 20
292.434
 30
0.0
 11
89.38679999999999
 21
291.509
 31
0.0
  0
LINE
  5
334
330
1E
100
AcDbEntity
  8
0
100
AcDbLine
 10
89.24710000000001
 20
292.49
 30
0.0
 11
89.38679999999999
 21
291.5649999999999
 31
0.0
  0
LINE
  5
335
330
1E
100
AcDbEntity
  8
0
100
AcDbLine
 10
89.38679999999999
 20
291.5649999999999
 30
0.0
 11
89.4954
 21
290.461
 31
0.0
  0
LINE
  5
338
330
1E
100
AcDbEntity
  8
0
100
AcDbLine
 10
89.7438
 20
285.731
 30
0.0
 11
89.89270000000001
 21
281.916
 31
0.0
  0
LINE
  5
33A
330
1E
100
AcDbEntity
  8
0
100
AcDbLine
 10
89.4954
 20
290.4049999999999
 30
0.0
 11
89.61960000000001
 21
288.5559999999999
 31
0.0
  0
LINE
  5
33B
330
1E
100
AcDbEntity
  8
0
100
AcDbLine
 10
89.61960000000001
 20
288.5559999999999
 30
0.0
 11
89.7438
 21
285.731
 31
0.0
  0
LINE
  5
33C
330
1E
100
AcDbEntity
  8
0
100
AcDbLine
 10
89.4954
 20
290.461
 30
0.0
 11
89.61960000000001
 21
288.612
 31
0.0
  0
LINE
  5
33D
330
1E
100
AcDbEntity
  8
0
100
AcDbLine
 10
89.61960000000001
 20
288.612
 30
0.0
 11
89.7438
 21
285.787
 31
0.0
  0
LINE
  5
33E
330
1E
100
AcDbEntity
  8
0
100
AcDbLine
 10
89.7438
 20
285.787
 30
0.0
 11
89.89270000000001
 21
281.9719999999999
 31
0.0
  0
LINE
  5
348
330
1E
100
AcDbEntity
  8
0
100
AcDbLine
 10
88.9527
 20
294.169
 30
0.0
 11
89.24710000000001
 21
292.434
 31
0.0
  0
LINE
  5
349
330
1E
100
AcDbEntity
  8
0
100
AcDbLine
 10
88.71259999999999
 20
293.871
 30
0.0
 11
89.01419999999999
 21
293.209
 31
0.0
  0
LINE
  5
34A
330
1E
100
AcDbEntity
  8
0
100
AcDbLine
 10
88.31279999999999
 20
294.37
 30
0.0
 11
88.71259999999999
 21
293.871
 31
0.0
  0
LINE
  5
34B
330
1E
100
AcDbEntity
  8
0
100
AcDbLine
 10
88.43009999999999
 20
295.529
 30
0.0
 11
88.725
 21
294.877
 31
0.0
  0
LINE
  5
34C
330
1E
100
AcDbEntity
  8
0
100
AcDbLine
 10
88.725
 20
294.877
 30
0.0
 11
88.9527
 21
294.169
 31
0.0
  0
LINE
  5
34D
330
1E
100
AcDbEntity
  8
0
100
AcDbLine
 10
87.86509999999999
 20
296.423
 30
0.0
 11
88.43009999999999
 21
295.529
 31
0.0
  0
LINE
  5
34E
330
1E
100
AcDbEntity
  8
0
100
AcDbLine
 10
87.4919
 20
296.899
 30
0.0
 11
87.86509999999999
 21
296.423
 31
0.0
  0
LINE
  5
34F
330
1E
100
AcDbEntity
  8
0
100
AcDbLine
 10
87.8784
 20
294.7559999999999
 30
0.0
 11
88.31279999999999
 21
294.37
 31
0.0
  0
LINE
  5
350
330
1E
100
AcDbEntity
  8
0
100
AcDbLine
 10
87.31990000000001
 20
294.987
 30
0.0
 11
87.8784
 21
294.7559999999999
 31
0.0
  0
LINE
  5
354
330
1E
100
AcDbEntity
  8
0
100
AcDbLine
 10
89.89270000000001
 20
263.624
 30
0.0
 11
89.9464
 21
267.8859999999999
 31
0.0
  0
LINE
  5
35B
330
1E
100
AcDbEntity
  8
0
100
AcDbLine
 10
89.9464
 20
267.8859999999999
 30
0.0
 11
90.0
 21
272.77
 31
0.0
  0
LINE
  5
35F
330
1E
100
AcDbEntity
  8
0
100
AcDbLine
 10
134.584
 20
265.8659999999999
 30
0.0
 11
135.086
 21
263.1489999999999
 31
0.0
  0
LINE
  5
360
330
1E
100
AcDbEntity
  8
0
100
AcDbLine
 10
135.086
 20
263.1489999999999
 30
0.0
 11
135.684
 21
258.125
 31
0.0
  0
LINE
  5
364
330
1E
100
AcDbEntity
  8
0
100
AcDbLine
 10
135.684
 20
258.125
 30
0.0
 11
136.417
 21
251.985
 31
0.0
  0
LINE
  5
365
330
1E
100
AcDbEntity
  8
0
100
AcDbLine
 10
136.417
 20
251.985
 30
0.0
 11
137.09
 21
243.0849999999999
 31
0.0
  0
LINE
  5
366
330
1E
100
AcDbEntity
  8
0
100
AcDbLine
 10
89.89270000000001
 20
263.679
 30
0.0
 11
89.9464
 21
267.9419999999999
 31
0.0
  0
LINE
  5
367
330
1E
100
AcDbEntity
  8
0
100
AcDbLine
 10
89.89270000000001
 20
281.916
 30
0.0
 11
89.9464
 21
277.654
 31
0.0
  0
LINE
  5
368
330
1E
100
AcDbEntity
  8
0
100
AcDbLine
 10
89.9464
 20
277.654
 30
0.0
 11
90.0
 21
272.77
 31
0.0
  0
LINE
  5
36B
330
1E
100
AcDbEntity
  8
0
100
AcDbLine
 10
89.89978792429219
 20
281.409453755436
 30
0.0
 11
99.2816
 21
280.8929999999999
 31
0.0
  0
LINE
  5
36C
330
1E
100
AcDbEntity
  8
0
100
AcDbLine
 10
89.89270000000001
 20
281.9719999999999
 30
0.0
 11
89.9464
 21
277.7099999999999
 31
0.0
  0
LINE
  5
37E
330
1E
100
AcDbEntity
  8
0
100
AcDbLine
 10
119.3459999999999
 20
278.889
 30
0.0
 11
122.0629999999999
 21
278.3869999999999
 31
0.0
  0
LINE
  5
37F
330
1E
100
AcDbEntity
  8
0
100
AcDbLine
 10
114.322
 20
279.487
 30
0.0
 11
119.3459999999999
 21
278.889
 31
0.0
  0
LINE
  5
380
330
1E
100
AcDbEntity
  8
0
100
AcDbLine
 10
108.1816
 20
280.22
 30
0.0
 11
114.322
 21
279.487
 31
0.0
  0
LINE
  5
383
330
1E
100
AcDbEntity
  8
0
100
AcDbLine
 10
99.2816
 20
280.8929999999999
 30
0.0
 11
108.1816
 21
280.22
 31
0.0
  0
LINE
  5
38C
330
1E
100
AcDbEntity
  8
0
100
AcDbLine
 10
129.0829999999999
 20
275.2909999999999
 30
0.0
 11
130.36
 21
274.163
 31
0.0
  0
LINE
  5
38D
330
1E
100
AcDbEntity
  8
0
100
AcDbLine
 10
127.61
 20
276.269
 30
0.0
 11
129.0829999999999
 21
275.2909999999999
 31
0.0
  0
LINE
  5
38E
330
1E
100
AcDbEntity
  8
0
100
AcDbLine
 10
126.2299999999999
 20
277.061
 30
0.0
 11
127.61
 21
276.269
 31
0.0
  0
LINE
  5
38F
330
1E
100
AcDbEntity
  8
0
100
AcDbLine
 10
124.3009999999999
 20
277.8379999999999
 30
0.0
 11
126.2299999999999
 21
277.061
 31
0.0
  0
LINE
  5
390
330
1E
100
AcDbEntity
  8
0
100
AcDbLine
 10
122.0629999999999
 20
278.3869999999999
 30
0.0
 11
124.3009999999999
 21
277.8379999999999
 31
0.0
  0
LINE
  5
391
330
1E
100
AcDbEntity
  8
0
100
AcDbLine
 10
130.36
 20
274.163
 30
0.0
 11
131.488
 21
272.8859999999999
 31
0.0
  0
LINE
  5
392
330
1E
100
AcDbEntity
  8
0
100
AcDbLine
 10
131.488
 20
272.8859999999999
 30
0.0
 11
132.466
 21
271.413
 31
0.0
  0
LINE
  5
393
330
1E
100
AcDbEntity
  8
0
100
AcDbLine
 10
132.466
 20
271.413
 30
0.0
 11
133.2579999999999
 21
270.033
 31
0.0
  0
LINE
  5
394
330
1E
100
AcDbEntity
  8
0
100
AcDbLine
 10
133.2579999999999
 20
270.033
 30
0.0
 11
134.0349999999999
 21
268.104
 31
0.0
  0
LINE
  5
395
330
1E
100
AcDbEntity
  8
0
100
AcDbLine
 10
134.0349999999999
 20
268.104
 30
0.0
 11
134.584
 21
265.8659999999999
 31
0.0
  0
LINE
  5
396
330
1E
100
AcDbEntity
  8
0
100
AcDbLine
 10
89.9464
 20
277.7099999999999
 30
0.0
 11
90.0
 21
272.8259999999999
 31
0.0
  0
LINE
  5
397
330
1E
100
AcDbEntity
  8
0
100
AcDbLine
 10
89.9464
 20
267.9419999999999
 30
0.0
 11
90.0
 21
272.8259999999999
 31
0.0
  0
LINE
  5
39B
330
1E
100
AcDbEntity
  8
0
100
AcDbLine
 10
76.0
 20
222.4289999999999
 30
0.0
 11
77.5377
 21
222.3219999999999
 31
0.0
  0
LINE
  5
39C
330
1E
100
AcDbEntity
  8
0
100
AcDbLine
 10
77.5377
 20
222.3219999999999
 30
0.0
 11
79.20100000000001
 21
222.0079999999999
 31
0.0
  0
LINE
  5
39D
330
1E
100
AcDbEntity
  8
0
100
AcDbLine
 10
74.46229999999999
 20
222.3219999999999
 30
0.0
 11
76.0
 21
222.4289999999999
 31
0.0
  0
LINE
  5
39E
330
1E
100
AcDbEntity
  8
0
100
AcDbLine
 10
72.79899999999999
 20
222.0079999999999
 30
0.0
 11
74.46229999999999
 21
222.3219999999999
 31
0.0
  0
LINE
  5
39F
330
1E
100
AcDbEntity
  8
0
100
AcDbLine
 10
71.8775
 20
221.672
 30
0.0
 11
72.79899999999999
 21
222.0079999999999
 31
0.0
  0
LINE
  5
3A0
330
1E
100
AcDbEntity
  8
0
100
AcDbLine
 10
71.40550000000001
 20
221.112
 30
0.0
 11
71.8775
 21
221.672
 31
0.0
  0
LINE
  5
3A1
330
1E
100
AcDbEntity
  8
0
100
AcDbLine
 10
71.06829999999999
 20
219.1609999999999
 30
0.0
 11
71.40550000000001
 21
221.112
 31
0.0
  0
LINE
  5
3A2
330
1E
100
AcDbEntity
  8
0
100
AcDbLine
 10
71.06829999999999
 20
210.726
 30
0.0
 11
71.40550000000001
 21
208.775
 31
0.0
  0
LINE
  5
3A3
330
1E
100
AcDbEntity
  8
0
100
AcDbLine
 10
71.0
 20
214.9429999999999
 30
0.0
 11
71.06829999999999
 21
210.726
 31
0.0
  0
LINE
  5
3A5
330
1E
100
AcDbEntity
  8
0
100
AcDbLine
 10
71.0
 20
214.9429999999999
 30
0.0
 11
71.06829999999999
 21
219.1609999999999
 31
0.0
  0
LINE
  5
3AA
330
1E
100
AcDbEntity
  8
0
100
AcDbLine
 10
33.03889999999999
 20
66.4668
 30
0.0
 11
37.1064
 21
63.3497
 31
0.0
  0
LINE
  5
3AB
330
1E
100
AcDbEntity
  8
0
100
AcDbLine
 10
43.61855
 20
102.8629999999999
 30
0.0
 11
41.6409650202205
 21
93.4356337348313
 31
0.0
  0
LINE
  5
3AC
330
1E
100
AcDbEntity
  8
0
100
AcDbLine
 10
108.02
 20
159.678
 30
0.0
 11
114.1939999999999
 21
160.3779999999999
 31
0.0
  0
LINE
  5
3AD
330
1E
100
AcDbEntity
  8
0
100
AcDbLine
 10
135.425
 20
181.608
 30
0.0
 11
136.125
 21
187.7829999999999
 31
0.0
  0
LINE
  5
3AE
330
1E
100
AcDbEntity
  8
0
100
AcDbLine
 10
63.7113
 20
250.4109999999999
 30
0.0
 11
66.37862537057261
 21
247.3399622405989
 31
0.0
  0
LINE
  5
3AF
330
1E
100
AcDbEntity
  8
0
100
AcDbLine
 10
85.62137462942741
 20
247.3399622405989
 30
0.0
 11
88.1732
 21
249.879
 31
0.0
  0
LINE
  5
3B0
330
1E
100
AcDbEntity
  8
0
100
AcDbLine
 10
47.64065999999999
 20
345.0839999999999
 30
0.0
 11
50.17642870990698
 21
347.0067089905031
 31
0.0
  0
LINE
  5
3B1
330
1E
100
AcDbEntity
  8
0
100
AcDbLine
 10
50.17642870990698
 20
347.0067089905031
 30
0.0
 11
52.01164
 21
347.759
 31
0.0
  0
LINE
  5
3B2
330
1E
100
AcDbEntity
  8
0
100
AcDbLine
 10
15.875
 20
187.7829999999999
 30
0.0
 11
16.5748
 21
181.608
 31
0.0
  0
LINE
  5
3B3
330
1E
100
AcDbEntity
  8
0
100
AcDbLine
 10
16.5748
 20
257.997
 30
0.0
 11
15.875
 21
251.8229999999999
 31
0.0
  0
ENDSEC
  0
SECTION
  2
OBJECTS
  0
DICTIONARY
  5
C
330
0
100
AcDbDictionary
281
     1
  3
ACAD_GROUP
350
D
  3
ACAD_LAYOUT
350
19
  3
ACAD_MLINESTYLE
350
16
  3
ACAD_PLOTSETTINGS
350
18
  3
ACAD_PLOTSTYLENAME
350
E
  3
AcDbVariableDictionary
350
3B5
  0
DICTIONARY
  5
D
102
{ACAD_REACTORS
330
C
102
}
330
C
100
AcDbDictionary
281
     1
  0
DICTIONARY
  5
19
102
{ACAD_REACTORS
330
C
102
}
330
C
100
AcDbDictionary
281
     1
  3
Layout1
350
1D
  3
Model
350
21
  0
DICTIONARY
  5
16
102
{ACAD_REACTORS
330
C
102
}
330
C
100
AcDbDictionary
281
     1
  3
Standard
350
17
  0
DICTIONARY
  5
18
102
{ACAD_REACTORS
330
C
102
}
330
C
100
AcDbDictionary
281
     1
  0
ACDBDICTIONARYWDFLT
  5
E
102
{ACAD_REACTORS
330
C
102
}
330
C
100
AcDbDictionary
281
     1
  3
Normal
350
F
100
AcDbDictionaryWithDefault
340
F
  0
DICTIONARY
  5
3B5
102
{ACAD_REACTORS
330
C
102
}
330
C
100
AcDbDictionary
281
     1
  3
DIMASSOC
350
3B6
  0
LAYOUT
  5
1D
102
{ACAD_REACTORS
330
19
102
}
330
19
100
AcDbPlotSettings
  1

  2
C:\Programme\AutoCAD LT 2002 Deu\plotters\DWF ePlot (optimized for plotting).pc3
  4

  6

 40
0.0
 41
0.0
 42
0.0
 43
0.0
 44
0.0
 45
0.0
 46
0.0
 47
0.0
 48
0.0
 49
0.0
140
0.0
141
0.0
142
1.0
143
1.0
 70
   688
 72
     0
 73
     0
 74
     5
  7

 75
    16
147
1.0
148
0.0
149
0.0
100
AcDbLayout
  1
Layout1
 70
     1
 71
     1
 10
0.0
 20
0.0
 11
12.0
 21
9.0
 12
0.0
 22
0.0
 32
0.0
 14
1.000000000000000E+20
 24
1.000000000000000E+20
 34
1.000000000000000E+20
 15
-1.000000000000000E+20
 25
-1.000000000000000E+20
 35
-1.000000000000000E+20
146
0.0
 13
0.0
 23
0.0
 33
0.0
 16
1.0
 26
0.0
 36
0.0
 17
0.0
 27
1.0
 37
0.0
 76
     0
330
1A
  0
LAYOUT
  5
21
102
{ACAD_REACTORS
330
19
102
}
330
19
100
AcDbPlotSettings
  1

  2
C:\Programme\AutoCAD LT 2002 Deu\plotters\DWF ePlot (optimized for plotting).pc3
  4

  6

 40
0.0
 41
0.0
 42
0.0
 43
0.0
 44
0.0
 45
0.0
 46
0.0
 47
0.0
 48
0.0
 49
0.0
140
0.0
141
0.0
142
1.0
143
1.0
 70
  1712
 72
     0
 73
     0
 74
     0
  7

 75
     0
147
1.0
148
0.0
149
0.0
100
AcDbLayout
  1
Model
 70
     1
 71
     0
 10
0.0
 20
0.0
 11
12.0
 21
9.0
 12
0.0
 22
0.0
 32
0.0
 14
0.0
 24
0.0
 34
0.0
 15
0.0
 25
0.0
 35
0.0
146
0.0
 13
0.0
 23
0.0
 33
0.0
 16
1.0
 26
0.0
 36
0.0
 17
0.0
 27
1.0
 37
0.0
 76
     0
330
1E
  0
MLINESTYLE
  5
17
102
{ACAD_REACTORS
330
16
102
}
330
16
100
AcDbMlineStyle
  2
STANDARD
 70
     0
  3

 62
   256
 51
90.0
 52
90.0
 71
     2
 49
0.5
 62
   256
  6
BYLAYER
 49
-0.5
 62
   256
  6
BYLAYER
  0
ACDBPLACEHOLDER
  5
F
102
{ACAD_REACTORS
330
E
102
}
330
E
  0
DICTIONARYVAR
  5
3B6
102
{ACAD_REACTORS
330
3B5
102
}
330
3B5
100
DictionaryVariables
280
     0
  1
1
  0
ENDSEC
  0
EOF
