  0
SECTION
  2
HEADER
  9
$ACADVER
  1
AC1015
  9
$ACADMAINTVER
 70
    13
  9
$DWGCODEPAGE
  3
ANSI_1252
  9
$INSBASE
 10
0.0
 20
0.0
 30
0.0
  9
$EXTMIN
 10
0.0000000000000024
 20
0.174000000000021
 30
0.0
  9
$EXTMAX
 10
130.0
 20
145.8259999999999
 30
0.0
  9
$LIMMIN
 10
0.0
 20
0.0
  9
$LIMMAX
 10
12.0
 20
9.0
  9
$ORTHOMODE
 70
     0
  9
$REGENMODE
 70
     1
  9
$FILLMODE
 70
     1
  9
$QTEXTMODE
 70
     0
  9
$MIRRTEXT
 70
     1
  9
$LTSCALE
 40
1.0
  9
$ATTMODE
 70
     1
  9
$TEXTSIZE
 40
0.2
  9
$TRACEWID
 40
0.05
  9
$TEXTSTYLE
  7
Standard
  9
$CLAYER
  8
0
  9
$CELTYPE
  6
Continuous
  9
$CECOLOR
 62
   256
  9
$CELTSCALE
 40
1.0
  9
$DISPSILH
 70
     0
  9
$DIMSCALE
 40
1.0
  9
$DIMASZ
 40
0.18
  9
$DIMEXO
 40
0.0625
  9
$DIMDLI
 40
0.38
  9
$DIMRND
 40
0.0
  9
$DIMDLE
 40
0.0
  9
$DIMEXE
 40
0.18
  9
$DIMTP
 40
0.0
  9
$DIMTM
 40
0.0
  9
$DIMTXT
 40
0.18
  9
$DIMCEN
 40
0.09
  9
$DIMTSZ
 40
0.0
  9
$DIMTOL
 70
     0
  9
$DIMLIM
 70
     0
  9
$DIMTIH
 70
     1
  9
$DIMTOH
 70
     1
  9
$DIMSE1
 70
     0
  9
$DIMSE2
 70
     0
  9
$DIMTAD
 70
     0
  9
$DIMZIN
 70
     0
  9
$DIMBLK
  1

  9
$DIMASO
 70
     1
  9
$DIMSHO
 70
     1
  9
$DIMPOST
  1

  9
$DIMAPOST
  1

  9
$DIMALT
 70
     0
  9
$DIMALTD
 70
     2
  9
$DIMALTF
 40
25.4
  9
$DIMLFAC
 40
1.0
  9
$DIMTOFL
 70
     0
  9
$DIMTVP
 40
0.0
  9
$DIMTIX
 70
     0
  9
$DIMSOXD
 70
     0
  9
$DIMSAH
 70
     0
  9
$DIMBLK1
  1

  9
$DIMBLK2
  1

  9
$DIMSTYLE
  2
Standard
  9
$DIMCLRD
 70
     0
  9
$DIMCLRE
 70
     0
  9
$DIMCLRT
 70
     0
  9
$DIMTFAC
 40
1.0
  9
$DIMGAP
 40
0.09
  9
$DIMJUST
 70
     0
  9
$DIMSD1
 70
     0
  9
$DIMSD2
 70
     0
  9
$DIMTOLJ
 70
     1
  9
$DIMTZIN
 70
     0
  9
$DIMALTZ
 70
     0
  9
$DIMALTTZ
 70
     0
  9
$DIMUPT
 70
     0
  9
$DIMDEC
 70
     4
  9
$DIMTDEC
 70
     4
  9
$DIMALTU
 70
     2
  9
$DIMALTTD
 70
     2
  9
$DIMTXSTY
  7
Standard
  9
$DIMAUNIT
 70
     0
  9
$DIMADEC
 70
     0
  9
$DIMALTRND
 40
0.0
  9
$DIMAZIN
 70
     0
  9
$DIMDSEP
 70
    46
  9
$DIMATFIT
 70
     3
  9
$DIMFRAC
 70
     0
  9
$DIMLDRBLK
  1

  9
$DIMLUNIT
 70
     2
  9
$DIMLWD
 70
    -2
  9
$DIMLWE
 70
    -2
  9
$DIMTMOVE
 70
     0
  9
$LUNITS
 70
     2
  9
$LUPREC
 70
     4
  9
$SKETCHINC
 40
0.1
  9
$FILLETRAD
 40
0.0
  9
$AUNITS
 70
     0
  9
$AUPREC
 70
     0
  9
$MENU
  1
.
  9
$ELEVATION
 40
0.0
  9
$PELEVATION
 40
0.0
  9
$THICKNESS
 40
0.0
  9
$LIMCHECK
 70
     0
  9
$CHAMFERA
 40
0.0
  9
$CHAMFERB
 40
0.0
  9
$CHAMFERC
 40
0.0
  9
$CHAMFERD
 40
0.0
  9
$SKPOLY
 70
     0
  9
$TDCREATE
 40
2455655.601442419
  9
$TDUCREATE
 40
2455655.518109085
  9
$TDUPDATE
 40
2455655.605745613
  9
$TDUUPDATE
 40
2455655.522412280
  9
$TDINDWG
 40
0.0043033796
  9
$TDUSRTIMER
 40
0.0043033796
  9
$USRTIMER
 70
     1
  9
$ANGBASE
 50
0.0
  9
$ANGDIR
 70
     0
  9
$PDMODE
 70
     0
  9
$PDSIZE
 40
0.0
  9
$PLINEWID
 40
0.0
  9
$SPLFRAME
 70
     0
  9
$SPLINETYPE
 70
     6
  9
$SPLINESEGS
 70
     8
  9
$HANDSEED
  5
202
  9
$SURFTAB1
 70
     6
  9
$SURFTAB2
 70
     6
  9
$SURFTYPE
 70
     6
  9
$SURFU
 70
     6
  9
$SURFV
 70
     6
  9
$UCSBASE
  2

  9
$UCSNAME
  2

  9
$UCSORG
 10
0.0
 20
0.0
 30
0.0
  9
$UCSXDIR
 10
1.0
 20
0.0
 30
0.0
  9
$UCSYDIR
 10
0.0
 20
1.0
 30
0.0
  9
$UCSORTHOREF
  2

  9
$UCSORTHOVIEW
 70
     1
  9
$UCSORGTOP
 10
0.0
 20
0.0
 30
0.0
  9
$UCSORGBOTTOM
 10
0.0
 20
0.0
 30
0.0
  9
$UCSORGLEFT
 10
0.0
 20
0.0
 30
0.0
  9
$UCSORGRIGHT
 10
0.0
 20
0.0
 30
0.0
  9
$UCSORGFRONT
 10
0.0
 20
0.0
 30
0.0
  9
$UCSORGBACK
 10
0.0
 20
0.0
 30
0.0
  9
$PUCSBASE
  2

  9
$PUCSNAME
  2

  9
$PUCSORG
 10
0.0
 20
0.0
 30
0.0
  9
$PUCSXDIR
 10
1.0
 20
0.0
 30
0.0
  9
$PUCSYDIR
 10
0.0
 20
1.0
 30
0.0
  9
$PUCSORTHOREF
  2

  9
$PUCSORTHOVIEW
 70
     0
  9
$PUCSORGTOP
 10
0.0
 20
0.0
 30
0.0
  9
$PUCSORGBOTTOM
 10
0.0
 20
0.0
 30
0.0
  9
$PUCSORGLEFT
 10
0.0
 20
0.0
 30
0.0
  9
$PUCSORGRIGHT
 10
0.0
 20
0.0
 30
0.0
  9
$PUCSORGFRONT
 10
0.0
 20
0.0
 30
0.0
  9
$PUCSORGBACK
 10
0.0
 20
0.0
 30
0.0
  9
$USERI1
 70
     0
  9
$USERI2
 70
     0
  9
$USERI3
 70
     0
  9
$USERI4
 70
     0
  9
$USERI5
 70
     0
  9
$USERR1
 40
0.0
  9
$USERR2
 40
0.0
  9
$USERR3
 40
0.0
  9
$USERR4
 40
0.0
  9
$USERR5
 40
0.0
  9
$WORLDVIEW
 70
     1
  9
$SHADEDGE
 70
     3
  9
$SHADEDIF
 70
    70
  9
$TILEMODE
 70
     1
  9
$MAXACTVP
 70
    64
  9
$PINSBASE
 10
0.0
 20
0.0
 30
0.0
  9
$PLIMCHECK
 70
     0
  9
$PEXTMIN
 10
1.000000000000000E+20
 20
1.000000000000000E+20
 30
1.000000000000000E+20
  9
$PEXTMAX
 10
-1.000000000000000E+20
 20
-1.000000000000000E+20
 30
-1.000000000000000E+20
  9
$PLIMMIN
 10
0.0
 20
0.0
  9
$PLIMMAX
 10
12.0
 20
9.0
  9
$UNITMODE
 70
     0
  9
$VISRETAIN
 70
     1
  9
$PLINEGEN
 70
     0
  9
$PSLTSCALE
 70
     1
  9
$TREEDEPTH
 70
  3020
  9
$CMLSTYLE
  2
Standard
  9
$CMLJUST
 70
     0
  9
$CMLSCALE
 40
1.0
  9
$PROXYGRAPHICS
 70
     1
  9
$MEASUREMENT
 70
     0
  9
$CELWEIGHT
370
    -1
  9
$ENDCAPS
280
     0
  9
$JOINSTYLE
280
     0
  9
$LWDISPLAY
290
     0
  9
$INSUNITS
 70
     0
  9
$HYPERLINKBASE
  1

  9
$STYLESHEET
  1

  9
$XEDIT
290
     1
  9
$CEPSNTYPE
380
     0
  9
$PSTYLEMODE
290
     1
  9
$FINGERPRINTGUID
  2
{B6149932-B5ED-47AB-8F96-CBB5B8160879}
  9
$VERSIONGUID
  2
{81F4DF75-DC21-488C-9A0A-E31F2AA7A096}
  9
$EXTNAMES
290
     1
  9
$PSVPSCALE
 40
0.0
  9
$OLESTARTUP
290
     0
  0
ENDSEC
  0
SECTION
  2
CLASSES
  0
CLASS
  1
ACDBDICTIONARYWDFLT
  2
AcDbDictionaryWithDefault
  3
AutoCAD 2000
 90
        0
280
     0
281
     0
  0
CLASS
  1
ACDBPLACEHOLDER
  2
AcDbPlaceHolder
  3
AutoCAD 2000
 90
        0
280
     0
281
     0
  0
CLASS
  1
LAYOUT
  2
AcDbLayout
  3
AutoCAD 2000
 90
        0
280
     0
281
     0
  0
CLASS
  1
DICTIONARYVAR
  2
AcDbDictionaryVar
  3
AutoCAD 2000
 90
        0
280
     0
281
     0
  0
ENDSEC
  0
SECTION
  2
TABLES
  0
TABLE
  2
VPORT
  5
8
330
0
100
AcDbSymbolTable
 70
     3
  0
VPORT
  5
201
330
8
100
AcDbSymbolTableRecord
100
AcDbViewportTableRecord
  2
*Active
 70
     0
 10
0.0
 20
0.0
 11
1.0
 21
1.0
 12
65.0
 22
73.0
 13
0.0
 23
0.0
 14
1.0
 24
1.0
 15
0.0
 25
0.0
 16
0.0
 26
0.0
 36
1.0
 17
0.0
 27
0.0
 37
0.0
 40
146.6372446448703
 41
2.073363431151241
 42
50.0
 43
0.0
 44
0.0
 50
0.0
 51
0.0
 71
     0
 72
   100
 73
     1
 74
     3
 75
     0
 76
     0
 77
     0
 78
     0
281
     0
 65
     1
110
0.0
120
0.0
130
0.0
111
1.0
121
0.0
131
0.0
112
0.0
122
1.0
132
0.0
 79
     1
146
0.0
  0
ENDTAB
  0
TABLE
  2
LTYPE
  5
5
330
0
100
AcDbSymbolTable
 70
     1
  0
LTYPE
  5
13
330
5
100
AcDbSymbolTableRecord
100
AcDbLinetypeTableRecord
  2
ByBlock
 70
     0
  3

 72
    65
 73
     0
 40
0.0
  0
LTYPE
  5
14
330
5
100
AcDbSymbolTableRecord
100
AcDbLinetypeTableRecord
  2
ByLayer
 70
     0
  3

 72
    65
 73
     0
 40
0.0
  0
LTYPE
  5
15
330
5
100
AcDbSymbolTableRecord
100
AcDbLinetypeTableRecord
  2
Continuous
 70
     0
  3
Solid line
 72
    65
 73
     0
 40
0.0
  0
ENDTAB
  0
TABLE
  2
LAYER
  5
2
330
0
100
AcDbSymbolTable
 70
     1
  0
LAYER
  5
10
330
2
100
AcDbSymbolTableRecord
100
AcDbLayerTableRecord
  2
0
 70
     0
 62
     7
  6
Continuous
370
    -3
390
F
  0
ENDTAB
  0
TABLE
  2
STYLE
  5
3
330
0
100
AcDbSymbolTable
 70
     1
  0
STYLE
  5
11
330
3
100
AcDbSymbolTableRecord
100
AcDbTextStyleTableRecord
  2
Standard
 70
     0
 40
0.0
 41
1.0
 50
0.0
 71
     0
 42
0.2
  3
txt
  4

  0
ENDTAB
  0
TABLE
  2
VIEW
  5
6
330
0
100
AcDbSymbolTable
 70
     0
  0
ENDTAB
  0
TABLE
  2
UCS
  5
7
330
0
100
AcDbSymbolTable
 70
     0
  0
ENDTAB
  0
TABLE
  2
APPID
  5
9
330
0
100
AcDbSymbolTable
 70
     1
  0
APPID
  5
12
330
9
100
AcDbSymbolTableRecord
100
AcDbRegAppTableRecord
  2
ACAD
 70
     0
  0
ENDTAB
  0
TABLE
  2
DIMSTYLE
  5
A
330
0
100
AcDbSymbolTable
 70
     1
100
AcDbDimStyleTable
 71
     0
  0
DIMSTYLE
105
1EB
330
A
100
AcDbSymbolTableRecord
100
AcDbDimStyleTableRecord
  2
Standard
 70
     0
340
11
  0
ENDTAB
  0
TABLE
  2
BLOCK_RECORD
  5
1
330
0
100
AcDbSymbolTable
 70
     0
  0
BLOCK_RECORD
  5
1E
330
1
100
AcDbSymbolTableRecord
100
AcDbBlockTableRecord
  2
*Model_Space
340
21
  0
BLOCK_RECORD
  5
1A
330
1
100
AcDbSymbolTableRecord
100
AcDbBlockTableRecord
  2
*Paper_Space
340
1D
  0
ENDTAB
  0
ENDSEC
  0
SECTION
  2
BLOCKS
  0
BLOCK
  5
1F
330
1E
100
AcDbEntity
  8
0
100
AcDbBlockBegin
  2
*Model_Space
 70
     0
 10
0.0
 20
0.0
 30
0.0
  3
*Model_Space
  1

  0
ENDBLK
  5
20
330
1E
100
AcDbEntity
  8
0
100
AcDbBlockEnd
  0
BLOCK
  5
1B
330
1A
100
AcDbEntity
 67
     1
  8
0
100
AcDbBlockBegin
  2
*Paper_Space
 70
     0
 10
0.0
 20
0.0
 30
0.0
  3
*Paper_Space
  1

  0
ENDBLK
  5
1C
330
1A
100
AcDbEntity
 67
     1
  8
0
100
AcDbBlockEnd
  0
ENDSEC
  0
SECTION
  2
ENTITIES
  0
LINE
  5
22
330
1E
100
AcDbEntity
  8
0
100
AcDbLine
 10
15.5723
 20
60.174
 30
0.0
 11
15.9723
 21
60.174
 31
0.0
  0
LINE
  5
23
330
1E
100
AcDbEntity
  8
0
100
AcDbLine
 10
15.9723
 20
60.174
 30
0.0
 11
16.9723
 21
60.174
 31
0.0
  0
LINE
  5
24
330
1E
100
AcDbEntity
  8
0
100
AcDbLine
 10
27.9723
 20
0.200300000000021
 30
0.0
 11
29.7723
 21
0.275200000000001
 31
0.0
  0
LINE
  5
25
330
1E
100
AcDbEntity
  8
0
100
AcDbLine
 10
26.07229999999999
 20
0.174000000000021
 30
0.0
 11
27.9723
 21
0.200300000000021
 31
0.0
  0
LINE
  5
26
330
1E
100
AcDbEntity
  8
0
100
AcDbLine
 10
18.87229999999999
 20
5.785199999999999
 30
0.0
 11
19.5723
 21
6.98459999999999
 31
0.0
  0
LINE
  5
27
330
1E
100
AcDbEntity
  8
0
100
AcDbLine
 10
18.6723
 20
60.174
 30
0.0
 11
20.87229999999999
 21
60.174
 31
0.0
  0
LINE
  5
28
330
1E
100
AcDbEntity
  8
0
100
AcDbLine
 10
18.57229999999999
 20
60.174
 30
0.0
 11
18.87229999999999
 21
60.174
 31
0.0
  0
LINE
  5
29
330
1E
100
AcDbEntity
  8
0
100
AcDbLine
 10
18.87229999999999
 20
60.174
 30
0.0
 11
19.5723
 21
60.174
 31
0.0
  0
LINE
  5
2A
330
1E
100
AcDbEntity
  8
0
100
AcDbLine
 10
19.5723
 20
6.98459999999999
 30
0.0
 11
20.7723
 21
8.184000000000009
 31
0.0
  0
LINE
  5
2B
330
1E
100
AcDbEntity
  8
0
100
AcDbLine
 10
18.57229999999999
 20
4.4358
 30
0.0
 11
18.87229999999999
 21
2.44920000000001
 31
0.0
  0
LINE
  5
2C
330
1E
100
AcDbEntity
  8
0
100
AcDbLine
 10
18.57229999999999
 20
4.4358
 30
0.0
 11
18.57229999999999
 21
60.174
 31
0.0
  0
LINE
  5
2D
330
1E
100
AcDbEntity
  8
0
100
AcDbLine
 10
18.57229999999999
 20
4.4358
 30
0.0
 11
18.87229999999999
 21
5.785199999999999
 31
0.0
  0
LINE
  5
2E
330
1E
100
AcDbEntity
  8
0
100
AcDbLine
 10
18.87229999999999
 20
2.44920000000001
 30
0.0
 11
19.5723
 21
1.324700000000009
 31
0.0
  0
LINE
  5
2F
330
1E
100
AcDbEntity
  8
0
100
AcDbLine
 10
20.7723
 20
8.184000000000009
 30
0.0
 11
22.37229999999999
 21
9.233499999999999
 31
0.0
  0
LINE
  5
30
330
1E
100
AcDbEntity
  8
0
100
AcDbLine
 10
19.5723
 20
60.174
 30
0.0
 11
20.7723
 21
60.174
 31
0.0
  0
LINE
  5
31
330
1E
100
AcDbEntity
  8
0
100
AcDbLine
 10
20.87229999999999
 20
60.174
 30
0.0
 11
23.37229999999999
 21
60.174
 31
0.0
  0
LINE
  5
32
330
1E
100
AcDbEntity
  8
0
100
AcDbLine
 10
20.7723
 20
60.174
 30
0.0
 11
22.37229999999999
 21
60.174
 31
0.0
  0
LINE
  5
33
330
1E
100
AcDbEntity
  8
0
100
AcDbLine
 10
22.37229999999999
 20
9.233499999999999
 30
0.0
 11
24.17229999999999
 21
9.945700000000009
 31
0.0
  0
LINE
  5
34
330
1E
100
AcDbEntity
  8
0
100
AcDbLine
 10
19.5723
 20
1.324700000000009
 30
0.0
 11
20.7723
 21
0.6501000000000231
 31
0.0
  0
LINE
  5
35
330
1E
100
AcDbEntity
  8
0
100
AcDbLine
 10
20.7723
 20
0.6501000000000231
 30
0.0
 11
22.37229999999999
 21
0.275200000000001
 31
0.0
  0
LINE
  5
36
330
1E
100
AcDbEntity
  8
0
100
AcDbLine
 10
31.3723
 20
0.6501000000000231
 30
0.0
 11
32.57229999999999
 21
1.324700000000009
 31
0.0
  0
LINE
  5
37
330
1E
100
AcDbEntity
  8
0
100
AcDbLine
 10
29.7723
 20
0.275200000000001
 30
0.0
 11
31.3723
 21
0.6501000000000231
 31
0.0
  0
LINE
  5
38
330
1E
100
AcDbEntity
  8
0
100
AcDbLine
 10
33.2723
 20
2.44920000000001
 30
0.0
 11
33.57229999999999
 21
4.4358
 31
0.0
  0
LINE
  5
39
330
1E
100
AcDbEntity
  8
0
100
AcDbLine
 10
32.57229999999999
 20
1.324700000000009
 30
0.0
 11
33.2723
 21
2.44920000000001
 31
0.0
  0
LINE
  5
3A
330
1E
100
AcDbEntity
  8
0
100
AcDbLine
 10
33.2723
 20
5.785199999999999
 30
0.0
 11
33.57229999999999
 21
4.4358
 31
0.0
  0
LINE
  5
3B
330
1E
100
AcDbEntity
  8
0
100
AcDbLine
 10
33.57229999999999
 20
4.4358
 30
0.0
 11
33.57229999999999
 21
60.174
 31
0.0
  0
LINE
  5
3C
330
1E
100
AcDbEntity
  8
0
100
AcDbLine
 10
32.57229999999999
 20
6.98459999999999
 30
0.0
 11
33.2723
 21
5.785199999999999
 31
0.0
  0
LINE
  5
3D
330
1E
100
AcDbEntity
  8
0
100
AcDbLine
 10
31.3723
 20
8.184000000000009
 30
0.0
 11
32.57229999999999
 21
6.98459999999999
 31
0.0
  0
LINE
  5
3E
330
1E
100
AcDbEntity
  8
0
100
AcDbLine
 10
29.7723
 20
9.233499999999999
 30
0.0
 11
31.3723
 21
8.184000000000009
 31
0.0
  0
LINE
  5
3F
330
1E
100
AcDbEntity
  8
0
100
AcDbLine
 10
27.9723
 20
9.945700000000009
 30
0.0
 11
29.7723
 21
9.233499999999999
 31
0.0
  0
LINE
  5
40
330
1E
100
AcDbEntity
  8
0
100
AcDbLine
 10
23.37229999999999
 20
60.174
 30
0.0
 11
26.07229999999999
 21
60.174
 31
0.0
  0
LINE
  5
41
330
1E
100
AcDbEntity
  8
0
100
AcDbLine
 10
22.37229999999999
 20
60.174
 30
0.0
 11
24.17229999999999
 21
60.174
 31
0.0
  0
LINE
  5
42
330
1E
100
AcDbEntity
  8
0
100
AcDbLine
 10
29.7723
 20
60.174
 30
0.0
 11
31.3723
 21
60.174
 31
0.0
  0
LINE
  5
43
330
1E
100
AcDbEntity
  8
0
100
AcDbLine
 10
27.9723
 20
60.174
 30
0.0
 11
29.7723
 21
60.174
 31
0.0
  0
LINE
  5
44
330
1E
100
AcDbEntity
  8
0
100
AcDbLine
 10
26.07229999999999
 20
10.174
 30
0.0
 11
27.9723
 21
9.945700000000009
 31
0.0
  0
LINE
  5
45
330
1E
100
AcDbEntity
  8
0
100
AcDbLine
 10
33.2723
 20
60.174
 30
0.0
 11
33.57229999999999
 21
60.174
 31
0.0
  0
LINE
  5
46
330
1E
100
AcDbEntity
  8
0
100
AcDbLine
 10
32.57229999999999
 20
60.174
 30
0.0
 11
33.2723
 21
60.174
 31
0.0
  0
LINE
  5
47
330
1E
100
AcDbEntity
  8
0
100
AcDbLine
 10
31.3723
 20
60.174
 30
0.0
 11
32.57229999999999
 21
60.174
 31
0.0
  0
LINE
  5
48
330
1E
100
AcDbEntity
  8
0
100
AcDbLine
 10
33.47229999999999
 20
60.174
 30
0.0
 11
35.1723
 21
60.174
 31
0.0
  0
LINE
  5
49
330
1E
100
AcDbEntity
  8
0
100
AcDbLine
 10
31.2723
 20
60.174
 30
0.0
 11
33.47229999999999
 21
60.174
 31
0.0
  0
LINE
  5
4A
330
1E
100
AcDbEntity
  8
0
100
AcDbLine
 10
28.7723
 20
60.174
 30
0.0
 11
31.2723
 21
60.174
 31
0.0
  0
LINE
  5
4B
330
1E
100
AcDbEntity
  8
0
100
AcDbLine
 10
36.5723
 20
60.174
 30
0.0
 11
37.57229999999999
 21
90.174
 31
0.0
  0
LINE
  5
4C
330
1E
100
AcDbEntity
  8
0
100
AcDbLine
 10
36.1723
 20
60.174
 30
0.0
 11
36.5723
 21
60.174
 31
0.0
  0
LINE
  5
4D
330
1E
100
AcDbEntity
  8
0
100
AcDbLine
 10
35.1723
 20
60.174
 30
0.0
 11
36.1723
 21
60.174
 31
0.0
  0
LINE
  5
4E
330
1E
100
AcDbEntity
  8
0
100
AcDbLine
 10
33.57229999999999
 20
60.174
 30
0.0
 11
35.1723
 21
60.174
 31
0.0
  0
LINE
  5
50
330
1E
100
AcDbEntity
  8
0
100
AcDbLine
 10
26.07229999999999
 20
60.174
 30
0.0
 11
28.7723
 21
60.174
 31
0.0
  0
LINE
  5
51
330
1E
100
AcDbEntity
  8
0
100
AcDbLine
 10
26.07229999999999
 20
60.174
 30
0.0
 11
27.9723
 21
60.174
 31
0.0
  0
LINE
  5
52
330
1E
100
AcDbEntity
  8
0
100
AcDbLine
 10
24.17229999999999
 20
60.174
 30
0.0
 11
26.07229999999999
 21
60.174
 31
0.0
  0
LINE
  5
53
330
1E
100
AcDbEntity
  8
0
100
AcDbLine
 10
24.17229999999999
 20
9.945700000000009
 30
0.0
 11
26.07229999999999
 21
10.174
 31
0.0
  0
LINE
  5
54
330
1E
100
AcDbEntity
  8
0
100
AcDbLine
 10
22.37229999999999
 20
0.275200000000001
 30
0.0
 11
24.17229999999999
 21
0.200300000000021
 31
0.0
  0
LINE
  5
55
330
1E
100
AcDbEntity
  8
0
100
AcDbLine
 10
24.17229999999999
 20
0.200300000000021
 30
0.0
 11
26.07229999999999
 21
0.174000000000021
 31
0.0
  0
LINE
  5
56
330
1E
100
AcDbEntity
  8
0
100
AcDbLine
 10
16.9723
 20
60.174
 30
0.0
 11
18.57229999999999
 21
60.174
 31
0.0
  0
LINE
  5
57
330
1E
100
AcDbEntity
  8
0
100
AcDbLine
 10
16.9723
 20
60.174
 30
0.0
 11
18.6723
 21
60.174
 31
0.0
  0
LINE
  5
5A
330
1E
100
AcDbEntity
  8
0
100
AcDbLine
 10
24.5886
 20
84.06411999999999
 30
0.0
 11
26.0
 21
82.826
 31
0.0
  0
LINE
  5
5B
330
1E
100
AcDbEntity
  8
0
100
AcDbLine
 10
27.4114
 20
84.06411999999999
 30
0.0
 11
28.7321
 21
87.53085
 31
0.0
  0
LINE
  5
5C
330
1E
100
AcDbEntity
  8
0
100
AcDbLine
 10
26.0
 20
82.826
 30
0.0
 11
27.4114
 21
84.06411999999999
 31
0.0
  0
LINE
  5
5E
330
1E
100
AcDbEntity
  8
0
100
AcDbLine
 10
107.0
 20
81.69266999999999
 30
0.0
 11
107.0
 21
84.62600999999999
 31
0.0
  0
LINE
  5
5F
330
1E
100
AcDbEntity
  8
0
100
AcDbLine
 10
107.0
 20
81.69266999999999
 30
0.0
 11
107.0
 21
80.49266999999998
 31
0.0
  0
LINE
  5
60
330
1E
100
AcDbEntity
  8
0
100
AcDbLine
 10
14.9723
 20
90.174
 30
0.0
 11
16.07229999999999
 21
90.174
 31
0.0
  0
LINE
  5
61
330
1E
100
AcDbEntity
  8
0
100
AcDbLine
 10
16.07229999999999
 20
90.174
 30
0.0
 11
17.9723
 21
90.174
 31
0.0
  0
LINE
  5
62
330
1E
100
AcDbEntity
  8
0
100
AcDbLine
 10
17.9723
 20
90.174
 30
0.0
 11
20.3723
 21
90.174
 31
0.0
  0
LINE
  5
63
330
1E
100
AcDbEntity
  8
0
100
AcDbLine
 10
20.3723
 20
90.174
 30
0.0
 11
22.7252698308346
 21
90.174
 31
0.0
  0
LINE
  5
64
330
1E
100
AcDbEntity
  8
0
100
AcDbLine
 10
14.5723
 20
90.174
 30
0.0
 11
15.5723
 21
60.174
 31
0.0
  0
LINE
  5
65
330
1E
100
AcDbEntity
  8
0
100
AcDbLine
 10
14.5723
 20
90.174
 30
0.0
 11
14.9723
 21
90.174
 31
0.0
  0
LINE
  5
66
330
1E
100
AcDbEntity
  8
0
100
AcDbLine
 10
18.2843
 20
90.53399999999999
 30
0.0
 11
20.6163
 21
90.53399999999999
 31
0.0
  0
LINE
  5
6B
330
1E
100
AcDbEntity
  8
0
100
AcDbLine
 10
23.2679
 20
87.53085
 30
0.0
 11
24.5886
 21
84.06411999999999
 31
0.0
  0
LINE
  5
6C
330
1E
100
AcDbEntity
  8
0
100
AcDbLine
 10
28.7321
 20
87.53085
 30
0.0
 11
29.74725148945689
 21
92.4756499979156
 31
0.0
  0
LINE
  5
6D
330
1E
100
AcDbEntity
  8
0
100
AcDbLine
 10
28.7321
 20
87.53085
 30
0.0
 11
29.74725148945689
 21
92.4756499979156
 31
0.0
  0
LINE
  5
6E
330
1E
100
AcDbEntity
  8
0
100
AcDbLine
 10
29.2747301691654
 20
90.174
 30
0.0
 11
31.7723
 21
90.174
 31
0.0
  0
LINE
  5
6F
330
1E
100
AcDbEntity
  8
0
100
AcDbLine
 10
20.6163
 20
90.53399999999999
 30
0.0
 11
22.65136299206289
 21
90.53399999999999
 31
0.0
  0
LINE
  5
70
330
1E
100
AcDbEntity
  8
0
100
AcDbLine
 10
15.0723
 20
90.53399999999999
 30
0.0
 11
15.0723
 21
94.49757199519231
 31
0.0
  0
LINE
  5
71
330
1E
100
AcDbEntity
  8
0
100
AcDbLine
 10
15.0723
 20
90.53399999999999
 30
0.0
 11
15.46829999999999
 21
90.53399999999999
 31
0.0
  0
LINE
  5
72
330
1E
100
AcDbEntity
  8
0
100
AcDbLine
 10
15.0723
 20
90.53399999999999
 30
0.0
 11
15.3363
 21
90.174
 31
0.0
  0
LINE
  5
73
330
1E
100
AcDbEntity
  8
0
100
AcDbLine
 10
15.46829999999999
 20
90.53399999999999
 30
0.0
 11
16.5243
 21
90.53399999999999
 31
0.0
  0
LINE
  5
74
330
1E
100
AcDbEntity
  8
0
100
AcDbLine
 10
16.5243
 20
90.53399999999999
 30
0.0
 11
18.2843
 21
90.53399999999999
 31
0.0
  0
LINE
  5
75
330
1E
100
AcDbEntity
  8
0
100
AcDbLine
 10
29.3486370079371
 20
90.53399999999999
 30
0.0
 11
31.5283
 21
90.53399999999999
 31
0.0
  0
LINE
  5
76
330
1E
100
AcDbEntity
  8
0
100
AcDbLine
 10
36.07229999999999
 20
90.174
 30
0.0
 11
37.1723
 21
90.174
 31
0.0
  0
LINE
  5
77
330
1E
100
AcDbEntity
  8
0
100
AcDbLine
 10
34.17229999999999
 20
90.174
 30
0.0
 11
36.07229999999999
 21
90.174
 31
0.0
  0
LINE
  5
78
330
1E
100
AcDbEntity
  8
0
100
AcDbLine
 10
31.7723
 20
90.174
 30
0.0
 11
34.17229999999999
 21
90.174
 31
0.0
  0
LINE
  5
79
330
1E
100
AcDbEntity
  8
0
100
AcDbLine
 10
36.67629999999999
 20
90.53399999999999
 30
0.0
 11
37.0723
 21
90.53399999999999
 31
0.0
  0
LINE
  5
7A
330
1E
100
AcDbEntity
  8
0
100
AcDbLine
 10
35.6203
 20
90.53399999999999
 30
0.0
 11
36.67629999999999
 21
90.53399999999999
 31
0.0
  0
LINE
  5
7B
330
1E
100
AcDbEntity
  8
0
100
AcDbLine
 10
33.8603
 20
90.53399999999999
 30
0.0
 11
35.6203
 21
90.53399999999999
 31
0.0
  0
LINE
  5
7C
330
1E
100
AcDbEntity
  8
0
100
AcDbLine
 10
31.5283
 20
90.53399999999999
 30
0.0
 11
33.8603
 21
90.53399999999999
 31
0.0
  0
LINE
  5
7D
330
1E
100
AcDbEntity
  8
0
100
AcDbLine
 10
36.8083
 20
90.174
 30
0.0
 11
37.0723
 21
90.53399999999999
 31
0.0
  0
LINE
  5
7E
330
1E
100
AcDbEntity
  8
0
100
AcDbLine
 10
37.1723
 20
90.174
 30
0.0
 11
37.57229999999999
 21
90.174
 31
0.0
  0
LINE
  5
7F
330
1E
100
AcDbEntity
  8
0
100
AcDbLine
 10
37.0723
 20
90.53399999999999
 30
0.0
 11
37.0723
 21
91.826
 31
0.0
  0
LINE
  5
80
330
1E
100
AcDbEntity
  8
0
100
AcDbLine
 10
29.613880440418
 20
91.826
 30
0.0
 11
61.0
 21
91.826
 31
0.0
  0
LINE
  5
81
330
1E
100
AcDbEntity
  8
0
100
AcDbLine
 10
29.613880440418
 20
91.826
 30
0.0
 11
61.0
 21
91.826
 31
0.0
  0
LINE
  5
82
330
1E
100
AcDbEntity
  8
0
100
AcDbLine
 10
3.487099999999999
 20
104.9177999999999
 30
0.0
 11
7.6471
 21
99.47310000000001
 31
0.0
  0
LINE
  5
83
330
1E
100
AcDbEntity
  8
0
100
AcDbLine
 10
0.9176000000000021
 20
111.1577999999999
 30
0.0
 11
3.487099999999999
 21
104.9177999999999
 31
0.0
  0
LINE
  5
84
330
1E
100
AcDbEntity
  8
0
100
AcDbLine
 10
0.0000000000000025
 20
117.826
 30
0.0
 11
0.9176000000000021
 21
111.1577999999999
 31
0.0
  0
LINE
  5
85
330
1E
100
AcDbEntity
  8
0
100
AcDbLine
 10
0.0000000000000024
 20
117.826
 30
0.0
 11
0.917600000000003
 21
124.4941999999999
 31
0.0
  0
LINE
  5
86
330
1E
100
AcDbEntity
  8
0
100
AcDbLine
 10
0.917600000000003
 20
124.4941999999999
 30
0.0
 11
3.487099999999999
 21
130.7342
 31
0.0
  0
LINE
  5
87
330
1E
100
AcDbEntity
  8
0
100
AcDbLine
 10
0.917600000000003
 20
111.1577999999999
 30
0.0
 11
3.487099999999999
 21
104.9177999999999
 31
0.0
  0
LINE
  5
8A
330
1E
100
AcDbEntity
  8
0
100
AcDbLine
 10
19.3318
 20
92.74359999999999
 30
0.0
 11
22.28105738377839
 21
92.33775755745851
 31
0.0
  0
LINE
  5
8D
330
1E
100
AcDbEntity
  8
0
100
AcDbLine
 10
22.24330203576899
 20
92.52166374948719
 30
0.0
 11
23.2679
 21
87.53085
 31
0.0
  0
LINE
  5
8F
330
1E
100
AcDbEntity
  8
0
100
AcDbLine
 10
7.6471
 20
99.47310000000001
 30
0.0
 11
13.0918
 21
95.31310000000001
 31
0.0
  0
LINE
  5
90
330
1E
100
AcDbEntity
  8
0
100
AcDbLine
 10
7.655820709119289
 20
99.4664369790923
 30
0.0
 11
13.0918
 21
95.31310000000001
 31
0.0
  0
LINE
  5
91
330
1E
100
AcDbEntity
  8
0
100
AcDbLine
 10
13.0918
 20
95.31310000000001
 30
0.0
 11
19.3318
 21
92.74359999999999
 31
0.0
  0
LINE
  5
92
330
1E
100
AcDbEntity
  8
0
100
AcDbLine
 10
15.0723
 20
94.49757199519231
 30
0.0
 11
15.0723
 21
90.53399999999999
 31
0.0
  0
LINE
  5
93
330
1E
100
AcDbEntity
  8
0
100
AcDbLine
 10
14.70509999999999
 20
111.3793
 30
0.0
 11
16.8104
 21
108.6363999999999
 31
0.0
  0
LINE
  5
94
330
1E
100
AcDbEntity
  8
0
100
AcDbLine
 10
16.8104
 20
108.6363999999999
 30
0.0
 11
19.5533
 21
106.5310999999999
 31
0.0
  0
LINE
  5
95
330
1E
100
AcDbEntity
  8
0
100
AcDbLine
 10
19.5533
 20
106.5310999999999
 30
0.0
 11
22.65429999999999
 21
105.2907
 31
0.0
  0
LINE
  5
96
330
1E
100
AcDbEntity
  8
0
100
AcDbLine
 10
22.65429999999999
 20
105.2907
 30
0.0
 11
24.6372924666356
 21
105.0059674833449
 31
0.0
  0
LINE
  5
99
330
1E
100
AcDbEntity
  8
0
100
AcDbLine
 10
13.4647
 20
121.1716999999999
 30
0.0
 11
14.70509999999999
 21
124.2727
 31
0.0
  0
LINE
  5
9A
330
1E
100
AcDbEntity
  8
0
100
AcDbLine
 10
12.98429999999999
 20
117.826
 30
0.0
 11
13.4647
 21
114.4803
 31
0.0
  0
LINE
  5
9B
330
1E
100
AcDbEntity
  8
0
100
AcDbLine
 10
12.98429999999999
 20
117.826
 30
0.0
 11
13.4647
 21
121.1716999999999
 31
0.0
  0
LINE
  5
9F
330
1E
100
AcDbEntity
  8
0
100
AcDbLine
 10
14.70509999999999
 20
124.2727
 30
0.0
 11
16.8104
 21
127.0156
 31
0.0
  0
LINE
  5
A0
330
1E
100
AcDbEntity
  8
0
100
AcDbLine
 10
16.8104
 20
127.0156
 30
0.0
 11
19.5533
 21
129.1209
 31
0.0
  0
LINE
  5
A1
330
1E
100
AcDbEntity
  8
0
100
AcDbLine
 10
13.4647
 20
114.4803
 30
0.0
 11
14.70509999999999
 21
111.3793
 31
0.0
  0
LINE
  5
A5
330
1E
100
AcDbEntity
  8
0
100
AcDbLine
 10
38.5353
 20
114.4803
 30
0.0
 11
39.0157
 21
117.826
 31
0.0
  0
LINE
  5
A6
330
1E
100
AcDbEntity
  8
0
100
AcDbLine
 10
37.2949
 20
111.3793
 30
0.0
 11
38.5353
 21
114.4803
 31
0.0
  0
LINE
  5
A7
330
1E
100
AcDbEntity
  8
0
100
AcDbLine
 10
35.18959999999999
 20
108.6363999999999
 30
0.0
 11
37.2949
 21
111.3793
 31
0.0
  0
LINE
  5
A8
330
1E
100
AcDbEntity
  8
0
100
AcDbLine
 10
32.4467
 20
106.5310999999999
 30
0.0
 11
35.18959999999999
 21
108.6363999999999
 31
0.0
  0
LINE
  5
A9
330
1E
100
AcDbEntity
  8
0
100
AcDbLine
 10
29.3457
 20
105.2907
 30
0.0
 11
32.4467
 21
106.5310999999999
 31
0.0
  0
LINE
  5
AA
330
1E
100
AcDbEntity
  8
0
100
AcDbLine
 10
27.36270753336439
 20
105.0059674833449
 30
0.0
 11
29.3457
 21
105.2907
 31
0.0
  0
LINE
  5
AD
330
1E
100
AcDbEntity
  8
0
100
AcDbLine
 10
38.5353
 20
121.1716999999999
 30
0.0
 11
39.0157
 21
117.826
 31
0.0
  0
LINE
  5
AE
330
1E
100
AcDbEntity
  8
0
100
AcDbLine
 10
37.2949
 20
124.2727
 30
0.0
 11
38.5353
 21
121.1716999999999
 31
0.0
  0
LINE
  5
AF
330
1E
100
AcDbEntity
  8
0
100
AcDbLine
 10
35.18959999999999
 20
127.0156
 30
0.0
 11
37.2949
 21
124.2727
 31
0.0
  0
LINE
  5
B6
330
1E
100
AcDbEntity
  8
0
100
AcDbLine
 10
37.0723
 20
91.826
 30
0.0
 11
61.0
 21
91.826
 31
0.0
  0
LINE
  5
B7
330
1E
100
AcDbEntity
  8
0
100
AcDbLine
 10
37.0723
 20
91.826
 30
0.0
 11
37.0723
 21
90.53399999999999
 31
0.0
  0
LINE
  5
BA
330
1E
100
AcDbEntity
  8
0
100
AcDbLine
 10
61.7
 20
92.126
 30
0.0
 11
62.0
 21
92.826
 31
0.0
  0
LINE
  5
BB
330
1E
100
AcDbEntity
  8
0
100
AcDbLine
 10
83.52
 20
92.826
 30
0.0
 11
84.0
 21
93.282
 31
0.0
  0
LINE
  5
BC
330
1E
100
AcDbEntity
  8
0
100
AcDbLine
 10
83.52
 20
92.826
 30
0.0
 11
83.52
 21
93.51
 31
0.0
  0
LINE
  5
BE
330
1E
100
AcDbEntity
  8
0
100
AcDbLine
 10
83.52
 20
93.51
 30
0.0
 11
83.52
 21
92.826
 31
0.0
  0
LINE
  5
BF
330
1E
100
AcDbEntity
  8
0
100
AcDbLine
 10
83.52
 20
93.51
 30
0.0
 11
83.52
 21
95.334
 31
0.0
  0
LINE
  5
C0
330
1E
100
AcDbEntity
  8
0
100
AcDbLine
 10
83.52
 20
95.334
 30
0.0
 11
83.52
 21
93.51
 31
0.0
  0
LINE
  5
C1
330
1E
100
AcDbEntity
  8
0
100
AcDbLine
 10
83.52
 20
95.334
 30
0.0
 11
83.52
 21
98.374
 31
0.0
  0
LINE
  5
C2
330
1E
100
AcDbEntity
  8
0
100
AcDbLine
 10
83.52
 20
98.374
 30
0.0
 11
83.52
 21
95.334
 31
0.0
  0
LINE
  5
C3
330
1E
100
AcDbEntity
  8
0
100
AcDbLine
 10
83.52
 20
98.374
 30
0.0
 11
83.52
 21
102.4019999999999
 31
0.0
  0
LINE
  5
C4
330
1E
100
AcDbEntity
  8
0
100
AcDbLine
 10
83.52
 20
102.4019999999999
 30
0.0
 11
83.52
 21
98.374
 31
0.0
  0
LINE
  5
C5
330
1E
100
AcDbEntity
  8
0
100
AcDbLine
 10
83.52
 20
102.4019999999999
 30
0.0
 11
83.52
 21
106.962
 31
0.0
  0
LINE
  5
C6
330
1E
100
AcDbEntity
  8
0
100
AcDbLine
 10
84.0
 20
93.282
 30
0.0
 11
84.0
 21
93.96600000000001
 31
0.0
  0
LINE
  5
C7
330
1E
100
AcDbEntity
  8
0
100
AcDbLine
 10
84.0
 20
93.96600000000001
 30
0.0
 11
84.0
 21
93.282
 31
0.0
  0
LINE
  5
C8
330
1E
100
AcDbEntity
  8
0
100
AcDbLine
 10
84.0
 20
93.96600000000001
 30
0.0
 11
84.0
 21
95.79
 31
0.0
  0
LINE
  5
C9
330
1E
100
AcDbEntity
  8
0
100
AcDbLine
 10
84.0
 20
95.79
 30
0.0
 11
84.0
 21
93.96600000000001
 31
0.0
  0
LINE
  5
CA
330
1E
100
AcDbEntity
  8
0
100
AcDbLine
 10
84.0
 20
95.79
 30
0.0
 11
84.0
 21
98.75399999999999
 31
0.0
  0
LINE
  5
CB
330
1E
100
AcDbEntity
  8
0
100
AcDbLine
 10
84.0
 20
98.75399999999999
 30
0.0
 11
84.0
 21
95.79
 31
0.0
  0
LINE
  5
CC
330
1E
100
AcDbEntity
  8
0
100
AcDbLine
 10
84.0
 20
98.75399999999999
 30
0.0
 11
84.0
 21
102.6299999999999
 31
0.0
  0
LINE
  5
CD
330
1E
100
AcDbEntity
  8
0
100
AcDbLine
 10
84.0
 20
102.6299999999999
 30
0.0
 11
84.0
 21
98.75399999999999
 31
0.0
  0
LINE
  5
CE
330
1E
100
AcDbEntity
  8
0
100
AcDbLine
 10
84.0
 20
102.6299999999999
 30
0.0
 11
84.0
 21
107.0379999999999
 31
0.0
  0
LINE
  5
CF
330
1E
100
AcDbEntity
  8
0
100
AcDbLine
 10
84.0
 20
107.0379999999999
 30
0.0
 11
84.0
 21
102.6299999999999
 31
0.0
  0
LINE
  5
D0
330
1E
100
AcDbEntity
  8
0
100
AcDbLine
 10
84.0
 20
107.0379999999999
 30
0.0
 11
84.0
 21
111.826
 31
0.0
  0
LINE
  5
D1
330
1E
100
AcDbEntity
  8
0
100
AcDbLine
 10
84.0
 20
111.826
 30
0.0
 11
84.0
 21
107.0379999999999
 31
0.0
  0
LINE
  5
D2
330
1E
100
AcDbEntity
  8
0
100
AcDbLine
 10
84.0
 20
111.826
 30
0.0
 11
84.0
 21
116.6139999999999
 31
0.0
  0
LINE
  5
D3
330
1E
100
AcDbEntity
  8
0
100
AcDbLine
 10
83.52
 20
106.962
 30
0.0
 11
83.52
 21
102.4019999999999
 31
0.0
  0
LINE
  5
D4
330
1E
100
AcDbEntity
  8
0
100
AcDbLine
 10
83.52
 20
106.962
 30
0.0
 11
83.52
 21
111.826
 31
0.0
  0
LINE
  5
D5
330
1E
100
AcDbEntity
  8
0
100
AcDbLine
 10
62.0
 20
117.826
 30
0.0
 11
62.0
 21
131.3259999999999
 31
0.0
  0
LINE
  5
D6
330
1E
100
AcDbEntity
  8
0
100
AcDbLine
 10
62.0
 20
117.826
 30
0.0
 11
62.0
 21
92.826
 31
0.0
  0
LINE
  5
D7
330
1E
100
AcDbEntity
  8
0
100
AcDbLine
 10
83.52
 20
125.278
 30
0.0
 11
83.52
 21
121.25
 31
0.0
  0
LINE
  5
D8
330
1E
100
AcDbEntity
  8
0
100
AcDbLine
 10
83.52
 20
125.278
 30
0.0
 11
83.52
 21
128.3179999999999
 31
0.0
  0
LINE
  5
D9
330
1E
100
AcDbEntity
  8
0
100
AcDbLine
 10
83.52
 20
121.25
 30
0.0
 11
83.52
 21
116.69
 31
0.0
  0
LINE
  5
DA
330
1E
100
AcDbEntity
  8
0
100
AcDbLine
 10
83.52
 20
121.25
 30
0.0
 11
83.52
 21
125.278
 31
0.0
  0
LINE
  5
DB
330
1E
100
AcDbEntity
  8
0
100
AcDbLine
 10
84.0
 20
126.826
 30
0.0
 11
85.73820000000001
 21
126.826
 31
0.0
  0
LINE
  5
DC
330
1E
100
AcDbEntity
  8
0
100
AcDbLine
 10
84.0
 20
124.8979999999999
 30
0.0
 11
84.0
 21
121.022
 31
0.0
  0
LINE
  5
DD
330
1E
100
AcDbEntity
  8
0
100
AcDbLine
 10
84.0
 20
124.8979999999999
 30
0.0
 11
84.0
 21
127.862
 31
0.0
  0
LINE
  5
DE
330
1E
100
AcDbEntity
  8
0
100
AcDbLine
 10
84.0
 20
121.022
 30
0.0
 11
84.0
 21
116.6139999999999
 31
0.0
  0
LINE
  5
DF
330
1E
100
AcDbEntity
  8
0
100
AcDbLine
 10
84.0
 20
121.022
 30
0.0
 11
84.0
 21
124.8979999999999
 31
0.0
  0
LINE
  5
E0
330
1E
100
AcDbEntity
  8
0
100
AcDbLine
 10
84.0
 20
116.6139999999999
 30
0.0
 11
84.0
 21
111.826
 31
0.0
  0
LINE
  5
E1
330
1E
100
AcDbEntity
  8
0
100
AcDbLine
 10
84.0
 20
116.6139999999999
 30
0.0
 11
84.0
 21
121.022
 31
0.0
  0
LINE
  5
E2
330
1E
100
AcDbEntity
  8
0
100
AcDbLine
 10
83.52
 20
116.69
 30
0.0
 11
83.52
 21
111.826
 31
0.0
  0
LINE
  5
E3
330
1E
100
AcDbEntity
  8
0
100
AcDbLine
 10
83.52
 20
116.69
 30
0.0
 11
83.52
 21
121.25
 31
0.0
  0
LINE
  5
E4
330
1E
100
AcDbEntity
  8
0
100
AcDbLine
 10
83.52
 20
111.826
 30
0.0
 11
83.52
 21
106.962
 31
0.0
  0
LINE
  5
E5
330
1E
100
AcDbEntity
  8
0
100
AcDbLine
 10
83.52
 20
111.826
 30
0.0
 11
83.52
 21
116.69
 31
0.0
  0
LINE
  5
E6
330
1E
100
AcDbEntity
  8
0
100
AcDbLine
 10
85.73820000000001
 20
97.36600000000001
 30
0.0
 11
85.73820000000001
 21
96.826
 31
0.0
  0
LINE
  5
E7
330
1E
100
AcDbEntity
  8
0
100
AcDbLine
 10
85.73820000000001
 20
97.36600000000001
 30
0.0
 11
85.73820000000001
 21
98.80600000000001
 31
0.0
  0
LINE
  5
E8
330
1E
100
AcDbEntity
  8
0
100
AcDbLine
 10
86.0
 20
97.18600000000002
 30
0.0
 11
86.0
 21
97.726
 31
0.0
  0
LINE
  5
E9
330
1E
100
AcDbEntity
  8
0
100
AcDbLine
 10
85.73820000000001
 20
96.826
 30
0.0
 11
86.0
 21
97.18600000000002
 31
0.0
  0
LINE
  5
EA
330
1E
100
AcDbEntity
  8
0
100
AcDbLine
 10
85.73820000000001
 20
96.826
 30
0.0
 11
85.73820000000001
 21
97.36600000000001
 31
0.0
  0
LINE
  5
EB
330
1E
100
AcDbEntity
  8
0
100
AcDbLine
 10
86.0
 20
97.726
 30
0.0
 11
86.0
 21
97.18600000000002
 31
0.0
  0
LINE
  5
EC
330
1E
100
AcDbEntity
  8
0
100
AcDbLine
 10
86.0
 20
97.726
 30
0.0
 11
86.0
 21
99.166
 31
0.0
  0
LINE
  5
ED
330
1E
100
AcDbEntity
  8
0
100
AcDbLine
 10
86.0
 20
99.166
 30
0.0
 11
86.0
 21
97.726
 31
0.0
  0
LINE
  5
EE
330
1E
100
AcDbEntity
  8
0
100
AcDbLine
 10
85.73820000000001
 20
98.80600000000001
 30
0.0
 11
85.73820000000001
 21
97.36600000000001
 31
0.0
  0
LINE
  5
EF
330
1E
100
AcDbEntity
  8
0
100
AcDbLine
 10
85.73820000000001
 20
98.80600000000001
 30
0.0
 11
85.73820000000001
 21
101.2059999999999
 31
0.0
  0
LINE
  5
F3
330
1E
100
AcDbEntity
  8
0
100
AcDbLine
 10
86.0
 20
99.25460000000001
 30
0.0
 11
89.0
 21
99.25460000000001
 31
0.0
  0
LINE
  5
F4
330
1E
100
AcDbEntity
  8
0
100
AcDbLine
 10
96.0
 20
95.82600000000001
 30
0.0
 11
102.0
 21
95.82600000000001
 31
0.0
  0
LINE
  5
F5
330
1E
100
AcDbEntity
  8
0
100
AcDbLine
 10
102.0
 20
95.82600000000001
 30
0.0
 11
104.0
 21
96.96890000000001
 31
0.0
  0
LINE
  5
F9
330
1E
100
AcDbEntity
  8
0
100
AcDbLine
 10
104.0
 20
96.96890000000001
 30
0.0
 11
106.0
 21
99.25460000000001
 31
0.0
  0
LINE
  5
FA
330
1E
100
AcDbEntity
  8
0
100
AcDbLine
 10
106.0
 20
99.25460000000001
 30
0.0
 11
107.0
 21
99.25460000000001
 31
0.0
  0
LINE
  5
FB
330
1E
100
AcDbEntity
  8
0
100
AcDbLine
 10
106.0
 20
99.25460000000001
 30
0.0
 11
106.0
 21
99.7117
 31
0.0
  0
LINE
  5
FC
330
1E
100
AcDbEntity
  8
0
100
AcDbLine
 10
93.0
 20
95.82600000000001
 30
0.0
 11
96.0
 21
95.82600000000001
 31
0.0
  0
LINE
  5
FD
330
1E
100
AcDbEntity
  8
0
100
AcDbLine
 10
91.0
 20
96.96890000000001
 30
0.0
 11
93.0
 21
95.82600000000001
 31
0.0
  0
LINE
  5
FE
330
1E
100
AcDbEntity
  8
0
100
AcDbLine
 10
85.73820000000001
 20
101.2059999999999
 30
0.0
 11
85.73820000000001
 21
98.80600000000001
 31
0.0
  0
LINE
  5
FF
330
1E
100
AcDbEntity
  8
0
100
AcDbLine
 10
85.73820000000001
 20
101.2059999999999
 30
0.0
 11
85.73820000000001
 21
104.386
 31
0.0
  0
LINE
  5
100
330
1E
100
AcDbEntity
  8
0
100
AcDbLine
 10
85.73820000000001
 20
104.386
 30
0.0
 11
85.73820000000001
 21
101.2059999999999
 31
0.0
  0
LINE
  5
101
330
1E
100
AcDbEntity
  8
0
100
AcDbLine
 10
85.73820000000001
 20
104.386
 30
0.0
 11
85.73820000000001
 21
107.986
 31
0.0
  0
LINE
  5
102
330
1E
100
AcDbEntity
  8
0
100
AcDbLine
 10
86.0
 20
99.25460000000001
 30
0.0
 11
86.0
 21
108.046
 31
0.0
  0
LINE
  5
103
330
1E
100
AcDbEntity
  8
0
100
AcDbLine
 10
86.0
 20
108.046
 30
0.0
 11
86.0
 21
99.25460000000001
 31
0.0
  0
LINE
  5
104
330
1E
100
AcDbEntity
  8
0
100
AcDbLine
 10
86.0
 20
108.046
 30
0.0
 11
86.0
 21
111.826
 31
0.0
  0
LINE
  5
105
330
1E
100
AcDbEntity
  8
0
100
AcDbLine
 10
85.73820000000001
 20
107.986
 30
0.0
 11
85.73820000000001
 21
104.386
 31
0.0
  0
LINE
  5
106
330
1E
100
AcDbEntity
  8
0
100
AcDbLine
 10
85.73820000000001
 20
107.986
 30
0.0
 11
85.73820000000001
 21
111.826
 31
0.0
  0
LINE
  5
107
330
1E
100
AcDbEntity
  8
0
100
AcDbLine
 10
86.0
 20
111.826
 30
0.0
 11
86.0
 21
108.046
 31
0.0
  0
LINE
  5
108
330
1E
100
AcDbEntity
  8
0
100
AcDbLine
 10
86.0
 20
111.826
 30
0.0
 11
86.0
 21
115.606
 31
0.0
  0
LINE
  5
109
330
1E
100
AcDbEntity
  8
0
100
AcDbLine
 10
85.73820000000001
 20
111.826
 30
0.0
 11
85.73820000000001
 21
107.986
 31
0.0
  0
LINE
  5
10A
330
1E
100
AcDbEntity
  8
0
100
AcDbLine
 10
85.73820000000001
 20
111.826
 30
0.0
 11
85.73820000000001
 21
115.666
 31
0.0
  0
LINE
  5
10B
330
1E
100
AcDbEntity
  8
0
100
AcDbLine
 10
86.0
 20
115.606
 30
0.0
 11
86.0
 21
111.826
 31
0.0
  0
LINE
  5
10C
330
1E
100
AcDbEntity
  8
0
100
AcDbLine
 10
86.0
 20
115.606
 30
0.0
 11
86.0
 21
119.086
 31
0.0
  0
LINE
  5
10D
330
1E
100
AcDbEntity
  8
0
100
AcDbLine
 10
85.73820000000001
 20
122.446
 30
0.0
 11
85.73820000000001
 21
119.266
 31
0.0
  0
LINE
  5
10E
330
1E
100
AcDbEntity
  8
0
100
AcDbLine
 10
85.73820000000001
 20
122.446
 30
0.0
 11
85.73820000000001
 21
124.846
 31
0.0
  0
LINE
  5
10F
330
1E
100
AcDbEntity
  8
0
100
AcDbLine
 10
86.0
 20
122.1459999999999
 30
0.0
 11
86.0
 21
119.086
 31
0.0
  0
LINE
  5
110
330
1E
100
AcDbEntity
  8
0
100
AcDbLine
 10
86.0
 20
122.1459999999999
 30
0.0
 11
86.0
 21
124.486
 31
0.0
  0
LINE
  5
111
330
1E
100
AcDbEntity
  8
0
100
AcDbLine
 10
86.0
 20
119.086
 30
0.0
 11
86.0
 21
115.606
 31
0.0
  0
LINE
  5
112
330
1E
100
AcDbEntity
  8
0
100
AcDbLine
 10
86.0
 20
119.086
 30
0.0
 11
86.0
 21
122.1459999999999
 31
0.0
  0
LINE
  5
113
330
1E
100
AcDbEntity
  8
0
100
AcDbLine
 10
85.73820000000001
 20
119.266
 30
0.0
 11
85.73820000000001
 21
115.666
 31
0.0
  0
LINE
  5
114
330
1E
100
AcDbEntity
  8
0
100
AcDbLine
 10
85.73820000000001
 20
119.266
 30
0.0
 11
85.73820000000001
 21
122.446
 31
0.0
  0
LINE
  5
115
330
1E
100
AcDbEntity
  8
0
100
AcDbLine
 10
85.73820000000001
 20
115.666
 30
0.0
 11
85.73820000000001
 21
111.826
 31
0.0
  0
LINE
  5
116
330
1E
100
AcDbEntity
  8
0
100
AcDbLine
 10
85.73820000000001
 20
115.666
 30
0.0
 11
85.73820000000001
 21
119.266
 31
0.0
  0
LINE
  5
117
330
1E
100
AcDbEntity
  8
0
100
AcDbLine
 10
89.0
 20
115.026
 30
0.0
 11
89.0
 21
118.1116999999999
 31
0.0
  0
LINE
  5
118
330
1E
100
AcDbEntity
  8
0
100
AcDbLine
 10
89.0
 20
111.826
 30
0.0
 11
89.0
 21
115.026
 31
0.0
  0
LINE
  5
119
330
1E
100
AcDbEntity
  8
0
100
AcDbLine
 10
89.0
 20
120.7403
 30
0.0
 11
89.0
 21
122.6831
 31
0.0
  0
LINE
  5
11A
330
1E
100
AcDbEntity
  8
0
100
AcDbLine
 10
85.73820000000001
 20
126.826
 30
0.0
 11
85.73820000000001
 21
126.286
 31
0.0
  0
LINE
  5
11B
330
1E
100
AcDbEntity
  8
0
100
AcDbLine
 10
85.73820000000001
 20
126.826
 30
0.0
 11
86.0
 21
126.466
 31
0.0
  0
LINE
  5
11C
330
1E
100
AcDbEntity
  8
0
100
AcDbLine
 10
85.73820000000001
 20
126.286
 30
0.0
 11
85.73820000000001
 21
124.846
 31
0.0
  0
LINE
  5
11D
330
1E
100
AcDbEntity
  8
0
100
AcDbLine
 10
85.73820000000001
 20
126.286
 30
0.0
 11
85.73820000000001
 21
126.826
 31
0.0
  0
LINE
  5
11E
330
1E
100
AcDbEntity
  8
0
100
AcDbLine
 10
86.0
 20
126.466
 30
0.0
 11
86.0
 21
125.926
 31
0.0
  0
LINE
  5
11F
330
1E
100
AcDbEntity
  8
0
100
AcDbLine
 10
86.0
 20
125.926
 30
0.0
 11
86.0
 21
124.486
 31
0.0
  0
LINE
  5
120
330
1E
100
AcDbEntity
  8
0
100
AcDbLine
 10
86.0
 20
125.926
 30
0.0
 11
86.0
 21
126.466
 31
0.0
  0
LINE
  5
121
330
1E
100
AcDbEntity
  8
0
100
AcDbLine
 10
86.0
 20
124.486
 30
0.0
 11
86.0
 21
122.1459999999999
 31
0.0
  0
LINE
  5
122
330
1E
100
AcDbEntity
  8
0
100
AcDbLine
 10
86.0
 20
124.486
 30
0.0
 11
86.0
 21
125.926
 31
0.0
  0
LINE
  5
123
330
1E
100
AcDbEntity
  8
0
100
AcDbLine
 10
85.73820000000001
 20
124.846
 30
0.0
 11
85.73820000000001
 21
122.446
 31
0.0
  0
LINE
  5
124
330
1E
100
AcDbEntity
  8
0
100
AcDbLine
 10
85.73820000000001
 20
124.846
 30
0.0
 11
85.73820000000001
 21
126.286
 31
0.0
  0
LINE
  5
125
330
1E
100
AcDbEntity
  8
0
100
AcDbLine
 10
86.0
 20
124.3974
 30
0.0
 11
89.0
 21
124.3974
 31
0.0
  0
LINE
  5
126
330
1E
100
AcDbEntity
  8
0
100
AcDbLine
 10
89.0
 20
123.9403
 30
0.0
 11
89.0
 21
124.3974
 31
0.0
  0
LINE
  5
127
330
1E
100
AcDbEntity
  8
0
100
AcDbLine
 10
89.0
 20
122.6831
 30
0.0
 11
89.0
 21
123.9403
 31
0.0
  0
LINE
  5
128
330
1E
100
AcDbEntity
  8
0
100
AcDbLine
 10
89.0
 20
118.1116999999999
 30
0.0
 11
89.0
 21
120.7403
 31
0.0
  0
LINE
  5
129
330
1E
100
AcDbEntity
  8
0
100
AcDbLine
 10
89.0
 20
108.626
 30
0.0
 11
89.0
 21
111.826
 31
0.0
  0
LINE
  5
12A
330
1E
100
AcDbEntity
  8
0
100
AcDbLine
 10
89.0
 20
105.5403
 30
0.0
 11
89.0
 21
108.626
 31
0.0
  0
LINE
  5
12B
330
1E
100
AcDbEntity
  8
0
100
AcDbLine
 10
89.0
 20
102.9117
 30
0.0
 11
89.0
 21
105.5403
 31
0.0
  0
LINE
  5
12C
330
1E
100
AcDbEntity
  8
0
100
AcDbLine
 10
89.0
 20
100.9689
 30
0.0
 11
89.0
 21
102.9117
 31
0.0
  0
LINE
  5
12D
330
1E
100
AcDbEntity
  8
0
100
AcDbLine
 10
89.0
 20
99.7117
 30
0.0
 11
89.0
 21
100.9689
 31
0.0
  0
LINE
  5
12F
330
1E
100
AcDbEntity
  8
0
100
AcDbLine
 10
106.0
 20
100.9689
 30
0.0
 11
106.0
 21
99.7117
 31
0.0
  0
LINE
  5
130
330
1E
100
AcDbEntity
  8
0
100
AcDbLine
 10
106.0
 20
100.9689
 30
0.0
 11
106.0
 21
102.9117
 31
0.0
  0
LINE
  5
131
330
1E
100
AcDbEntity
  8
0
100
AcDbLine
 10
106.0
 20
99.7117
 30
0.0
 11
106.0
 21
99.25460000000001
 31
0.0
  0
LINE
  5
132
330
1E
100
AcDbEntity
  8
0
100
AcDbLine
 10
106.0
 20
99.7117
 30
0.0
 11
106.0
 21
100.9689
 31
0.0
  0
LINE
  5
139
330
1E
100
AcDbEntity
  8
0
100
AcDbLine
 10
106.0
 20
108.626
 30
0.0
 11
106.0
 21
105.5403
 31
0.0
  0
LINE
  5
13C
330
1E
100
AcDbEntity
  8
0
100
AcDbLine
 10
106.0
 20
105.5403
 30
0.0
 11
106.0
 21
102.9117
 31
0.0
  0
LINE
  5
13D
330
1E
100
AcDbEntity
  8
0
100
AcDbLine
 10
106.0
 20
105.5403
 30
0.0
 11
106.0
 21
108.626
 31
0.0
  0
LINE
  5
13E
330
1E
100
AcDbEntity
  8
0
100
AcDbLine
 10
106.0
 20
102.9117
 30
0.0
 11
106.0
 21
100.9689
 31
0.0
  0
LINE
  5
13F
330
1E
100
AcDbEntity
  8
0
100
AcDbLine
 10
106.0
 20
102.9117
 30
0.0
 11
106.0
 21
105.5403
 31
0.0
  0
LINE
  5
149
330
1E
100
AcDbEntity
  8
0
100
AcDbLine
 10
106.0
 20
120.7403
 30
0.0
 11
106.0
 21
122.6831
 31
0.0
  0
LINE
  5
14A
330
1E
100
AcDbEntity
  8
0
100
AcDbLine
 10
106.0
 20
120.7403
 30
0.0
 11
106.0
 21
118.1116999999999
 31
0.0
  0
LINE
  5
14B
330
1E
100
AcDbEntity
  8
0
100
AcDbLine
 10
106.0
 20
122.6831
 30
0.0
 11
106.0
 21
123.9403
 31
0.0
  0
LINE
  5
14C
330
1E
100
AcDbEntity
  8
0
100
AcDbLine
 10
106.0
 20
122.6831
 30
0.0
 11
106.0
 21
120.7403
 31
0.0
  0
LINE
  5
14E
330
1E
100
AcDbEntity
  8
0
100
AcDbLine
 10
104.0
 20
126.6831
 30
0.0
 11
106.0
 21
124.3974
 31
0.0
  0
LINE
  5
154
330
1E
100
AcDbEntity
  8
0
100
AcDbLine
 10
106.0
 20
123.9403
 30
0.0
 11
106.0
 21
124.3974
 31
0.0
  0
LINE
  5
155
330
1E
100
AcDbEntity
  8
0
100
AcDbLine
 10
106.0
 20
123.9403
 30
0.0
 11
106.0
 21
122.6831
 31
0.0
  0
LINE
  5
156
330
1E
100
AcDbEntity
  8
0
100
AcDbLine
 10
106.0
 20
124.3974
 30
0.0
 11
107.0
 21
124.3974
 31
0.0
  0
LINE
  5
157
330
1E
100
AcDbEntity
  8
0
100
AcDbLine
 10
106.0
 20
124.3974
 30
0.0
 11
106.0
 21
123.9403
 31
0.0
  0
LINE
  5
158
330
1E
100
AcDbEntity
  8
0
100
AcDbLine
 10
106.0
 20
118.1116999999999
 30
0.0
 11
106.0
 21
120.7403
 31
0.0
  0
LINE
  5
159
330
1E
100
AcDbEntity
  8
0
100
AcDbLine
 10
106.0
 20
118.1116999999999
 30
0.0
 11
106.0
 21
108.626
 31
0.0
  0
LINE
  5
15B
330
1E
100
AcDbEntity
  8
0
100
AcDbLine
 10
106.0
 20
108.626
 30
0.0
 11
106.0
 21
118.1116999999999
 31
0.0
  0
LINE
  5
15F
330
1E
100
AcDbEntity
  8
0
100
AcDbLine
 10
91.0
 20
126.6831
 30
0.0
 11
93.0
 21
127.826
 31
0.0
  0
LINE
  5
160
330
1E
100
AcDbEntity
  8
0
100
AcDbLine
 10
89.0
 20
124.3974
 30
0.0
 11
91.0
 21
126.6831
 31
0.0
  0
LINE
  5
161
330
1E
100
AcDbEntity
  8
0
100
AcDbLine
 10
89.0
 20
99.25460000000001
 30
0.0
 11
91.0
 21
96.96890000000001
 31
0.0
  0
LINE
  5
162
330
1E
100
AcDbEntity
  8
0
100
AcDbLine
 10
89.0
 20
99.25460000000001
 30
0.0
 11
89.0
 21
99.7117
 31
0.0
  0
LINE
  5
163
330
1E
100
AcDbEntity
  8
0
100
AcDbLine
 10
84.0
 20
96.826
 30
0.0
 11
85.73820000000001
 21
96.826
 31
0.0
  0
LINE
  5
164
330
1E
100
AcDbEntity
  8
0
100
AcDbLine
 10
62.0
 20
92.826
 30
0.0
 11
83.52
 21
92.826
 31
0.0
  0
LINE
  5
165
330
1E
100
AcDbEntity
  8
0
100
AcDbLine
 10
62.0
 20
92.826
 30
0.0
 11
62.0
 21
117.826
 31
0.0
  0
LINE
  5
166
330
1E
100
AcDbEntity
  8
0
100
AcDbLine
 10
61.0
 20
91.826
 30
0.0
 11
61.7
 21
92.126
 31
0.0
  0
LINE
  5
167
330
1E
100
AcDbEntity
  8
0
100
AcDbLine
 10
96.0
 20
127.826
 30
0.0
 11
102.0
 21
127.826
 31
0.0
  0
LINE
  5
168
330
1E
100
AcDbEntity
  8
0
100
AcDbLine
 10
93.0
 20
127.826
 30
0.0
 11
96.0
 21
127.826
 31
0.0
  0
LINE
  5
169
330
1E
100
AcDbEntity
  8
0
100
AcDbLine
 10
32.4467
 20
129.1209
 30
0.0
 11
35.18959999999999
 21
127.0156
 31
0.0
  0
LINE
  5
16B
330
1E
100
AcDbEntity
  8
0
100
AcDbLine
 10
19.5533
 20
129.1209
 30
0.0
 11
22.65429999999999
 21
130.3613
 31
0.0
  0
LINE
  5
16C
330
1E
100
AcDbEntity
  8
0
100
AcDbLine
 10
3.487099999999999
 20
130.7342
 30
0.0
 11
7.6471
 21
136.1788999999999
 31
0.0
  0
LINE
  5
16D
330
1E
100
AcDbEntity
  8
0
100
AcDbLine
 10
29.3457
 20
130.3613
 30
0.0
 11
32.4467
 21
129.1209
 31
0.0
  0
LINE
  5
16E
330
1E
100
AcDbEntity
  8
0
100
AcDbLine
 10
22.65429999999999
 20
130.3613
 30
0.0
 11
26.0
 21
130.8417
 31
0.0
  0
LINE
  5
170
330
1E
100
AcDbEntity
  8
0
100
AcDbLine
 10
26.0
 20
130.8417
 30
0.0
 11
29.3457
 21
130.3613
 31
0.0
  0
LINE
  5
173
330
1E
100
AcDbEntity
  8
0
100
AcDbLine
 10
7.6471
 20
136.1788999999999
 30
0.0
 11
13.0918
 21
140.3388999999999
 31
0.0
  0
LINE
  5
177
330
1E
100
AcDbEntity
  8
0
100
AcDbLine
 10
13.0918
 20
140.3388999999999
 30
0.0
 11
19.3318
 21
142.9084
 31
0.0
  0
LINE
  5
178
330
1E
100
AcDbEntity
  8
0
100
AcDbLine
 10
7.655820709119289
 20
136.185563020908
 30
0.0
 11
13.0918
 21
140.3388999999999
 31
0.0
  0
LINE
  5
179
330
1E
100
AcDbEntity
  8
0
100
AcDbLine
 10
61.5
 20
132.3259999999999
 30
0.0
 11
62.0
 21
131.3259999999999
 31
0.0
  0
LINE
  5
17A
330
1E
100
AcDbEntity
  8
0
100
AcDbLine
 10
62.0
 20
131.3259999999999
 30
0.0
 11
62.0
 21
117.826
 31
0.0
  0
LINE
  5
17B
330
1E
100
AcDbEntity
  8
0
100
AcDbLine
 10
62.0
 20
130.8259999999999
 30
0.0
 11
83.52
 21
130.8259999999999
 31
0.0
  0
LINE
  5
17C
330
1E
100
AcDbEntity
  8
0
100
AcDbLine
 10
83.52
 20
130.8259999999999
 30
0.0
 11
83.52
 21
130.142
 31
0.0
  0
LINE
  5
17D
330
1E
100
AcDbEntity
  8
0
100
AcDbLine
 10
83.52
 20
130.8259999999999
 30
0.0
 11
84.0
 21
130.37
 31
0.0
  0
LINE
  5
17E
330
1E
100
AcDbEntity
  8
0
100
AcDbLine
 10
83.52
 20
130.142
 30
0.0
 11
83.52
 21
128.3179999999999
 31
0.0
  0
LINE
  5
17F
330
1E
100
AcDbEntity
  8
0
100
AcDbLine
 10
83.52
 20
130.142
 30
0.0
 11
83.52
 21
130.8259999999999
 31
0.0
  0
LINE
  5
180
330
1E
100
AcDbEntity
  8
0
100
AcDbLine
 10
84.0
 20
130.37
 30
0.0
 11
84.0
 21
129.686
 31
0.0
  0
LINE
  5
181
330
1E
100
AcDbEntity
  8
0
100
AcDbLine
 10
84.0
 20
129.686
 30
0.0
 11
84.0
 21
127.862
 31
0.0
  0
LINE
  5
182
330
1E
100
AcDbEntity
  8
0
100
AcDbLine
 10
84.0
 20
129.686
 30
0.0
 11
84.0
 21
130.37
 31
0.0
  0
LINE
  5
183
330
1E
100
AcDbEntity
  8
0
100
AcDbLine
 10
84.0
 20
127.862
 30
0.0
 11
84.0
 21
124.8979999999999
 31
0.0
  0
LINE
  5
184
330
1E
100
AcDbEntity
  8
0
100
AcDbLine
 10
84.0
 20
127.862
 30
0.0
 11
84.0
 21
129.686
 31
0.0
  0
LINE
  5
185
330
1E
100
AcDbEntity
  8
0
100
AcDbLine
 10
83.52
 20
128.3179999999999
 30
0.0
 11
83.52
 21
125.278
 31
0.0
  0
LINE
  5
186
330
1E
100
AcDbEntity
  8
0
100
AcDbLine
 10
83.52
 20
128.3179999999999
 30
0.0
 11
83.52
 21
130.142
 31
0.0
  0
LINE
  5
187
330
1E
100
AcDbEntity
  8
0
100
AcDbLine
 10
102.0
 20
127.826
 30
0.0
 11
104.0
 21
126.6831
 31
0.0
  0
LINE
  5
188
330
1E
100
AcDbEntity
  8
0
100
AcDbLine
 10
107.0
 20
139.026
 30
0.0
 11
107.0
 21
141.9593
 31
0.0
  0
LINE
  5
18C
330
1E
100
AcDbEntity
  8
0
100
AcDbLine
 10
31.9118
 20
144.7006
 30
0.0
 11
32.0
 21
144.3159999999999
 31
0.0
  0
LINE
  5
18D
330
1E
100
AcDbEntity
  8
0
100
AcDbLine
 10
32.0
 20
144.3159999999999
 30
0.0
 11
32.0
 21
140.880143154178
 31
0.0
  0
LINE
  5
191
330
1E
100
AcDbEntity
  8
0
100
AcDbLine
 10
21.94119999999999
 20
144.8928999999999
 30
0.0
 11
23.1412
 21
144.8928999999999
 31
0.0
  0
LINE
  5
192
330
1E
100
AcDbEntity
  8
0
100
AcDbLine
 10
23.1412
 20
144.8928999999999
 30
0.0
 11
24.5177
 21
144.8928999999999
 31
0.0
  0
LINE
  5
193
330
1E
100
AcDbEntity
  8
0
100
AcDbLine
 10
28.8588
 20
144.8928999999999
 30
0.0
 11
30.0588
 21
144.8928999999999
 31
0.0
  0
LINE
  5
194
330
1E
100
AcDbEntity
  8
0
100
AcDbLine
 10
27.48229999999999
 20
144.8928999999999
 30
0.0
 11
28.8588
 21
144.8928999999999
 31
0.0
  0
LINE
  5
195
330
1E
100
AcDbEntity
  8
0
100
AcDbLine
 10
30.0588
 20
144.8928999999999
 30
0.0
 11
30.9588
 21
144.8928999999999
 31
0.0
  0
LINE
  5
197
330
1E
100
AcDbEntity
  8
0
100
AcDbLine
 10
30.9588
 20
144.8928999999999
 30
0.0
 11
31.5235
 21
144.8928999999999
 31
0.0
  0
LINE
  5
198
330
1E
100
AcDbEntity
  8
0
100
AcDbLine
 10
31.5235
 20
144.8928999999999
 30
0.0
 11
31.73529999999999
 21
144.8928999999999
 31
0.0
  0
LINE
  5
199
330
1E
100
AcDbEntity
  8
0
100
AcDbLine
 10
31.73529999999999
 20
144.8928999999999
 30
0.0
 11
31.9118
 21
144.7006
 31
0.0
  0
LINE
  5
19A
330
1E
100
AcDbEntity
  8
0
100
AcDbLine
 10
24.5177
 20
144.8928999999999
 30
0.0
 11
26.0
 21
144.8928999999999
 31
0.0
  0
LINE
  5
19C
330
1E
100
AcDbEntity
  8
0
100
AcDbLine
 10
26.0
 20
144.8928999999999
 30
0.0
 11
27.48229999999999
 21
144.8928999999999
 31
0.0
  0
LINE
  5
19D
330
1E
100
AcDbEntity
  8
0
100
AcDbLine
 10
21.04119999999999
 20
144.8928999999999
 30
0.0
 11
21.94119999999999
 21
144.8928999999999
 31
0.0
  0
LINE
  5
19E
330
1E
100
AcDbEntity
  8
0
100
AcDbLine
 10
20.4765
 20
144.8928999999999
 30
0.0
 11
21.04119999999999
 21
144.8928999999999
 31
0.0
  0
LINE
  5
19F
330
1E
100
AcDbEntity
  8
0
100
AcDbLine
 10
20.2647
 20
144.8928999999999
 30
0.0
 11
20.4765
 21
144.8928999999999
 31
0.0
  0
LINE
  5
1A0
330
1E
100
AcDbEntity
  8
0
100
AcDbLine
 10
20.0882
 20
144.7006
 30
0.0
 11
20.2647
 21
144.8928999999999
 31
0.0
  0
LINE
  5
1A1
330
1E
100
AcDbEntity
  8
0
100
AcDbLine
 10
20.0
 20
144.3159999999999
 30
0.0
 11
20.0
 21
140.8448627697139
 31
0.0
  0
LINE
  5
1A2
330
1E
100
AcDbEntity
  8
0
100
AcDbLine
 10
20.0
 20
144.3159999999999
 30
0.0
 11
20.0882
 21
144.7006
 31
0.0
  0
LINE
  5
1A3
330
1E
100
AcDbEntity
  8
0
100
AcDbLine
 10
32.0
 20
143.0003498995229
 30
0.0
 11
32.6682
 21
142.9084
 31
0.0
  0
LINE
  5
1A4
330
1E
100
AcDbEntity
  8
0
100
AcDbLine
 10
19.3318
 20
142.9084
 30
0.0
 11
20.0
 21
143.0003498995229
 31
0.0
  0
LINE
  5
1A5
330
1E
100
AcDbEntity
  8
0
100
AcDbLine
 10
32.6682
 20
142.9084
 30
0.0
 11
61.5
 21
132.3259999999999
 31
0.0
  0
LINE
  5
1A6
330
1E
100
AcDbEntity
  8
0
100
AcDbLine
 10
107.0
 20
143.1593
 30
0.0
 11
107.0
 21
141.9593
 31
0.0
  0
LINE
  5
1A7
330
1E
100
AcDbEntity
  8
0
100
AcDbLine
 10
107.0
 20
143.1593
 30
0.0
 11
107.4999999999999
 21
145.1593
 31
0.0
  0
LINE
  5
1A8
330
1E
100
AcDbEntity
  8
0
100
AcDbLine
 10
107.0
 20
141.9593
 30
0.0
 11
107.0
 21
143.1593
 31
0.0
  0
LINE
  5
1A9
330
1E
100
AcDbEntity
  8
0
100
AcDbLine
 10
107.0
 20
141.9593
 30
0.0
 11
107.0
 21
139.026
 31
0.0
  0
LINE
  5
1AA
330
1E
100
AcDbEntity
  8
0
100
AcDbLine
 10
107.0
 20
139.026
 30
0.0
 11
107.0
 21
84.62600999999999
 31
0.0
  0
LINE
  5
1AB
330
1E
100
AcDbEntity
  8
0
100
AcDbLine
 10
107.0
 20
84.62600999999999
 30
0.0
 11
107.0
 21
139.026
 31
0.0
  0
LINE
  5
1AC
330
1E
100
AcDbEntity
  8
0
100
AcDbLine
 10
107.0
 20
99.25460000000001
 30
0.0
 11
107.0
 21
96.226
 31
0.0
  0
LINE
  5
1AD
330
1E
100
AcDbEntity
  8
0
100
AcDbLine
 10
107.0
 20
84.62600999999999
 30
0.0
 11
107.0
 21
81.69266999999999
 31
0.0
  0
LINE
  5
1AE
330
1E
100
AcDbEntity
  8
0
100
AcDbLine
 10
107.0
 20
89.69269999999999
 30
0.0
 11
107.0
 21
96.226
 31
0.0
  0
LINE
  5
1AF
330
1E
100
AcDbEntity
  8
0
100
AcDbLine
 10
107.0
 20
80.49266999999998
 30
0.0
 11
107.4999999999999
 21
78.49266800000001
 31
0.0
  0
LINE
  5
1B0
330
1E
100
AcDbEntity
  8
0
100
AcDbLine
 10
107.0
 20
80.49266999999998
 30
0.0
 11
107.0
 21
81.69266999999999
 31
0.0
  0
LINE
  5
1B1
330
1E
100
AcDbEntity
  8
0
100
AcDbLine
 10
130.0
 20
77.82600000000001
 30
0.0
 11
130.0
 21
79.02600000000001
 31
0.0
  0
LINE
  5
1B2
330
1E
100
AcDbEntity
  8
0
100
AcDbLine
 10
109.0
 20
77.82600000000001
 30
0.0
 11
130.0
 21
77.82600000000001
 31
0.0
  0
LINE
  5
1B3
330
1E
100
AcDbEntity
  8
0
100
AcDbLine
 10
107.4999999999999
 20
95.2927
 30
0.0
 11
107.4999999999999
 21
88.22599999999999
 31
0.0
  0
LINE
  5
1B4
330
1E
100
AcDbEntity
  8
0
100
AcDbLine
 10
107.4999999999999
 20
95.2927
 30
0.0
 11
107.4999999999999
 21
103.2926999999999
 31
0.0
  0
LINE
  5
1B5
330
1E
100
AcDbEntity
  8
0
100
AcDbLine
 10
107.4999999999999
 20
83.02601000000001
 30
0.0
 11
107.4999999999999
 21
79.69266999999999
 31
0.0
  0
LINE
  5
1B6
330
1E
100
AcDbEntity
  8
0
100
AcDbLine
 10
107.4999999999999
 20
83.02601000000001
 30
0.0
 11
107.4999999999999
 21
88.22599999999999
 31
0.0
  0
LINE
  5
1B7
330
1E
100
AcDbEntity
  8
0
100
AcDbLine
 10
107.4999999999999
 20
88.22599999999999
 30
0.0
 11
107.4999999999999
 21
83.02601000000001
 31
0.0
  0
LINE
  5
1B8
330
1E
100
AcDbEntity
  8
0
100
AcDbLine
 10
107.4999999999999
 20
88.22599999999999
 30
0.0
 11
107.4999999999999
 21
95.2927
 31
0.0
  0
LINE
  5
1BA
330
1E
100
AcDbEntity
  8
0
100
AcDbLine
 10
107.4999999999999
 20
111.8259
 30
0.0
 11
107.4999999999999
 21
120.3593
 31
0.0
  0
LINE
  5
1BB
330
1E
100
AcDbEntity
  8
0
100
AcDbLine
 10
107.4999999999999
 20
103.2926999999999
 30
0.0
 11
107.4999999999999
 21
111.8260999999999
 31
0.0
  0
LINE
  5
1BC
330
1E
100
AcDbEntity
  8
0
100
AcDbLine
 10
107.4999999999999
 20
103.2926999999999
 30
0.0
 11
107.4999999999999
 21
95.2927
 31
0.0
  0
LINE
  5
1BD
330
1E
100
AcDbEntity
  8
0
100
AcDbLine
 10
107.4999999999999
 20
128.3592999999999
 30
0.0
 11
107.4999999999999
 21
135.426
 31
0.0
  0
LINE
  5
1BE
330
1E
100
AcDbEntity
  8
0
100
AcDbLine
 10
107.4999999999999
 20
128.3592999999999
 30
0.0
 11
107.4999999999999
 21
120.3593
 31
0.0
  0
LINE
  5
1BF
330
1E
100
AcDbEntity
  8
0
100
AcDbLine
 10
107.4999999999999
 20
140.626
 30
0.0
 11
107.4999999999999
 21
143.9593
 31
0.0
  0
LINE
  5
1C0
330
1E
100
AcDbEntity
  8
0
100
AcDbLine
 10
107.4999999999999
 20
140.626
 30
0.0
 11
107.4999999999999
 21
135.426
 31
0.0
  0
LINE
  5
1C1
330
1E
100
AcDbEntity
  8
0
100
AcDbLine
 10
107.4999999999999
 20
135.426
 30
0.0
 11
107.4999999999999
 21
140.626
 31
0.0
  0
LINE
  5
1C2
330
1E
100
AcDbEntity
  8
0
100
AcDbLine
 10
107.4999999999999
 20
135.426
 30
0.0
 11
107.4999999999999
 21
128.3592999999999
 31
0.0
  0
LINE
  5
1C3
330
1E
100
AcDbEntity
  8
0
100
AcDbLine
 10
107.4999999999999
 20
120.3593
 30
0.0
 11
107.4999999999999
 21
111.8259
 31
0.0
  0
LINE
  5
1C4
330
1E
100
AcDbEntity
  8
0
100
AcDbLine
 10
107.4999999999999
 20
120.3593
 30
0.0
 11
107.4999999999999
 21
128.3592999999999
 31
0.0
  0
LINE
  5
1C5
330
1E
100
AcDbEntity
  8
0
100
AcDbLine
 10
107.4999999999999
 20
111.8260999999999
 30
0.0
 11
107.4999999999999
 21
103.2926999999999
 31
0.0
  0
LINE
  5
1C7
330
1E
100
AcDbEntity
  8
0
100
AcDbLine
 10
107.4999999999999
 20
143.9593
 30
0.0
 11
107.4999999999999
 21
145.1593
 31
0.0
  0
LINE
  5
1C8
330
1E
100
AcDbEntity
  8
0
100
AcDbLine
 10
107.4999999999999
 20
143.9593
 30
0.0
 11
107.4999999999999
 21
140.626
 31
0.0
  0
LINE
  5
1C9
330
1E
100
AcDbEntity
  8
0
100
AcDbLine
 10
107.4999999999999
 20
79.69266999999999
 30
0.0
 11
107.4999999999999
 21
78.49266800000001
 31
0.0
  0
LINE
  5
1CA
330
1E
100
AcDbEntity
  8
0
100
AcDbLine
 10
107.4999999999999
 20
79.69266999999999
 30
0.0
 11
107.4999999999999
 21
83.02601000000001
 31
0.0
  0
LINE
  5
1CB
330
1E
100
AcDbEntity
  8
0
100
AcDbLine
 10
130.0
 20
111.8259
 30
0.0
 11
130.0
 21
120.626
 31
0.0
  0
LINE
  5
1CD
330
1E
100
AcDbEntity
  8
0
100
AcDbLine
 10
130.0
 20
111.8260999999999
 30
0.0
 11
130.0
 21
103.026
 31
0.0
  0
LINE
  5
1CF
330
1E
100
AcDbEntity
  8
0
100
AcDbLine
 10
130.0
 20
94.89270000000001
 30
0.0
 11
130.0
 21
103.026
 31
0.0
  0
LINE
  5
1D0
330
1E
100
AcDbEntity
  8
0
100
AcDbLine
 10
130.0
 20
94.89270000000001
 30
0.0
 11
130.0
 21
87.826
 31
0.0
  0
LINE
  5
1D1
330
1E
100
AcDbEntity
  8
0
100
AcDbLine
 10
130.0
 20
82.35930000000001
 30
0.0
 11
130.0
 21
87.826
 31
0.0
  0
LINE
  5
1D2
330
1E
100
AcDbEntity
  8
0
100
AcDbLine
 10
130.0
 20
82.35930000000001
 30
0.0
 11
130.0
 21
79.02600000000001
 31
0.0
  0
LINE
  5
1D3
330
1E
100
AcDbEntity
  8
0
100
AcDbLine
 10
130.0
 20
87.826
 30
0.0
 11
130.0
 21
94.89270000000001
 31
0.0
  0
LINE
  5
1D4
330
1E
100
AcDbEntity
  8
0
100
AcDbLine
 10
130.0
 20
87.826
 30
0.0
 11
130.0
 21
82.35930000000001
 31
0.0
  0
LINE
  5
1D5
330
1E
100
AcDbEntity
  8
0
100
AcDbLine
 10
130.0
 20
79.02600000000001
 30
0.0
 11
130.0
 21
77.82600000000001
 31
0.0
  0
LINE
  5
1D6
330
1E
100
AcDbEntity
  8
0
100
AcDbLine
 10
130.0
 20
79.02600000000001
 30
0.0
 11
130.0
 21
82.35930000000001
 31
0.0
  0
LINE
  5
1D7
330
1E
100
AcDbEntity
  8
0
100
AcDbLine
 10
130.0
 20
103.026
 30
0.0
 11
130.0
 21
111.8260999999999
 31
0.0
  0
LINE
  5
1D8
330
1E
100
AcDbEntity
  8
0
100
AcDbLine
 10
130.0
 20
103.026
 30
0.0
 11
130.0
 21
94.89270000000001
 31
0.0
  0
LINE
  5
1D9
330
1E
100
AcDbEntity
  8
0
100
AcDbLine
 10
109.0
 20
145.8259999999999
 30
0.0
 11
130.0
 21
145.8259999999999
 31
0.0
  0
LINE
  5
1DA
330
1E
100
AcDbEntity
  8
0
100
AcDbLine
 10
130.0
 20
144.626
 30
0.0
 11
130.0
 21
141.2926999999999
 31
0.0
  0
LINE
  5
1DB
330
1E
100
AcDbEntity
  8
0
100
AcDbLine
 10
130.0
 20
144.626
 30
0.0
 11
130.0
 21
145.8259999999999
 31
0.0
  0
LINE
  5
1DC
330
1E
100
AcDbEntity
  8
0
100
AcDbLine
 10
130.0
 20
145.8259999999999
 30
0.0
 11
130.0
 21
144.626
 31
0.0
  0
LINE
  5
1DD
330
1E
100
AcDbEntity
  8
0
100
AcDbLine
 10
130.0
 20
141.2926999999999
 30
0.0
 11
130.0
 21
135.826
 31
0.0
  0
LINE
  5
1DE
330
1E
100
AcDbEntity
  8
0
100
AcDbLine
 10
130.0
 20
141.2926999999999
 30
0.0
 11
130.0
 21
144.626
 31
0.0
  0
LINE
  5
1DF
330
1E
100
AcDbEntity
  8
0
100
AcDbLine
 10
130.0
 20
135.826
 30
0.0
 11
130.0
 21
128.7592999999999
 31
0.0
  0
LINE
  5
1E0
330
1E
100
AcDbEntity
  8
0
100
AcDbLine
 10
130.0
 20
135.826
 30
0.0
 11
130.0
 21
141.2926999999999
 31
0.0
  0
LINE
  5
1E1
330
1E
100
AcDbEntity
  8
0
100
AcDbLine
 10
130.0
 20
128.7592999999999
 30
0.0
 11
130.0
 21
120.626
 31
0.0
  0
LINE
  5
1E2
330
1E
100
AcDbEntity
  8
0
100
AcDbLine
 10
130.0
 20
128.7592999999999
 30
0.0
 11
130.0
 21
135.826
 31
0.0
  0
LINE
  5
1E3
330
1E
100
AcDbEntity
  8
0
100
AcDbLine
 10
130.0
 20
120.626
 30
0.0
 11
130.0
 21
111.8259
 31
0.0
  0
LINE
  5
1E4
330
1E
100
AcDbEntity
  8
0
100
AcDbLine
 10
130.0
 20
120.626
 30
0.0
 11
130.0
 21
128.7592999999999
 31
0.0
  0
LINE
  5
1E5
330
1E
100
AcDbEntity
  8
0
100
AcDbLine
 10
107.4999999999999
 20
145.1593
 30
0.0
 11
109.0
 21
145.8259999999999
 31
0.0
  0
LINE
  5
1E6
330
1E
100
AcDbEntity
  8
0
100
AcDbLine
 10
107.4999999999999
 20
145.1593
 30
0.0
 11
107.4999999999999
 21
143.9593
 31
0.0
  0
LINE
  5
1E7
330
1E
100
AcDbEntity
  8
0
100
AcDbLine
 10
107.4999999999999
 20
78.49266800000001
 30
0.0
 11
109.0
 21
77.82600000000001
 31
0.0
  0
LINE
  5
1E8
330
1E
100
AcDbEntity
  8
0
100
AcDbLine
 10
107.4999999999999
 20
78.49266800000001
 30
0.0
 11
107.4999999999999
 21
79.69266999999999
 31
0.0
  0
LINE
  5
1E9
330
1E
100
AcDbEntity
  8
0
100
AcDbLine
 10
107.0
 20
96.226
 30
0.0
 11
107.0
 21
89.69269999999999
 31
0.0
  0
LINE
  5
1EA
330
1E
100
AcDbEntity
  8
0
100
AcDbLine
 10
107.0
 20
96.226
 30
0.0
 11
107.0
 21
99.25460000000001
 31
0.0
  0
LINE
  5
1EF
330
1E
100
AcDbEntity
  8
0
100
AcDbLine
 10
24.6372924666356
 20
105.0059674833449
 30
0.0
 11
27.36270753336439
 21
105.0059674833449
 31
0.0
  0
LINE
  5
1F0
330
1E
100
AcDbEntity
  8
0
100
AcDbLine
 10
38.9082
 20
95.31310000000001
 30
0.0
 11
32.6682
 21
92.74359999999999
 31
0.0
  0
LINE
  5
1F1
330
1E
100
AcDbEntity
  8
0
100
AcDbLine
 10
32.6682
 20
92.74359999999999
 30
0.0
 11
29.7189426162216
 21
92.33775755745851
 31
0.0
  0
LINE
  5
1F2
330
1E
100
AcDbEntity
  8
0
100
AcDbLine
 10
44.34417929088071
 20
99.4664369790923
 30
0.0
 11
38.9082
 21
95.31310000000001
 31
0.0
  0
LINE
  5
1F4
330
1E
100
AcDbEntity
  8
0
100
AcDbLine
 10
48.5129
 20
104.9177999999999
 30
0.0
 11
44.3529
 21
99.47310000000001
 31
0.0
  0
LINE
  5
1F5
330
1E
100
AcDbEntity
  8
0
100
AcDbLine
 10
51.0824
 20
111.1577999999999
 30
0.0
 11
48.5129
 21
104.9177999999999
 31
0.0
  0
LINE
  5
1F6
330
1E
100
AcDbEntity
  8
0
100
AcDbLine
 10
51.0824
 20
111.1577999999999
 30
0.0
 11
48.5129
 21
104.9177999999999
 31
0.0
  0
LINE
  5
1F7
330
1E
100
AcDbEntity
  8
0
100
AcDbLine
 10
52.0
 20
117.826
 30
0.0
 11
51.0824
 21
111.1577999999999
 31
0.0
  0
LINE
  5
1F8
330
1E
100
AcDbEntity
  8
0
100
AcDbLine
 10
38.9082
 20
140.3388999999999
 30
0.0
 11
32.6682
 21
142.9084
 31
0.0
  0
LINE
  5
1F9
330
1E
100
AcDbEntity
  8
0
100
AcDbLine
 10
44.34417929088071
 20
136.185563020908
 30
0.0
 11
38.9082
 21
140.3388999999999
 31
0.0
  0
LINE
  5
1FB
330
1E
100
AcDbEntity
  8
0
100
AcDbLine
 10
52.0
 20
117.826
 30
0.0
 11
51.0824
 21
124.4941999999999
 31
0.0
  0
LINE
  5
1FC
330
1E
100
AcDbEntity
  8
0
100
AcDbLine
 10
48.5129
 20
130.7342
 30
0.0
 11
44.3529
 21
136.1788999999999
 31
0.0
  0
LINE
  5
1FD
330
1E
100
AcDbEntity
  8
0
100
AcDbLine
 10
51.0824
 20
124.4941999999999
 30
0.0
 11
48.5129
 21
130.7342
 31
0.0
  0
ENDSEC
  0
SECTION
  2
OBJECTS
  0
DICTIONARY
  5
C
330
0
100
AcDbDictionary
281
     1
  3
ACAD_GROUP
350
D
  3
ACAD_LAYOUT
350
19
  3
ACAD_MLINESTYLE
350
16
  3
ACAD_PLOTSETTINGS
350
18
  3
ACAD_PLOTSTYLENAME
350
E
  3
AcDbVariableDictionary
350
1FF
  0
DICTIONARY
  5
D
102
{ACAD_REACTORS
330
C
102
}
330
C
100
AcDbDictionary
281
     1
  0
DICTIONARY
  5
19
102
{ACAD_REACTORS
330
C
102
}
330
C
100
AcDbDictionary
281
     1
  3
Layout1
350
1D
  3
Model
350
21
  0
DICTIONARY
  5
16
102
{ACAD_REACTORS
330
C
102
}
330
C
100
AcDbDictionary
281
     1
  3
Standard
350
17
  0
DICTIONARY
  5
18
102
{ACAD_REACTORS
330
C
102
}
330
C
100
AcDbDictionary
281
     1
  0
ACDBDICTIONARYWDFLT
  5
E
102
{ACAD_REACTORS
330
C
102
}
330
C
100
AcDbDictionary
281
     1
  3
Normal
350
F
100
AcDbDictionaryWithDefault
340
F
  0
DICTIONARY
  5
1FF
102
{ACAD_REACTORS
330
C
102
}
330
C
100
AcDbDictionary
281
     1
  3
DIMASSOC
350
200
  0
LAYOUT
  5
1D
102
{ACAD_REACTORS
330
19
102
}
330
19
100
AcDbPlotSettings
  1

  2
C:\Programme\AutoCAD LT 2002 Deu\plotters\DWF ePlot (optimized for plotting).pc3
  4

  6

 40
0.0
 41
0.0
 42
0.0
 43
0.0
 44
0.0
 45
0.0
 46
0.0
 47
0.0
 48
0.0
 49
0.0
140
0.0
141
0.0
142
1.0
143
1.0
 70
   688
 72
     0
 73
     0
 74
     5
  7

 75
    16
147
1.0
148
0.0
149
0.0
100
AcDbLayout
  1
Layout1
 70
     1
 71
     1
 10
0.0
 20
0.0
 11
12.0
 21
9.0
 12
0.0
 22
0.0
 32
0.0
 14
1.000000000000000E+20
 24
1.000000000000000E+20
 34
1.000000000000000E+20
 15
-1.000000000000000E+20
 25
-1.000000000000000E+20
 35
-1.000000000000000E+20
146
0.0
 13
0.0
 23
0.0
 33
0.0
 16
1.0
 26
0.0
 36
0.0
 17
0.0
 27
1.0
 37
0.0
 76
     0
330
1A
  0
LAYOUT
  5
21
102
{ACAD_REACTORS
330
19
102
}
330
19
100
AcDbPlotSettings
  1

  2
C:\Programme\AutoCAD LT 2002 Deu\plotters\DWF ePlot (optimized for plotting).pc3
  4

  6

 40
0.0
 41
0.0
 42
0.0
 43
0.0
 44
0.0
 45
0.0
 46
0.0
 47
0.0
 48
0.0
 49
0.0
140
0.0
141
0.0
142
1.0
143
1.0
 70
  1712
 72
     0
 73
     0
 74
     0
  7

 75
     0
147
1.0
148
0.0
149
0.0
100
AcDbLayout
  1
Model
 70
     1
 71
     0
 10
0.0
 20
0.0
 11
12.0
 21
9.0
 12
0.0
 22
0.0
 32
0.0
 14
0.0
 24
0.0
 34
0.0
 15
0.0
 25
0.0
 35
0.0
146
0.0
 13
0.0
 23
0.0
 33
0.0
 16
1.0
 26
0.0
 36
0.0
 17
0.0
 27
1.0
 37
0.0
 76
     0
330
1E
  0
MLINESTYLE
  5
17
102
{ACAD_REACTORS
330
16
102
}
330
16
100
AcDbMlineStyle
  2
STANDARD
 70
     0
  3

 62
   256
 51
90.0
 52
90.0
 71
     2
 49
0.5
 62
   256
  6
BYLAYER
 49
-0.5
 62
   256
  6
BYLAYER
  0
ACDBPLACEHOLDER
  5
F
102
{ACAD_REACTORS
330
E
102
}
330
E
  0
DICTIONARYVAR
  5
200
102
{ACAD_REACTORS
330
1FF
102
}
330
1FF
100
DictionaryVariables
280
     0
  1
1
  0
ENDSEC
  0
EOF
