  0
SECTION
  2
HEADER
  9
$ACADVER
  1
AC1015
  9
$ACADMAINTVER
 70
    13
  9
$DWGCODEPAGE
  3
ANSI_1252
  9
$INSBASE
 10
0.0
 20
0.0
 30
0.0
  9
$EXTMIN
 10
0.0
 20
0.193999999999965
 30
0.0
  9
$EXTMAX
 10
197.981
 20
295.8059999999999
 30
0.0
  9
$LIMMIN
 10
0.0
 20
0.0
  9
$LIMMAX
 10
12.0
 20
9.0
  9
$ORTHOMODE
 70
     0
  9
$REGENMODE
 70
     1
  9
$FILLMODE
 70
     1
  9
$QTEXTMODE
 70
     0
  9
$MIRRTEXT
 70
     1
  9
$LTSCALE
 40
1.0
  9
$ATTMODE
 70
     1
  9
$TEXTSIZE
 40
0.2
  9
$TRACEWID
 40
0.05
  9
$TEXTSTYLE
  7
Standard
  9
$CLAYER
  8
0
  9
$CELTYPE
  6
Continuous
  9
$CECOLOR
 62
   256
  9
$CELTSCALE
 40
1.0
  9
$DISPSILH
 70
     0
  9
$DIMSCALE
 40
1.0
  9
$DIMASZ
 40
0.18
  9
$DIMEXO
 40
0.0625
  9
$DIMDLI
 40
0.38
  9
$DIMRND
 40
0.0
  9
$DIMDLE
 40
0.0
  9
$DIMEXE
 40
0.18
  9
$DIMTP
 40
0.0
  9
$DIMTM
 40
0.0
  9
$DIMTXT
 40
0.18
  9
$DIMCEN
 40
0.09
  9
$DIMTSZ
 40
0.0
  9
$DIMTOL
 70
     0
  9
$DIMLIM
 70
     0
  9
$DIMTIH
 70
     1
  9
$DIMTOH
 70
     1
  9
$DIMSE1
 70
     0
  9
$DIMSE2
 70
     0
  9
$DIMTAD
 70
     0
  9
$DIMZIN
 70
     0
  9
$DIMBLK
  1

  9
$DIMASO
 70
     1
  9
$DIMSHO
 70
     1
  9
$DIMPOST
  1

  9
$DIMAPOST
  1

  9
$DIMALT
 70
     0
  9
$DIMALTD
 70
     2
  9
$DIMALTF
 40
25.4
  9
$DIMLFAC
 40
1.0
  9
$DIMTOFL
 70
     0
  9
$DIMTVP
 40
0.0
  9
$DIMTIX
 70
     0
  9
$DIMSOXD
 70
     0
  9
$DIMSAH
 70
     0
  9
$DIMBLK1
  1

  9
$DIMBLK2
  1

  9
$DIMSTYLE
  2
Standard
  9
$DIMCLRD
 70
     0
  9
$DIMCLRE
 70
     0
  9
$DIMCLRT
 70
     0
  9
$DIMTFAC
 40
1.0
  9
$DIMGAP
 40
0.09
  9
$DIMJUST
 70
     0
  9
$DIMSD1
 70
     0
  9
$DIMSD2
 70
     0
  9
$DIMTOLJ
 70
     1
  9
$DIMTZIN
 70
     0
  9
$DIMALTZ
 70
     0
  9
$DIMALTTZ
 70
     0
  9
$DIMUPT
 70
     0
  9
$DIMDEC
 70
     4
  9
$DIMTDEC
 70
     4
  9
$DIMALTU
 70
     2
  9
$DIMALTTD
 70
     2
  9
$DIMTXSTY
  7
Standard
  9
$DIMAUNIT
 70
     0
  9
$DIMADEC
 70
     0
  9
$DIMALTRND
 40
0.0
  9
$DIMAZIN
 70
     0
  9
$DIMDSEP
 70
    46
  9
$DIMATFIT
 70
     3
  9
$DIMFRAC
 70
     0
  9
$DIMLDRBLK
  1

  9
$DIMLUNIT
 70
     2
  9
$DIMLWD
 70
    -2
  9
$DIMLWE
 70
    -2
  9
$DIMTMOVE
 70
     0
  9
$LUNITS
 70
     2
  9
$LUPREC
 70
     4
  9
$SKETCHINC
 40
0.1
  9
$FILLETRAD
 40
0.0
  9
$AUNITS
 70
     0
  9
$AUPREC
 70
     0
  9
$MENU
  1
.
  9
$ELEVATION
 40
0.0
  9
$PELEVATION
 40
0.0
  9
$THICKNESS
 40
0.0
  9
$LIMCHECK
 70
     0
  9
$CHAMFERA
 40
0.0
  9
$CHAMFERB
 40
0.0
  9
$CHAMFERC
 40
0.0
  9
$CHAMFERD
 40
0.0
  9
$SKPOLY
 70
     0
  9
$TDCREATE
 40
2455655.619284757
  9
$TDUCREATE
 40
2455655.535951423
  9
$TDUPDATE
 40
2455655.621929606
  9
$TDUUPDATE
 40
2455655.538596273
  9
$TDINDWG
 40
0.0026448495
  9
$TDUSRTIMER
 40
0.0026448495
  9
$USRTIMER
 70
     1
  9
$ANGBASE
 50
0.0
  9
$ANGDIR
 70
     0
  9
$PDMODE
 70
     0
  9
$PDSIZE
 40
0.0
  9
$PLINEWID
 40
0.0
  9
$SPLFRAME
 70
     0
  9
$SPLINETYPE
 70
     6
  9
$SPLINESEGS
 70
     8
  9
$HANDSEED
  5
B4C
  9
$SURFTAB1
 70
     6
  9
$SURFTAB2
 70
     6
  9
$SURFTYPE
 70
     6
  9
$SURFU
 70
     6
  9
$SURFV
 70
     6
  9
$UCSBASE
  2

  9
$UCSNAME
  2

  9
$UCSORG
 10
0.0
 20
0.0
 30
0.0
  9
$UCSXDIR
 10
1.0
 20
0.0
 30
0.0
  9
$UCSYDIR
 10
0.0
 20
1.0
 30
0.0
  9
$UCSORTHOREF
  2

  9
$UCSORTHOVIEW
 70
     1
  9
$UCSORGTOP
 10
0.0
 20
0.0
 30
0.0
  9
$UCSORGBOTTOM
 10
0.0
 20
0.0
 30
0.0
  9
$UCSORGLEFT
 10
0.0
 20
0.0
 30
0.0
  9
$UCSORGRIGHT
 10
0.0
 20
0.0
 30
0.0
  9
$UCSORGFRONT
 10
0.0
 20
0.0
 30
0.0
  9
$UCSORGBACK
 10
0.0
 20
0.0
 30
0.0
  9
$PUCSBASE
  2

  9
$PUCSNAME
  2

  9
$PUCSORG
 10
0.0
 20
0.0
 30
0.0
  9
$PUCSXDIR
 10
1.0
 20
0.0
 30
0.0
  9
$PUCSYDIR
 10
0.0
 20
1.0
 30
0.0
  9
$PUCSORTHOREF
  2

  9
$PUCSORTHOVIEW
 70
     0
  9
$PUCSORGTOP
 10
0.0
 20
0.0
 30
0.0
  9
$PUCSORGBOTTOM
 10
0.0
 20
0.0
 30
0.0
  9
$PUCSORGLEFT
 10
0.0
 20
0.0
 30
0.0
  9
$PUCSORGRIGHT
 10
0.0
 20
0.0
 30
0.0
  9
$PUCSORGFRONT
 10
0.0
 20
0.0
 30
0.0
  9
$PUCSORGBACK
 10
0.0
 20
0.0
 30
0.0
  9
$USERI1
 70
     0
  9
$USERI2
 70
     0
  9
$USERI3
 70
     0
  9
$USERI4
 70
     0
  9
$USERI5
 70
     0
  9
$USERR1
 40
0.0
  9
$USERR2
 40
0.0
  9
$USERR3
 40
0.0
  9
$USERR4
 40
0.0
  9
$USERR5
 40
0.0
  9
$WORLDVIEW
 70
     1
  9
$SHADEDGE
 70
     3
  9
$SHADEDIF
 70
    70
  9
$TILEMODE
 70
     1
  9
$MAXACTVP
 70
    64
  9
$PINSBASE
 10
0.0
 20
0.0
 30
0.0
  9
$PLIMCHECK
 70
     0
  9
$PEXTMIN
 10
1.000000000000000E+20
 20
1.000000000000000E+20
 30
1.000000000000000E+20
  9
$PEXTMAX
 10
-1.000000000000000E+20
 20
-1.000000000000000E+20
 30
-1.000000000000000E+20
  9
$PLIMMIN
 10
0.0
 20
0.0
  9
$PLIMMAX
 10
12.0
 20
9.0
  9
$UNITMODE
 70
     0
  9
$VISRETAIN
 70
     1
  9
$PLINEGEN
 70
     0
  9
$PSLTSCALE
 70
     1
  9
$TREEDEPTH
 70
  3020
  9
$CMLSTYLE
  2
Standard
  9
$CMLJUST
 70
     0
  9
$CMLSCALE
 40
1.0
  9
$PROXYGRAPHICS
 70
     1
  9
$MEASUREMENT
 70
     0
  9
$CELWEIGHT
370
    -1
  9
$ENDCAPS
280
     0
  9
$JOINSTYLE
280
     0
  9
$LWDISPLAY
290
     0
  9
$INSUNITS
 70
     0
  9
$HYPERLINKBASE
  1

  9
$STYLESHEET
  1

  9
$XEDIT
290
     1
  9
$CEPSNTYPE
380
     0
  9
$PSTYLEMODE
290
     1
  9
$FINGERPRINTGUID
  2
{A267047A-7AB9-4396-A767-0B1658ADBEF9}
  9
$VERSIONGUID
  2
{56E33DC0-5692-453A-986F-B96D68EAD75C}
  9
$EXTNAMES
290
     1
  9
$PSVPSCALE
 40
0.0
  9
$OLESTARTUP
290
     0
  0
ENDSEC
  0
SECTION
  2
CLASSES
  0
CLASS
  1
ACDBDICTIONARYWDFLT
  2
AcDbDictionaryWithDefault
  3
AutoCAD 2000
 90
        0
280
     0
281
     0
  0
CLASS
  1
ACDBPLACEHOLDER
  2
AcDbPlaceHolder
  3
AutoCAD 2000
 90
        0
280
     0
281
     0
  0
CLASS
  1
LAYOUT
  2
AcDbLayout
  3
AutoCAD 2000
 90
        0
280
     0
281
     0
  0
CLASS
  1
DICTIONARYVAR
  2
AcDbDictionaryVar
  3
AutoCAD 2000
 90
        0
280
     0
281
     0
  0
ENDSEC
  0
SECTION
  2
TABLES
  0
TABLE
  2
VPORT
  5
8
330
0
100
AcDbSymbolTable
 70
     3
  0
VPORT
  5
B4B
330
8
100
AcDbSymbolTableRecord
100
AcDbViewportTableRecord
  2
*Active
 70
     0
 10
0.0
 20
0.0
 11
1.0
 21
1.0
 12
98.9905
 22
147.9999999999999
 13
0.0
 23
0.0
 14
1.0
 24
1.0
 15
0.0
 25
0.0
 16
0.0
 26
0.0
 36
1.0
 17
0.0
 27
0.0
 37
0.0
 40
297.6116302142052
 41
2.073363431151241
 42
50.0
 43
0.0
 44
0.0
 50
0.0
 51
0.0
 71
     0
 72
   100
 73
     1
 74
     3
 75
     0
 76
     0
 77
     0
 78
     0
281
     0
 65
     1
110
0.0
120
0.0
130
0.0
111
1.0
121
0.0
131
0.0
112
0.0
122
1.0
132
0.0
 79
     1
146
0.0
  0
ENDTAB
  0
TABLE
  2
LTYPE
  5
5
330
0
100
AcDbSymbolTable
 70
     1
  0
LTYPE
  5
13
330
5
100
AcDbSymbolTableRecord
100
AcDbLinetypeTableRecord
  2
ByBlock
 70
     0
  3

 72
    65
 73
     0
 40
0.0
  0
LTYPE
  5
14
330
5
100
AcDbSymbolTableRecord
100
AcDbLinetypeTableRecord
  2
ByLayer
 70
     0
  3

 72
    65
 73
     0
 40
0.0
  0
LTYPE
  5
15
330
5
100
AcDbSymbolTableRecord
100
AcDbLinetypeTableRecord
  2
Continuous
 70
     0
  3
Solid line
 72
    65
 73
     0
 40
0.0
  0
ENDTAB
  0
TABLE
  2
LAYER
  5
2
330
0
100
AcDbSymbolTable
 70
     1
  0
LAYER
  5
10
330
2
100
AcDbSymbolTableRecord
100
AcDbLayerTableRecord
  2
0
 70
     0
 62
     7
  6
Continuous
370
    -3
390
F
  0
ENDTAB
  0
TABLE
  2
STYLE
  5
3
330
0
100
AcDbSymbolTable
 70
     1
  0
STYLE
  5
11
330
3
100
AcDbSymbolTableRecord
100
AcDbTextStyleTableRecord
  2
Standard
 70
     0
 40
0.0
 41
1.0
 50
0.0
 71
     0
 42
0.2
  3
txt
  4

  0
ENDTAB
  0
TABLE
  2
VIEW
  5
6
330
0
100
AcDbSymbolTable
 70
     0
  0
ENDTAB
  0
TABLE
  2
UCS
  5
7
330
0
100
AcDbSymbolTable
 70
     0
  0
ENDTAB
  0
TABLE
  2
APPID
  5
9
330
0
100
AcDbSymbolTable
 70
     1
  0
APPID
  5
12
330
9
100
AcDbSymbolTableRecord
100
AcDbRegAppTableRecord
  2
ACAD
 70
     0
  0
ENDTAB
  0
TABLE
  2
DIMSTYLE
  5
A
330
0
100
AcDbSymbolTable
 70
     1
100
AcDbDimStyleTable
 71
     0
  0
DIMSTYLE
105
5D6
330
A
100
AcDbSymbolTableRecord
100
AcDbDimStyleTableRecord
  2
Standard
 70
     0
340
11
  0
ENDTAB
  0
TABLE
  2
BLOCK_RECORD
  5
1
330
0
100
AcDbSymbolTable
 70
     1
  0
BLOCK_RECORD
  5
1E
330
1
100
AcDbSymbolTableRecord
100
AcDbBlockTableRecord
  2
*Model_Space
340
21
  0
BLOCK_RECORD
  5
1A
330
1
100
AcDbSymbolTableRecord
100
AcDbBlockTableRecord
  2
*Paper_Space
340
1D
  0
ENDTAB
  0
ENDSEC
  0
SECTION
  2
BLOCKS
  0
BLOCK
  5
1F
330
1E
100
AcDbEntity
  8
0
100
AcDbBlockBegin
  2
*Model_Space
 70
     0
 10
0.0
 20
0.0
 30
0.0
  3
*Model_Space
  1

  0
ENDBLK
  5
20
330
1E
100
AcDbEntity
  8
0
100
AcDbBlockEnd
  0
BLOCK
  5
1B
330
1A
100
AcDbEntity
 67
     1
  8
0
100
AcDbBlockBegin
  2
*Paper_Space
 70
     0
 10
0.0
 20
0.0
 30
0.0
  3
*Paper_Space
  1

  0
ENDBLK
  5
1C
330
1A
100
AcDbEntity
 67
     1
  8
0
100
AcDbBlockEnd
  0
ENDSEC
  0
SECTION
  2
ENTITIES
  0
LINE
  5
35
330
1E
100
AcDbEntity
  8
0
100
AcDbLine
 10
8.496
 20
89.60779999999999
 30
0.0
 11
10.82719999999999
 21
89.83369999999998
 31
0.0
  0
LINE
  5
36
330
1E
100
AcDbEntity
  8
0
100
AcDbLine
 10
7.0879
 20
89.9657
 30
0.0
 11
8.496
 21
89.60779999999999
 31
0.0
  0
LINE
  5
38
330
1E
100
AcDbEntity
  8
0
100
AcDbLine
 10
6.0681
 20
90.42579999999999
 30
0.0
 11
7.0879
 21
89.9657
 31
0.0
  0
LINE
  5
3A
330
1E
100
AcDbEntity
  8
0
100
AcDbLine
 10
5.440199999999999
 20
90.82460000000001
 30
0.0
 11
6.0681
 21
90.42579999999999
 31
0.0
  0
LINE
  5
3B
330
1E
100
AcDbEntity
  8
0
100
AcDbLine
 10
5.147599999999999
 20
91.0922
 30
0.0
 11
5.440199999999999
 21
90.82460000000001
 31
0.0
  0
LINE
  5
3D
330
1E
100
AcDbEntity
  8
0
100
AcDbLine
 10
5.0
 20
91.3391
 30
0.0
 11
5.147599999999999
 21
91.0922
 31
0.0
  0
LINE
  5
3E
330
1E
100
AcDbEntity
  8
0
100
AcDbLine
 10
10.8197960054523
 20
92.9398497668688
 30
0.0
 11
11.82239999999999
 21
93.22309999999999
 31
0.0
  0
LINE
  5
3F
330
1E
100
AcDbEntity
  8
0
100
AcDbLine
 10
11.82239999999999
 20
93.22309999999999
 30
0.0
 11
12.0053211234526
 21
93.25227746949222
 31
0.0
  0
LINE
  5
40
330
1E
100
AcDbEntity
  8
0
100
AcDbLine
 10
11.82239999999999
 20
93.22309999999999
 30
0.0
 11
12.0053211234526
 21
93.25227746949222
 31
0.0
  0
LINE
  5
41
330
1E
100
AcDbEntity
  8
0
100
AcDbLine
 10
27.4488
 20
21.694
 30
0.0
 11
28.0758
 21
21.701
 31
0.0
  0
LINE
  5
42
330
1E
100
AcDbEntity
  8
0
100
AcDbLine
 10
25.6277
 20
21.697
 30
0.0
 11
27.4488
 21
21.694
 31
0.0
  0
LINE
  5
43
330
1E
100
AcDbEntity
  8
0
100
AcDbLine
 10
14.5237
 20
21.69599999999999
 30
0.0
 11
16.0714521375301
 21
21.6996924504275
 31
0.0
  0
LINE
  5
44
330
1E
100
AcDbEntity
  8
0
100
AcDbLine
 10
12.886317052658
 20
21.6977982350748
 30
0.0
 11
14.5237
 21
21.69599999999999
 31
0.0
  0
LINE
  5
45
330
1E
100
AcDbEntity
  8
0
100
AcDbLine
 10
12.6498
 20
21.697
 30
0.0
 11
14.42759999999999
 21
21.703
 31
0.0
  0
LINE
  5
46
330
1E
100
AcDbEntity
  8
0
100
AcDbLine
 10
12.05969999999999
 20
54.703
 30
0.0
 11
12.07559999999999
 21
21.70199999999999
 31
0.0
  0
LINE
  5
47
330
1E
100
AcDbEntity
  8
0
100
AcDbLine
 10
12.07559999999999
 20
21.70199999999999
 30
0.0
 11
12.6498
 21
21.697
 31
0.0
  0
LINE
  5
48
330
1E
100
AcDbEntity
  8
0
100
AcDbLine
 10
28.0596
 20
54.702
 30
0.0
 11
28.0758
 21
21.701
 31
0.0
  0
LINE
  5
49
330
1E
100
AcDbEntity
  8
0
100
AcDbLine
 10
23.11269999999999
 20
21.701
 30
0.0
 11
25.6277
 21
21.697
 31
0.0
  0
LINE
  5
4A
330
1E
100
AcDbEntity
  8
0
100
AcDbLine
 10
20.0077
 20
21.699
 30
0.0
 11
23.11269999999999
 21
21.701
 31
0.0
  0
LINE
  5
4B
330
1E
100
AcDbEntity
  8
0
100
AcDbLine
 10
34.8524
 20
91.0922
 30
0.0
 11
35.0
 21
91.3391
 31
0.0
  0
LINE
  5
4C
330
1E
100
AcDbEntity
  8
0
100
AcDbLine
 10
34.5598
 20
90.82460000000001
 30
0.0
 11
34.8524
 21
91.0922
 31
0.0
  0
LINE
  5
4E
330
1E
100
AcDbEntity
  8
0
100
AcDbLine
 10
33.9318
 20
90.42579999999999
 30
0.0
 11
34.5598
 21
90.82460000000001
 31
0.0
  0
LINE
  5
4F
330
1E
100
AcDbEntity
  8
0
100
AcDbLine
 10
32.9121
 20
89.9657
 30
0.0
 11
33.9318
 21
90.42579999999999
 31
0.0
  0
LINE
  5
51
330
1E
100
AcDbEntity
  8
0
100
AcDbLine
 10
31.5039
 20
89.60779999999999
 30
0.0
 11
32.9121
 21
89.9657
 31
0.0
  0
LINE
  5
53
330
1E
100
AcDbEntity
  8
0
100
AcDbLine
 10
29.17289999999999
 20
89.83369999999998
 30
0.0
 11
31.5039
 21
89.60779999999999
 31
0.0
  0
LINE
  5
54
330
1E
100
AcDbEntity
  8
0
100
AcDbLine
 10
29.17289999999999
 20
89.83369999999998
 30
0.0
 11
29.2834
 21
136.233
 31
0.0
  0
LINE
  5
55
330
1E
100
AcDbEntity
  8
0
100
AcDbLine
 10
28.1776
 20
93.22309999999999
 30
0.0
 11
29.1802972374238
 21
92.93982342439809
 31
0.0
  0
LINE
  5
56
330
1E
100
AcDbEntity
  8
0
100
AcDbLine
 10
35.0
 20
91.3391
 30
0.0
 11
35.0
 21
97.60229999999999
 31
0.0
  0
LINE
  5
57
330
1E
100
AcDbEntity
  8
0
100
AcDbLine
 10
28.0049031636755
 20
93.25064660904189
 30
0.0
 11
28.1776
 21
93.22309999999999
 31
0.0
  0
LINE
  5
58
330
1E
100
AcDbEntity
  8
0
100
AcDbLine
 10
28.0306
 20
77.7092
 30
0.0
 11
28.0596
 21
54.702
 31
0.0
  0
LINE
  5
59
330
1E
100
AcDbEntity
  8
0
100
AcDbLine
 10
14.42759999999999
 20
21.703
 30
0.0
 11
16.9126
 21
21.69799999999999
 31
0.0
  0
LINE
  5
5A
330
1E
100
AcDbEntity
  8
0
100
AcDbLine
 10
16.9126
 20
21.69799999999999
 30
0.0
 11
20.0077
 21
21.699
 31
0.0
  0
LINE
  5
5B
330
1E
100
AcDbEntity
  8
0
100
AcDbLine
 10
12.0316
 20
77.70019999999999
 30
0.0
 11
12.05969999999999
 21
54.703
 31
0.0
  0
LINE
  5
D3
330
1E
100
AcDbEntity
  8
0
100
AcDbLine
 10
35.0
 20
97.60229999999999
 30
0.0
 11
35.0
 21
137.5739999999999
 31
0.0
  0
LINE
  5
D4
330
1E
100
AcDbEntity
  8
0
100
AcDbLine
 10
35.0
 20
97.60229999999999
 30
0.0
 11
35.0
 21
91.3391
 31
0.0
  0
LINE
  5
D5
330
1E
100
AcDbEntity
  8
0
100
AcDbLine
 10
5.0
 20
97.60229999999999
 30
0.0
 11
5.0
 21
91.3391
 31
0.0
  0
LINE
  5
D6
330
1E
100
AcDbEntity
  8
0
100
AcDbLine
 10
5.0
 20
97.60229999999999
 30
0.0
 11
5.0
 21
137.5739999999999
 31
0.0
  0
LINE
  5
D7
330
1E
100
AcDbEntity
  8
0
100
AcDbLine
 10
5.0
 20
97.60229999999999
 30
0.0
 11
5.0
 21
147.608
 31
0.0
  0
LINE
  5
132
330
1E
100
AcDbEntity
  8
0
100
AcDbLine
 10
27.9896
 20
102.506
 30
0.0
 11
28.0306
 21
77.7092
 31
0.0
  0
LINE
  5
133
330
1E
100
AcDbEntity
  8
0
100
AcDbLine
 10
11.98969999999999
 20
102.497
 30
0.0
 11
12.0316
 21
77.70019999999999
 31
0.0
  0
LINE
  5
152
330
1E
100
AcDbEntity
  8
0
100
AcDbLine
 10
11.3
 20
108.2239999999999
 30
0.0
 11
12.19999999999999
 21
107.655
 31
0.0
  0
LINE
  5
153
330
1E
100
AcDbEntity
  8
0
100
AcDbLine
 10
11.9783213374299
 20
107.795150176669
 30
0.0
 11
11.98969999999999
 21
102.497
 31
0.0
  0
LINE
  5
154
330
1E
100
AcDbEntity
  8
0
100
AcDbLine
 10
22.29999999999999
 20
106.5679999999999
 30
0.0
 11
24.5
 21
106.8
 31
0.0
  0
LINE
  5
155
330
1E
100
AcDbEntity
  8
0
100
AcDbLine
 10
20.0
 20
106.4899999999999
 30
0.0
 11
22.29999999999999
 21
106.5679999999999
 31
0.0
  0
LINE
  5
156
330
1E
100
AcDbEntity
  8
0
100
AcDbLine
 10
13.6
 20
107.163
 30
0.0
 11
15.5
 21
106.8
 31
0.0
  0
LINE
  5
157
330
1E
100
AcDbEntity
  8
0
100
AcDbLine
 10
27.8
 20
107.655
 30
0.0
 11
28.7
 21
108.2239999999999
 31
0.0
  0
LINE
  5
159
330
1E
100
AcDbEntity
  8
0
100
AcDbLine
 10
26.4
 20
107.163
 30
0.0
 11
27.8
 21
107.655
 31
0.0
  0
LINE
  5
15A
330
1E
100
AcDbEntity
  8
0
100
AcDbLine
 10
24.5
 20
106.8
 30
0.0
 11
26.4
 21
107.163
 31
0.0
  0
LINE
  5
15B
330
1E
100
AcDbEntity
  8
0
100
AcDbLine
 10
15.5
 20
106.8
 30
0.0
 11
17.7
 21
106.5679999999999
 31
0.0
  0
LINE
  5
15C
330
1E
100
AcDbEntity
  8
0
100
AcDbLine
 10
17.7
 20
106.5679999999999
 30
0.0
 11
20.0
 21
106.4899999999999
 31
0.0
  0
LINE
  5
15D
330
1E
100
AcDbEntity
  8
0
100
AcDbLine
 10
12.19999999999999
 20
107.655
 30
0.0
 11
13.6
 21
107.163
 31
0.0
  0
LINE
  5
15E
330
1E
100
AcDbEntity
  8
0
100
AcDbLine
 10
28.7
 20
108.2239999999999
 30
0.0
 11
29.0
 21
108.8189999999999
 31
0.0
  0
LINE
  5
15F
330
1E
100
AcDbEntity
  8
0
100
AcDbLine
 10
27.9780902007102
 20
107.7675925824489
 30
0.0
 11
27.9896
 21
102.506
 31
0.0
  0
LINE
  5
160
330
1E
100
AcDbEntity
  8
0
100
AcDbLine
 10
11.9783213374299
 20
107.795150176669
 30
0.0
 11
11.98969999999999
 21
102.497
 31
0.0
  0
LINE
  5
161
330
1E
100
AcDbEntity
  8
0
100
AcDbLine
 10
29.0
 20
108.8189999999999
 30
0.0
 11
29.22537162241039
 21
111.866700449856
 31
0.0
  0
LINE
  5
162
330
1E
100
AcDbEntity
  8
0
100
AcDbLine
 10
11.0
 20
108.8189999999999
 30
0.0
 11
11.3
 21
108.2239999999999
 31
0.0
  0
LINE
  5
18F
330
1E
100
AcDbEntity
  8
0
100
AcDbLine
 10
10.7746826410986
 20
111.865966644423
 30
0.0
 11
11.0
 21
108.8189999999999
 31
0.0
  0
LINE
  5
1B7
330
1E
100
AcDbEntity
  8
0
100
AcDbLine
 10
5.0
 20
137.5739999999999
 30
0.0
 11
5.0
 21
97.60229999999999
 31
0.0
  0
LINE
  5
1B8
330
1E
100
AcDbEntity
  8
0
100
AcDbLine
 10
5.0
 20
137.5739999999999
 30
0.0
 11
5.1161
 21
137.335
 31
0.0
  0
LINE
  5
1B9
330
1E
100
AcDbEntity
  8
0
100
AcDbLine
 10
5.0
 20
137.5739999999999
 30
0.0
 11
5.0
 21
147.608
 31
0.0
  0
LINE
  5
1BC
330
1E
100
AcDbEntity
  8
0
100
AcDbLine
 10
6.5715
 20
136.495
 30
0.0
 11
8.5205
 21
136.024
 31
0.0
  0
LINE
  5
1BD
330
1E
100
AcDbEntity
  8
0
100
AcDbLine
 10
5.689
 20
136.857
 30
0.0
 11
6.5715
 21
136.495
 31
0.0
  0
LINE
  5
1C0
330
1E
100
AcDbEntity
  8
0
100
AcDbLine
 10
5.1161
 20
137.335
 30
0.0
 11
5.689
 21
136.857
 31
0.0
  0
LINE
  5
1C1
330
1E
100
AcDbEntity
  8
0
100
AcDbLine
 10
8.125099999999999
 20
138.0409999999999
 30
0.0
 11
8.131234784851629
 21
137.5794530919459
 31
0.0
  0
LINE
  5
1C2
330
1E
100
AcDbEntity
  8
0
100
AcDbLine
 10
8.125099999999999
 20
138.0409999999999
 30
0.0
 11
8.348499999999999
 21
138.6709999999999
 31
0.0
  0
LINE
  5
1C3
330
1E
100
AcDbEntity
  8
0
100
AcDbLine
 10
8.5205
 20
136.024
 30
0.0
 11
10.7166
 21
136.233
 31
0.0
  0
LINE
  5
1C4
330
1E
100
AcDbEntity
  8
0
100
AcDbLine
 10
9.0
 20
138.524
 30
0.0
 11
9.505
 21
137.6929999999999
 31
0.0
  0
LINE
  5
1C5
330
1E
100
AcDbEntity
  8
0
100
AcDbLine
 10
8.404299999999999
 20
137.11
 30
0.0
 11
9.4097
 21
136.5989999999999
 31
0.0
  0
LINE
  5
1C6
330
1E
100
AcDbEntity
  8
0
100
AcDbLine
 10
8.125099999999999
 20
137.59
 30
0.0
 11
8.125099999999999
 21
138.0409999999999
 31
0.0
  0
LINE
  5
1C7
330
1E
100
AcDbEntity
  8
0
100
AcDbLine
 10
8.125099999999999
 20
137.59
 30
0.0
 11
8.404299999999999
 21
137.11
 31
0.0
  0
LINE
  5
1C8
330
1E
100
AcDbEntity
  8
0
100
AcDbLine
 10
8.0
 20
140.772
 30
0.0
 11
9.0
 21
138.524
 31
0.0
  0
LINE
  5
1C9
330
1E
100
AcDbEntity
  8
0
100
AcDbLine
 10
8.0
 20
140.772
 30
0.0
 11
8.0
 21
174.359
 31
0.0
  0
LINE
  5
1CB
330
1E
100
AcDbEntity
  8
0
100
AcDbLine
 10
8.348499999999999
 20
138.6709999999999
 30
0.0
 11
8.82652971745338
 21
138.913961195165
 31
0.0
  0
LINE
  5
1CC
330
1E
100
AcDbEntity
  8
0
100
AcDbLine
 10
16.9467
 20
135.882
 30
0.0
 11
20.0
 21
135.776
 31
0.0
  0
LINE
  5
1D0
330
1E
100
AcDbEntity
  8
0
100
AcDbLine
 10
9.505
 20
137.6929999999999
 30
0.0
 11
10.7268
 21
137.047
 31
0.0
  0
LINE
  5
1D2
330
1E
100
AcDbEntity
  8
0
100
AcDbLine
 10
9.4097
 20
136.5989999999999
 30
0.0
 11
10.7166
 21
136.233
 31
0.0
  0
LINE
  5
1D3
330
1E
100
AcDbEntity
  8
0
100
AcDbLine
 10
14.28099999999999
 20
136.196
 30
0.0
 11
16.9467
 21
135.882
 31
0.0
  0
LINE
  5
1D4
330
1E
100
AcDbEntity
  8
0
100
AcDbLine
 10
12.3
 20
136.5999999999999
 30
0.0
 11
14.28099999999999
 21
136.196
 31
0.0
  0
LINE
  5
1D5
330
1E
100
AcDbEntity
  8
0
100
AcDbLine
 10
10.7268
 20
137.047
 30
0.0
 11
12.3
 21
136.5999999999999
 31
0.0
  0
LINE
  5
1D6
330
1E
100
AcDbEntity
  8
0
100
AcDbLine
 10
10.7166
 20
136.233
 30
0.0
 11
10.82719999999999
 21
89.83369999999998
 31
0.0
  0
LINE
  5
1DC
330
1E
100
AcDbEntity
  8
0
100
AcDbLine
 10
20.0
 20
135.776
 30
0.0
 11
23.0533
 21
135.882
 31
0.0
  0
LINE
  5
1DE
330
1E
100
AcDbEntity
  8
0
100
AcDbLine
 10
25.719
 20
136.196
 30
0.0
 11
27.7
 21
136.5999999999999
 31
0.0
  0
LINE
  5
1DF
330
1E
100
AcDbEntity
  8
0
100
AcDbLine
 10
23.0533
 20
135.882
 30
0.0
 11
25.719
 21
136.196
 31
0.0
  0
LINE
  5
1E0
330
1E
100
AcDbEntity
  8
0
100
AcDbLine
 10
27.7
 20
136.5999999999999
 30
0.0
 11
29.27319999999999
 21
137.047
 31
0.0
  0
LINE
  5
1E1
330
1E
100
AcDbEntity
  8
0
100
AcDbLine
 10
29.27319999999999
 20
137.047
 30
0.0
 11
30.495
 21
137.6929999999999
 31
0.0
  0
LINE
  5
1E4
330
1E
100
AcDbEntity
  8
0
100
AcDbLine
 10
34.88389999999999
 20
137.335
 30
0.0
 11
35.0
 21
137.5739999999999
 31
0.0
  0
LINE
  5
1E5
330
1E
100
AcDbEntity
  8
0
100
AcDbLine
 10
31.5956
 20
137.11
 30
0.0
 11
31.875
 21
137.59
 31
0.0
  0
LINE
  5
1E6
330
1E
100
AcDbEntity
  8
0
100
AcDbLine
 10
34.3111
 20
136.857
 30
0.0
 11
34.88389999999999
 21
137.335
 31
0.0
  0
LINE
  5
1E8
330
1E
100
AcDbEntity
  8
0
100
AcDbLine
 10
30.5902
 20
136.5989999999999
 30
0.0
 11
31.5956
 21
137.11
 31
0.0
  0
LINE
  5
1E9
330
1E
100
AcDbEntity
  8
0
100
AcDbLine
 10
33.4285
 20
136.495
 30
0.0
 11
34.3111
 21
136.857
 31
0.0
  0
LINE
  5
1EB
330
1E
100
AcDbEntity
  8
0
100
AcDbLine
 10
29.2834
 20
136.233
 30
0.0
 11
31.4795
 21
136.024
 31
0.0
  0
LINE
  5
1EC
330
1E
100
AcDbEntity
  8
0
100
AcDbLine
 10
29.2834
 20
136.233
 30
0.0
 11
30.5902
 21
136.5989999999999
 31
0.0
  0
LINE
  5
1ED
330
1E
100
AcDbEntity
  8
0
100
AcDbLine
 10
31.4795
 20
136.024
 30
0.0
 11
33.4285
 21
136.495
 31
0.0
  0
LINE
  5
1EE
330
1E
100
AcDbEntity
  8
0
100
AcDbLine
 10
31.4795
 20
136.024
 30
0.0
 11
31.5039
 21
89.60779999999999
 31
0.0
  0
LINE
  5
1F3
330
1E
100
AcDbEntity
  8
0
100
AcDbLine
 10
31.0
 20
138.524
 30
0.0
 11
32.0
 21
140.772
 31
0.0
  0
LINE
  5
1F4
330
1E
100
AcDbEntity
  8
0
100
AcDbLine
 10
30.495
 20
137.6929999999999
 30
0.0
 11
31.0
 21
138.524
 31
0.0
  0
LINE
  5
1F5
330
1E
100
AcDbEntity
  8
0
100
AcDbLine
 10
31.8688642901676
 20
137.579459052543
 30
0.0
 11
31.875
 21
138.0409999999999
 31
0.0
  0
LINE
  5
1F6
330
1E
100
AcDbEntity
  8
0
100
AcDbLine
 10
31.875
 20
137.59
 30
0.0
 11
31.875
 21
138.0409999999999
 31
0.0
  0
LINE
  5
1F7
330
1E
100
AcDbEntity
  8
0
100
AcDbLine
 10
31.1734702825466
 20
138.913961195165
 30
0.0
 11
31.6515
 21
138.6709999999999
 31
0.0
  0
LINE
  5
1F8
330
1E
100
AcDbEntity
  8
0
100
AcDbLine
 10
31.6515
 20
138.6709999999999
 30
0.0
 11
31.875
 21
138.0409999999999
 31
0.0
  0
LINE
  5
1F9
330
1E
100
AcDbEntity
  8
0
100
AcDbLine
 10
32.0
 20
140.772
 30
0.0
 11
32.0
 21
174.359
 31
0.0
  0
LINE
  5
1FA
330
1E
100
AcDbEntity
  8
0
100
AcDbLine
 10
35.0
 20
137.5739999999999
 30
0.0
 11
35.0
 21
147.608
 31
0.0
  0
LINE
  5
1FB
330
1E
100
AcDbEntity
  8
0
100
AcDbLine
 10
35.0
 20
137.5739999999999
 30
0.0
 11
35.0
 21
97.60229999999999
 31
0.0
  0
LINE
  5
1FC
330
1E
100
AcDbEntity
  8
0
100
AcDbLine
 10
31.875
 20
138.0409999999999
 30
0.0
 11
31.875
 21
137.59
 31
0.0
  0
LINE
  5
201
330
1E
100
AcDbEntity
  8
0
100
AcDbLine
 10
5.0
 20
147.608
 30
0.0
 11
8.0
 21
147.608
 31
0.0
  0
LINE
  5
202
330
1E
100
AcDbEntity
  8
0
100
AcDbLine
 10
35.0
 20
147.608
 30
0.0
 11
35.0
 21
137.5739999999999
 31
0.0
  0
LINE
  5
203
330
1E
100
AcDbEntity
  8
0
100
AcDbLine
 10
32.0
 20
147.608
 30
0.0
 11
35.0
 21
147.608
 31
0.0
  0
LINE
  5
204
330
1E
100
AcDbEntity
  8
0
100
AcDbLine
 10
5.0
 20
147.608
 30
0.0
 11
5.0
 21
97.60229999999999
 31
0.0
  0
LINE
  5
205
330
1E
100
AcDbEntity
  8
0
100
AcDbLine
 10
5.0
 20
147.608
 30
0.0
 11
8.0
 21
147.608
 31
0.0
  0
LINE
  5
206
330
1E
100
AcDbEntity
  8
0
100
AcDbLine
 10
5.0
 20
147.608
 30
0.0
 11
5.0
 21
137.5739999999999
 31
0.0
  0
LINE
  5
209
330
1E
100
AcDbEntity
  8
0
100
AcDbLine
 10
8.0
 20
257.523396995708
 30
0.0
 11
8.0
 21
256.2359999999999
 31
0.0
  0
LINE
  5
20A
330
1E
100
AcDbEntity
  8
0
100
AcDbLine
 10
8.0
 20
256.2359999999999
 30
0.0
 11
8.0
 21
230.186
 31
0.0
  0
LINE
  5
20B
330
1E
100
AcDbEntity
  8
0
100
AcDbLine
 10
8.0
 20
256.2359999999999
 30
0.0
 11
8.0
 21
257.523396995708
 31
0.0
  0
LINE
  5
20C
330
1E
100
AcDbEntity
  8
0
100
AcDbLine
 10
8.0
 20
230.186
 30
0.0
 11
8.0
 21
203.472
 31
0.0
  0
LINE
  5
20D
330
1E
100
AcDbEntity
  8
0
100
AcDbLine
 10
8.0
 20
230.186
 30
0.0
 11
8.0
 21
256.2359999999999
 31
0.0
  0
LINE
  5
20E
330
1E
100
AcDbEntity
  8
0
100
AcDbLine
 10
8.0
 20
203.472
 30
0.0
 11
8.0
 21
174.359
 31
0.0
  0
LINE
  5
20F
330
1E
100
AcDbEntity
  8
0
100
AcDbLine
 10
8.0
 20
203.472
 30
0.0
 11
8.0
 21
230.186
 31
0.0
  0
LINE
  5
210
330
1E
100
AcDbEntity
  8
0
100
AcDbLine
 10
0.6815
 20
271.574
 30
0.0
 11
1.6474
 21
268.825
 31
0.0
  0
LINE
  5
211
330
1E
100
AcDbEntity
  8
0
100
AcDbLine
 10
1.6474
 20
268.825
 30
0.0
 11
2.6133
 21
265.8269999999999
 31
0.0
  0
LINE
  5
212
330
1E
100
AcDbEntity
  8
0
100
AcDbLine
 10
3.5792
 20
265.8269999999999
 30
0.0
 11
5.277499999999999
 21
261.8809999999999
 31
0.0
  0
LINE
  5
213
330
1E
100
AcDbEntity
  8
0
100
AcDbLine
 10
2.6133
 20
265.8269999999999
 30
0.0
 11
4.4115
 21
261.649
 31
0.0
  0
LINE
  5
214
330
1E
100
AcDbEntity
  8
0
100
AcDbLine
 10
7.0
 20
269.7029999999999
 30
0.0
 11
7.4588
 21
266.5009999999999
 31
0.0
  0
LINE
  5
215
330
1E
100
AcDbEntity
  8
0
100
AcDbLine
 10
7.0
 20
269.7029999999999
 30
0.0
 11
7.0
 21
269.795720726152
 31
0.0
  0
LINE
  5
216
330
1E
100
AcDbEntity
  8
0
100
AcDbLine
 10
7.65
 20
266.444
 30
0.0
 11
8.911799999999999
 21
263.4629999999999
 31
0.0
  0
LINE
  5
217
330
1E
100
AcDbEntity
  8
0
100
AcDbLine
 10
7.4588
 20
266.5009999999999
 30
0.0
 11
8.7588
 21
263.483
 31
0.0
  0
LINE
  5
218
330
1E
100
AcDbEntity
  8
0
100
AcDbLine
 10
7.1912
 20
269.609
 30
0.0
 11
7.65
 21
272.774
 31
0.0
  0
LINE
  5
219
330
1E
100
AcDbEntity
  8
0
100
AcDbLine
 10
7.1912
 20
269.609
 30
0.0
 11
7.65
 21
266.444
 31
0.0
  0
LINE
  5
21A
330
1E
100
AcDbEntity
  8
0
100
AcDbLine
 10
7.0
 20
269.795720726152
 30
0.0
 11
7.0
 21
269.7029999999999
 31
0.0
  0
LINE
  5
21B
330
1E
100
AcDbEntity
  8
0
100
AcDbLine
 10
5.277499999999999
 20
261.8809999999999
 30
0.0
 11
7.979199999999999
 21
258.492
 31
0.0
  0
LINE
  5
21C
330
1E
100
AcDbEntity
  8
0
100
AcDbLine
 10
4.4115
 20
261.649
 30
0.0
 11
7.272
 21
258.0609999999999
 31
0.0
  0
LINE
  5
21D
330
1E
100
AcDbEntity
  8
0
100
AcDbLine
 10
3.0
 20
270.062
 30
0.0
 11
3.5792
 21
265.8269999999999
 31
0.0
  0
LINE
  5
21E
330
1E
100
AcDbEntity
  8
0
100
AcDbLine
 10
3.0
 20
270.062
 30
0.0
 11
3.5792
 21
274.297
 31
0.0
  0
LINE
  5
21F
330
1E
100
AcDbEntity
  8
0
100
AcDbLine
 10
2.0
 20
270.312
 30
0.0
 11
2.6133
 21
265.8269999999999
 31
0.0
  0
LINE
  5
220
330
1E
100
AcDbEntity
  8
0
100
AcDbLine
 10
2.0
 20
270.312
 30
0.0
 11
2.6133
 21
274.7959999999999
 31
0.0
  0
LINE
  5
221
330
1E
100
AcDbEntity
  8
0
100
AcDbLine
 10
3.5792
 20
274.297
 30
0.0
 11
5.277499999999999
 21
278.243
 31
0.0
  0
LINE
  5
222
330
1E
100
AcDbEntity
  8
0
100
AcDbLine
 10
0.6815
 20
281.538
 30
0.0
 11
2.679499999999999
 21
286.1809999999999
 31
0.0
  0
LINE
  5
223
330
1E
100
AcDbEntity
  8
0
100
AcDbLine
 10
2.6133
 20
274.7959999999999
 30
0.0
 11
4.4115
 21
278.974
 31
0.0
  0
LINE
  5
224
330
1E
100
AcDbEntity
  8
0
100
AcDbLine
 10
0.6815
 20
281.538
 30
0.0
 11
2.679499999999999
 21
286.1809999999999
 31
0.0
  0
LINE
  5
225
330
1E
100
AcDbEntity
  8
0
100
AcDbLine
 10
2.679499999999999
 20
286.1809999999999
 30
0.0
 11
5.8578
 21
290.168
 31
0.0
  0
LINE
  5
226
330
1E
100
AcDbEntity
  8
0
100
AcDbLine
 10
5.277499999999999
 20
278.243
 30
0.0
 11
7.979199999999999
 21
281.632
 31
0.0
  0
LINE
  5
227
330
1E
100
AcDbEntity
  8
0
100
AcDbLine
 10
4.4115
 20
278.974
 30
0.0
 11
7.272
 21
282.562
 31
0.0
  0
LINE
  5
228
330
1E
100
AcDbEntity
  8
0
100
AcDbLine
 10
2.679499999999999
 20
286.1809999999999
 30
0.0
 11
5.8578
 21
290.168
 31
0.0
  0
LINE
  5
229
330
1E
100
AcDbEntity
  8
0
100
AcDbLine
 10
7.65
 20
272.774
 30
0.0
 11
8.911799999999999
 21
275.755
 31
0.0
  0
LINE
  5
22A
330
1E
100
AcDbEntity
  8
0
100
AcDbLine
 10
7.979199999999999
 20
281.632
 30
0.0
 11
11.5
 21
284.232
 31
0.0
  0
LINE
  5
22B
330
1E
100
AcDbEntity
  8
0
100
AcDbLine
 10
7.272
 20
282.562
 30
0.0
 11
11.0
 21
285.3149999999999
 31
0.0
  0
LINE
  5
22C
330
1E
100
AcDbEntity
  8
0
100
AcDbLine
 10
5.8578
 20
290.168
 30
0.0
 11
10.0
 21
293.227
 31
0.0
  0
LINE
  5
22D
330
1E
100
AcDbEntity
  8
0
100
AcDbLine
 10
0.0
 20
276.5559999999999
 30
0.0
 11
0.6815
 21
271.574
 31
0.0
  0
LINE
  5
22E
330
1E
100
AcDbEntity
  8
0
100
AcDbLine
 10
0.0
 20
276.5559999999999
 30
0.0
 11
0.6815
 21
281.538
 31
0.0
  0
LINE
  5
22F
330
1E
100
AcDbEntity
  8
0
100
AcDbLine
 10
0.6815
 20
271.574
 30
0.0
 11
1.6474
 21
268.825
 31
0.0
  0
LINE
  5
230
330
1E
100
AcDbEntity
  8
0
100
AcDbLine
 10
8.0
 20
269.562
 30
0.0
 11
8.0
 21
269.437
 31
0.0
  0
LINE
  5
231
330
1E
100
AcDbEntity
  8
0
100
AcDbLine
 10
8.0
 20
269.437
 30
0.0
 11
8.3
 21
268.764
 31
0.0
  0
LINE
  5
232
330
1E
100
AcDbEntity
  8
0
100
AcDbLine
 10
8.0
 20
269.437
 30
0.0
 11
8.3
 21
270.1109999999999
 31
0.0
  0
LINE
  5
233
330
1E
100
AcDbEntity
  8
0
100
AcDbLine
 10
8.0
 20
269.437
 30
0.0
 11
8.0
 21
269.562
 31
0.0
  0
LINE
  5
234
330
1E
100
AcDbEntity
  8
0
100
AcDbLine
 10
7.979199999999999
 20
258.492
 30
0.0
 11
11.5
 21
255.892
 31
0.0
  0
LINE
  5
235
330
1E
100
AcDbEntity
  8
0
100
AcDbLine
 10
7.272
 20
258.0609999999999
 30
0.0
 11
11.0
 21
255.308
 31
0.0
  0
LINE
  5
236
330
1E
100
AcDbEntity
  8
0
100
AcDbLine
 10
16.0
 20
226.177
 30
0.0
 11
16.144
 21
227.17
 31
0.0
  0
LINE
  5
237
330
1E
100
AcDbEntity
  8
0
100
AcDbLine
 10
16.0
 20
226.177
 30
0.0
 11
16.0
 21
195.1559999999999
 31
0.0
  0
LINE
  5
238
330
1E
100
AcDbEntity
  8
0
100
AcDbLine
 10
16.144
 20
227.17
 30
0.0
 11
16.528
 21
228.1
 31
0.0
  0
LINE
  5
239
330
1E
100
AcDbEntity
  8
0
100
AcDbLine
 10
16.528
 20
228.1
 30
0.0
 11
17.168
 21
228.9219999999999
 31
0.0
  0
LINE
  5
23A
330
1E
100
AcDbEntity
  8
0
100
AcDbLine
 10
16.0
 20
195.1559999999999
 30
0.0
 11
16.144
 21
194.1629999999999
 31
0.0
  0
LINE
  5
23B
330
1E
100
AcDbEntity
  8
0
100
AcDbLine
 10
16.0
 20
195.1559999999999
 30
0.0
 11
16.0
 21
226.177
 31
0.0
  0
LINE
  5
23C
330
1E
100
AcDbEntity
  8
0
100
AcDbLine
 10
16.144
 20
194.1629999999999
 30
0.0
 11
16.528
 21
193.233
 31
0.0
  0
LINE
  5
23D
330
1E
100
AcDbEntity
  8
0
100
AcDbLine
 10
17.168
 20
228.9219999999999
 30
0.0
 11
18.01599999999999
 21
229.543
 31
0.0
  0
LINE
  5
23E
330
1E
100
AcDbEntity
  8
0
100
AcDbLine
 10
18.01599999999999
 20
229.543
 30
0.0
 11
18.97599999999999
 21
229.915
 31
0.0
  0
LINE
  5
23F
330
1E
100
AcDbEntity
  8
0
100
AcDbLine
 10
16.528
 20
193.233
 30
0.0
 11
17.168
 21
192.4099999999999
 31
0.0
  0
LINE
  5
240
330
1E
100
AcDbEntity
  8
0
100
AcDbLine
 10
17.168
 20
192.4099999999999
 30
0.0
 11
18.01599999999999
 21
191.789
 31
0.0
  0
LINE
  5
241
330
1E
100
AcDbEntity
  8
0
100
AcDbLine
 10
18.97599999999999
 20
229.915
 30
0.0
 11
20.0
 21
230.055
 31
0.0
  0
LINE
  5
242
330
1E
100
AcDbEntity
  8
0
100
AcDbLine
 10
18.01599999999999
 20
191.789
 30
0.0
 11
18.97599999999999
 21
191.417
 31
0.0
  0
LINE
  5
243
330
1E
100
AcDbEntity
  8
0
100
AcDbLine
 10
18.97599999999999
 20
191.417
 30
0.0
 11
20.0
 21
191.277
 31
0.0
  0
LINE
  5
244
330
1E
100
AcDbEntity
  8
0
100
AcDbLine
 10
24.0
 20
195.1559999999999
 30
0.0
 11
24.0
 21
226.177
 31
0.0
  0
LINE
  5
245
330
1E
100
AcDbEntity
  8
0
100
AcDbLine
 10
23.85599999999999
 20
194.1629999999999
 30
0.0
 11
24.0
 21
195.1559999999999
 31
0.0
  0
LINE
  5
246
330
1E
100
AcDbEntity
  8
0
100
AcDbLine
 10
23.47199999999999
 20
193.233
 30
0.0
 11
23.85599999999999
 21
194.1629999999999
 31
0.0
  0
LINE
  5
247
330
1E
100
AcDbEntity
  8
0
100
AcDbLine
 10
22.83199999999999
 20
192.4099999999999
 30
0.0
 11
23.47199999999999
 21
193.233
 31
0.0
  0
LINE
  5
248
330
1E
100
AcDbEntity
  8
0
100
AcDbLine
 10
21.984
 20
191.789
 30
0.0
 11
22.83199999999999
 21
192.4099999999999
 31
0.0
  0
LINE
  5
249
330
1E
100
AcDbEntity
  8
0
100
AcDbLine
 10
21.024
 20
191.417
 30
0.0
 11
21.984
 21
191.789
 31
0.0
  0
LINE
  5
24A
330
1E
100
AcDbEntity
  8
0
100
AcDbLine
 10
20.0
 20
191.277
 30
0.0
 11
21.024
 21
191.417
 31
0.0
  0
LINE
  5
24B
330
1E
100
AcDbEntity
  8
0
100
AcDbLine
 10
32.0
 20
174.359
 30
0.0
 11
32.0
 21
203.472
 31
0.0
  0
LINE
  5
24C
330
1E
100
AcDbEntity
  8
0
100
AcDbLine
 10
32.0
 20
174.359
 30
0.0
 11
32.0
 21
140.772
 31
0.0
  0
LINE
  5
24D
330
1E
100
AcDbEntity
  8
0
100
AcDbLine
 10
20.0
 20
230.055
 30
0.0
 11
21.024
 21
229.915
 31
0.0
  0
LINE
  5
24E
330
1E
100
AcDbEntity
  8
0
100
AcDbLine
 10
24.0
 20
226.177
 30
0.0
 11
24.0
 21
195.1559999999999
 31
0.0
  0
LINE
  5
24F
330
1E
100
AcDbEntity
  8
0
100
AcDbLine
 10
23.85599999999999
 20
227.17
 30
0.0
 11
24.0
 21
226.177
 31
0.0
  0
LINE
  5
250
330
1E
100
AcDbEntity
  8
0
100
AcDbLine
 10
23.47199999999999
 20
228.1
 30
0.0
 11
23.85599999999999
 21
227.17
 31
0.0
  0
LINE
  5
251
330
1E
100
AcDbEntity
  8
0
100
AcDbLine
 10
22.83199999999999
 20
228.9219999999999
 30
0.0
 11
23.47199999999999
 21
228.1
 31
0.0
  0
LINE
  5
252
330
1E
100
AcDbEntity
  8
0
100
AcDbLine
 10
21.984
 20
229.543
 30
0.0
 11
22.83199999999999
 21
228.9219999999999
 31
0.0
  0
LINE
  5
253
330
1E
100
AcDbEntity
  8
0
100
AcDbLine
 10
21.024
 20
229.915
 30
0.0
 11
21.984
 21
229.543
 31
0.0
  0
LINE
  5
255
330
1E
100
AcDbEntity
  8
0
100
AcDbLine
 10
24.39989999999999
 20
254.2569999999999
 30
0.0
 11
28.5
 21
255.892
 31
0.0
  0
LINE
  5
256
330
1E
100
AcDbEntity
  8
0
100
AcDbLine
 10
20.0
 20
253.6999999999999
 30
0.0
 11
24.39989999999999
 21
254.2569999999999
 31
0.0
  0
LINE
  5
257
330
1E
100
AcDbEntity
  8
0
100
AcDbLine
 10
24.6587
 20
253.5769999999999
 30
0.0
 11
29.0
 21
255.308
 31
0.0
  0
LINE
  5
258
330
1E
100
AcDbEntity
  8
0
100
AcDbLine
 10
20.0
 20
252.9869999999999
 30
0.0
 11
24.6587
 21
253.5769999999999
 31
0.0
  0
LINE
  5
259
330
1E
100
AcDbEntity
  8
0
100
AcDbLine
 10
32.0
 20
230.186
 30
0.0
 11
32.0
 21
203.472
 31
0.0
  0
LINE
  5
25A
330
1E
100
AcDbEntity
  8
0
100
AcDbLine
 10
32.0
 20
230.186
 30
0.0
 11
32.0
 21
256.2359999999999
 31
0.0
  0
LINE
  5
25B
330
1E
100
AcDbEntity
  8
0
100
AcDbLine
 10
32.0
 20
203.472
 30
0.0
 11
32.0
 21
230.186
 31
0.0
  0
LINE
  5
25C
330
1E
100
AcDbEntity
  8
0
100
AcDbLine
 10
32.0
 20
203.472
 30
0.0
 11
32.0
 21
174.359
 31
0.0
  0
LINE
  5
25E
330
1E
100
AcDbEntity
  8
0
100
AcDbLine
 10
29.0
 20
255.308
 30
0.0
 11
32.7279
 21
258.0609999999999
 31
0.0
  0
LINE
  5
25F
330
1E
100
AcDbEntity
  8
0
100
AcDbLine
 10
15.6001
 20
254.2569999999999
 30
0.0
 11
20.0
 21
253.6999999999999
 31
0.0
  0
LINE
  5
260
330
1E
100
AcDbEntity
  8
0
100
AcDbLine
 10
15.3413
 20
253.5769999999999
 30
0.0
 11
20.0
 21
252.9869999999999
 31
0.0
  0
LINE
  5
261
330
1E
100
AcDbEntity
  8
0
100
AcDbLine
 10
8.3
 20
270.1109999999999
 30
0.0
 11
9.0
 21
270.3999999999999
 31
0.0
  0
LINE
  5
262
330
1E
100
AcDbEntity
  8
0
100
AcDbLine
 10
8.3
 20
268.764
 30
0.0
 11
9.0
 21
268.475
 31
0.0
  0
LINE
  5
263
330
1E
100
AcDbEntity
  8
0
100
AcDbLine
 10
10.21749999999999
 20
263.223
 30
0.0
 11
10.97369999999999
 21
263.31
 31
0.0
  0
LINE
  5
264
330
1E
100
AcDbEntity
  8
0
100
AcDbLine
 10
10.97369999999999
 20
263.31
 30
0.0
 11
11.42989999999999
 21
263.897
 31
0.0
  0
LINE
  5
265
330
1E
100
AcDbEntity
  8
0
100
AcDbLine
 10
10.9382
 20
260.887
 30
0.0
 11
13.61469999999999
 21
258.937
 31
0.0
  0
LINE
  5
266
330
1E
100
AcDbEntity
  8
0
100
AcDbLine
 10
10.82349999999999
 20
260.8709999999999
 30
0.0
 11
13.5382
 21
258.8829999999999
 31
0.0
  0
LINE
  5
267
330
1E
100
AcDbEntity
  8
0
100
AcDbLine
 10
9.0
 20
268.475
 30
0.0
 11
9.699999999999999
 21
268.764
 31
0.0
  0
LINE
  5
268
330
1E
100
AcDbEntity
  8
0
100
AcDbLine
 10
9.5175
 20
264.3899999999999
 30
0.0
 11
9.607699999999999
 21
263.663
 31
0.0
  0
LINE
  5
269
330
1E
100
AcDbEntity
  8
0
100
AcDbLine
 10
9.5175
 20
264.3899999999999
 30
0.0
 11
9.973699999999999
 21
264.977
 31
0.0
  0
LINE
  5
26A
330
1E
100
AcDbEntity
  8
0
100
AcDbLine
 10
9.607699999999999
 20
263.663
 30
0.0
 11
10.21749999999999
 21
263.223
 31
0.0
  0
LINE
  5
26B
330
1E
100
AcDbEntity
  8
0
100
AcDbLine
 10
9.973699999999999
 20
264.977
 30
0.0
 11
10.7299
 21
265.064
 31
0.0
  0
LINE
  5
26C
330
1E
100
AcDbEntity
  8
0
100
AcDbLine
 10
10.7299
 20
265.064
 30
0.0
 11
11.3397
 21
264.625
 31
0.0
  0
LINE
  5
26D
330
1E
100
AcDbEntity
  8
0
100
AcDbLine
 10
10.0
 20
269.437
 30
0.0
 11
10.0
 21
269.562
 31
0.0
  0
LINE
  5
26E
330
1E
100
AcDbEntity
  8
0
100
AcDbLine
 10
10.0
 20
269.562
 30
0.0
 11
10.0
 21
269.437
 31
0.0
  0
LINE
  5
26F
330
1E
100
AcDbEntity
  8
0
100
AcDbLine
 10
9.699999999999999
 20
268.764
 30
0.0
 11
10.0
 21
269.437
 31
0.0
  0
LINE
  5
270
330
1E
100
AcDbEntity
  8
0
100
AcDbLine
 10
9.973699999999999
 20
273.8979999999999
 30
0.0
 11
10.7299
 21
273.8109999999999
 31
0.0
  0
LINE
  5
271
330
1E
100
AcDbEntity
  8
0
100
AcDbLine
 10
9.5175
 20
274.485
 30
0.0
 11
9.607699999999999
 21
275.212
 31
0.0
  0
LINE
  5
272
330
1E
100
AcDbEntity
  8
0
100
AcDbLine
 10
9.5175
 20
274.485
 30
0.0
 11
9.973699999999999
 21
273.8979999999999
 31
0.0
  0
LINE
  5
273
330
1E
100
AcDbEntity
  8
0
100
AcDbLine
 10
9.607699999999999
 20
275.3287829413349
 30
0.0
 11
9.607699999999999
 21
275.212
 31
0.0
  0
LINE
  5
274
330
1E
100
AcDbEntity
  8
0
100
AcDbLine
 10
9.607699999999999
 20
275.212
 30
0.0
 11
10.21749999999999
 21
275.652
 31
0.0
  0
LINE
  5
275
330
1E
100
AcDbEntity
  8
0
100
AcDbLine
 10
9.607699999999999
 20
275.212
 30
0.0
 11
9.607699999999999
 21
275.3287829413349
 31
0.0
  0
LINE
  5
276
330
1E
100
AcDbEntity
  8
0
100
AcDbLine
 10
10.97369999999999
 20
275.565
 30
0.0
 11
11.42989999999999
 21
274.978
 31
0.0
  0
LINE
  5
277
330
1E
100
AcDbEntity
  8
0
100
AcDbLine
 10
10.7299
 20
273.8109999999999
 30
0.0
 11
11.3397
 21
274.25
 31
0.0
  0
LINE
  5
278
330
1E
100
AcDbEntity
  8
0
100
AcDbLine
 10
10.21749999999999
 20
275.652
 30
0.0
 11
10.97369999999999
 21
275.565
 31
0.0
  0
LINE
  5
279
330
1E
100
AcDbEntity
  8
0
100
AcDbLine
 10
9.699999999999999
 20
270.1109999999999
 30
0.0
 11
10.0
 21
269.437
 31
0.0
  0
LINE
  5
27A
330
1E
100
AcDbEntity
  8
0
100
AcDbLine
 10
9.0
 20
270.3999999999999
 30
0.0
 11
9.699999999999999
 21
270.1109999999999
 31
0.0
  0
LINE
  5
27B
330
1E
100
AcDbEntity
  8
0
100
AcDbLine
 10
8.911799999999999
 20
263.4629999999999
 30
0.0
 11
10.9382
 21
260.887
 31
0.0
  0
LINE
  5
27C
330
1E
100
AcDbEntity
  8
0
100
AcDbLine
 10
8.7588
 20
263.483
 30
0.0
 11
10.82349999999999
 21
260.8709999999999
 31
0.0
  0
LINE
  5
27D
330
1E
100
AcDbEntity
  8
0
100
AcDbLine
 10
10.9382
 20
278.3309999999999
 30
0.0
 11
13.61469999999999
 21
280.281
 31
0.0
  0
LINE
  5
27E
330
1E
100
AcDbEntity
  8
0
100
AcDbLine
 10
8.911799999999999
 20
275.755
 30
0.0
 11
10.9382
 21
278.3309999999999
 31
0.0
  0
LINE
  5
27F
330
1E
100
AcDbEntity
  8
0
100
AcDbLine
 10
11.3397
 20
274.25
 30
0.0
 11
11.42989999999999
 21
274.978
 31
0.0
  0
LINE
  5
280
330
1E
100
AcDbEntity
  8
0
100
AcDbLine
 10
11.3397
 20
264.75712585512
 30
0.0
 11
11.3397
 21
264.625
 31
0.0
  0
LINE
  5
281
330
1E
100
AcDbEntity
  8
0
100
AcDbLine
 10
11.3397
 20
264.625
 30
0.0
 11
11.42989999999999
 21
263.897
 31
0.0
  0
LINE
  5
282
330
1E
100
AcDbEntity
  8
0
100
AcDbLine
 10
11.3397
 20
264.625
 30
0.0
 11
11.3397
 21
264.75712585512
 31
0.0
  0
LINE
  5
283
330
1E
100
AcDbEntity
  8
0
100
AcDbLine
 10
11.5
 20
284.232
 30
0.0
 11
15.6001
 21
285.867
 31
0.0
  0
LINE
  5
284
330
1E
100
AcDbEntity
  8
0
100
AcDbLine
 10
11.0
 20
285.3149999999999
 30
0.0
 11
15.3413
 21
287.047
 31
0.0
  0
LINE
  5
285
330
1E
100
AcDbEntity
  8
0
100
AcDbLine
 10
10.0
 20
293.227
 30
0.0
 11
14.8236
 21
295.151
 31
0.0
  0
LINE
  5
286
330
1E
100
AcDbEntity
  8
0
100
AcDbLine
 10
12.3812
 20
270.7049999999999
 30
0.0
 11
12.9797
 21
270.252
 31
0.0
  0
LINE
  5
287
330
1E
100
AcDbEntity
  8
0
100
AcDbLine
 10
12.2726
 20
271.558483906548
 30
0.0
 11
12.2726
 21
271.43
 31
0.0
  0
LINE
  5
288
330
1E
100
AcDbEntity
  8
0
100
AcDbLine
 10
12.2726
 20
271.43
 30
0.0
 11
12.7435
 21
272.0059999999999
 31
0.0
  0
LINE
  5
289
330
1E
100
AcDbEntity
  8
0
100
AcDbLine
 10
12.2726
 20
271.43
 30
0.0
 11
12.3812
 21
270.7049999999999
 31
0.0
  0
LINE
  5
28A
330
1E
100
AcDbEntity
  8
0
100
AcDbLine
 10
12.2726
 20
271.43
 30
0.0
 11
12.2726
 21
271.558483906548
 31
0.0
  0
LINE
  5
28B
330
1E
100
AcDbEntity
  8
0
100
AcDbLine
 10
13.4973
 20
272.1109999999999
 30
0.0
 11
14.0958
 21
271.6579999999999
 31
0.0
  0
LINE
  5
28C
330
1E
100
AcDbEntity
  8
0
100
AcDbLine
 10
12.9797
 20
270.252
 30
0.0
 11
13.7335
 21
270.3559999999999
 31
0.0
  0
LINE
  5
28D
330
1E
100
AcDbEntity
  8
0
100
AcDbLine
 10
12.7435
 20
272.0059999999999
 30
0.0
 11
13.4973
 21
272.1109999999999
 31
0.0
  0
LINE
  5
28E
330
1E
100
AcDbEntity
  8
0
100
AcDbLine
 10
13.5437
 20
278.853
 30
0.0
 11
14.0
 21
279.4399999999999
 31
0.0
  0
LINE
  5
28F
330
1E
100
AcDbEntity
  8
0
100
AcDbLine
 10
13.5437
 20
278.853
 30
0.0
 11
13.6339
 21
278.125
 31
0.0
  0
LINE
  5
290
330
1E
100
AcDbEntity
  8
0
100
AcDbLine
 10
13.5437
 20
260.0219999999999
 30
0.0
 11
14.0
 21
259.4349999999999
 31
0.0
  0
LINE
  5
291
330
1E
100
AcDbEntity
  8
0
100
AcDbLine
 10
13.5437
 20
260.0219999999999
 30
0.0
 11
13.6339
 21
260.7499999999999
 31
0.0
  0
LINE
  5
292
330
1E
100
AcDbEntity
  8
0
100
AcDbLine
 10
13.61469999999999
 20
280.281
 30
0.0
 11
16.7118
 21
281.4959999999999
 31
0.0
  0
LINE
  5
293
330
1E
100
AcDbEntity
  8
0
100
AcDbLine
 10
13.7335
 20
270.3559999999999
 30
0.0
 11
14.2044
 21
270.932
 31
0.0
  0
LINE
  5
294
330
1E
100
AcDbEntity
  8
0
100
AcDbLine
 10
14.0
 20
279.5789516152469
 30
0.0
 11
14.0
 21
279.4399999999999
 31
0.0
  0
LINE
  5
295
330
1E
100
AcDbEntity
  8
0
100
AcDbLine
 10
13.6339
 20
278.125
 30
0.0
 11
14.2438
 21
277.6859999999999
 31
0.0
  0
LINE
  5
296
330
1E
100
AcDbEntity
  8
0
100
AcDbLine
 10
14.0
 20
279.4399999999999
 30
0.0
 11
14.7562
 21
279.5269999999999
 31
0.0
  0
LINE
  5
297
330
1E
100
AcDbEntity
  8
0
100
AcDbLine
 10
14.0
 20
279.4399999999999
 30
0.0
 11
14.0
 21
279.5789516152469
 31
0.0
  0
LINE
  5
298
330
1E
100
AcDbEntity
  8
0
100
AcDbLine
 10
13.6339
 20
260.7499999999999
 30
0.0
 11
14.2438
 21
261.189
 31
0.0
  0
LINE
  5
299
330
1E
100
AcDbEntity
  8
0
100
AcDbLine
 10
15.0
 20
261.102
 30
0.0
 11
15.4562
 21
260.515
 31
0.0
  0
LINE
  5
29A
330
1E
100
AcDbEntity
  8
0
100
AcDbLine
 10
15.0
 20
261.102
 30
0.0
 11
15.0
 21
261.214540320628
 31
0.0
  0
LINE
  5
29B
330
1E
100
AcDbEntity
  8
0
100
AcDbLine
 10
14.2044
 20
270.932
 30
0.0
 11
14.2044
 21
271.059375848123
 31
0.0
  0
LINE
  5
29C
330
1E
100
AcDbEntity
  8
0
100
AcDbLine
 10
14.2044
 20
271.059375848123
 30
0.0
 11
14.2044
 21
270.932
 31
0.0
  0
LINE
  5
29D
330
1E
100
AcDbEntity
  8
0
100
AcDbLine
 10
14.0958
 20
271.6579999999999
 30
0.0
 11
14.2044
 21
270.932
 31
0.0
  0
LINE
  5
29E
330
1E
100
AcDbEntity
  8
0
100
AcDbLine
 10
14.2438
 20
277.6859999999999
 30
0.0
 11
15.0
 21
277.7729999999999
 31
0.0
  0
LINE
  5
29F
330
1E
100
AcDbEntity
  8
0
100
AcDbLine
 10
15.0
 20
277.7729999999999
 30
0.0
 11
15.4562
 21
278.36
 31
0.0
  0
LINE
  5
2A0
330
1E
100
AcDbEntity
  8
0
100
AcDbLine
 10
14.7562
 20
279.5269999999999
 30
0.0
 11
15.36599999999999
 21
279.0879999999999
 31
0.0
  0
LINE
  5
2A1
330
1E
100
AcDbEntity
  8
0
100
AcDbLine
 10
14.34309999999999
 20
265.354
 30
0.0
 11
15.0502
 21
265.6259999999999
 31
0.0
  0
LINE
  5
2A2
330
1E
100
AcDbEntity
  8
0
100
AcDbLine
 10
14.0603
 20
264.673
 30
0.0
 11
14.34309999999999
 21
263.993
 31
0.0
  0
LINE
  5
2A3
330
1E
100
AcDbEntity
  8
0
100
AcDbLine
 10
14.0603
 20
264.673
 30
0.0
 11
14.34309999999999
 21
265.354
 31
0.0
  0
LINE
  5
2A4
330
1E
100
AcDbEntity
  8
0
100
AcDbLine
 10
14.34309999999999
 20
263.993
 30
0.0
 11
15.0502
 21
263.721
 31
0.0
  0
LINE
  5
2A5
330
1E
100
AcDbEntity
  8
0
100
AcDbLine
 10
15.0502
 20
265.6259999999999
 30
0.0
 11
15.7573
 21
265.354
 31
0.0
  0
LINE
  5
2A6
330
1E
100
AcDbEntity
  8
0
100
AcDbLine
 10
15.0502
 20
263.721
 30
0.0
 11
15.7573
 21
263.993
 31
0.0
  0
LINE
  5
2A7
330
1E
100
AcDbEntity
  8
0
100
AcDbLine
 10
15.0
 20
261.214540320628
 30
0.0
 11
15.0
 21
261.102
 31
0.0
  0
LINE
  5
2A8
330
1E
100
AcDbEntity
  8
0
100
AcDbLine
 10
14.2438
 20
261.189
 30
0.0
 11
15.0
 21
261.102
 31
0.0
  0
LINE
  5
2A9
330
1E
100
AcDbEntity
  8
0
100
AcDbLine
 10
14.0
 20
259.4349999999999
 30
0.0
 11
14.7562
 21
259.348
 31
0.0
  0
LINE
  5
2AA
330
1E
100
AcDbEntity
  8
0
100
AcDbLine
 10
14.7562
 20
259.348
 30
0.0
 11
15.36599999999999
 21
259.787
 31
0.0
  0
LINE
  5
2AB
330
1E
100
AcDbEntity
  8
0
100
AcDbLine
 10
13.61469999999999
 20
258.937
 30
0.0
 11
16.7118
 21
257.722
 31
0.0
  0
LINE
  5
2AC
330
1E
100
AcDbEntity
  8
0
100
AcDbLine
 10
13.5382
 20
258.8829999999999
 30
0.0
 11
16.6735
 21
257.6319999999999
 31
0.0
  0
LINE
  5
2AD
330
1E
100
AcDbEntity
  8
0
100
AcDbLine
 10
15.36599999999999
 20
279.0879999999999
 30
0.0
 11
15.4562
 21
278.36
 31
0.0
  0
LINE
  5
2AE
330
1E
100
AcDbEntity
  8
0
100
AcDbLine
 10
15.7573
 20
263.993
 30
0.0
 11
16.0402
 21
264.673
 31
0.0
  0
LINE
  5
2AF
330
1E
100
AcDbEntity
  8
0
100
AcDbLine
 10
16.44569999999999
 20
270.635
 30
0.0
 11
16.5359
 21
271.362
 31
0.0
  0
LINE
  5
2B0
330
1E
100
AcDbEntity
  8
0
100
AcDbLine
 10
16.44569999999999
 20
270.635
 30
0.0
 11
16.9019
 21
270.048
 31
0.0
  0
LINE
  5
2B1
330
1E
100
AcDbEntity
  8
0
100
AcDbLine
 10
16.5359
 20
271.4842609804449
 30
0.0
 11
16.5359
 21
271.362
 31
0.0
  0
LINE
  5
2B2
330
1E
100
AcDbEntity
  8
0
100
AcDbLine
 10
16.5359
 20
271.362
 30
0.0
 11
17.1457
 21
271.802
 31
0.0
  0
LINE
  5
2B3
330
1E
100
AcDbEntity
  8
0
100
AcDbLine
 10
16.5359
 20
271.362
 30
0.0
 11
16.5359
 21
271.4842609804449
 31
0.0
  0
LINE
  5
2B4
330
1E
100
AcDbEntity
  8
0
100
AcDbLine
 10
16.44569999999999
 20
268.24
 30
0.0
 11
16.5359
 21
267.512
 31
0.0
  0
LINE
  5
2B5
330
1E
100
AcDbEntity
  8
0
100
AcDbLine
 10
16.44569999999999
 20
268.24
 30
0.0
 11
16.9019
 21
268.827
 31
0.0
  0
LINE
  5
2B6
330
1E
100
AcDbEntity
  8
0
100
AcDbLine
 10
16.5359
 20
267.512
 30
0.0
 11
17.1457
 21
267.0729999999999
 31
0.0
  0
LINE
  5
2B7
330
1E
100
AcDbEntity
  8
0
100
AcDbLine
 10
15.7573
 20
265.478556236568
 30
0.0
 11
15.7573
 21
265.354
 31
0.0
  0
LINE
  5
2B8
330
1E
100
AcDbEntity
  8
0
100
AcDbLine
 10
15.7573
 20
265.354
 30
0.0
 11
16.0402
 21
264.673
 31
0.0
  0
LINE
  5
2B9
330
1E
100
AcDbEntity
  8
0
100
AcDbLine
 10
15.7573
 20
265.354
 30
0.0
 11
15.7573
 21
265.478556236568
 31
0.0
  0
LINE
  5
2BA
330
1E
100
AcDbEntity
  8
0
100
AcDbLine
 10
15.36599999999999
 20
259.787
 30
0.0
 11
15.4562
 21
260.515
 31
0.0
  0
LINE
  5
2BB
330
1E
100
AcDbEntity
  8
0
100
AcDbLine
 10
16.7118
 20
281.4959999999999
 30
0.0
 11
20.0
 21
281.9379999999999
 31
0.0
  0
LINE
  5
2BD
330
1E
100
AcDbEntity
  8
0
100
AcDbLine
 10
19.3
 20
259.5239999999999
 30
0.0
 11
20.0
 21
259.8129999999999
 31
0.0
  0
LINE
  5
2BF
330
1E
100
AcDbEntity
  8
0
100
AcDbLine
 10
19.0
 20
258.85
 30
0.0
 11
19.3
 21
258.176
 31
0.0
  0
LINE
  5
2C0
330
1E
100
AcDbEntity
  8
0
100
AcDbLine
 10
19.0
 20
258.85
 30
0.0
 11
19.3
 21
259.5239999999999
 31
0.0
  0
LINE
  5
2C2
330
1E
100
AcDbEntity
  8
0
100
AcDbLine
 10
20.0
 20
259.8129999999999
 30
0.0
 11
20.69999999999999
 21
259.5239999999999
 31
0.0
  0
LINE
  5
2C3
330
1E
100
AcDbEntity
  8
0
100
AcDbLine
 10
19.3
 20
258.176
 30
0.0
 11
20.0
 21
257.8879999999999
 31
0.0
  0
LINE
  5
2C5
330
1E
100
AcDbEntity
  8
0
100
AcDbLine
 10
20.0
 20
257.8879999999999
 30
0.0
 11
20.69999999999999
 21
258.176
 31
0.0
  0
LINE
  5
2C7
330
1E
100
AcDbEntity
  8
0
100
AcDbLine
 10
20.69999999999999
 20
259.5239999999999
 30
0.0
 11
21.0
 21
258.85
 31
0.0
  0
LINE
  5
2C8
330
1E
100
AcDbEntity
  8
0
100
AcDbLine
 10
20.69999999999999
 20
258.176
 30
0.0
 11
21.0
 21
258.85
 31
0.0
  0
LINE
  5
2CF
330
1E
100
AcDbEntity
  8
0
100
AcDbLine
 10
20.8458
 20
262.68
 30
0.0
 11
21.3167
 21
262.104
 31
0.0
  0
LINE
  5
2D0
330
1E
100
AcDbEntity
  8
0
100
AcDbLine
 10
20.8458
 20
262.68
 30
0.0
 11
20.95439999999999
 21
263.406
 31
0.0
  0
LINE
  5
2D1
330
1E
100
AcDbEntity
  8
0
100
AcDbLine
 10
21.3167
 20
262.104
 30
0.0
 11
22.0705
 21
262.0
 31
0.0
  0
LINE
  5
2D3
330
1E
100
AcDbEntity
  8
0
100
AcDbLine
 10
22.0705
 20
262.0
 30
0.0
 11
22.669
 21
262.4529999999999
 31
0.0
  0
LINE
  5
2D4
330
1E
100
AcDbEntity
  8
0
100
AcDbLine
 10
22.669
 20
262.4529999999999
 30
0.0
 11
22.7776
 21
263.179
 31
0.0
  0
LINE
  5
2D5
330
1E
100
AcDbEntity
  8
0
100
AcDbLine
 10
19.3
 20
265.876
 30
0.0
 11
20.0
 21
265.5879999999999
 31
0.0
  0
LINE
  5
2D6
330
1E
100
AcDbEntity
  8
0
100
AcDbLine
 10
20.0
 20
265.5879999999999
 30
0.0
 11
20.69999999999999
 21
265.876
 31
0.0
  0
LINE
  5
2D7
330
1E
100
AcDbEntity
  8
0
100
AcDbLine
 10
16.9019
 20
270.048
 30
0.0
 11
17.6581
 21
269.961
 31
0.0
  0
LINE
  5
2D8
330
1E
100
AcDbEntity
  8
0
100
AcDbLine
 10
18.2679
 20
268.6010029783789
 30
0.0
 11
18.2679
 21
268.475
 31
0.0
  0
LINE
  5
2D9
330
1E
100
AcDbEntity
  8
0
100
AcDbLine
 10
17.9019
 20
267.16
 30
0.0
 11
18.3581
 21
267.747
 31
0.0
  0
LINE
  5
2DA
330
1E
100
AcDbEntity
  8
0
100
AcDbLine
 10
18.3581
 20
267.747
 30
0.0
 11
18.3581
 21
267.9817312288919
 31
0.0
  0
LINE
  5
2DB
330
1E
100
AcDbEntity
  8
0
100
AcDbLine
 10
18.3581
 20
267.9817312288919
 30
0.0
 11
18.3581
 21
267.747
 31
0.0
  0
LINE
  5
2DC
330
1E
100
AcDbEntity
  8
0
100
AcDbLine
 10
18.2679
 20
268.475
 30
0.0
 11
18.3581
 21
267.747
 31
0.0
  0
LINE
  5
2DD
330
1E
100
AcDbEntity
  8
0
100
AcDbLine
 10
18.2679
 20
268.475
 30
0.0
 11
18.2679
 21
268.6010029783789
 31
0.0
  0
LINE
  5
2DE
330
1E
100
AcDbEntity
  8
0
100
AcDbLine
 10
17.6581
 20
269.961
 30
0.0
 11
18.2679
 21
270.3999999999999
 31
0.0
  0
LINE
  5
2DF
330
1E
100
AcDbEntity
  8
0
100
AcDbLine
 10
17.2223
 20
275.6959999999999
 30
0.0
 11
17.33089999999999
 21
276.422
 31
0.0
  0
LINE
  5
2E0
330
1E
100
AcDbEntity
  8
0
100
AcDbLine
 10
17.2223
 20
275.6959999999999
 30
0.0
 11
17.6933
 21
275.12
 31
0.0
  0
LINE
  5
2E1
330
1E
100
AcDbEntity
  8
0
100
AcDbLine
 10
17.33089999999999
 20
276.422
 30
0.0
 11
17.9294
 21
276.875
 31
0.0
  0
LINE
  5
2E2
330
1E
100
AcDbEntity
  8
0
100
AcDbLine
 10
17.1457
 20
271.802
 30
0.0
 11
17.9019
 21
271.7149999999999
 31
0.0
  0
LINE
  5
2E3
330
1E
100
AcDbEntity
  8
0
100
AcDbLine
 10
17.9019
 20
271.7149999999999
 30
0.0
 11
18.3581
 21
271.1279999999999
 31
0.0
  0
LINE
  5
2E4
330
1E
100
AcDbEntity
  8
0
100
AcDbLine
 10
18.2679
 20
270.3999999999999
 30
0.0
 11
18.3581
 21
271.1279999999999
 31
0.0
  0
LINE
  5
2E5
330
1E
100
AcDbEntity
  8
0
100
AcDbLine
 10
18.4471
 20
275.0159999999999
 30
0.0
 11
19.0456
 21
275.469
 31
0.0
  0
LINE
  5
2E6
330
1E
100
AcDbEntity
  8
0
100
AcDbLine
 10
17.6933
 20
275.12
 30
0.0
 11
18.4471
 21
275.0159999999999
 31
0.0
  0
LINE
  5
2E7
330
1E
100
AcDbEntity
  8
0
100
AcDbLine
 10
17.9294
 20
276.9881290864939
 30
0.0
 11
17.9294
 21
276.875
 31
0.0
  0
LINE
  5
2E8
330
1E
100
AcDbEntity
  8
0
100
AcDbLine
 10
17.9294
 20
276.875
 30
0.0
 11
18.68319999999999
 21
276.7709999999999
 31
0.0
  0
LINE
  5
2E9
330
1E
100
AcDbEntity
  8
0
100
AcDbLine
 10
17.9294
 20
276.875
 30
0.0
 11
17.9294
 21
276.9881290864939
 31
0.0
  0
LINE
  5
2EA
330
1E
100
AcDbEntity
  8
0
100
AcDbLine
 10
18.68319999999999
 20
276.7709999999999
 30
0.0
 11
19.1542
 21
276.194
 31
0.0
  0
LINE
  5
2EC
330
1E
100
AcDbEntity
  8
0
100
AcDbLine
 10
19.0
 20
280.0249999999999
 30
0.0
 11
19.3
 21
280.699
 31
0.0
  0
LINE
  5
2ED
330
1E
100
AcDbEntity
  8
0
100
AcDbLine
 10
19.0
 20
280.0249999999999
 30
0.0
 11
19.3
 21
279.3509999999999
 31
0.0
  0
LINE
  5
2EE
330
1E
100
AcDbEntity
  8
0
100
AcDbLine
 10
19.0
 20
272.3249999999999
 30
0.0
 11
19.3
 21
272.999
 31
0.0
  0
LINE
  5
2EF
330
1E
100
AcDbEntity
  8
0
100
AcDbLine
 10
19.0
 20
272.3249999999999
 30
0.0
 11
19.3
 21
271.6509999999999
 31
0.0
  0
LINE
  5
2F0
330
1E
100
AcDbEntity
  8
0
100
AcDbLine
 10
17.6581
 20
268.914
 30
0.0
 11
18.2679
 21
268.475
 31
0.0
  0
LINE
  5
2F1
330
1E
100
AcDbEntity
  8
0
100
AcDbLine
 10
16.9019
 20
268.827
 30
0.0
 11
17.6581
 21
268.914
 31
0.0
  0
LINE
  5
2F2
330
1E
100
AcDbEntity
  8
0
100
AcDbLine
 10
17.1457
 20
267.0729999999999
 30
0.0
 11
17.9019
 21
267.16
 31
0.0
  0
LINE
  5
2F3
330
1E
100
AcDbEntity
  8
0
100
AcDbLine
 10
20.69999999999999
 20
267.2239999999999
 30
0.0
 11
21.0
 21
266.55
 31
0.0
  0
LINE
  5
2F4
330
1E
100
AcDbEntity
  8
0
100
AcDbLine
 10
19.3
 20
271.6509999999999
 30
0.0
 11
20.0
 21
271.362
 31
0.0
  0
LINE
  5
2F5
330
1E
100
AcDbEntity
  8
0
100
AcDbLine
 10
20.0
 20
271.362
 30
0.0
 11
20.69999999999999
 21
271.6509999999999
 31
0.0
  0
LINE
  5
2F6
330
1E
100
AcDbEntity
  8
0
100
AcDbLine
 10
19.3
 20
272.999
 30
0.0
 11
20.0
 21
273.287
 31
0.0
  0
LINE
  5
2F7
330
1E
100
AcDbEntity
  8
0
100
AcDbLine
 10
19.0456
 20
275.469
 30
0.0
 11
19.1542
 21
276.194
 31
0.0
  0
LINE
  5
2F9
330
1E
100
AcDbEntity
  8
0
100
AcDbLine
 10
19.3
 20
279.3509999999999
 30
0.0
 11
20.0
 21
279.062
 31
0.0
  0
LINE
  5
2FB
330
1E
100
AcDbEntity
  8
0
100
AcDbLine
 10
20.0
 20
279.062
 30
0.0
 11
20.69999999999999
 21
279.3509999999999
 31
0.0
  0
LINE
  5
2FC
330
1E
100
AcDbEntity
  8
0
100
AcDbLine
 10
19.3
 20
280.699
 30
0.0
 11
20.0
 21
280.987
 31
0.0
  0
LINE
  5
2FE
330
1E
100
AcDbEntity
  8
0
100
AcDbLine
 10
20.0
 20
280.987
 30
0.0
 11
20.69999999999999
 21
280.699
 31
0.0
  0
LINE
  5
305
330
1E
100
AcDbEntity
  8
0
100
AcDbLine
 10
20.0
 20
273.287
 30
0.0
 11
20.69999999999999
 21
272.999
 31
0.0
  0
LINE
  5
306
330
1E
100
AcDbEntity
  8
0
100
AcDbLine
 10
20.69999999999999
 20
271.6509999999999
 30
0.0
 11
21.0
 21
272.3249999999999
 31
0.0
  0
LINE
  5
307
330
1E
100
AcDbEntity
  8
0
100
AcDbLine
 10
20.69999999999999
 20
279.3509999999999
 30
0.0
 11
21.0
 21
280.0249999999999
 31
0.0
  0
LINE
  5
308
330
1E
100
AcDbEntity
  8
0
100
AcDbLine
 10
20.95439999999999
 20
275.469
 30
0.0
 11
21.5529
 21
275.0159999999999
 31
0.0
  0
LINE
  5
309
330
1E
100
AcDbEntity
  8
0
100
AcDbLine
 10
20.8458
 20
276.194
 30
0.0
 11
21.3167
 21
276.7709999999999
 31
0.0
  0
LINE
  5
30A
330
1E
100
AcDbEntity
  8
0
100
AcDbLine
 10
20.8458
 20
276.194
 30
0.0
 11
20.95439999999999
 21
275.469
 31
0.0
  0
LINE
  5
30B
330
1E
100
AcDbEntity
  8
0
100
AcDbLine
 10
20.69999999999999
 20
280.699
 30
0.0
 11
21.0
 21
280.0249999999999
 31
0.0
  0
LINE
  5
30C
330
1E
100
AcDbEntity
  8
0
100
AcDbLine
 10
20.69999999999999
 20
272.999
 30
0.0
 11
21.0
 21
272.3249999999999
 31
0.0
  0
LINE
  5
30D
330
1E
100
AcDbEntity
  8
0
100
AcDbLine
 10
20.0
 20
267.512
 30
0.0
 11
20.69999999999999
 21
267.2239999999999
 31
0.0
  0
LINE
  5
30E
330
1E
100
AcDbEntity
  8
0
100
AcDbLine
 10
19.3
 20
267.2239999999999
 30
0.0
 11
20.0
 21
267.512
 31
0.0
  0
LINE
  5
30F
330
1E
100
AcDbEntity
  8
0
100
AcDbLine
 10
19.0
 20
266.55
 30
0.0
 11
19.3
 21
265.876
 31
0.0
  0
LINE
  5
310
330
1E
100
AcDbEntity
  8
0
100
AcDbLine
 10
19.0
 20
266.55
 30
0.0
 11
19.3
 21
267.2239999999999
 31
0.0
  0
LINE
  5
311
330
1E
100
AcDbEntity
  8
0
100
AcDbLine
 10
20.69999999999999
 20
265.876
 30
0.0
 11
21.0
 21
266.55
 31
0.0
  0
LINE
  5
312
330
1E
100
AcDbEntity
  8
0
100
AcDbLine
 10
22.30669999999999
 20
263.755
 30
0.0
 11
22.7776
 21
263.179
 31
0.0
  0
LINE
  5
313
330
1E
100
AcDbEntity
  8
0
100
AcDbLine
 10
21.64179999999999
 20
267.981827475239
 30
0.0
 11
21.64179999999999
 21
267.747
 31
0.0
  0
LINE
  5
314
330
1E
100
AcDbEntity
  8
0
100
AcDbLine
 10
21.64179999999999
 20
267.747
 30
0.0
 11
21.732
 21
268.475
 31
0.0
  0
LINE
  5
315
330
1E
100
AcDbEntity
  8
0
100
AcDbLine
 10
21.64179999999999
 20
267.747
 30
0.0
 11
22.098
 21
267.16
 31
0.0
  0
LINE
  5
316
330
1E
100
AcDbEntity
  8
0
100
AcDbLine
 10
21.64179999999999
 20
267.747
 30
0.0
 11
21.64179999999999
 21
267.981827475239
 31
0.0
  0
LINE
  5
317
330
1E
100
AcDbEntity
  8
0
100
AcDbLine
 10
21.732
 20
268.6010584599919
 30
0.0
 11
21.732
 21
268.475
 31
0.0
  0
LINE
  5
318
330
1E
100
AcDbEntity
  8
0
100
AcDbLine
 10
21.732
 20
268.475
 30
0.0
 11
22.34179999999999
 21
268.914
 31
0.0
  0
LINE
  5
319
330
1E
100
AcDbEntity
  8
0
100
AcDbLine
 10
21.732
 20
268.475
 30
0.0
 11
21.732
 21
268.6010584599919
 31
0.0
  0
LINE
  5
31A
330
1E
100
AcDbEntity
  8
0
100
AcDbLine
 10
22.098
 20
267.16
 30
0.0
 11
22.85429999999999
 21
267.0729999999999
 31
0.0
  0
LINE
  5
31B
330
1E
100
AcDbEntity
  8
0
100
AcDbLine
 10
21.64179999999999
 20
271.1279999999999
 30
0.0
 11
21.732
 21
270.3999999999999
 31
0.0
  0
LINE
  5
31C
330
1E
100
AcDbEntity
  8
0
100
AcDbLine
 10
21.64179999999999
 20
271.1279999999999
 30
0.0
 11
22.098
 21
271.7149999999999
 31
0.0
  0
LINE
  5
31D
330
1E
100
AcDbEntity
  8
0
100
AcDbLine
 10
21.732
 20
270.3999999999999
 30
0.0
 11
22.34179999999999
 21
269.961
 31
0.0
  0
LINE
  5
31E
330
1E
100
AcDbEntity
  8
0
100
AcDbLine
 10
22.34179999999999
 20
268.914
 30
0.0
 11
23.098
 21
268.827
 31
0.0
  0
LINE
  5
31F
330
1E
100
AcDbEntity
  8
0
100
AcDbLine
 10
22.34179999999999
 20
269.961
 30
0.0
 11
23.098
 21
270.048
 31
0.0
  0
LINE
  5
320
330
1E
100
AcDbEntity
  8
0
100
AcDbLine
 10
22.098
 20
271.7149999999999
 30
0.0
 11
22.85429999999999
 21
271.802
 31
0.0
  0
LINE
  5
321
330
1E
100
AcDbEntity
  8
0
100
AcDbLine
 10
22.30669999999999
 20
275.12
 30
0.0
 11
22.7776
 21
275.6959999999999
 31
0.0
  0
LINE
  5
322
330
1E
100
AcDbEntity
  8
0
100
AcDbLine
 10
21.5529
 20
275.0159999999999
 30
0.0
 11
22.30669999999999
 21
275.12
 31
0.0
  0
LINE
  5
323
330
1E
100
AcDbEntity
  8
0
100
AcDbLine
 10
21.3167
 20
276.7709999999999
 30
0.0
 11
22.0705
 21
276.875
 31
0.0
  0
LINE
  5
324
330
1E
100
AcDbEntity
  8
0
100
AcDbLine
 10
22.0705
 20
276.987770440252
 30
0.0
 11
22.0705
 21
276.875
 31
0.0
  0
LINE
  5
325
330
1E
100
AcDbEntity
  8
0
100
AcDbLine
 10
22.0705
 20
276.875
 30
0.0
 11
22.669
 21
276.422
 31
0.0
  0
LINE
  5
326
330
1E
100
AcDbEntity
  8
0
100
AcDbLine
 10
22.0705
 20
276.875
 30
0.0
 11
22.0705
 21
276.987770440252
 31
0.0
  0
LINE
  5
327
330
1E
100
AcDbEntity
  8
0
100
AcDbLine
 10
23.098
 20
268.827
 30
0.0
 11
23.5543
 21
268.24
 31
0.0
  0
LINE
  5
328
330
1E
100
AcDbEntity
  8
0
100
AcDbLine
 10
22.85429999999999
 20
267.0729999999999
 30
0.0
 11
23.4641
 21
267.512
 31
0.0
  0
LINE
  5
329
330
1E
100
AcDbEntity
  8
0
100
AcDbLine
 10
23.098
 20
270.048
 30
0.0
 11
23.5543
 21
270.635
 31
0.0
  0
LINE
  5
32A
330
1E
100
AcDbEntity
  8
0
100
AcDbLine
 10
22.85429999999999
 20
271.802
 30
0.0
 11
23.4641
 21
271.362
 31
0.0
  0
LINE
  5
32B
330
1E
100
AcDbEntity
  8
0
100
AcDbLine
 10
22.669
 20
276.422
 30
0.0
 11
22.7776
 21
275.6959999999999
 31
0.0
  0
LINE
  5
32D
330
1E
100
AcDbEntity
  8
0
100
AcDbLine
 10
21.5529
 20
263.859
 30
0.0
 11
22.30669999999999
 21
263.755
 31
0.0
  0
LINE
  5
330
330
1E
100
AcDbEntity
  8
0
100
AcDbLine
 10
20.95439999999999
 20
263.406
 30
0.0
 11
21.5529
 21
263.859
 31
0.0
  0
LINE
  5
335
330
1E
100
AcDbEntity
  8
0
100
AcDbLine
 10
16.7118
 20
257.722
 30
0.0
 11
20.0
 21
257.281
 31
0.0
  0
LINE
  5
336
330
1E
100
AcDbEntity
  8
0
100
AcDbLine
 10
16.6735
 20
257.6319999999999
 30
0.0
 11
20.0
 21
257.1899999999999
 31
0.0
  0
LINE
  5
337
330
1E
100
AcDbEntity
  8
0
100
AcDbLine
 10
23.28819999999999
 20
281.4959999999999
 30
0.0
 11
26.3853
 21
280.281
 31
0.0
  0
LINE
  5
338
330
1E
100
AcDbEntity
  8
0
100
AcDbLine
 10
20.0
 20
281.9379999999999
 30
0.0
 11
23.28819999999999
 21
281.4959999999999
 31
0.0
  0
LINE
  5
339
330
1E
100
AcDbEntity
  8
0
100
AcDbLine
 10
23.28819999999999
 20
257.722
 30
0.0
 11
26.3853
 21
258.937
 31
0.0
  0
LINE
  5
33A
330
1E
100
AcDbEntity
  8
0
100
AcDbLine
 10
20.0
 20
257.281
 30
0.0
 11
23.28819999999999
 21
257.722
 31
0.0
  0
LINE
  5
33B
330
1E
100
AcDbEntity
  8
0
100
AcDbLine
 10
23.4641
 20
267.512
 30
0.0
 11
23.5543
 21
268.24
 31
0.0
  0
LINE
  5
33C
330
1E
100
AcDbEntity
  8
0
100
AcDbLine
 10
23.9598
 20
274.202
 30
0.0
 11
24.2426
 21
273.5209999999999
 31
0.0
  0
LINE
  5
33D
330
1E
100
AcDbEntity
  8
0
100
AcDbLine
 10
23.9598
 20
274.202
 30
0.0
 11
24.2426
 21
274.882
 31
0.0
  0
LINE
  5
33E
330
1E
100
AcDbEntity
  8
0
100
AcDbLine
 10
24.2426
 20
273.5209999999999
 30
0.0
 11
24.9497
 21
273.249
 31
0.0
  0
LINE
  5
33F
330
1E
100
AcDbEntity
  8
0
100
AcDbLine
 10
24.2426
 20
274.882
 30
0.0
 11
24.9497
 21
275.1539999999999
 31
0.0
  0
LINE
  5
340
330
1E
100
AcDbEntity
  8
0
100
AcDbLine
 10
23.4641
 20
271.4842609804449
 30
0.0
 11
23.4641
 21
271.362
 31
0.0
  0
LINE
  5
341
330
1E
100
AcDbEntity
  8
0
100
AcDbLine
 10
23.4641
 20
271.362
 30
0.0
 11
23.5543
 21
270.635
 31
0.0
  0
LINE
  5
342
330
1E
100
AcDbEntity
  8
0
100
AcDbLine
 10
23.4641
 20
271.362
 30
0.0
 11
23.4641
 21
271.4842609804449
 31
0.0
  0
LINE
  5
343
330
1E
100
AcDbEntity
  8
0
100
AcDbLine
 10
23.3265
 20
257.6319999999999
 30
0.0
 11
26.4618
 21
258.8829999999999
 31
0.0
  0
LINE
  5
344
330
1E
100
AcDbEntity
  8
0
100
AcDbLine
 10
20.0
 20
257.1899999999999
 30
0.0
 11
23.3265
 21
257.6319999999999
 31
0.0
  0
LINE
  5
345
330
1E
100
AcDbEntity
  8
0
100
AcDbLine
 10
24.5437
 20
278.36
 30
0.0
 11
25.0
 21
277.7729999999999
 31
0.0
  0
LINE
  5
346
330
1E
100
AcDbEntity
  8
0
100
AcDbLine
 10
24.5437
 20
278.36
 30
0.0
 11
24.6339
 21
279.0879999999999
 31
0.0
  0
LINE
  5
347
330
1E
100
AcDbEntity
  8
0
100
AcDbLine
 10
24.6339
 20
279.0879999999999
 30
0.0
 11
25.2438
 21
279.5269999999999
 31
0.0
  0
LINE
  5
348
330
1E
100
AcDbEntity
  8
0
100
AcDbLine
 10
24.5437
 20
260.515
 30
0.0
 11
25.0
 21
261.102
 31
0.0
  0
LINE
  5
349
330
1E
100
AcDbEntity
  8
0
100
AcDbLine
 10
24.5437
 20
260.515
 30
0.0
 11
24.6339
 21
259.787
 31
0.0
  0
LINE
  5
34A
330
1E
100
AcDbEntity
  8
0
100
AcDbLine
 10
25.0
 20
261.102
 30
0.0
 11
25.7562
 21
261.189
 31
0.0
  0
LINE
  5
34C
330
1E
100
AcDbEntity
  8
0
100
AcDbLine
 10
24.9497
 20
273.249
 30
0.0
 11
25.6568
 21
273.5209999999999
 31
0.0
  0
LINE
  5
34D
330
1E
100
AcDbEntity
  8
0
100
AcDbLine
 10
24.9497
 20
275.1539999999999
 30
0.0
 11
25.6568
 21
274.882
 31
0.0
  0
LINE
  5
34E
330
1E
100
AcDbEntity
  8
0
100
AcDbLine
 10
25.0
 20
277.7729999999999
 30
0.0
 11
25.7562
 21
277.6859999999999
 31
0.0
  0
LINE
  5
34F
330
1E
100
AcDbEntity
  8
0
100
AcDbLine
 10
25.6568
 20
275.0071066055649
 30
0.0
 11
25.6568
 21
274.882
 31
0.0
  0
LINE
  5
350
330
1E
100
AcDbEntity
  8
0
100
AcDbLine
 10
25.6568
 20
273.5209999999999
 30
0.0
 11
25.9397
 21
274.202
 31
0.0
  0
LINE
  5
351
330
1E
100
AcDbEntity
  8
0
100
AcDbLine
 10
25.6568
 20
274.882
 30
0.0
 11
25.9397
 21
274.202
 31
0.0
  0
LINE
  5
352
330
1E
100
AcDbEntity
  8
0
100
AcDbLine
 10
25.6568
 20
274.882
 30
0.0
 11
25.6568
 21
275.0071066055649
 31
0.0
  0
LINE
  5
353
330
1E
100
AcDbEntity
  8
0
100
AcDbLine
 10
25.7955
 20
268.0651342541529
 30
0.0
 11
25.7955
 21
267.9429999999999
 31
0.0
  0
LINE
  5
354
330
1E
100
AcDbEntity
  8
0
100
AcDbLine
 10
25.9041
 20
267.2169999999999
 30
0.0
 11
26.5026
 21
266.764
 31
0.0
  0
LINE
  5
355
330
1E
100
AcDbEntity
  8
0
100
AcDbLine
 10
25.7955
 20
267.9429999999999
 30
0.0
 11
26.2665
 21
268.5189999999999
 31
0.0
  0
LINE
  5
356
330
1E
100
AcDbEntity
  8
0
100
AcDbLine
 10
25.7955
 20
267.9429999999999
 30
0.0
 11
25.9041
 21
267.2169999999999
 31
0.0
  0
LINE
  5
357
330
1E
100
AcDbEntity
  8
0
100
AcDbLine
 10
25.7955
 20
267.9429999999999
 30
0.0
 11
25.7955
 21
268.0651342541529
 31
0.0
  0
LINE
  5
358
330
1E
100
AcDbEntity
  8
0
100
AcDbLine
 10
25.7562
 20
277.6859999999999
 30
0.0
 11
26.366
 21
278.125
 31
0.0
  0
LINE
  5
359
330
1E
100
AcDbEntity
  8
0
100
AcDbLine
 10
26.0
 20
279.4399999999999
 30
0.0
 11
26.4562
 21
278.853
 31
0.0
  0
LINE
  5
35A
330
1E
100
AcDbEntity
  8
0
100
AcDbLine
 10
26.0
 20
279.4399999999999
 30
0.0
 11
26.0
 21
279.5789516152469
 31
0.0
  0
LINE
  5
35B
330
1E
100
AcDbEntity
  8
0
100
AcDbLine
 10
26.0
 20
279.5789516152469
 30
0.0
 11
26.0
 21
279.4399999999999
 31
0.0
  0
LINE
  5
35C
330
1E
100
AcDbEntity
  8
0
100
AcDbLine
 10
25.2438
 20
279.5269999999999
 30
0.0
 11
26.0
 21
279.4399999999999
 31
0.0
  0
LINE
  5
35E
330
1E
100
AcDbEntity
  8
0
100
AcDbLine
 10
25.7562
 20
261.189
 30
0.0
 11
26.366
 21
260.7499999999999
 31
0.0
  0
LINE
  5
35F
330
1E
100
AcDbEntity
  8
0
100
AcDbLine
 10
26.2665
 20
268.5189999999999
 30
0.0
 11
27.0203
 21
268.623
 31
0.0
  0
LINE
  5
360
330
1E
100
AcDbEntity
  8
0
100
AcDbLine
 10
26.366
 20
278.125
 30
0.0
 11
26.4562
 21
278.853
 31
0.0
  0
LINE
  5
361
330
1E
100
AcDbEntity
  8
0
100
AcDbLine
 10
26.366
 20
260.7499999999999
 30
0.0
 11
26.4562
 21
260.0219999999999
 31
0.0
  0
LINE
  5
362
330
1E
100
AcDbEntity
  8
0
100
AcDbLine
 10
26.0
 20
259.4349999999999
 30
0.0
 11
26.4562
 21
260.0219999999999
 31
0.0
  0
LINE
  5
363
330
1E
100
AcDbEntity
  8
0
100
AcDbLine
 10
25.2438
 20
259.348
 30
0.0
 11
26.0
 21
259.4349999999999
 31
0.0
  0
LINE
  5
364
330
1E
100
AcDbEntity
  8
0
100
AcDbLine
 10
24.6339
 20
259.787
 30
0.0
 11
25.2438
 21
259.348
 31
0.0
  0
LINE
  5
365
330
1E
100
AcDbEntity
  8
0
100
AcDbLine
 10
26.3853
 20
280.281
 30
0.0
 11
29.06169999999999
 21
278.3309999999999
 31
0.0
  0
LINE
  5
366
330
1E
100
AcDbEntity
  8
0
100
AcDbLine
 10
27.0203
 20
268.623
 30
0.0
 11
27.6188
 21
268.17
 31
0.0
  0
LINE
  5
367
330
1E
100
AcDbEntity
  8
0
100
AcDbLine
 10
27.7274
 20
267.4449999999999
 30
0.0
 11
27.7274
 21
267.5661617868239
 31
0.0
  0
LINE
  5
368
330
1E
100
AcDbEntity
  8
0
100
AcDbLine
 10
27.7274
 20
267.5661617868239
 30
0.0
 11
27.7274
 21
267.4449999999999
 31
0.0
  0
LINE
  5
369
330
1E
100
AcDbEntity
  8
0
100
AcDbLine
 10
27.6188
 20
268.17
 30
0.0
 11
27.7274
 21
267.4449999999999
 31
0.0
  0
LINE
  5
36A
330
1E
100
AcDbEntity
  8
0
100
AcDbLine
 10
27.2564
 20
266.868
 30
0.0
 11
27.7274
 21
267.4449999999999
 31
0.0
  0
LINE
  5
36B
330
1E
100
AcDbEntity
  8
0
100
AcDbLine
 10
26.5026
 20
266.764
 30
0.0
 11
27.2564
 21
266.868
 31
0.0
  0
LINE
  5
36C
330
1E
100
AcDbEntity
  8
0
100
AcDbLine
 10
26.3853
 20
258.937
 30
0.0
 11
29.06169999999999
 21
260.887
 31
0.0
  0
LINE
  5
36D
330
1E
100
AcDbEntity
  8
0
100
AcDbLine
 10
26.4618
 20
258.8829999999999
 30
0.0
 11
29.1764
 21
260.8709999999999
 31
0.0
  0
LINE
  5
36E
330
1E
100
AcDbEntity
  8
0
100
AcDbLine
 10
24.39989999999999
 20
285.867
 30
0.0
 11
28.5
 21
284.232
 31
0.0
  0
LINE
  5
36F
330
1E
100
AcDbEntity
  8
0
100
AcDbLine
 10
28.5
 20
255.892
 30
0.0
 11
32.0208
 21
258.492
 31
0.0
  0
LINE
  5
370
330
1E
100
AcDbEntity
  8
0
100
AcDbLine
 10
29.06169999999999
 20
260.887
 30
0.0
 11
31.0882
 21
263.4629999999999
 31
0.0
  0
LINE
  5
371
330
1E
100
AcDbEntity
  8
0
100
AcDbLine
 10
29.1764
 20
260.8709999999999
 30
0.0
 11
31.24109999999999
 21
263.483
 31
0.0
  0
LINE
  5
372
330
1E
100
AcDbEntity
  8
0
100
AcDbLine
 10
32.0
 20
257.5234564231869
 30
0.0
 11
32.0
 21
256.2359999999999
 31
0.0
  0
LINE
  5
373
330
1E
100
AcDbEntity
  8
0
100
AcDbLine
 10
32.0
 20
256.2359999999999
 30
0.0
 11
32.0
 21
257.5234564231869
 31
0.0
  0
LINE
  5
374
330
1E
100
AcDbEntity
  8
0
100
AcDbLine
 10
32.0
 20
256.2359999999999
 30
0.0
 11
32.0
 21
230.186
 31
0.0
  0
LINE
  5
375
330
1E
100
AcDbEntity
  8
0
100
AcDbLine
 10
35.5885
 20
261.649
 30
0.0
 11
37.38669999999999
 21
265.8269999999999
 31
0.0
  0
LINE
  5
376
330
1E
100
AcDbEntity
  8
0
100
AcDbLine
 10
32.7279
 20
258.0609999999999
 30
0.0
 11
35.5885
 21
261.649
 31
0.0
  0
LINE
  5
377
330
1E
100
AcDbEntity
  8
0
100
AcDbLine
 10
32.0208
 20
258.492
 30
0.0
 11
34.7224
 21
261.8809999999999
 31
0.0
  0
LINE
  5
378
330
1E
100
AcDbEntity
  8
0
100
AcDbLine
 10
29.7825
 20
263.223
 30
0.0
 11
30.39229999999999
 21
263.663
 31
0.0
  0
LINE
  5
379
330
1E
100
AcDbEntity
  8
0
100
AcDbLine
 10
29.0262
 20
263.31
 30
0.0
 11
29.7825
 21
263.223
 31
0.0
  0
LINE
  5
37A
330
1E
100
AcDbEntity
  8
0
100
AcDbLine
 10
31.0882
 20
263.4629999999999
 30
0.0
 11
32.35
 21
266.444
 31
0.0
  0
LINE
  5
37B
330
1E
100
AcDbEntity
  8
0
100
AcDbLine
 10
28.6602
 20
264.7571813367339
 30
0.0
 11
28.6602
 21
264.625
 31
0.0
  0
LINE
  5
37C
330
1E
100
AcDbEntity
  8
0
100
AcDbLine
 10
28.57
 20
263.897
 30
0.0
 11
28.6602
 21
264.625
 31
0.0
  0
LINE
  5
37D
330
1E
100
AcDbEntity
  8
0
100
AcDbLine
 10
28.57
 20
263.897
 30
0.0
 11
29.0262
 21
263.31
 31
0.0
  0
LINE
  5
37E
330
1E
100
AcDbEntity
  8
0
100
AcDbLine
 10
28.6602
 20
264.625
 30
0.0
 11
29.26999999999999
 21
265.064
 31
0.0
  0
LINE
  5
37F
330
1E
100
AcDbEntity
  8
0
100
AcDbLine
 10
28.6602
 20
264.625
 30
0.0
 11
28.6602
 21
264.7571813367339
 31
0.0
  0
LINE
  5
380
330
1E
100
AcDbEntity
  8
0
100
AcDbLine
 10
30.0
 20
269.562
 30
0.0
 11
30.0
 21
269.437
 31
0.0
  0
LINE
  5
381
330
1E
100
AcDbEntity
  8
0
100
AcDbLine
 10
30.3
 20
268.764
 30
0.0
 11
31.0
 21
268.475
 31
0.0
  0
LINE
  5
382
330
1E
100
AcDbEntity
  8
0
100
AcDbLine
 10
30.0
 20
269.437
 30
0.0
 11
30.3
 21
270.1109999999999
 31
0.0
  0
LINE
  5
383
330
1E
100
AcDbEntity
  8
0
100
AcDbLine
 10
30.0
 20
269.437
 30
0.0
 11
30.3
 21
268.764
 31
0.0
  0
LINE
  5
384
330
1E
100
AcDbEntity
  8
0
100
AcDbLine
 10
30.0
 20
269.437
 30
0.0
 11
30.0
 21
269.562
 31
0.0
  0
LINE
  5
385
330
1E
100
AcDbEntity
  8
0
100
AcDbLine
 10
30.3
 20
270.1109999999999
 30
0.0
 11
31.0
 21
270.3999999999999
 31
0.0
  0
LINE
  5
386
330
1E
100
AcDbEntity
  8
0
100
AcDbLine
 10
29.26999999999999
 20
265.064
 30
0.0
 11
30.0262
 21
264.977
 31
0.0
  0
LINE
  5
387
330
1E
100
AcDbEntity
  8
0
100
AcDbLine
 10
30.0262
 20
264.977
 30
0.0
 11
30.4825
 21
264.3899999999999
 31
0.0
  0
LINE
  5
388
330
1E
100
AcDbEntity
  8
0
100
AcDbLine
 10
31.0
 20
270.3999999999999
 30
0.0
 11
31.69999999999999
 21
270.1109999999999
 31
0.0
  0
LINE
  5
389
330
1E
100
AcDbEntity
  8
0
100
AcDbLine
 10
31.69999999999999
 20
270.1109999999999
 30
0.0
 11
32.0
 21
269.437
 31
0.0
  0
LINE
  5
38A
330
1E
100
AcDbEntity
  8
0
100
AcDbLine
 10
32.0
 20
269.437
 30
0.0
 11
32.0
 21
269.562
 31
0.0
  0
LINE
  5
38B
330
1E
100
AcDbEntity
  8
0
100
AcDbLine
 10
32.0
 20
269.562
 30
0.0
 11
32.0
 21
269.437
 31
0.0
  0
LINE
  5
38C
330
1E
100
AcDbEntity
  8
0
100
AcDbLine
 10
31.69999999999999
 20
268.764
 30
0.0
 11
32.0
 21
269.437
 31
0.0
  0
LINE
  5
38D
330
1E
100
AcDbEntity
  8
0
100
AcDbLine
 10
31.0
 20
268.475
 30
0.0
 11
31.69999999999999
 21
268.764
 31
0.0
  0
LINE
  5
38E
330
1E
100
AcDbEntity
  8
0
100
AcDbLine
 10
30.39229999999999
 20
263.663
 30
0.0
 11
30.4825
 21
264.3899999999999
 31
0.0
  0
LINE
  5
38F
330
1E
100
AcDbEntity
  8
0
100
AcDbLine
 10
28.6602
 20
274.25
 30
0.0
 11
29.26999999999999
 21
273.8109999999999
 31
0.0
  0
LINE
  5
390
330
1E
100
AcDbEntity
  8
0
100
AcDbLine
 10
29.26999999999999
 20
273.8109999999999
 30
0.0
 11
30.0262
 21
273.8979999999999
 31
0.0
  0
LINE
  5
391
330
1E
100
AcDbEntity
  8
0
100
AcDbLine
 10
30.0262
 20
273.8979999999999
 30
0.0
 11
30.4825
 21
274.485
 31
0.0
  0
LINE
  5
392
330
1E
100
AcDbEntity
  8
0
100
AcDbLine
 10
32.35
 20
272.774
 30
0.0
 11
32.80879999999999
 21
269.609
 31
0.0
  0
LINE
  5
393
330
1E
100
AcDbEntity
  8
0
100
AcDbLine
 10
32.35
 20
266.444
 30
0.0
 11
32.80879999999999
 21
269.609
 31
0.0
  0
LINE
  5
394
330
1E
100
AcDbEntity
  8
0
100
AcDbLine
 10
31.24109999999999
 20
263.483
 30
0.0
 11
32.5411
 21
266.5009999999999
 31
0.0
  0
LINE
  5
395
330
1E
100
AcDbEntity
  8
0
100
AcDbLine
 10
33.0
 20
269.7029999999999
 30
0.0
 11
33.0
 21
269.7957209754139
 31
0.0
  0
LINE
  5
396
330
1E
100
AcDbEntity
  8
0
100
AcDbLine
 10
33.0
 20
269.7957209754139
 30
0.0
 11
33.0
 21
269.7029999999999
 31
0.0
  0
LINE
  5
397
330
1E
100
AcDbEntity
  8
0
100
AcDbLine
 10
32.5411
 20
266.5009999999999
 30
0.0
 11
33.0
 21
269.7029999999999
 31
0.0
  0
LINE
  5
398
330
1E
100
AcDbEntity
  8
0
100
AcDbLine
 10
34.7224
 20
261.8809999999999
 30
0.0
 11
36.42069999999999
 21
265.8269999999999
 31
0.0
  0
LINE
  5
399
330
1E
100
AcDbEntity
  8
0
100
AcDbLine
 10
39.3185
 20
271.574
 30
0.0
 11
40.0
 21
276.5559999999999
 31
0.0
  0
LINE
  5
39A
330
1E
100
AcDbEntity
  8
0
100
AcDbLine
 10
38.3526
 20
268.825
 30
0.0
 11
39.3185
 21
271.574
 31
0.0
  0
LINE
  5
39B
330
1E
100
AcDbEntity
  8
0
100
AcDbLine
 10
37.38669999999999
 20
265.8269999999999
 30
0.0
 11
38.3526
 21
268.825
 31
0.0
  0
LINE
  5
39C
330
1E
100
AcDbEntity
  8
0
100
AcDbLine
 10
37.38669999999999
 20
265.8269999999999
 30
0.0
 11
38.0
 21
270.312
 31
0.0
  0
LINE
  5
39D
330
1E
100
AcDbEntity
  8
0
100
AcDbLine
 10
36.42069999999999
 20
265.8269999999999
 30
0.0
 11
37.0
 21
270.062
 31
0.0
  0
LINE
  5
39E
330
1E
100
AcDbEntity
  8
0
100
AcDbLine
 10
28.57
 20
274.978
 30
0.0
 11
28.6602
 21
274.25
 31
0.0
  0
LINE
  5
39F
330
1E
100
AcDbEntity
  8
0
100
AcDbLine
 10
28.57
 20
274.978
 30
0.0
 11
29.0262
 21
275.565
 31
0.0
  0
LINE
  5
3A0
330
1E
100
AcDbEntity
  8
0
100
AcDbLine
 10
30.39229999999999
 20
275.3287829413349
 30
0.0
 11
30.39229999999999
 21
275.212
 31
0.0
  0
LINE
  5
3A1
330
1E
100
AcDbEntity
  8
0
100
AcDbLine
 10
30.39229999999999
 20
275.212
 30
0.0
 11
30.4825
 21
274.485
 31
0.0
  0
LINE
  5
3A2
330
1E
100
AcDbEntity
  8
0
100
AcDbLine
 10
30.39229999999999
 20
275.212
 30
0.0
 11
30.39229999999999
 21
275.3287829413349
 31
0.0
  0
LINE
  5
3A3
330
1E
100
AcDbEntity
  8
0
100
AcDbLine
 10
29.7825
 20
275.652
 30
0.0
 11
30.39229999999999
 21
275.212
 31
0.0
  0
LINE
  5
3A4
330
1E
100
AcDbEntity
  8
0
100
AcDbLine
 10
29.0262
 20
275.565
 30
0.0
 11
29.7825
 21
275.652
 31
0.0
  0
LINE
  5
3A5
330
1E
100
AcDbEntity
  8
0
100
AcDbLine
 10
31.0882
 20
275.755
 30
0.0
 11
32.35
 21
272.774
 31
0.0
  0
LINE
  5
3A6
330
1E
100
AcDbEntity
  8
0
100
AcDbLine
 10
37.38669999999999
 20
274.7959999999999
 30
0.0
 11
38.0
 21
270.312
 31
0.0
  0
LINE
  5
3A7
330
1E
100
AcDbEntity
  8
0
100
AcDbLine
 10
29.06169999999999
 20
278.3309999999999
 30
0.0
 11
31.0882
 21
275.755
 31
0.0
  0
LINE
  5
3A8
330
1E
100
AcDbEntity
  8
0
100
AcDbLine
 10
39.3185
 20
281.538
 30
0.0
 11
40.0
 21
276.5559999999999
 31
0.0
  0
LINE
  5
3A9
330
1E
100
AcDbEntity
  8
0
100
AcDbLine
 10
35.5885
 20
278.974
 30
0.0
 11
37.38669999999999
 21
274.7959999999999
 31
0.0
  0
LINE
  5
3AA
330
1E
100
AcDbEntity
  8
0
100
AcDbLine
 10
32.7279
 20
282.562
 30
0.0
 11
35.5885
 21
278.974
 31
0.0
  0
LINE
  5
3AB
330
1E
100
AcDbEntity
  8
0
100
AcDbLine
 10
32.0208
 20
281.632
 30
0.0
 11
34.7224
 21
278.243
 31
0.0
  0
LINE
  5
3AC
330
1E
100
AcDbEntity
  8
0
100
AcDbLine
 10
34.7224
 20
278.243
 30
0.0
 11
36.42069999999999
 21
274.297
 31
0.0
  0
LINE
  5
3AD
330
1E
100
AcDbEntity
  8
0
100
AcDbLine
 10
29.0
 20
285.3149999999999
 30
0.0
 11
32.7279
 21
282.562
 31
0.0
  0
LINE
  5
3AE
330
1E
100
AcDbEntity
  8
0
100
AcDbLine
 10
36.42069999999999
 20
274.297
 30
0.0
 11
37.0
 21
270.062
 31
0.0
  0
LINE
  5
3AF
330
1E
100
AcDbEntity
  8
0
100
AcDbLine
 10
28.5
 20
284.232
 30
0.0
 11
32.0208
 21
281.632
 31
0.0
  0
LINE
  5
3B0
330
1E
100
AcDbEntity
  8
0
100
AcDbLine
 10
20.0
 20
286.424
 30
0.0
 11
24.39989999999999
 21
285.867
 31
0.0
  0
LINE
  5
3B1
330
1E
100
AcDbEntity
  8
0
100
AcDbLine
 10
24.6587
 20
287.047
 30
0.0
 11
29.0
 21
285.3149999999999
 31
0.0
  0
LINE
  5
3B2
330
1E
100
AcDbEntity
  8
0
100
AcDbLine
 10
20.0
 20
287.637
 30
0.0
 11
24.6587
 21
287.047
 31
0.0
  0
LINE
  5
3B3
330
1E
100
AcDbEntity
  8
0
100
AcDbLine
 10
37.3205
 20
286.1809999999999
 30
0.0
 11
39.3185
 21
281.538
 31
0.0
  0
LINE
  5
3B4
330
1E
100
AcDbEntity
  8
0
100
AcDbLine
 10
34.1421
 20
290.168
 30
0.0
 11
37.3205
 21
286.1809999999999
 31
0.0
  0
LINE
  5
3B5
330
1E
100
AcDbEntity
  8
0
100
AcDbLine
 10
30.0
 20
293.227
 30
0.0
 11
34.1421
 21
290.168
 31
0.0
  0
LINE
  5
3B6
330
1E
100
AcDbEntity
  8
0
100
AcDbLine
 10
25.1764
 20
295.151
 30
0.0
 11
30.0
 21
293.227
 31
0.0
  0
LINE
  5
3B7
330
1E
100
AcDbEntity
  8
0
100
AcDbLine
 10
15.6001
 20
285.867
 30
0.0
 11
20.0
 21
286.424
 31
0.0
  0
LINE
  5
3B8
330
1E
100
AcDbEntity
  8
0
100
AcDbLine
 10
15.3413
 20
287.047
 30
0.0
 11
20.0
 21
287.637
 31
0.0
  0
LINE
  5
3B9
330
1E
100
AcDbEntity
  8
0
100
AcDbLine
 10
20.0
 20
295.8059999999999
 30
0.0
 11
25.1764
 21
295.151
 31
0.0
  0
LINE
  5
3BA
330
1E
100
AcDbEntity
  8
0
100
AcDbLine
 10
14.8236
 20
295.151
 30
0.0
 11
20.0
 21
295.8059999999999
 31
0.0
  0
LINE
  5
3BB
330
1E
100
AcDbEntity
  8
0
100
AcDbLine
 10
11.5
 20
255.892
 30
0.0
 11
15.6001
 21
254.2569999999999
 31
0.0
  0
LINE
  5
3BC
330
1E
100
AcDbEntity
  8
0
100
AcDbLine
 10
11.0
 20
255.308
 30
0.0
 11
15.3413
 21
253.5769999999999
 31
0.0
  0
LINE
  5
3BD
330
1E
100
AcDbEntity
  8
0
100
AcDbLine
 10
8.0
 20
174.359
 30
0.0
 11
8.0
 21
140.772
 31
0.0
  0
LINE
  5
3BE
330
1E
100
AcDbEntity
  8
0
100
AcDbLine
 10
8.0
 20
174.359
 30
0.0
 11
8.0
 21
203.472
 31
0.0
  0
LINE
  5
4E3
330
1E
100
AcDbEntity
  8
0
100
AcDbLine
 10
185.857
 20
0.193999999999968
 30
0.0
 11
187.462
 21
0.193999999999968
 31
0.0
  0
LINE
  5
4E5
330
1E
100
AcDbEntity
  8
0
100
AcDbLine
 10
190.384
 20
0.193999999999966
 30
0.0
 11
192.6399999999999
 21
0.193999999999966
 31
0.0
  0
LINE
  5
4E6
330
1E
100
AcDbEntity
  8
0
100
AcDbLine
 10
187.62
 20
0.193999999999965
 30
0.0
 11
190.384
 21
0.193999999999966
 31
0.0
  0
LINE
  5
4E7
330
1E
100
AcDbEntity
  8
0
100
AcDbLine
 10
190.4379999999999
 20
0.193999999999965
 30
0.0
 11
191.779
 21
0.193999999999965
 31
0.0
  0
LINE
  5
4E8
330
1E
100
AcDbEntity
  8
0
100
AcDbLine
 10
188.5049999999999
 20
0.193999999999965
 30
0.0
 11
190.4379999999999
 21
0.193999999999965
 31
0.0
  0
LINE
  5
4E9
330
1E
100
AcDbEntity
  8
0
100
AcDbLine
 10
191.779
 20
0.193999999999965
 30
0.0
 11
193.0049999999999
 21
0.193999999999966
 31
0.0
  0
LINE
  5
4EA
330
1E
100
AcDbEntity
  8
0
100
AcDbLine
 10
190.7829999999999
 20
0.193999999999967
 30
0.0
 11
192.951
 21
0.193999999999967
 31
0.0
  0
LINE
  5
4EB
330
1E
100
AcDbEntity
  8
0
100
AcDbLine
 10
192.951
 20
0.193999999999967
 30
0.0
 11
194.534
 21
0.193999999999967
 31
0.0
  0
LINE
  5
4EC
330
1E
100
AcDbEntity
  8
0
100
AcDbLine
 10
192.6399999999999
 20
0.193999999999966
 30
0.0
 11
194.32
 21
0.193999999999966
 31
0.0
  0
LINE
  5
4ED
330
1E
100
AcDbEntity
  8
0
100
AcDbLine
 10
193.0049999999999
 20
0.193999999999966
 30
0.0
 11
194.106
 21
0.193999999999966
 31
0.0
  0
LINE
  5
4EE
330
1E
100
AcDbEntity
  8
0
100
AcDbLine
 10
194.534
 20
0.193999999999967
 30
0.0
 11
195.4809999999999
 21
0.193999999999967
 31
0.0
  0
LINE
  5
4EF
330
1E
100
AcDbEntity
  8
0
100
AcDbLine
 10
194.32
 20
0.193999999999966
 30
0.0
 11
195.373
 21
0.193999999999966
 31
0.0
  0
LINE
  5
4F0
330
1E
100
AcDbEntity
  8
0
100
AcDbLine
 10
194.106
 20
0.193999999999966
 30
0.0
 11
195.074
 21
0.193999999999966
 31
0.0
  0
LINE
  5
4F1
330
1E
100
AcDbEntity
  8
0
100
AcDbLine
 10
193.7359999999999
 20
0.193999999999967
 30
0.0
 11
195.437
 21
0.193999999999967
 31
0.0
  0
LINE
  5
4F2
330
1E
100
AcDbEntity
  8
0
100
AcDbLine
 10
188.095
 20
0.193999999999967
 30
0.0
 11
190.7829999999999
 21
0.193999999999967
 31
0.0
  0
LINE
  5
4F3
330
1E
100
AcDbEntity
  8
0
100
AcDbLine
 10
192.1909999999999
 20
0.193999999999967
 30
0.0
 11
193.7359999999999
 21
0.193999999999967
 31
0.0
  0
LINE
  5
4F4
330
1E
100
AcDbEntity
  8
0
100
AcDbLine
 10
195.904
 20
0.193999999999966
 30
0.0
 11
196.5929999999999
 21
0.193999999999966
 31
0.0
  0
LINE
  5
4F5
330
1E
100
AcDbEntity
  8
0
100
AcDbLine
 10
195.373
 20
0.193999999999966
 30
0.0
 11
195.763
 21
0.193999999999966
 31
0.0
  0
LINE
  5
4F6
330
1E
100
AcDbEntity
  8
0
100
AcDbLine
 10
195.4809999999999
 20
0.193999999999967
 30
0.0
 11
195.763
 21
0.193999999999966
 31
0.0
  0
LINE
  5
4F7
330
1E
100
AcDbEntity
  8
0
100
AcDbLine
 10
196.704
 20
0.193999999999967
 30
0.0
 11
197.583
 21
0.193999999999967
 31
0.0
  0
LINE
  5
4F8
330
1E
100
AcDbEntity
  8
0
100
AcDbLine
 10
195.437
 20
0.193999999999967
 30
0.0
 11
196.704
 21
0.193999999999967
 31
0.0
  0
LINE
  5
4F9
330
1E
100
AcDbEntity
  8
0
100
AcDbLine
 10
197.83
 20
0.193999999999966
 30
0.0
 11
197.981
 21
0.193999999999966
 31
0.0
  0
LINE
  5
4FA
330
1E
100
AcDbEntity
  8
0
100
AcDbLine
 10
197.552
 20
0.193999999999966
 30
0.0
 11
197.83
 21
0.193999999999966
 31
0.0
  0
LINE
  5
4FB
330
1E
100
AcDbEntity
  8
0
100
AcDbLine
 10
197.583
 20
0.193999999999967
 30
0.0
 11
197.981
 21
0.193999999999966
 31
0.0
  0
LINE
  5
4FC
330
1E
100
AcDbEntity
  8
0
100
AcDbLine
 10
197.1409999999999
 20
0.193999999999966
 30
0.0
 11
197.552
 21
0.193999999999966
 31
0.0
  0
LINE
  5
4FD
330
1E
100
AcDbEntity
  8
0
100
AcDbLine
 10
196.5929999999999
 20
0.193999999999966
 30
0.0
 11
197.1409999999999
 21
0.193999999999966
 31
0.0
  0
LINE
  5
4FE
330
1E
100
AcDbEntity
  8
0
100
AcDbLine
 10
195.074
 20
0.193999999999966
 30
0.0
 11
195.904
 21
0.193999999999966
 31
0.0
  0
LINE
  5
508
330
1E
100
AcDbEntity
  8
0
100
AcDbLine
 10
188.994
 20
0.193999999999968
 30
0.0
 11
190.4379999999999
 21
0.193999999999967
 31
0.0
  0
LINE
  5
509
330
1E
100
AcDbEntity
  8
0
100
AcDbLine
 10
187.462
 20
0.193999999999968
 30
0.0
 11
188.994
 21
0.193999999999968
 31
0.0
  0
LINE
  5
50A
330
1E
100
AcDbEntity
  8
0
100
AcDbLine
 10
190.4379999999999
 20
0.193999999999967
 30
0.0
 11
192.1909999999999
 21
0.193999999999967
 31
0.0
  0
LINE
  5
50B
330
1E
100
AcDbEntity
  8
0
100
AcDbLine
 10
186.4279999999999
 20
0.193999999999965
 30
0.0
 11
188.5049999999999
 21
0.193999999999965
 31
0.0
  0
LINE
  5
893
330
1E
100
AcDbEntity
  8
0
100
AcDbLine
 10
188.4860565839737
 20
164.1553963738364
 30
0.0
 11
192.0613117122208
 21
165.4849376265798
 31
0.0
  0
LINE
  5
894
330
1E
100
AcDbEntity
  8
0
100
AcDbLine
 10
192.0613117122208
 20
165.4849376265798
 30
0.0
 11
194.3213999999999
 21
167.5629999999999
 31
0.0
  0
LINE
  5
895
330
1E
100
AcDbEntity
  8
0
100
AcDbLine
 10
176.9354799327267
 20
162.5491112511888
 30
0.0
 11
181.6130738949296
 21
162.9751605917301
 31
0.0
  0
LINE
  5
896
330
1E
100
AcDbEntity
  8
0
100
AcDbLine
 10
181.6130738949296
 20
162.9751605917301
 30
0.0
 11
188.4860565839737
 21
164.1553963738364
 31
0.0
  0
LINE
  5
897
330
1E
100
AcDbEntity
  8
0
100
AcDbLine
 10
170.0371999999999
 20
172.1769999999999
 30
0.0
 11
177.9248
 21
172.1769999999999
 31
0.0
  0
LINE
  5
898
330
1E
100
AcDbEntity
  8
0
100
AcDbLine
 10
155.9616619580574
 20
165.8507160917901
 30
0.0
 11
153.7226499999999
 21
167.7589999999999
 31
0.0
  0
LINE
  5
899
330
1E
100
AcDbEntity
  8
0
100
AcDbLine
 10
159.5092427446401
 20
164.4490029480003
 30
0.0
 11
155.9616619580574
 21
165.8507160917901
 31
0.0
  0
LINE
  5
89A
330
1E
100
AcDbEntity
  8
0
100
AcDbLine
 10
166.3568993813836
 20
163.1297432576714
 30
0.0
 11
159.5092427446401
 21
164.4490029480003
 31
0.0
  0
LINE
  5
89B
330
1E
100
AcDbEntity
  8
0
100
AcDbLine
 10
171.0249
 20
162.6089999999999
 30
0.0
 11
166.3568993813836
 21
163.1297432576714
 31
0.0
  0
LINE
  5
89C
330
1E
100
AcDbEntity
  8
0
100
AcDbLine
 10
182.033
 20
96.95529999999997
 30
0.0
 11
182.6323
 21
97.34599999999998
 31
0.0
  0
LINE
  5
89D
330
1E
100
AcDbEntity
  8
0
100
AcDbLine
 10
182.6323
 20
97.34599999999998
 30
0.0
 11
183.1418
 21
97.76139999999998
 31
0.0
  0
LINE
  5
89E
330
1E
100
AcDbEntity
  8
0
100
AcDbLine
 10
185.8992999999999
 20
99.57359999999997
 30
0.0
 11
185.9809999999999
 21
100.0988999999999
 31
0.0
  0
LINE
  5
89F
330
1E
100
AcDbEntity
  8
0
100
AcDbLine
 10
185.9809999999999
 20
100.3589999999999
 30
0.0
 11
185.9809999999999
 21
105.7889999999999
 31
0.0
  0
LINE
  5
8A0
330
1E
100
AcDbEntity
  8
0
100
AcDbLine
 10
185.9809999999999
 20
100.3589999999999
 30
0.0
 11
185.9809999999999
 21
100.0988999999999
 31
0.0
  0
LINE
  5
8A1
330
1E
100
AcDbEntity
  8
0
100
AcDbLine
 10
185.9809999999999
 20
105.7889999999999
 30
0.0
 11
185.9809999999999
 21
100.3589999999999
 31
0.0
  0
LINE
  5
8A2
330
1E
100
AcDbEntity
  8
0
100
AcDbLine
 10
187.8498
 20
100.6179999999999
 30
0.0
 11
189.7411999999999
 21
102.1009999999999
 31
0.0
  0
LINE
  5
8A3
330
1E
100
AcDbEntity
  8
0
100
AcDbLine
 10
186.2056999999999
 20
127.9089999999999
 30
0.0
 11
188.3231999999999
 21
127.9079999999999
 31
0.0
  0
LINE
  5
8A4
330
1E
100
AcDbEntity
  8
0
100
AcDbLine
 10
193.1134999999999
 20
105.9759999999999
 30
0.0
 11
193.6849999999999
 21
107.0639999999999
 31
0.0
  0
LINE
  5
8A5
330
1E
100
AcDbEntity
  8
0
100
AcDbLine
 10
194.4534011627906
 20
114.9860266217869
 30
0.0
 11
194.4565
 21
115.0709999999999
 31
0.0
  0
LINE
  5
8A6
330
1E
100
AcDbEntity
  8
0
100
AcDbLine
 10
194.5294999999999
 20
116.1459999999999
 30
0.0
 11
194.5955999999999
 21
116.4829999999999
 31
0.0
  0
LINE
  5
8A7
330
1E
100
AcDbEntity
  8
0
100
AcDbLine
 10
194.5955999999999
 20
116.4829999999999
 30
0.0
 11
194.6286
 21
116.5479999999999
 31
0.0
  0
LINE
  5
8A8
330
1E
100
AcDbEntity
  8
0
100
AcDbLine
 10
195.5103
 20
127.1149999999999
 30
0.0
 11
195.5453
 21
126.6149999999999
 31
0.0
  0
LINE
  5
8A9
330
1E
100
AcDbEntity
  8
0
100
AcDbLine
 10
195.9635999999999
 20
167.408
 30
0.0
 11
195.9915999999999
 21
166.8429999999999
 31
0.0
  0
LINE
  5
8AA
330
1E
100
AcDbEntity
  8
0
100
AcDbLine
 10
195.7384
 20
167.8929999999999
 30
0.0
 11
195.9044999999999
 21
167.6319999999999
 31
0.0
  0
LINE
  5
8AB
330
1E
100
AcDbEntity
  8
0
100
AcDbLine
 10
195.4771999999999
 20
168.0629999999999
 30
0.0
 11
195.7384
 21
167.8929999999999
 31
0.0
  0
LINE
  5
8AC
330
1E
100
AcDbEntity
  8
0
100
AcDbLine
 10
195.9044999999999
 20
167.6319999999999
 30
0.0
 11
195.9635999999999
 21
167.408
 31
0.0
  0
LINE
  5
8AD
330
1E
100
AcDbEntity
  8
0
100
AcDbLine
 10
195.9986
 20
142.5799999999999
 30
0.0
 11
195.9915999999999
 21
166.8429999999999
 31
0.0
  0
LINE
  5
8AE
330
1E
100
AcDbEntity
  8
0
100
AcDbLine
 10
195.9986
 20
142.5799999999999
 30
0.0
 11
196.0026
 21
130.9119999999999
 31
0.0
  0
LINE
  5
8AF
330
1E
100
AcDbEntity
  8
0
100
AcDbLine
 10
195.5002
 20
130.4139999999999
 30
0.0
 11
195.7504
 21
130.4799999999999
 31
0.0
  0
LINE
  5
8B0
330
1E
100
AcDbEntity
  8
0
100
AcDbLine
 10
195.9334999999999
 20
130.6639999999999
 30
0.0
 11
196.0026
 21
130.9119999999999
 31
0.0
  0
LINE
  5
8B1
330
1E
100
AcDbEntity
  8
0
100
AcDbLine
 10
195.9915999999999
 20
166.8429999999999
 30
0.0
 11
195.9986
 21
142.5799999999999
 31
0.0
  0
LINE
  5
8B2
330
1E
100
AcDbEntity
  8
0
100
AcDbLine
 10
195.7504
 20
130.4799999999999
 30
0.0
 11
195.9334999999999
 21
130.6639999999999
 31
0.0
  0
LINE
  5
8B3
330
1E
100
AcDbEntity
  8
0
100
AcDbLine
 10
195.5453
 20
126.6149999999999
 30
0.0
 11
196.0466
 21
101.1089999999999
 31
0.0
  0
LINE
  5
8B4
330
1E
100
AcDbEntity
  8
0
100
AcDbLine
 10
195.5453
 20
126.6149999999999
 30
0.0
 11
196.0466
 21
101.1089999999999
 31
0.0
  0
LINE
  5
8B5
330
1E
100
AcDbEntity
  8
0
100
AcDbLine
 10
194.8827999999999
 20
127.8499999999999
 30
0.0
 11
195.0738999999999
 21
127.7719999999999
 31
0.0
  0
LINE
  5
8B6
330
1E
100
AcDbEntity
  8
0
100
AcDbLine
 10
195.218
 20
130.4139999999999
 30
0.0
 11
195.4031999999999
 21
130.4139999999999
 31
0.0
  0
LINE
  5
8B7
330
1E
100
AcDbEntity
  8
0
100
AcDbLine
 10
195.4031999999999
 20
130.4139999999999
 30
0.0
 11
195.5002
 21
130.4139999999999
 31
0.0
  0
LINE
  5
8B8
330
1E
100
AcDbEntity
  8
0
100
AcDbLine
 10
195.2481
 20
168.1289999999999
 30
0.0
 11
195.4701999999999
 21
168.0669999999999
 31
0.0
  0
LINE
  5
8B9
330
1E
100
AcDbEntity
  8
0
100
AcDbLine
 10
195.1759999999999
 20
168.1359999999999
 30
0.0
 11
195.2481
 21
168.1289999999999
 31
0.0
  0
LINE
  5
8BA
330
1E
100
AcDbEntity
  8
0
100
AcDbLine
 10
194.5985999999999
 20
168.1759999999999
 30
0.0
 11
195.1759999999999
 21
168.1359999999999
 31
0.0
  0
LINE
  5
8BB
330
1E
100
AcDbEntity
  8
0
100
AcDbLine
 10
195.0738999999999
 20
127.7719999999999
 30
0.0
 11
195.3030999999999
 21
127.5859999999999
 31
0.0
  0
LINE
  5
8BC
330
1E
100
AcDbEntity
  8
0
100
AcDbLine
 10
195.3030999999999
 20
127.5859999999999
 30
0.0
 11
195.3491
 21
127.5079999999999
 31
0.0
  0
LINE
  5
8BD
330
1E
100
AcDbEntity
  8
0
100
AcDbLine
 10
195.3030999999999
 20
127.5859999999999
 30
0.0
 11
195.4542
 21
127.3249999999999
 31
0.0
  0
LINE
  5
8BE
330
1E
100
AcDbEntity
  8
0
100
AcDbLine
 10
195.4542
 20
127.3249999999999
 30
0.0
 11
195.5103
 21
127.1149999999999
 31
0.0
  0
LINE
  5
8BF
330
1E
100
AcDbEntity
  8
0
100
AcDbLine
 10
194.5355999999999
 20
127.9049999999999
 30
0.0
 11
194.8827999999999
 21
127.8499999999999
 31
0.0
  0
LINE
  5
8C0
330
1E
100
AcDbEntity
  8
0
100
AcDbLine
 10
194.5205999999999
 20
130.4139999999999
 30
0.0
 11
195.1089999999999
 21
130.4139999999999
 31
0.0
  0
LINE
  5
8C1
330
1E
100
AcDbEntity
  8
0
100
AcDbLine
 10
194.4827680711679
 20
115.8107993746739
 30
0.0
 11
194.5294999999999
 21
116.1459999999999
 31
0.0
  0
LINE
  5
8C2
330
1E
100
AcDbEntity
  8
0
100
AcDbLine
 10
194.4395
 20
114.4789999999999
 30
0.0
 11
194.4827680711679
 21
115.8107993746739
 31
0.0
  0
LINE
  5
8C3
330
1E
100
AcDbEntity
  8
0
100
AcDbLine
 10
193.1766
 20
127.9089999999999
 30
0.0
 11
193.778
 21
127.9099999999999
 31
0.0
  0
LINE
  5
8C4
330
1E
100
AcDbEntity
  8
0
100
AcDbLine
 10
193.778
 20
127.9099999999999
 30
0.0
 11
194.2033
 21
127.9109999999999
 31
0.0
  0
LINE
  5
8C5
330
1E
100
AcDbEntity
  8
0
100
AcDbLine
 10
194.2033
 20
127.9109999999999
 30
0.0
 11
194.4205
 21
127.9099999999999
 31
0.0
  0
LINE
  5
8C6
330
1E
100
AcDbEntity
  8
0
100
AcDbLine
 10
194.2853999999999
 20
129.0029999999999
 30
0.0
 11
194.3414715532118
 21
127.9103638510439
 31
0.0
  0
LINE
  5
8C7
330
1E
100
AcDbEntity
  8
0
100
AcDbLine
 10
194.2984
 20
168.1879999999999
 30
0.0
 11
194.5985999999999
 21
168.1759999999999
 31
0.0
  0
LINE
  5
8C8
330
1E
100
AcDbEntity
  8
0
100
AcDbLine
 10
193.3747
 20
170.7049999999999
 30
0.0
 11
193.4998
 21
170.5489999999999
 31
0.0
  0
LINE
  5
8C9
330
1E
100
AcDbEntity
  8
0
100
AcDbLine
 10
193.4998
 20
170.5489999999999
 30
0.0
 11
193.6669
 21
170.3069999999999
 31
0.0
  0
LINE
  5
8CA
330
1E
100
AcDbEntity
  8
0
100
AcDbLine
 10
193.824
 20
169.788
 30
0.0
 11
193.9250999999999
 21
169.0479999999999
 31
0.0
  0
LINE
  5
8CB
330
1E
100
AcDbEntity
  8
0
100
AcDbLine
 10
193.7629999999999
 20
169.9989999999999
 30
0.0
 11
193.824
 21
169.788
 31
0.0
  0
LINE
  5
8CC
330
1E
100
AcDbEntity
  8
0
100
AcDbLine
 10
193.6669
 20
170.3069999999999
 30
0.0
 11
193.7629999999999
 21
169.9989999999999
 31
0.0
  0
LINE
  5
8CD
330
1E
100
AcDbEntity
  8
0
100
AcDbLine
 10
194.1007202288769
 20
168.0944189394059
 30
0.0
 11
194.1933
 21
167.7949999999999
 31
0.0
  0
LINE
  5
8CE
330
1E
100
AcDbEntity
  8
0
100
AcDbLine
 10
194.1933
 20
167.7949999999999
 30
0.0
 11
194.3213999999999
 21
167.5629999999999
 31
0.0
  0
LINE
  5
8CF
330
1E
100
AcDbEntity
  8
0
100
AcDbLine
 10
194.0491999999999
 20
168.3269999999999
 30
0.0
 11
194.1007202288769
 21
168.0944189394059
 31
0.0
  0
LINE
  5
8D0
330
1E
100
AcDbEntity
  8
0
100
AcDbLine
 10
193.9250999999999
 20
169.0479999999999
 30
0.0
 11
193.9751999999999
 21
168.7339999999999
 31
0.0
  0
LINE
  5
8D1
330
1E
100
AcDbEntity
  8
0
100
AcDbLine
 10
193.9751999999999
 20
168.7339999999999
 30
0.0
 11
194.0491999999999
 21
168.3269999999999
 31
0.0
  0
LINE
  5
8D2
330
1E
100
AcDbEntity
  8
0
100
AcDbLine
 10
193.6839999999999
 20
130.4139999999999
 30
0.0
 11
194.5205999999999
 21
130.4139999999999
 31
0.0
  0
LINE
  5
8D3
330
1E
100
AcDbEntity
  8
0
100
AcDbLine
 10
194.0651363372093
 20
130.4139999999999
 30
0.0
 11
194.2853999999999
 21
129.0029999999999
 31
0.0
  0
LINE
  5
8D4
330
1E
100
AcDbEntity
  8
0
100
AcDbLine
 10
194.0786292371053
 20
168.194145714846
 30
0.0
 11
194.2984
 21
168.1879999999999
 31
0.0
  0
LINE
  5
8D5
330
1E
100
AcDbEntity
  8
0
100
AcDbLine
 10
194.4205
 20
127.9099999999999
 30
0.0
 11
194.5355999999999
 21
127.9049999999999
 31
0.0
  0
LINE
  5
8D6
330
1E
100
AcDbEntity
  8
0
100
AcDbLine
 10
191.8827
 20
127.9079999999999
 30
0.0
 11
193.1766
 21
127.9089999999999
 31
0.0
  0
LINE
  5
8D7
330
1E
100
AcDbEntity
  8
0
100
AcDbLine
 10
193.0584999999999
 20
170.9429999999999
 30
0.0
 11
193.3747
 21
170.7049999999999
 31
0.0
  0
LINE
  5
8D8
330
1E
100
AcDbEntity
  8
0
100
AcDbLine
 10
189.7110999999999
 20
171.7269999999999
 30
0.0
 11
190.7128
 21
171.6419999999999
 31
0.0
  0
LINE
  5
8D9
330
1E
100
AcDbEntity
  8
0
100
AcDbLine
 10
192.8473999999999
 20
171.0569999999999
 30
0.0
 11
193.0584999999999
 21
170.9429999999999
 31
0.0
  0
LINE
  5
8DA
330
1E
100
AcDbEntity
  8
0
100
AcDbLine
 10
191.1911999999999
 20
171.5739999999999
 30
0.0
 11
191.8516999999999
 21
171.4369999999999
 31
0.0
  0
LINE
  5
8DB
330
1E
100
AcDbEntity
  8
0
100
AcDbLine
 10
190.7128
 20
171.6419999999999
 30
0.0
 11
191.1911999999999
 21
171.5739999999999
 31
0.0
  0
LINE
  5
8DC
330
1E
100
AcDbEntity
  8
0
100
AcDbLine
 10
192.4121
 20
171.2609999999999
 30
0.0
 11
192.8473999999999
 21
171.0569999999999
 31
0.0
  0
LINE
  5
8DD
330
1E
100
AcDbEntity
  8
0
100
AcDbLine
 10
192.5271
 20
130.4139999999999
 30
0.0
 11
193.768
 21
130.4139999999999
 31
0.0
  0
LINE
  5
8DE
330
1E
100
AcDbEntity
  8
0
100
AcDbLine
 10
191.8516999999999
 20
171.4369999999999
 30
0.0
 11
192.4121
 21
171.2609999999999
 31
0.0
  0
LINE
  5
8DF
330
1E
100
AcDbEntity
  8
0
100
AcDbLine
 10
189.1227
 20
130.4139999999999
 30
0.0
 11
190.97
 21
130.4139999999999
 31
0.0
  0
LINE
  5
8E0
330
1E
100
AcDbEntity
  8
0
100
AcDbLine
 10
190.97
 20
130.4139999999999
 30
0.0
 11
192.5271
 21
130.4139999999999
 31
0.0
  0
LINE
  5
8E1
330
1E
100
AcDbEntity
  8
0
100
AcDbLine
 10
187.0162
 20
130.4139999999999
 30
0.0
 11
189.1227
 21
130.4139999999999
 31
0.0
  0
LINE
  5
8E2
330
1E
100
AcDbEntity
  8
0
100
AcDbLine
 10
188.3231999999999
 20
127.9079999999999
 30
0.0
 11
190.1544999999999
 21
127.9069999999999
 31
0.0
  0
LINE
  5
8E3
330
1E
100
AcDbEntity
  8
0
100
AcDbLine
 10
190.1544999999999
 20
127.9069999999999
 30
0.0
 11
191.8827
 21
127.9079999999999
 31
0.0
  0
LINE
  5
8E4
330
1E
100
AcDbEntity
  8
0
100
AcDbLine
 10
194.4214999999999
 20
113.6559999999999
 30
0.0
 11
194.4395
 21
114.4789999999999
 31
0.0
  0
LINE
  5
8E5
330
1E
100
AcDbEntity
  8
0
100
AcDbLine
 10
194.4044999999999
 20
112.6909999999999
 30
0.0
 11
194.4214999999999
 21
113.6559999999999
 31
0.0
  0
LINE
  5
8E6
330
1E
100
AcDbEntity
  8
0
100
AcDbLine
 10
194.3904999999999
 20
111.6869999999999
 30
0.0
 11
194.4044999999999
 21
112.6909999999999
 31
0.0
  0
LINE
  5
8E7
330
1E
100
AcDbEntity
  8
0
100
AcDbLine
 10
194.3783999999999
 20
110.5479999999999
 30
0.0
 11
194.3904999999999
 21
111.6869999999999
 31
0.0
  0
LINE
  5
8E8
330
1E
100
AcDbEntity
  8
0
100
AcDbLine
 10
194.3713999999999
 20
110.2309999999999
 30
0.0
 11
194.3783999999999
 21
110.5479999999999
 31
0.0
  0
LINE
  5
8E9
330
1E
100
AcDbEntity
  8
0
100
AcDbLine
 10
194.3433999999999
 20
109.5339999999999
 30
0.0
 11
194.3713999999999
 21
110.2309999999999
 31
0.0
  0
LINE
  5
8EA
330
1E
100
AcDbEntity
  8
0
100
AcDbLine
 10
193.6849999999999
 20
107.0639999999999
 30
0.0
 11
194.0231999999999
 21
107.9769999999999
 31
0.0
  0
LINE
  5
8EB
330
1E
100
AcDbEntity
  8
0
100
AcDbLine
 10
194.1472999999999
 20
108.4319999999999
 30
0.0
 11
194.1873
 21
108.5939999999999
 31
0.0
  0
LINE
  5
8EC
330
1E
100
AcDbEntity
  8
0
100
AcDbLine
 10
194.1873
 20
108.5939999999999
 30
0.0
 11
194.2864
 21
109.0599999999999
 31
0.0
  0
LINE
  5
8ED
330
1E
100
AcDbEntity
  8
0
100
AcDbLine
 10
194.2864
 20
109.0599999999999
 30
0.0
 11
194.3433999999999
 21
109.5339999999999
 31
0.0
  0
LINE
  5
8EE
330
1E
100
AcDbEntity
  8
0
100
AcDbLine
 10
194.0231999999999
 20
107.9769999999999
 30
0.0
 11
194.1472999999999
 21
108.4319999999999
 31
0.0
  0
LINE
  5
8EF
330
1E
100
AcDbEntity
  8
0
100
AcDbLine
 10
186.2737
 20
106.3159999999999
 30
0.0
 11
186.4898999999999
 21
105.0849999999999
 31
0.0
  0
LINE
  5
8F0
330
1E
100
AcDbEntity
  8
0
100
AcDbLine
 10
186.2837
 20
103.8259999999999
 30
0.0
 11
186.4898999999999
 21
105.0849999999999
 31
0.0
  0
LINE
  5
8F1
330
1E
100
AcDbEntity
  8
0
100
AcDbLine
 10
191.6155
 20
103.8289999999999
 30
0.0
 11
191.8677
 21
104.1179999999999
 31
0.0
  0
LINE
  5
8F2
330
1E
100
AcDbEntity
  8
0
100
AcDbLine
 10
192.3339999999999
 20
104.7089999999999
 30
0.0
 11
192.8022999999999
 21
105.3929999999999
 31
0.0
  0
LINE
  5
8F3
330
1E
100
AcDbEntity
  8
0
100
AcDbLine
 10
192.8022999999999
 20
105.3929999999999
 30
0.0
 11
193.1134999999999
 21
105.9759999999999
 31
0.0
  0
LINE
  5
8F4
330
1E
100
AcDbEntity
  8
0
100
AcDbLine
 10
191.8677
 20
104.1179999999999
 30
0.0
 11
192.3339999999999
 21
104.7089999999999
 31
0.0
  0
LINE
  5
8F5
330
1E
100
AcDbEntity
  8
0
100
AcDbLine
 10
191.3492999999999
 20
103.5419999999999
 30
0.0
 11
191.6155
 21
103.8289999999999
 31
0.0
  0
LINE
  5
8F6
330
1E
100
AcDbEntity
  8
0
100
AcDbLine
 10
196.0466
 20
101.1089999999999
 30
0.0
 11
196.0785999999999
 21
99.20099999999997
 31
0.0
  0
LINE
  5
8F7
330
1E
100
AcDbEntity
  8
0
100
AcDbLine
 10
189.7411999999999
 20
102.1009999999999
 30
0.0
 11
190.6118
 21
102.8619999999999
 31
0.0
  0
LINE
  5
8F8
330
1E
100
AcDbEntity
  8
0
100
AcDbLine
 10
191.2122
 20
103.4009999999999
 30
0.0
 11
191.3492999999999
 21
103.5419999999999
 31
0.0
  0
LINE
  5
8F9
330
1E
100
AcDbEntity
  8
0
100
AcDbLine
 10
190.6118
 20
102.8619999999999
 30
0.0
 11
191.2122
 21
103.4009999999999
 31
0.0
  0
LINE
  5
8FA
330
1E
100
AcDbEntity
  8
0
100
AcDbLine
 10
185.9317694068872
 20
106.1059558381559
 30
0.0
 11
186.1480468894902
 21
106.5275392126149
 31
0.0
  0
LINE
  5
8FB
330
1E
100
AcDbEntity
  8
0
100
AcDbLine
 10
185.9809999999999
 20
103.2681131275039
 30
0.0
 11
186.2837
 21
103.8259999999999
 31
0.0
  0
LINE
  5
8FC
330
1E
100
AcDbEntity
  8
0
100
AcDbLine
 10
185.9809999999999
 20
100.0988999999999
 30
0.0
 11
185.9809999999999
 21
100.3589999999999
 31
0.0
  0
LINE
  5
8FD
330
1E
100
AcDbEntity
  8
0
100
AcDbLine
 10
196.0785999999999
 20
99.20099999999997
 30
0.0
 11
196.1066999999999
 21
97.20239999999996
 31
0.0
  0
LINE
  5
8FE
330
1E
100
AcDbEntity
  8
0
100
AcDbLine
 10
185.9741999999999
 20
100.2279999999999
 30
0.0
 11
185.9809999999999
 21
100.3589999999999
 31
0.0
  0
LINE
  5
8FF
330
1E
100
AcDbEntity
  8
0
100
AcDbLine
 10
185.8457999999999
 20
99.39609999999998
 30
0.0
 11
185.8992999999999
 21
99.57359999999997
 31
0.0
  0
LINE
  5
900
330
1E
100
AcDbEntity
  8
0
100
AcDbLine
 10
185.6571
 20
107.0079999999999
 30
0.0
 11
185.8457999999999
 21
106.4919999999999
 31
0.0
  0
LINE
  5
901
330
1E
100
AcDbEntity
  8
0
100
AcDbLine
 10
185.8457999999999
 20
106.4919999999999
 30
0.0
 11
185.8992999999999
 21
106.3149999999999
 31
0.0
  0
LINE
  5
902
330
1E
100
AcDbEntity
  8
0
100
AcDbLine
 10
185.7934
 20
171.9439999999999
 30
0.0
 11
189.7110999999999
 21
171.7269999999999
 31
0.0
  0
LINE
  5
903
330
1E
100
AcDbEntity
  8
0
100
AcDbLine
 10
185.8992999999999
 20
106.3149999999999
 30
0.0
 11
185.9809999999999
 21
105.7889999999999
 31
0.0
  0
LINE
  5
904
330
1E
100
AcDbEntity
  8
0
100
AcDbLine
 10
185.8331069138342
 20
99.36126968724646
 30
0.0
 11
187.8498
 21
100.6179999999999
 31
0.0
  0
LINE
  5
905
330
1E
100
AcDbEntity
  8
0
100
AcDbLine
 10
182.7291999999999
 20
100.4469999999999
 30
0.0
 11
184.1281791183295
 21
100.4469999999999
 31
0.0
  0
LINE
  5
906
330
1E
100
AcDbEntity
  8
0
100
AcDbLine
 10
182.7291999999999
 20
100.4469999999999
 30
0.0
 11
182.7291999999999
 21
99.37809999999998
 31
0.0
  0
LINE
  5
907
330
1E
100
AcDbEntity
  8
0
100
AcDbLine
 10
184.4696
 20
108.4769999999999
 30
0.0
 11
184.966
 21
108.0059999999999
 31
0.0
  0
LINE
  5
908
330
1E
100
AcDbEntity
  8
0
100
AcDbLine
 10
183.0822999999999
 20
109.4319999999999
 30
0.0
 11
183.7552999999999
 21
109.0179999999999
 31
0.0
  0
LINE
  5
909
330
1E
100
AcDbEntity
  8
0
100
AcDbLine
 10
183.7552999999999
 20
109.0179999999999
 30
0.0
 11
184.3394999999999
 21
108.5769999999999
 31
0.0
  0
LINE
  5
90A
330
1E
100
AcDbEntity
  8
0
100
AcDbLine
 10
183.8399999999999
 20
127.9099999999999
 30
0.0
 11
186.2056999999999
 21
127.9089999999999
 31
0.0
  0
LINE
  5
90B
330
1E
100
AcDbEntity
  8
0
100
AcDbLine
 10
185.1759
 20
130.4139999999999
 30
0.0
 11
187.3775
 21
130.4139999999999
 31
0.0
  0
LINE
  5
90C
330
1E
100
AcDbEntity
  8
0
100
AcDbLine
 10
183.6057999999999
 20
118.4279999999999
 30
0.0
 11
192.9334
 21
118.2669999999999
 31
0.0
  0
LINE
  5
90D
330
1E
100
AcDbEntity
  8
0
100
AcDbLine
 10
184.3394999999999
 20
108.5769999999999
 30
0.0
 11
184.4696
 21
108.4769999999999
 31
0.0
  0
LINE
  5
90E
330
1E
100
AcDbEntity
  8
0
100
AcDbLine
 10
183.9691
 20
109.0029999999999
 30
0.0
 11
185.4230999999999
 21
107.7479999999999
 31
0.0
  0
LINE
  5
90F
330
1E
100
AcDbEntity
  8
0
100
AcDbLine
 10
182.9433
 20
130.4139999999999
 30
0.0
 11
185.1759
 21
130.4139999999999
 31
0.0
  0
LINE
  5
910
330
1E
100
AcDbEntity
  8
0
100
AcDbLine
 10
184.966
 20
108.0059999999999
 30
0.0
 11
185.3634999999999
 21
107.5149999999999
 31
0.0
  0
LINE
  5
911
330
1E
100
AcDbEntity
  8
0
100
AcDbLine
 10
185.3634999999999
 20
107.5149999999999
 30
0.0
 11
185.6571
 21
107.0079999999999
 31
0.0
  0
LINE
  5
912
330
1E
100
AcDbEntity
  8
0
100
AcDbLine
 10
185.4230999999999
 20
107.7479999999999
 30
0.0
 11
186.2737
 21
106.3159999999999
 31
0.0
  0
LINE
  5
913
330
1E
100
AcDbEntity
  8
0
100
AcDbLine
 10
185.2824137273499
 20
107.6151593959019
 30
0.0
 11
185.3579920143426
 21
107.8041970577719
 31
0.0
  0
LINE
  5
914
330
1E
100
AcDbEntity
  8
0
100
AcDbLine
 10
183.1418
 20
101.9729999999999
 30
0.0
 11
183.5565
 21
101.5349999999999
 31
0.0
  0
LINE
  5
915
330
1E
100
AcDbEntity
  8
0
100
AcDbLine
 10
183.5565
 20
101.5349999999999
 30
0.0
 11
183.8743
 21
101.0789999999999
 31
0.0
  0
LINE
  5
916
330
1E
100
AcDbEntity
  8
0
100
AcDbLine
 10
183.8743
 20
101.0789999999999
 30
0.0
 11
184.0892
 21
100.6119999999999
 31
0.0
  0
LINE
  5
917
330
1E
100
AcDbEntity
  8
0
100
AcDbLine
 10
184.0892
 20
100.6119999999999
 30
0.0
 11
184.2011999999999
 21
100.1378999999999
 31
0.0
  0
LINE
  5
918
330
1E
100
AcDbEntity
  8
0
100
AcDbLine
 10
184.2011999999999
 20
100.1378999999999
 30
0.0
 11
184.2051999999999
 21
99.86669999999998
 31
0.0
  0
LINE
  5
919
330
1E
100
AcDbEntity
  8
0
100
AcDbLine
 10
182.1166999999999
 20
100.9629999999999
 30
0.0
 11
182.3241004944346
 21
101.2316211223099
 31
0.0
  0
LINE
  5
91A
330
1E
100
AcDbEntity
  8
0
100
AcDbLine
 10
182.6323
 20
102.3889999999999
 30
0.0
 11
183.1418
 21
101.9729999999999
 31
0.0
  0
LINE
  5
91B
330
1E
100
AcDbEntity
  8
0
100
AcDbLine
 10
182.3265999999999
 20
109.8159999999999
 30
0.0
 11
183.0822999999999
 21
109.4319999999999
 31
0.0
  0
LINE
  5
91C
330
1E
100
AcDbEntity
  8
0
100
AcDbLine
 10
182.2993999999999
 20
101.2699999999999
 30
0.0
 11
182.5606999999999
 21
100.8639999999999
 31
0.0
  0
LINE
  5
91D
330
1E
100
AcDbEntity
  8
0
100
AcDbLine
 10
182.5606999999999
 20
100.8639999999999
 30
0.0
 11
182.7291999999999
 21
100.4469999999999
 31
0.0
  0
LINE
  5
91E
330
1E
100
AcDbEntity
  8
0
100
AcDbLine
 10
184.2011999999999
 20
99.59749999999997
 30
0.0
 11
184.2051999999999
 21
99.86669999999998
 31
0.0
  0
LINE
  5
91F
330
1E
100
AcDbEntity
  8
0
100
AcDbLine
 10
182.7291999999999
 20
99.37809999999998
 30
0.0
 11
182.7291999999999
 21
100.4469999999999
 31
0.0
  0
LINE
  5
920
330
1E
100
AcDbEntity
  8
0
100
AcDbLine
 10
182.7291999999999
 20
99.37809999999998
 30
0.0
 11
184.1495221871713
 21
99.37809999999998
 31
0.0
  0
LINE
  5
921
330
1E
100
AcDbEntity
  8
0
100
AcDbLine
 10
184.4696
 20
97.41089999999998
 30
0.0
 11
184.966
 21
97.88159999999997
 31
0.0
  0
LINE
  5
922
330
1E
100
AcDbEntity
  8
0
100
AcDbLine
 10
184.966
 20
97.88159999999997
 30
0.0
 11
185.3634999999999
 21
98.37299999999999
 31
0.0
  0
LINE
  5
923
330
1E
100
AcDbEntity
  8
0
100
AcDbLine
 10
185.3634999999999
 20
98.37299999999999
 30
0.0
 11
185.6571
 21
98.87829999999997
 31
0.0
  0
LINE
  5
924
330
1E
100
AcDbEntity
  8
0
100
AcDbLine
 10
185.6571
 20
98.87829999999997
 30
0.0
 11
185.8457999999999
 21
99.39609999999998
 31
0.0
  0
LINE
  5
925
330
1E
100
AcDbEntity
  8
0
100
AcDbLine
 10
183.1418
 20
97.76139999999998
 30
0.0
 11
183.5565
 21
98.19989999999997
 31
0.0
  0
LINE
  5
926
330
1E
100
AcDbEntity
  8
0
100
AcDbLine
 10
183.5565
 20
98.19989999999997
 30
0.0
 11
183.8743
 21
98.65409999999997
 31
0.0
  0
LINE
  5
927
330
1E
100
AcDbEntity
  8
0
100
AcDbLine
 10
183.8743
 20
98.65409999999997
 30
0.0
 11
184.0892
 21
99.12199999999998
 31
0.0
  0
LINE
  5
928
330
1E
100
AcDbEntity
  8
0
100
AcDbLine
 10
184.0892
 20
99.12199999999998
 30
0.0
 11
184.2011999999999
 21
99.59749999999997
 31
0.0
  0
LINE
  5
929
330
1E
100
AcDbEntity
  8
0
100
AcDbLine
 10
183.9712
 20
98.88359999999998
 30
0.0
 11
184.1436598318198
 21
99.35321116098538
 31
0.0
  0
LINE
  5
92A
330
1E
100
AcDbEntity
  8
0
100
AcDbLine
 10
183.6786
 20
98.40059999999997
 30
0.0
 11
183.9712
 21
98.88359999999998
 31
0.0
  0
LINE
  5
92B
330
1E
100
AcDbEntity
  8
0
100
AcDbLine
 10
183.2749999999999
 20
97.93509999999997
 30
0.0
 11
183.6786
 21
98.40059999999997
 31
0.0
  0
LINE
  5
92C
330
1E
100
AcDbEntity
  8
0
100
AcDbLine
 10
182.5606999999999
 20
98.96119999999998
 30
0.0
 11
182.7291999999999
 21
99.37809999999998
 31
0.0
  0
LINE
  5
92D
330
1E
100
AcDbEntity
  8
0
100
AcDbLine
 10
182.2993999999999
 20
98.55459999999998
 30
0.0
 11
182.5606999999999
 21
98.96119999999998
 31
0.0
  0
LINE
  5
92E
330
1E
100
AcDbEntity
  8
0
100
AcDbLine
 10
182.7665
 20
97.49149999999998
 30
0.0
 11
183.2749999999999
 21
97.93509999999997
 31
0.0
  0
LINE
  5
92F
330
1E
100
AcDbEntity
  8
0
100
AcDbLine
 10
182.3265999999999
 20
96.07259999999998
 30
0.0
 11
183.0822999999999
 21
96.45489999999998
 31
0.0
  0
LINE
  5
930
330
1E
100
AcDbEntity
  8
0
100
AcDbLine
 10
183.0822999999999
 20
96.45489999999998
 30
0.0
 11
183.7552999999999
 21
96.86969999999998
 31
0.0
  0
LINE
  5
931
330
1E
100
AcDbEntity
  8
0
100
AcDbLine
 10
183.7552999999999
 20
96.86969999999998
 30
0.0
 11
184.3394999999999
 21
97.31169999999998
 31
0.0
  0
LINE
  5
932
330
1E
100
AcDbEntity
  8
0
100
AcDbLine
 10
184.3394999999999
 20
97.31169999999998
 30
0.0
 11
184.4696
 21
97.41089999999998
 31
0.0
  0
LINE
  5
933
330
1E
100
AcDbEntity
  8
0
100
AcDbLine
 10
196.1066999999999
 20
97.20239999999996
 30
0.0
 11
196.1477
 21
94.15309999999998
 31
0.0
  0
LINE
  5
93A
330
1E
100
AcDbEntity
  8
0
100
AcDbLine
 10
196.3919
 20
82.20219999999997
 30
0.0
 11
197.981
 21
0.1939999999999653
 31
0.0
  0
LINE
  5
93B
330
1E
100
AcDbEntity
  8
0
100
AcDbLine
 10
196.3919
 20
82.20219999999997
 30
0.0
 11
197.981
 21
0.1939999999999671
 31
0.0
  0
LINE
  5
93C
330
1E
100
AcDbEntity
  8
0
100
AcDbLine
 10
196.1477
 20
94.15309999999998
 30
0.0
 11
196.1997
 21
90.59389999999998
 31
0.0
  0
LINE
  5
93D
330
1E
100
AcDbEntity
  8
0
100
AcDbLine
 10
196.2189585004289
 20
89.08032194618217
 30
0.0
 11
196.3258
 21
83.62209999999997
 31
0.0
  0
LINE
  5
93E
330
1E
100
AcDbEntity
  8
0
100
AcDbLine
 10
196.1997
 20
90.59389999999998
 30
0.0
 11
196.2977999999999
 21
85.04299999999997
 31
0.0
  0
LINE
  5
93F
330
1E
100
AcDbEntity
  8
0
100
AcDbLine
 10
196.2363177690883
 20
88.18466945417918
 30
0.0
 11
196.2977999999999
 21
85.04299999999997
 31
0.0
  0
LINE
  5
940
330
1E
100
AcDbEntity
  8
0
100
AcDbLine
 10
196.2363177690883
 20
88.18466945417897
 30
0.0
 11
196.2977999999999
 21
85.04299999999997
 31
0.0
  0
LINE
  5
941
330
1E
100
AcDbEntity
  8
0
100
AcDbLine
 10
196.3258
 20
83.62209999999997
 30
0.0
 11
196.3919
 21
82.20219999999997
 31
0.0
  0
LINE
  5
942
330
1E
100
AcDbEntity
  8
0
100
AcDbLine
 10
196.2189585004289
 20
89.08032194618188
 30
0.0
 11
196.3258
 21
83.62209999999997
 31
0.0
  0
LINE
  5
944
330
1E
100
AcDbEntity
  8
0
100
AcDbLine
 10
186.4087999999999
 20
0.1939999999999653
 30
0.0
 11
188.4863
 21
0.1939999999999653
 31
0.0
  0
LINE
  5
945
330
1E
100
AcDbEntity
  8
0
100
AcDbLine
 10
184.4164
 20
0.1939999999999653
 30
0.0
 11
187.6005999999999
 21
0.1939999999999653
 31
0.0
  0
LINE
  5
946
330
1E
100
AcDbEntity
  8
0
100
AcDbLine
 10
185.8383999999999
 20
0.1939999999999671
 30
0.0
 11
187.4425
 21
0.1939999999999671
 31
0.0
  0
LINE
  5
947
330
1E
100
AcDbEntity
  8
0
100
AcDbLine
 10
184.9528
 20
0.1939999999999671
 30
0.0
 11
188.076
 21
0.1939999999999671
 31
0.0
  0
LINE
  5
948
330
1E
100
AcDbEntity
  8
0
100
AcDbLine
 10
190.4185999999999
 20
0.1939999999999671
 30
0.0
 11
192.1718999999999
 21
0.1939999999999671
 31
0.0
  0
LINE
  5
949
330
1E
100
AcDbEntity
  8
0
100
AcDbLine
 10
187.4425
 20
0.1939999999999671
 30
0.0
 11
188.9746
 21
0.1939999999999671
 31
0.0
  0
LINE
  5
94A
330
1E
100
AcDbEntity
  8
0
100
AcDbLine
 10
188.9746
 20
0.1939999999999671
 30
0.0
 11
190.4185999999999
 21
0.1939999999999671
 31
0.0
  0
LINE
  5
94B
330
1E
100
AcDbEntity
  8
0
100
AcDbLine
 10
195.0548999999999
 20
0.1939999999999653
 30
0.0
 11
195.8845
 21
0.1939999999999653
 31
0.0
  0
LINE
  5
94C
330
1E
100
AcDbEntity
  8
0
100
AcDbLine
 10
196.574
 20
0.1939999999999653
 30
0.0
 11
197.1223999999999
 21
0.1939999999999653
 31
0.0
  0
LINE
  5
94D
330
1E
100
AcDbEntity
  8
0
100
AcDbLine
 10
196.574
 20
0.1939999999999653
 30
0.0
 11
197.1223999999999
 21
0.1939999999999653
 31
0.0
  0
LINE
  5
94E
330
1E
100
AcDbEntity
  8
0
100
AcDbLine
 10
197.1223999999999
 20
0.1939999999999653
 30
0.0
 11
197.5326999999999
 21
0.1939999999999653
 31
0.0
  0
LINE
  5
94F
330
1E
100
AcDbEntity
  8
0
100
AcDbLine
 10
197.5636999999999
 20
0.1939999999999671
 30
0.0
 11
197.9619999999999
 21
0.1939999999999671
 31
0.0
  0
LINE
  5
950
330
1E
100
AcDbEntity
  8
0
100
AcDbLine
 10
197.5326999999999
 20
0.1939999999999653
 30
0.0
 11
197.8109
 21
0.1939999999999671
 31
0.0
  0
LINE
  5
951
330
1E
100
AcDbEntity
  8
0
100
AcDbLine
 10
197.8109
 20
0.1939999999999671
 30
0.0
 11
197.9619999999999
 21
0.1939999999999671
 31
0.0
  0
LINE
  5
952
330
1E
100
AcDbEntity
  8
0
100
AcDbLine
 10
195.4182
 20
0.1939999999999671
 30
0.0
 11
196.6850999999999
 21
0.1939999999999671
 31
0.0
  0
LINE
  5
953
330
1E
100
AcDbEntity
  8
0
100
AcDbLine
 10
196.6850999999999
 20
0.1939999999999671
 30
0.0
 11
197.5636999999999
 21
0.1939999999999671
 31
0.0
  0
LINE
  5
954
330
1E
100
AcDbEntity
  8
0
100
AcDbLine
 10
197.1223999999999
 20
0.1939999999999653
 30
0.0
 11
197.5326999999999
 21
0.1939999999999653
 31
0.0
  0
LINE
  5
955
330
1E
100
AcDbEntity
  8
0
100
AcDbLine
 10
195.4622
 20
0.1939999999999671
 30
0.0
 11
195.7443999999999
 21
0.1939999999999671
 31
0.0
  0
LINE
  5
956
330
1E
100
AcDbEntity
  8
0
100
AcDbLine
 10
195.3541
 20
0.1939999999999653
 30
0.0
 11
195.7443999999999
 21
0.1939999999999671
 31
0.0
  0
LINE
  5
957
330
1E
100
AcDbEntity
  8
0
100
AcDbLine
 10
195.8845
 20
0.1939999999999653
 30
0.0
 11
196.574
 21
0.1939999999999653
 31
0.0
  0
LINE
  5
958
330
1E
100
AcDbEntity
  8
0
100
AcDbLine
 10
192.1718999999999
 20
0.1939999999999671
 30
0.0
 11
193.7169999999999
 21
0.1939999999999671
 31
0.0
  0
LINE
  5
959
330
1E
100
AcDbEntity
  8
0
100
AcDbLine
 10
188.076
 20
0.1939999999999671
 30
0.0
 11
190.7638999999999
 21
0.1939999999999671
 31
0.0
  0
LINE
  5
95A
330
1E
100
AcDbEntity
  8
0
100
AcDbLine
 10
193.7169999999999
 20
0.1939999999999671
 30
0.0
 11
195.4182
 21
0.1939999999999671
 31
0.0
  0
LINE
  5
95B
330
1E
100
AcDbEntity
  8
0
100
AcDbLine
 10
194.0871999999999
 20
0.1939999999999653
 30
0.0
 11
195.0548999999999
 21
0.1939999999999653
 31
0.0
  0
LINE
  5
95C
330
1E
100
AcDbEntity
  8
0
100
AcDbLine
 10
194.3013999999999
 20
0.1939999999999653
 30
0.0
 11
195.3541
 21
0.1939999999999653
 31
0.0
  0
LINE
  5
95D
330
1E
100
AcDbEntity
  8
0
100
AcDbLine
 10
194.5145999999999
 20
0.1939999999999671
 30
0.0
 11
195.4622
 21
0.1939999999999671
 31
0.0
  0
LINE
  5
95E
330
1E
100
AcDbEntity
  8
0
100
AcDbLine
 10
192.9864999999999
 20
0.1939999999999653
 30
0.0
 11
194.0871999999999
 21
0.1939999999999653
 31
0.0
  0
LINE
  5
95F
330
1E
100
AcDbEntity
  8
0
100
AcDbLine
 10
192.6211999999999
 20
0.1939999999999653
 30
0.0
 11
194.3013999999999
 21
0.1939999999999653
 31
0.0
  0
LINE
  5
960
330
1E
100
AcDbEntity
  8
0
100
AcDbLine
 10
192.9324
 20
0.1939999999999671
 30
0.0
 11
194.5145999999999
 21
0.1939999999999671
 31
0.0
  0
LINE
  5
961
330
1E
100
AcDbEntity
  8
0
100
AcDbLine
 10
190.7638999999999
 20
0.1939999999999671
 30
0.0
 11
192.9324
 21
0.1939999999999671
 31
0.0
  0
LINE
  5
962
330
1E
100
AcDbEntity
  8
0
100
AcDbLine
 10
190.3645999999999
 20
0.1939999999999653
 30
0.0
 11
192.6211999999999
 21
0.1939999999999653
 31
0.0
  0
LINE
  5
963
330
1E
100
AcDbEntity
  8
0
100
AcDbLine
 10
191.7595999999999
 20
0.1939999999999653
 30
0.0
 11
192.9864999999999
 21
0.1939999999999653
 31
0.0
  0
LINE
  5
964
330
1E
100
AcDbEntity
  8
0
100
AcDbLine
 10
188.4863
 20
0.1939999999999653
 30
0.0
 11
190.4185999999999
 21
0.1939999999999653
 31
0.0
  0
LINE
  5
965
330
1E
100
AcDbEntity
  8
0
100
AcDbLine
 10
190.4185999999999
 20
0.1939999999999653
 30
0.0
 11
191.7595999999999
 21
0.1939999999999653
 31
0.0
  0
LINE
  5
966
330
1E
100
AcDbEntity
  8
0
100
AcDbLine
 10
187.6005999999999
 20
0.1939999999999653
 30
0.0
 11
190.3645999999999
 21
0.1939999999999653
 31
0.0
  0
LINE
  5
967
330
1E
100
AcDbEntity
  8
0
100
AcDbLine
 10
182.483
 20
0.1939999999999671
 30
0.0
 11
184.1802
 21
0.1939999999999671
 31
0.0
  0
LINE
  5
968
330
1E
100
AcDbEntity
  8
0
100
AcDbLine
 10
184.1802
 20
0.1939999999999671
 30
0.0
 11
185.8383999999999
 21
0.1939999999999671
 31
0.0
  0
LINE
  5
969
330
1E
100
AcDbEntity
  8
0
100
AcDbLine
 10
183.4777
 20
0.1939999999999653
 30
0.0
 11
186.4087999999999
 21
0.1939999999999653
 31
0.0
  0
LINE
  5
96A
330
1E
100
AcDbEntity
  8
0
100
AcDbLine
 10
182.1590999999999
 20
97.07609999999997
 30
0.0
 11
182.7665
 21
97.49149999999998
 31
0.0
  0
LINE
  5
96B
330
1E
100
AcDbEntity
  8
0
100
AcDbLine
 10
180.5963
 20
95.41419999999998
 30
0.0
 11
181.4952999999999
 21
95.72419999999997
 31
0.0
  0
LINE
  5
96C
330
1E
100
AcDbEntity
  8
0
100
AcDbLine
 10
181.4952999999999
 20
95.72419999999997
 30
0.0
 11
182.3265999999999
 21
96.07259999999998
 31
0.0
  0
LINE
  5
96D
330
1E
100
AcDbEntity
  8
0
100
AcDbLine
 10
181.9472999999999
 20
98.16269999999997
 30
0.0
 11
182.2993999999999
 21
98.55459999999998
 31
0.0
  0
LINE
  5
96E
330
1E
100
AcDbEntity
  8
0
100
AcDbLine
 10
181.6829
 20
100.5529999999999
 30
0.0
 11
182.1166999999999
 21
100.9629999999999
 31
0.0
  0
LINE
  5
96F
330
1E
100
AcDbEntity
  8
0
100
AcDbLine
 10
182.033
 20
102.7789999999999
 30
0.0
 11
182.6323
 21
102.3889999999999
 31
0.0
  0
LINE
  5
970
330
1E
100
AcDbEntity
  8
0
100
AcDbLine
 10
181.9737
 20
110.0329999999999
 30
0.0
 11
183.9691
 21
109.0029999999999
 31
0.0
  0
LINE
  5
971
330
1E
100
AcDbEntity
  8
0
100
AcDbLine
 10
181.8636
 20
172.091
 30
0.0
 11
185.7934
 21
171.9439999999999
 31
0.0
  0
LINE
  5
972
330
1E
100
AcDbEntity
  8
0
100
AcDbLine
 10
181.9472999999999
 20
101.6619999999999
 30
0.0
 11
182.2993999999999
 21
101.2699999999999
 31
0.0
  0
LINE
  5
973
330
1E
100
AcDbEntity
  8
0
100
AcDbLine
 10
181.5072999999999
 20
102.0339999999999
 30
0.0
 11
181.9472999999999
 21
101.6619999999999
 31
0.0
  0
LINE
  5
974
330
1E
100
AcDbEntity
  8
0
100
AcDbLine
 10
181.5072999999999
 20
97.78999999999998
 30
0.0
 11
181.9472999999999
 21
98.16269999999997
 31
0.0
  0
LINE
  5
975
330
1E
100
AcDbEntity
  8
0
100
AcDbLine
 10
178.8870999999999
 20
95.72819999999998
 30
0.0
 11
179.771
 21
95.97789999999998
 31
0.0
  0
LINE
  5
976
330
1E
100
AcDbEntity
  8
0
100
AcDbLine
 10
179.771
 20
95.97789999999998
 30
0.0
 11
180.5963
 21
96.26799999999997
 31
0.0
  0
LINE
  5
977
330
1E
100
AcDbEntity
  8
0
100
AcDbLine
 10
180.5963
 20
96.26799999999997
 30
0.0
 11
181.353
 21
96.59449999999997
 31
0.0
  0
LINE
  5
978
330
1E
100
AcDbEntity
  8
0
100
AcDbLine
 10
181.353
 20
96.59449999999997
 30
0.0
 11
182.033
 21
96.95529999999997
 31
0.0
  0
LINE
  5
979
330
1E
100
AcDbEntity
  8
0
100
AcDbLine
 10
181.4588999999999
 20
96.69149999999998
 30
0.0
 11
182.1590999999999
 21
97.07609999999997
 31
0.0
  0
LINE
  5
97A
330
1E
100
AcDbEntity
  8
0
100
AcDbLine
 10
181.4952999999999
 20
110.1629999999999
 30
0.0
 11
182.3265999999999
 21
109.8159999999999
 31
0.0
  0
LINE
  5
97B
330
1E
100
AcDbEntity
  8
0
100
AcDbLine
 10
180.6739999999999
 20
96.34409999999997
 30
0.0
 11
181.4588999999999
 21
96.69149999999998
 31
0.0
  0
LINE
  5
97C
330
1E
100
AcDbEntity
  8
0
100
AcDbLine
 10
179.8285
 20
99.49169999999998
 30
0.0
 11
180.5317
 21
99.81289999999997
 31
0.0
  0
LINE
  5
97D
330
1E
100
AcDbEntity
  8
0
100
AcDbLine
 10
180.3904999999999
 20
97.11809999999998
 30
0.0
 11
180.9866999999999
 21
97.44029999999998
 31
0.0
  0
LINE
  5
97E
330
1E
100
AcDbEntity
  8
0
100
AcDbLine
 10
180.5317
 20
99.81289999999997
 30
0.0
 11
181.1522
 21
100.1681999999999
 31
0.0
  0
LINE
  5
97F
330
1E
100
AcDbEntity
  8
0
100
AcDbLine
 10
180.9866999999999
 20
97.44029999999998
 30
0.0
 11
181.5072999999999
 21
97.78999999999998
 31
0.0
  0
LINE
  5
980
330
1E
100
AcDbEntity
  8
0
100
AcDbLine
 10
181.1522
 20
100.1681999999999
 30
0.0
 11
181.6829
 21
100.5529999999999
 31
0.0
  0
LINE
  5
981
330
1E
100
AcDbEntity
  8
0
100
AcDbLine
 10
181.353
 20
103.1389999999999
 30
0.0
 11
182.033
 21
102.7789999999999
 31
0.0
  0
LINE
  5
982
330
1E
100
AcDbEntity
  8
0
100
AcDbLine
 10
181.2912
 20
127.9119999999999
 30
0.0
 11
183.8399999999999
 21
127.9099999999999
 31
0.0
  0
LINE
  5
983
330
1E
100
AcDbEntity
  8
0
100
AcDbLine
 10
180.8650280773853
 20
110.3810362268439
 30
0.0
 11
181.4952999999999
 21
110.1629999999999
 31
0.0
  0
LINE
  5
984
330
1E
100
AcDbEntity
  8
0
100
AcDbLine
 10
180.8650280773853
 20
110.3810362268439
 30
0.0
 11
181.4952999999999
 21
110.1629999999999
 31
0.0
  0
LINE
  5
985
330
1E
100
AcDbEntity
  8
0
100
AcDbLine
 10
180.9866999999999
 20
102.3839999999999
 30
0.0
 11
181.5072999999999
 21
102.0339999999999
 31
0.0
  0
LINE
  5
986
330
1E
100
AcDbEntity
  8
0
100
AcDbLine
 10
180.5963
 20
103.4659999999999
 30
0.0
 11
181.353
 21
103.1389999999999
 31
0.0
  0
LINE
  5
987
330
1E
100
AcDbEntity
  8
0
100
AcDbLine
 10
180.3904999999999
 20
102.7079999999999
 30
0.0
 11
180.9866999999999
 21
102.3839999999999
 31
0.0
  0
LINE
  5
988
330
1E
100
AcDbEntity
  8
0
100
AcDbLine
 10
179.8133
 20
96.03709999999999
 30
0.0
 11
180.6739999999999
 21
96.34409999999997
 31
0.0
  0
LINE
  5
989
330
1E
100
AcDbEntity
  8
0
100
AcDbLine
 10
173.981
 20
95.85299999999996
 30
0.0
 11
174.3639999999999
 21
95.85059999999996
 31
0.0
  0
LINE
  5
98A
330
1E
100
AcDbEntity
  8
0
100
AcDbLine
 10
173.981
 20
98.47719999999997
 30
0.0
 11
174.4296
 21
98.47589999999996
 31
0.0
  0
LINE
  5
98B
330
1E
100
AcDbEntity
  8
0
100
AcDbLine
 10
174.4296
 20
98.47589999999996
 30
0.0
 11
175.4132999999999
 21
98.52449999999997
 31
0.0
  0
LINE
  5
98C
330
1E
100
AcDbEntity
  8
0
100
AcDbLine
 10
175.4132999999999
 20
98.52449999999997
 30
0.0
 11
176.3799
 21
98.62409999999997
 31
0.0
  0
LINE
  5
98D
330
1E
100
AcDbEntity
  8
0
100
AcDbLine
 10
176.3799
 20
98.62409999999997
 30
0.0
 11
177.3161999999999
 21
98.77239999999998
 31
0.0
  0
LINE
  5
98E
330
1E
100
AcDbEntity
  8
0
100
AcDbLine
 10
177.3161999999999
 20
98.77239999999998
 30
0.0
 11
178.2101
 21
98.96789999999997
 31
0.0
  0
LINE
  5
98F
330
1E
100
AcDbEntity
  8
0
100
AcDbLine
 10
178.2101
 20
98.96789999999997
 30
0.0
 11
179.0505999999999
 21
99.20869999999998
 31
0.0
  0
LINE
  5
990
330
1E
100
AcDbEntity
  8
0
100
AcDbLine
 10
179.0505999999999
 20
99.20869999999998
 30
0.0
 11
179.8285
 21
99.49169999999998
 31
0.0
  0
LINE
  5
991
330
1E
100
AcDbEntity
  8
0
100
AcDbLine
 10
179.6368
 20
110.7429999999999
 30
0.0
 11
180.339974318082
 21
110.5458620202559
 31
0.0
  0
LINE
  5
992
330
1E
100
AcDbEntity
  8
0
100
AcDbLine
 10
179.5559
 20
110.7919999999999
 30
0.0
 11
181.9737
 21
110.0329999999999
 31
0.0
  0
LINE
  5
993
330
1E
100
AcDbEntity
  8
0
100
AcDbLine
 10
179.771
 20
103.7559999999999
 30
0.0
 11
180.5963
 21
103.4659999999999
 31
0.0
  0
LINE
  5
994
330
1E
100
AcDbEntity
  8
0
100
AcDbLine
 10
179.7235
 20
102.9989999999999
 30
0.0
 11
180.3904999999999
 21
102.7079999999999
 31
0.0
  0
LINE
  5
995
330
1E
100
AcDbEntity
  8
0
100
AcDbLine
 10
178.9822069039455
 20
110.8901214186179
 30
0.0
 11
179.6368
 21
110.7429999999999
 31
0.0
  0
LINE
  5
996
330
1E
100
AcDbEntity
  8
0
100
AcDbLine
 10
178.5953
 20
127.9129999999999
 30
0.0
 11
181.2912
 21
127.9119999999999
 31
0.0
  0
LINE
  5
997
330
1E
100
AcDbEntity
  8
0
100
AcDbLine
 10
177.9248
 20
172.1769999999999
 30
0.0
 11
181.8636
 21
172.091
 31
0.0
  0
LINE
  5
998
330
1E
100
AcDbEntity
  8
0
100
AcDbLine
 10
178.8870999999999
 20
104.0059999999999
 30
0.0
 11
179.771
 21
103.7559999999999
 31
0.0
  0
LINE
  5
999
330
1E
100
AcDbEntity
  8
0
100
AcDbLine
 10
178.9940999999999
 20
103.2579999999999
 30
0.0
 11
179.7235
 21
102.9989999999999
 31
0.0
  0
LINE
  5
99A
330
1E
100
AcDbEntity
  8
0
100
AcDbLine
 10
177.9529
 20
104.2139999999999
 30
0.0
 11
178.8870999999999
 21
104.0059999999999
 31
0.0
  0
LINE
  5
99B
330
1E
100
AcDbEntity
  8
0
100
AcDbLine
 10
178.2101
 20
103.4799999999999
 30
0.0
 11
178.9940999999999
 21
103.2579999999999
 31
0.0
  0
LINE
  5
99C
330
1E
100
AcDbEntity
  8
0
100
AcDbLine
 10
176.6288296200862
 20
111.2675990247679
 30
0.0
 11
177.165072378632
 21
111.2009144518099
 31
0.0
  0
LINE
  5
99D
330
1E
100
AcDbEntity
  8
0
100
AcDbLine
 10
176.9771999999999
 20
104.3759999999999
 30
0.0
 11
177.9529
 21
104.2139999999999
 31
0.0
  0
LINE
  5
99E
330
1E
100
AcDbEntity
  8
0
100
AcDbLine
 10
176.843
 20
111.2559999999999
 30
0.0
 11
179.5559
 21
110.7919999999999
 31
0.0
  0
LINE
  5
99F
330
1E
100
AcDbEntity
  8
0
100
AcDbLine
 10
176.6739
 20
139.9439999999999
 30
0.0
 11
176.6818999999999
 21
139.6159999999999
 31
0.0
  0
LINE
  5
9A0
330
1E
100
AcDbEntity
  8
0
100
AcDbLine
 10
176.6548999999999
 20
139.2889999999999
 30
0.0
 11
176.6818999999999
 21
139.6159999999999
 31
0.0
  0
LINE
  5
9A1
330
1E
100
AcDbEntity
  8
0
100
AcDbLine
 10
176.6328999999999
 20
140.2689999999999
 30
0.0
 11
176.6739
 21
139.9439999999999
 31
0.0
  0
LINE
  5
9A2
330
1E
100
AcDbEntity
  8
0
100
AcDbLine
 10
177.3011
 20
103.6799999999999
 30
0.0
 11
178.2101
 21
103.4799999999999
 31
0.0
  0
LINE
  5
9A3
330
1E
100
AcDbEntity
  8
0
100
AcDbLine
 10
175.9723
 20
104.4939999999999
 30
0.0
 11
176.9771999999999
 21
104.3759999999999
 31
0.0
  0
LINE
  5
9A4
330
1E
100
AcDbEntity
  8
0
100
AcDbLine
 10
175.8063
 20
127.9139999999999
 30
0.0
 11
178.5953
 21
127.9129999999999
 31
0.0
  0
LINE
  5
9A5
330
1E
100
AcDbEntity
  8
0
100
AcDbLine
 10
176.5998999999999
 20
140.4309999999999
 30
0.0
 11
176.6328999999999
 21
140.2689999999999
 31
0.0
  0
LINE
  5
9A6
330
1E
100
AcDbEntity
  8
0
100
AcDbLine
 10
176.5088
 20
140.745
 30
0.0
 11
176.5577999999999
 21
140.5899999999999
 31
0.0
  0
LINE
  5
9A7
330
1E
100
AcDbEntity
  8
0
100
AcDbLine
 10
176.5577999999999
 20
140.5899999999999
 30
0.0
 11
176.5998999999999
 21
140.4309999999999
 31
0.0
  0
LINE
  5
9A8
330
1E
100
AcDbEntity
  8
0
100
AcDbLine
 10
176.0754999999999
 20
141.5609999999999
 30
0.0
 11
176.2196
 21
141.351
 31
0.0
  0
LINE
  5
9A9
330
1E
100
AcDbEntity
  8
0
100
AcDbLine
 10
175.9134
 20
141.7589999999999
 30
0.0
 11
176.0754999999999
 21
141.5609999999999
 31
0.0
  0
LINE
  5
9AA
330
1E
100
AcDbEntity
  8
0
100
AcDbLine
 10
176.3447
 20
141.1289999999999
 30
0.0
 11
176.4506999999999
 21
140.8979999999999
 31
0.0
  0
LINE
  5
9AB
330
1E
100
AcDbEntity
  8
0
100
AcDbLine
 10
176.4506999999999
 20
140.8979999999999
 30
0.0
 11
176.5088
 21
140.745
 31
0.0
  0
LINE
  5
9AC
330
1E
100
AcDbEntity
  8
0
100
AcDbLine
 10
176.2196
 20
141.351
 30
0.0
 11
176.3447
 21
141.1289999999999
 31
0.0
  0
LINE
  5
9AD
330
1E
100
AcDbEntity
  8
0
100
AcDbLine
 10
176.5958999999999
 20
138.9669999999999
 30
0.0
 11
176.6548999999999
 21
139.2889999999999
 31
0.0
  0
LINE
  5
9AE
330
1E
100
AcDbEntity
  8
0
100
AcDbLine
 10
176.5047999999999
 20
138.6569999999999
 30
0.0
 11
176.5958999999999
 21
138.9669999999999
 31
0.0
  0
LINE
  5
9AF
330
1E
100
AcDbEntity
  8
0
100
AcDbLine
 10
176.5122893334407
 20
138.6846664788279
 30
0.0
 11
176.5958999999999
 21
138.9669999999999
 31
0.0
  0
LINE
  5
9B0
330
1E
100
AcDbEntity
  8
0
100
AcDbLine
 10
176.0754999999999
 20
137.8349999999999
 30
0.0
 11
176.2296
 21
138.0649999999999
 31
0.0
  0
LINE
  5
9B1
330
1E
100
AcDbEntity
  8
0
100
AcDbLine
 10
176.3106999999999
 20
138.2069999999999
 30
0.0
 11
176.3827
 21
138.3529999999999
 31
0.0
  0
LINE
  5
9B2
330
1E
100
AcDbEntity
  8
0
100
AcDbLine
 10
176.3827
 20
138.3529999999999
 30
0.0
 11
176.4477
 21
138.5029999999999
 31
0.0
  0
LINE
  5
9B3
330
1E
100
AcDbEntity
  8
0
100
AcDbLine
 10
176.4477
 20
138.5029999999999
 30
0.0
 11
176.5047999999999
 21
138.6569999999999
 31
0.0
  0
LINE
  5
9B4
330
1E
100
AcDbEntity
  8
0
100
AcDbLine
 10
176.2296
 20
138.0649999999999
 30
0.0
 11
176.3106999999999
 21
138.2069999999999
 31
0.0
  0
LINE
  5
9B5
330
1E
100
AcDbEntity
  8
0
100
AcDbLine
 10
175.8994
 20
137.62
 30
0.0
 11
176.0754999999999
 21
137.8349999999999
 31
0.0
  0
LINE
  5
9B6
330
1E
100
AcDbEntity
  8
0
100
AcDbLine
 10
175.4861
 20
137.2459999999999
 30
0.0
 11
175.7022
 21
137.4219999999999
 31
0.0
  0
LINE
  5
9B7
330
1E
100
AcDbEntity
  8
0
100
AcDbLine
 10
175.7022
 20
137.4219999999999
 30
0.0
 11
175.8994
 21
137.62
 31
0.0
  0
LINE
  5
9B8
330
1E
100
AcDbEntity
  8
0
100
AcDbLine
 10
175.7141999999999
 20
141.9589999999999
 30
0.0
 11
175.9134
 21
141.7589999999999
 31
0.0
  0
LINE
  5
9B9
330
1E
100
AcDbEntity
  8
0
100
AcDbLine
 10
175.4950999999999
 20
142.1389999999999
 30
0.0
 11
175.7141999999999
 21
141.9589999999999
 31
0.0
  0
LINE
  5
9BA
330
1E
100
AcDbEntity
  8
0
100
AcDbLine
 10
176.3485999999999
 20
103.8289999999999
 30
0.0
 11
177.3011
 21
103.6799999999999
 31
0.0
  0
LINE
  5
9BB
330
1E
100
AcDbEntity
  8
0
100
AcDbLine
 10
174.9451999999999
 20
104.5629999999999
 30
0.0
 11
175.9723
 21
104.4939999999999
 31
0.0
  0
LINE
  5
9BC
330
1E
100
AcDbEntity
  8
0
100
AcDbLine
 10
175.3648999999999
 20
103.9279999999999
 30
0.0
 11
176.3485999999999
 21
103.8289999999999
 31
0.0
  0
LINE
  5
9BD
330
1E
100
AcDbEntity
  8
0
100
AcDbLine
 10
175.2878999999999
 20
137.1139999999999
 30
0.0
 11
175.4861
 21
137.2459999999999
 31
0.0
  0
LINE
  5
9BE
330
1E
100
AcDbEntity
  8
0
100
AcDbLine
 10
175.0538
 20
136.9879999999999
 30
0.0
 11
175.2878999999999
 21
137.1139999999999
 31
0.0
  0
LINE
  5
9BF
330
1E
100
AcDbEntity
  8
0
100
AcDbLine
 10
175.0548
 20
142.4009999999999
 30
0.0
 11
175.2579
 21
142.2949999999999
 31
0.0
  0
LINE
  5
9C0
330
1E
100
AcDbEntity
  8
0
100
AcDbLine
 10
175.2579
 20
142.2949999999999
 30
0.0
 11
175.4950999999999
 21
142.1389999999999
 31
0.0
  0
LINE
  5
9C1
330
1E
100
AcDbEntity
  8
0
100
AcDbLine
 10
174.3639999999999
 20
103.9749999999999
 30
0.0
 11
175.3648999999999
 21
103.9279999999999
 31
0.0
  0
LINE
  5
9C2
330
1E
100
AcDbEntity
  8
0
100
AcDbLine
 10
173.9812
 20
127.9139999999999
 30
0.0
 11
175.8063
 21
127.9139999999999
 31
0.0
  0
LINE
  5
9C3
330
1E
100
AcDbEntity
  8
0
100
AcDbLine
 10
174.1651
 20
142.6359999999999
 30
0.0
 11
174.3953
 21
142.6079999999999
 31
0.0
  0
LINE
  5
9C4
330
1E
100
AcDbEntity
  8
0
100
AcDbLine
 10
174.3953
 20
142.6079999999999
 30
0.0
 11
174.6234999999999
 21
142.5589999999999
 31
0.0
  0
LINE
  5
9C5
330
1E
100
AcDbEntity
  8
0
100
AcDbLine
 10
174.5503999999999
 20
136.8119999999999
 30
0.0
 11
174.8066
 21
136.8859999999999
 31
0.0
  0
LINE
  5
9C6
330
1E
100
AcDbEntity
  8
0
100
AcDbLine
 10
174.6234999999999
 20
142.5589999999999
 30
0.0
 11
174.8426
 21
142.4889999999999
 31
0.0
  0
LINE
  5
9C7
330
1E
100
AcDbEntity
  8
0
100
AcDbLine
 10
174.8426
 20
142.4889999999999
 30
0.0
 11
175.0548
 21
142.4009999999999
 31
0.0
  0
LINE
  5
9C8
330
1E
100
AcDbEntity
  8
0
100
AcDbLine
 10
174.8066
 20
136.8859999999999
 30
0.0
 11
175.0538
 21
136.9879999999999
 31
0.0
  0
LINE
  5
9C9
330
1E
100
AcDbEntity
  8
0
100
AcDbLine
 10
174.0960999999999
 20
136.748
 30
0.0
 11
174.3242
 21
136.7699999999999
 31
0.0
  0
LINE
  5
9CA
330
1E
100
AcDbEntity
  8
0
100
AcDbLine
 10
174.3242
 20
136.7699999999999
 30
0.0
 11
174.5503999999999
 21
136.8119999999999
 31
0.0
  0
LINE
  5
9CB
330
1E
100
AcDbEntity
  8
0
100
AcDbLine
 10
175.3648999999999
 20
95.89729999999997
 30
0.0
 11
176.3485999999999
 21
95.99629999999997
 31
0.0
  0
LINE
  5
9CC
330
1E
100
AcDbEntity
  8
0
100
AcDbLine
 10
176.3485999999999
 20
95.99629999999997
 30
0.0
 11
177.3011
 21
96.14549999999997
 31
0.0
  0
LINE
  5
9CD
330
1E
100
AcDbEntity
  8
0
100
AcDbLine
 10
177.3011
 20
96.14549999999997
 30
0.0
 11
178.2101
 21
96.34409999999997
 31
0.0
  0
LINE
  5
9CE
330
1E
100
AcDbEntity
  8
0
100
AcDbLine
 10
178.2101
 20
96.34409999999997
 30
0.0
 11
178.9940999999999
 21
96.56649999999999
 31
0.0
  0
LINE
  5
9CF
330
1E
100
AcDbEntity
  8
0
100
AcDbLine
 10
179.7235
 20
96.82529999999998
 30
0.0
 11
180.3904999999999
 21
97.11809999999998
 31
0.0
  0
LINE
  5
9D0
330
1E
100
AcDbEntity
  8
0
100
AcDbLine
 10
178.9940999999999
 20
96.56649999999999
 30
0.0
 11
179.7235
 21
96.82529999999998
 31
0.0
  0
LINE
  5
9D1
330
1E
100
AcDbEntity
  8
0
100
AcDbLine
 10
173.981
 20
111.4039999999999
 30
0.0
 11
174.0889107987271
 21
111.4051557743529
 31
0.0
  0
LINE
  5
9D2
330
1E
100
AcDbEntity
  8
0
100
AcDbLine
 10
173.8730892012728
 20
111.4051557743529
 30
0.0
 11
173.981
 21
111.4039999999999
 31
0.0
  0
LINE
  5
9D3
330
1E
100
AcDbEntity
  8
0
100
AcDbLine
 10
173.981
 20
162.659
 30
0.0
 11
176.9370999999999
 21
162.6089999999999
 31
0.0
  0
LINE
  5
9D4
330
1E
100
AcDbEntity
  8
0
100
AcDbLine
 10
173.981
 20
136.748
 30
0.0
 11
174.0960999999999
 21
136.748
 31
0.0
  0
LINE
  5
9D5
330
1E
100
AcDbEntity
  8
0
100
AcDbLine
 10
173.981
 20
142.6409999999999
 30
0.0
 11
174.1651
 21
142.6359999999999
 31
0.0
  0
LINE
  5
9D6
330
1E
100
AcDbEntity
  8
0
100
AcDbLine
 10
173.981
 20
111.4109999999999
 30
0.0
 11
176.843
 21
111.2559999999999
 31
0.0
  0
LINE
  5
9D7
330
1E
100
AcDbEntity
  8
0
100
AcDbLine
 10
173.981
 20
118.8579999999999
 30
0.0
 11
183.6057999999999
 21
118.4279999999999
 31
0.0
  0
LINE
  5
9D8
330
1E
100
AcDbEntity
  8
0
100
AcDbLine
 10
152.4167199999999
 20
126.6149999999999
 30
0.0
 11
152.4517499999999
 21
127.1149999999999
 31
0.0
  0
LINE
  5
9D9
330
1E
100
AcDbEntity
  8
0
100
AcDbLine
 10
152.4517499999999
 20
127.1149999999999
 30
0.0
 11
152.50779
 21
127.3249999999999
 31
0.0
  0
LINE
  5
9DA
330
1E
100
AcDbEntity
  8
0
100
AcDbLine
 10
153.5415199999999
 20
127.9099999999999
 30
0.0
 11
153.75868
 21
127.9109999999999
 31
0.0
  0
LINE
  5
9DB
330
1E
100
AcDbEntity
  8
0
100
AcDbLine
 10
166.6707999999999
 20
127.9119999999999
 30
0.0
 11
169.3666999999999
 21
127.9129999999999
 31
0.0
  0
LINE
  5
9DC
330
1E
100
AcDbEntity
  8
0
100
AcDbLine
 10
169.3666999999999
 20
127.9129999999999
 30
0.0
 11
172.1557
 21
127.9139999999999
 31
0.0
  0
LINE
  5
9DD
330
1E
100
AcDbEntity
  8
0
100
AcDbLine
 10
172.1557
 20
127.9139999999999
 30
0.0
 11
173.9808
 21
127.9139999999999
 31
0.0
  0
LINE
  5
9DE
330
1E
100
AcDbEntity
  8
0
100
AcDbLine
 10
172.4759
 20
137.2459999999999
 30
0.0
 11
172.6741
 21
137.1139999999999
 31
0.0
  0
LINE
  5
9DF
330
1E
100
AcDbEntity
  8
0
100
AcDbLine
 10
172.2597999999999
 20
137.4219999999999
 30
0.0
 11
172.4759
 21
137.2459999999999
 31
0.0
  0
LINE
  5
9E0
330
1E
100
AcDbEntity
  8
0
100
AcDbLine
 10
172.4669
 20
142.1389999999999
 30
0.0
 11
172.7040999999999
 21
142.2949999999999
 31
0.0
  0
LINE
  5
9E1
330
1E
100
AcDbEntity
  8
0
100
AcDbLine
 10
172.7040999999999
 20
142.2949999999999
 30
0.0
 11
172.9071999999999
 21
142.4009999999999
 31
0.0
  0
LINE
  5
9E2
330
1E
100
AcDbEntity
  8
0
100
AcDbLine
 10
172.9071999999999
 20
142.4009999999999
 30
0.0
 11
173.1193999999999
 21
142.4889999999999
 31
0.0
  0
LINE
  5
9E3
330
1E
100
AcDbEntity
  8
0
100
AcDbLine
 10
173.1193999999999
 20
142.4889999999999
 30
0.0
 11
173.3385
 21
142.5589999999999
 31
0.0
  0
LINE
  5
9E4
330
1E
100
AcDbEntity
  8
0
100
AcDbLine
 10
173.3385
 20
142.5589999999999
 30
0.0
 11
173.5666999999999
 21
142.6079999999999
 31
0.0
  0
LINE
  5
9E5
330
1E
100
AcDbEntity
  8
0
100
AcDbLine
 10
173.7968999999999
 20
142.6359999999999
 30
0.0
 11
173.981
 21
142.6409999999999
 31
0.0
  0
LINE
  5
9E6
330
1E
100
AcDbEntity
  8
0
100
AcDbLine
 10
173.5666999999999
 20
142.6079999999999
 30
0.0
 11
173.7968999999999
 21
142.6359999999999
 31
0.0
  0
LINE
  5
9E7
330
1E
100
AcDbEntity
  8
0
100
AcDbLine
 10
172.2477999999999
 20
141.9589999999999
 30
0.0
 11
172.4669
 21
142.1389999999999
 31
0.0
  0
LINE
  5
9E8
330
1E
100
AcDbEntity
  8
0
100
AcDbLine
 10
173.8659
 20
136.748
 30
0.0
 11
173.981
 21
136.748
 31
0.0
  0
LINE
  5
9E9
330
1E
100
AcDbEntity
  8
0
100
AcDbLine
 10
173.6377999999999
 20
136.7699999999999
 30
0.0
 11
173.8659
 21
136.748
 31
0.0
  0
LINE
  5
9EA
330
1E
100
AcDbEntity
  8
0
100
AcDbLine
 10
173.4116
 20
136.8119999999999
 30
0.0
 11
173.6377999999999
 21
136.7699999999999
 31
0.0
  0
LINE
  5
9EB
330
1E
100
AcDbEntity
  8
0
100
AcDbLine
 10
173.1553999999999
 20
136.8859999999999
 30
0.0
 11
173.4116
 21
136.8119999999999
 31
0.0
  0
LINE
  5
9EC
330
1E
100
AcDbEntity
  8
0
100
AcDbLine
 10
172.9082
 20
136.9879999999999
 30
0.0
 11
173.1553999999999
 21
136.8859999999999
 31
0.0
  0
LINE
  5
9ED
330
1E
100
AcDbEntity
  8
0
100
AcDbLine
 10
172.6741
 20
137.1139999999999
 30
0.0
 11
172.9082
 21
136.9879999999999
 31
0.0
  0
LINE
  5
9EE
330
1E
100
AcDbEntity
  8
0
100
AcDbLine
 10
171.8865
 20
141.5609999999999
 30
0.0
 11
172.0486
 21
141.7589999999999
 31
0.0
  0
LINE
  5
9EF
330
1E
100
AcDbEntity
  8
0
100
AcDbLine
 10
172.0625999999999
 20
137.62
 30
0.0
 11
172.2597999999999
 21
137.4219999999999
 31
0.0
  0
LINE
  5
9F0
330
1E
100
AcDbEntity
  8
0
100
AcDbLine
 10
172.0486
 20
141.7589999999999
 30
0.0
 11
172.2477999999999
 21
141.9589999999999
 31
0.0
  0
LINE
  5
9F1
330
1E
100
AcDbEntity
  8
0
100
AcDbLine
 10
171.7423999999999
 20
141.351
 30
0.0
 11
171.8865
 21
141.5609999999999
 31
0.0
  0
LINE
  5
9F2
330
1E
100
AcDbEntity
  8
0
100
AcDbLine
 10
171.0249
 20
162.6089999999999
 30
0.0
 11
173.981
 21
162.659
 31
0.0
  0
LINE
  5
9F3
330
1E
100
AcDbEntity
  8
0
100
AcDbLine
 10
171.8865
 20
137.8349999999999
 30
0.0
 11
172.0625999999999
 21
137.62
 31
0.0
  0
LINE
  5
9F4
330
1E
100
AcDbEntity
  8
0
100
AcDbLine
 10
171.7323999999999
 20
138.0649999999999
 30
0.0
 11
171.8865
 21
137.8349999999999
 31
0.0
  0
LINE
  5
9F5
330
1E
100
AcDbEntity
  8
0
100
AcDbLine
 10
171.5142999999999
 20
138.5029999999999
 30
0.0
 11
171.5792999999999
 21
138.3529999999999
 31
0.0
  0
LINE
  5
9F6
330
1E
100
AcDbEntity
  8
0
100
AcDbLine
 10
171.5792999999999
 20
138.3529999999999
 30
0.0
 11
171.6512999999999
 21
138.2069999999999
 31
0.0
  0
LINE
  5
9F7
330
1E
100
AcDbEntity
  8
0
100
AcDbLine
 10
171.6172999999999
 20
141.1289999999999
 30
0.0
 11
171.7423999999999
 21
141.351
 31
0.0
  0
LINE
  5
9F8
330
1E
100
AcDbEntity
  8
0
100
AcDbLine
 10
171.6512999999999
 20
138.2069999999999
 30
0.0
 11
171.7323999999999
 21
138.0649999999999
 31
0.0
  0
LINE
  5
9F9
330
1E
100
AcDbEntity
  8
0
100
AcDbLine
 10
171.4571999999999
 20
138.6569999999999
 30
0.0
 11
171.5142999999999
 21
138.5029999999999
 31
0.0
  0
LINE
  5
9FA
330
1E
100
AcDbEntity
  8
0
100
AcDbLine
 10
171.3071
 20
139.2889999999999
 30
0.0
 11
171.3661
 21
138.9669999999999
 31
0.0
  0
LINE
  5
9FB
330
1E
100
AcDbEntity
  8
0
100
AcDbLine
 10
171.5113
 20
140.8979999999999
 30
0.0
 11
171.6172999999999
 21
141.1289999999999
 31
0.0
  0
LINE
  5
9FC
330
1E
100
AcDbEntity
  8
0
100
AcDbLine
 10
171.4531999999999
 20
140.745
 30
0.0
 11
171.5113
 21
140.8979999999999
 31
0.0
  0
LINE
  5
9FD
330
1E
100
AcDbEntity
  8
0
100
AcDbLine
 10
171.4042
 20
140.5899999999999
 30
0.0
 11
171.4531999999999
 21
140.745
 31
0.0
  0
LINE
  5
9FE
330
1E
100
AcDbEntity
  8
0
100
AcDbLine
 10
171.3621
 20
140.4309999999999
 30
0.0
 11
171.4042
 21
140.5899999999999
 31
0.0
  0
LINE
  5
9FF
330
1E
100
AcDbEntity
  8
0
100
AcDbLine
 10
171.3661
 20
138.9669999999999
 30
0.0
 11
171.4497106665592
 21
138.6846664788279
 31
0.0
  0
LINE
  5
A00
330
1E
100
AcDbEntity
  8
0
100
AcDbLine
 10
171.3661
 20
138.9669999999999
 30
0.0
 11
171.4571999999999
 21
138.6569999999999
 31
0.0
  0
LINE
  5
A01
330
1E
100
AcDbEntity
  8
0
100
AcDbLine
 10
171.3290999999999
 20
140.2689999999999
 30
0.0
 11
171.3621
 21
140.4309999999999
 31
0.0
  0
LINE
  5
A02
330
1E
100
AcDbEntity
  8
0
100
AcDbLine
 10
171.2800999999999
 20
139.6159999999999
 30
0.0
 11
171.2880999999999
 21
139.9439999999999
 31
0.0
  0
LINE
  5
A03
330
1E
100
AcDbEntity
  8
0
100
AcDbLine
 10
171.2800999999999
 20
139.6159999999999
 30
0.0
 11
171.3071
 21
139.2889999999999
 31
0.0
  0
LINE
  5
A04
330
1E
100
AcDbEntity
  8
0
100
AcDbLine
 10
171.2880999999999
 20
139.9439999999999
 30
0.0
 11
171.3290999999999
 21
140.2689999999999
 31
0.0
  0
LINE
  5
A05
330
1E
100
AcDbEntity
  8
0
100
AcDbLine
 10
153.75868
 20
127.9109999999999
 30
0.0
 11
154.18398
 21
127.9099999999999
 31
0.0
  0
LINE
  5
A06
330
1E
100
AcDbEntity
  8
0
100
AcDbLine
 10
153.67662
 20
129.0029999999999
 30
0.0
 11
153.8969041715116
 21
130.4139999999999
 31
0.0
  0
LINE
  5
A07
330
1E
100
AcDbEntity
  8
0
100
AcDbLine
 10
166.0983999999999
 20
172.091
 30
0.0
 11
170.0371999999999
 21
172.1769999999999
 31
0.0
  0
LINE
  5
A08
330
1E
100
AcDbEntity
  8
0
100
AcDbLine
 10
158.2508599999999
 20
171.7269999999999
 30
0.0
 11
162.1685999999999
 21
171.9439999999999
 31
0.0
  0
LINE
  5
A09
330
1E
100
AcDbEntity
  8
0
100
AcDbLine
 10
162.1685999999999
 20
171.9439999999999
 30
0.0
 11
166.0983999999999
 21
172.091
 31
0.0
  0
LINE
  5
A0A
330
1E
100
AcDbEntity
  8
0
100
AcDbLine
 10
156.11034
 20
171.4369999999999
 30
0.0
 11
156.7708099999999
 21
171.5739999999999
 31
0.0
  0
LINE
  5
A0B
330
1E
100
AcDbEntity
  8
0
100
AcDbLine
 10
156.7708099999999
 20
171.5739999999999
 30
0.0
 11
157.2491499999999
 21
171.6419999999999
 31
0.0
  0
LINE
  5
A0C
330
1E
100
AcDbEntity
  8
0
100
AcDbLine
 10
157.2491499999999
 20
171.6419999999999
 30
0.0
 11
158.2508599999999
 21
171.7269999999999
 31
0.0
  0
LINE
  5
A0D
330
1E
100
AcDbEntity
  8
0
100
AcDbLine
 10
155.5499399999999
 20
171.2609999999999
 30
0.0
 11
156.11034
 21
171.4369999999999
 31
0.0
  0
LINE
  5
A0E
330
1E
100
AcDbEntity
  8
0
100
AcDbLine
 10
154.9034899999999
 20
170.9429999999999
 30
0.0
 11
155.11464
 21
171.0569999999999
 31
0.0
  0
LINE
  5
A0F
330
1E
100
AcDbEntity
  8
0
100
AcDbLine
 10
155.11464
 20
171.0569999999999
 30
0.0
 11
155.5499399999999
 21
171.2609999999999
 31
0.0
  0
LINE
  5
A10
330
1E
100
AcDbEntity
  8
0
100
AcDbLine
 10
154.58726
 20
170.7049999999999
 30
0.0
 11
154.9034899999999
 21
170.9429999999999
 31
0.0
  0
LINE
  5
A11
330
1E
100
AcDbEntity
  8
0
100
AcDbLine
 10
154.2950599999999
 20
170.3069999999999
 30
0.0
 11
154.46217
 21
170.5489999999999
 31
0.0
  0
LINE
  5
A12
330
1E
100
AcDbEntity
  8
0
100
AcDbLine
 10
154.46217
 20
170.5489999999999
 30
0.0
 11
154.58726
 21
170.7049999999999
 31
0.0
  0
LINE
  5
A13
330
1E
100
AcDbEntity
  8
0
100
AcDbLine
 10
154.1989899999999
 20
169.9989999999999
 30
0.0
 11
154.2950599999999
 21
170.3069999999999
 31
0.0
  0
LINE
  5
A14
330
1E
100
AcDbEntity
  8
0
100
AcDbLine
 10
153.7226499999999
 20
167.7589999999999
 30
0.0
 11
153.7701546754687
 21
167.7997693546819
 31
0.0
  0
LINE
  5
A15
330
1E
100
AcDbEntity
  8
0
100
AcDbLine
 10
153.76868
 20
167.7949999999999
 30
0.0
 11
153.8613942611326
 21
168.0948539032819
 31
0.0
  0
LINE
  5
A16
330
1E
100
AcDbEntity
  8
0
100
AcDbLine
 10
154.03687
 20
169.0479999999999
 30
0.0
 11
154.1379499999999
 21
169.788
 31
0.0
  0
LINE
  5
A17
330
1E
100
AcDbEntity
  8
0
100
AcDbLine
 10
154.1379499999999
 20
169.788
 30
0.0
 11
154.1989899999999
 21
169.9989999999999
 31
0.0
  0
LINE
  5
A18
330
1E
100
AcDbEntity
  8
0
100
AcDbLine
 10
153.9127899999999
 20
168.3269999999999
 30
0.0
 11
153.9868399999999
 21
168.7339999999999
 31
0.0
  0
LINE
  5
A19
330
1E
100
AcDbEntity
  8
0
100
AcDbLine
 10
153.9868399999999
 20
168.7339999999999
 30
0.0
 11
154.03687
 21
169.0479999999999
 31
0.0
  0
LINE
  5
A1A
330
1E
100
AcDbEntity
  8
0
100
AcDbLine
 10
153.8397299999999
 20
167.9969999999999
 30
0.0
 11
153.9127899999999
 21
168.3269999999999
 31
0.0
  0
LINE
  5
A1B
330
1E
100
AcDbEntity
  8
0
100
AcDbLine
 10
152.4617599999999
 20
130.4139999999999
 30
0.0
 11
156.9919699999999
 21
130.4139999999999
 31
0.0
  0
LINE
  5
A1C
330
1E
100
AcDbEntity
  8
0
100
AcDbLine
 10
156.9919699999999
 20
130.4139999999999
 30
0.0
 11
182.9433
 21
130.4139999999999
 31
0.0
  0
LINE
  5
A1D
330
1E
100
AcDbEntity
  8
0
100
AcDbLine
 10
153.6405899999999
 20
167.5629999999999
 30
0.0
 11
153.76868
 21
167.7949999999999
 31
0.0
  0
LINE
  5
A1E
330
1E
100
AcDbEntity
  8
0
100
AcDbLine
 10
153.66361
 20
168.1879999999999
 30
0.0
 11
153.8833768932195
 21
168.1941458357849
 31
0.0
  0
LINE
  5
A1F
330
1E
100
AcDbEntity
  8
0
100
AcDbLine
 10
153.3634
 20
168.1759999999999
 30
0.0
 11
153.66361
 21
168.1879999999999
 31
0.0
  0
LINE
  5
A20
330
1E
100
AcDbEntity
  8
0
100
AcDbLine
 10
152.7139399999999
 20
168.1289999999999
 30
0.0
 11
152.7859899999999
 21
168.1359999999999
 31
0.0
  0
LINE
  5
A21
330
1E
100
AcDbEntity
  8
0
100
AcDbLine
 10
152.7859899999999
 20
168.1359999999999
 30
0.0
 11
153.3634
 21
168.1759999999999
 31
0.0
  0
LINE
  5
A22
330
1E
100
AcDbEntity
  8
0
100
AcDbLine
 10
152.49178
 20
168.0669999999999
 30
0.0
 11
152.7139399999999
 21
168.1289999999999
 31
0.0
  0
LINE
  5
A23
330
1E
100
AcDbEntity
  8
0
100
AcDbLine
 10
153.6205589235803
 20
127.9103639663089
 30
0.0
 11
153.67662
 21
129.0029999999999
 31
0.0
  0
LINE
  5
A24
330
1E
100
AcDbEntity
  8
0
100
AcDbLine
 10
152.6589
 20
127.5859999999999
 30
0.0
 11
152.8880599999999
 21
127.7719999999999
 31
0.0
  0
LINE
  5
A25
330
1E
100
AcDbEntity
  8
0
100
AcDbLine
 10
152.8880599999999
 20
127.7719999999999
 30
0.0
 11
153.0792
 21
127.8499999999999
 31
0.0
  0
LINE
  5
A26
330
1E
100
AcDbEntity
  8
0
100
AcDbLine
 10
164.122
 20
127.9099999999999
 30
0.0
 11
166.6707999999999
 21
127.9119999999999
 31
0.0
  0
LINE
  5
A27
330
1E
100
AcDbEntity
  8
0
100
AcDbLine
 10
161.7563
 20
127.9089999999999
 30
0.0
 11
164.122
 21
127.9099999999999
 31
0.0
  0
LINE
  5
A28
330
1E
100
AcDbEntity
  8
0
100
AcDbLine
 10
153.0792
 20
127.8499999999999
 30
0.0
 11
153.42644
 21
127.9049999999999
 31
0.0
  0
LINE
  5
A29
330
1E
100
AcDbEntity
  8
0
100
AcDbLine
 10
153.42644
 20
127.9049999999999
 30
0.0
 11
153.5415199999999
 21
127.9099999999999
 31
0.0
  0
LINE
  5
A2A
330
1E
100
AcDbEntity
  8
0
100
AcDbLine
 10
156.0793199999999
 20
127.9079999999999
 30
0.0
 11
157.80754
 21
127.9069999999999
 31
0.0
  0
LINE
  5
A2B
330
1E
100
AcDbEntity
  8
0
100
AcDbLine
 10
154.18398
 20
127.9099999999999
 30
0.0
 11
154.7853999999999
 21
127.9089999999999
 31
0.0
  0
LINE
  5
A2C
330
1E
100
AcDbEntity
  8
0
100
AcDbLine
 10
154.7853999999999
 20
127.9089999999999
 30
0.0
 11
156.0793199999999
 21
127.9079999999999
 31
0.0
  0
LINE
  5
A2D
330
1E
100
AcDbEntity
  8
0
100
AcDbLine
 10
157.80754
 20
127.9069999999999
 30
0.0
 11
159.63884
 21
127.9079999999999
 31
0.0
  0
LINE
  5
A2E
330
1E
100
AcDbEntity
  8
0
100
AcDbLine
 10
159.63884
 20
127.9079999999999
 30
0.0
 11
161.7563
 21
127.9089999999999
 31
0.0
  0
LINE
  5
A2F
330
1E
100
AcDbEntity
  8
0
100
AcDbLine
 10
152.61286
 20
127.5079999999999
 30
0.0
 11
152.6589
 21
127.5859999999999
 31
0.0
  0
LINE
  5
A30
330
1E
100
AcDbEntity
  8
0
100
AcDbLine
 10
152.50779
 20
127.3249999999999
 30
0.0
 11
152.6589
 21
127.5859999999999
 31
0.0
  0
LINE
  5
A31
330
1E
100
AcDbEntity
  8
0
100
AcDbLine
 10
152.21158
 20
130.4799999999999
 30
0.0
 11
152.4617599999999
 21
130.4139999999999
 31
0.0
  0
LINE
  5
A32
330
1E
100
AcDbEntity
  8
0
100
AcDbLine
 10
152.02845
 20
130.6639999999999
 30
0.0
 11
152.21158
 21
130.4799999999999
 31
0.0
  0
LINE
  5
A33
330
1E
100
AcDbEntity
  8
0
100
AcDbLine
 10
152.22359
 20
167.8929999999999
 30
0.0
 11
152.48477
 21
168.0629999999999
 31
0.0
  0
LINE
  5
A34
330
1E
100
AcDbEntity
  8
0
100
AcDbLine
 10
152.05747
 20
167.6319999999999
 30
0.0
 11
152.22359
 21
167.8929999999999
 31
0.0
  0
LINE
  5
A35
330
1E
100
AcDbEntity
  8
0
100
AcDbLine
 10
151.9594
 20
130.9119999999999
 30
0.0
 11
151.9633999999999
 21
142.5799999999999
 31
0.0
  0
LINE
  5
A36
330
1E
100
AcDbEntity
  8
0
100
AcDbLine
 10
151.97041
 20
166.8429999999999
 30
0.0
 11
151.9633999999999
 21
142.5799999999999
 31
0.0
  0
LINE
  5
A37
330
1E
100
AcDbEntity
  8
0
100
AcDbLine
 10
151.97041
 20
166.8429999999999
 30
0.0
 11
151.9984299999999
 21
167.408
 31
0.0
  0
LINE
  5
A38
330
1E
100
AcDbEntity
  8
0
100
AcDbLine
 10
151.9984299999999
 20
167.408
 30
0.0
 11
152.05747
 21
167.6319999999999
 31
0.0
  0
LINE
  5
A39
330
1E
100
AcDbEntity
  8
0
100
AcDbLine
 10
151.9633999999999
 20
142.5799999999999
 30
0.0
 11
151.97041
 21
166.8429999999999
 31
0.0
  0
LINE
  5
A3A
330
1E
100
AcDbEntity
  8
0
100
AcDbLine
 10
151.9594
 20
130.9119999999999
 30
0.0
 11
152.02845
 21
130.6639999999999
 31
0.0
  0
LINE
  5
A3B
330
1E
100
AcDbEntity
  8
0
100
AcDbLine
 10
155.02857
 20
118.2669999999999
 30
0.0
 11
164.3562
 21
118.4279999999999
 31
0.0
  0
LINE
  5
A3C
330
1E
100
AcDbEntity
  8
0
100
AcDbLine
 10
164.3562
 20
118.4279999999999
 30
0.0
 11
173.981
 21
118.8579999999999
 31
0.0
  0
LINE
  5
A3D
330
1E
100
AcDbEntity
  8
0
100
AcDbLine
 10
155.02857
 20
118.2669999999999
 30
0.0
 11
164.3562
 21
118.4279999999999
 31
0.0
  0
LINE
  5
A3E
330
1E
100
AcDbEntity
  8
0
100
AcDbLine
 10
153.3333799999999
 20
116.5479999999999
 30
0.0
 11
153.3663999999999
 21
116.4829999999999
 31
0.0
  0
LINE
  5
A3F
330
1E
100
AcDbEntity
  8
0
100
AcDbLine
 10
153.3663999999999
 20
116.4829999999999
 30
0.0
 11
153.43245
 21
116.1459999999999
 31
0.0
  0
LINE
  5
A40
330
1E
100
AcDbEntity
  8
0
100
AcDbLine
 10
153.43245
 20
116.1459999999999
 30
0.0
 11
153.4792085240921
 21
115.8108155151449
 31
0.0
  0
LINE
  5
A41
330
1E
100
AcDbEntity
  8
0
100
AcDbLine
 10
153.52251
 20
114.4789999999999
 30
0.0
 11
153.54052
 21
113.6559999999999
 31
0.0
  0
LINE
  5
A42
330
1E
100
AcDbEntity
  8
0
100
AcDbLine
 10
153.4792085240921
 20
115.8108155151449
 30
0.0
 11
153.52251
 21
114.4789999999999
 31
0.0
  0
LINE
  5
A43
330
1E
100
AcDbEntity
  8
0
100
AcDbLine
 10
153.5054999999999
 20
115.0709999999999
 30
0.0
 11
153.5086047093022
 21
114.9859103868219
 31
0.0
  0
LINE
  5
A44
330
1E
100
AcDbEntity
  8
0
100
AcDbLine
 10
153.54052
 20
113.6559999999999
 30
0.0
 11
153.5575299999999
 21
112.6909999999999
 31
0.0
  0
LINE
  5
A45
330
1E
100
AcDbEntity
  8
0
100
AcDbLine
 10
153.5715399999999
 20
111.6869999999999
 30
0.0
 11
153.58355
 21
110.5479999999999
 31
0.0
  0
LINE
  5
A46
330
1E
100
AcDbEntity
  8
0
100
AcDbLine
 10
153.5575299999999
 20
112.6909999999999
 30
0.0
 11
153.5715399999999
 21
111.6869999999999
 31
0.0
  0
LINE
  5
A47
330
1E
100
AcDbEntity
  8
0
100
AcDbLine
 10
173.981
 20
104.5819999999999
 30
0.0
 11
174.9451999999999
 21
104.5629999999999
 31
0.0
  0
LINE
  5
A48
330
1E
100
AcDbEntity
  8
0
100
AcDbLine
 10
173.981
 20
103.9719999999999
 30
0.0
 11
174.3639999999999
 21
103.9749999999999
 31
0.0
  0
LINE
  5
A49
330
1E
100
AcDbEntity
  8
0
100
AcDbLine
 10
161.981
 20
105.5289999999999
 30
0.0
 11
161.981
 21
100.0988999999999
 31
0.0
  0
LINE
  5
A4A
330
1E
100
AcDbEntity
  8
0
100
AcDbLine
 10
162.9959999999999
 20
108.0059999999999
 30
0.0
 11
163.4923999999999
 21
108.4769999999999
 31
0.0
  0
LINE
  5
A4B
330
1E
100
AcDbEntity
  8
0
100
AcDbLine
 10
167.6220256819178
 20
110.5458620202559
 30
0.0
 11
168.3251999999999
 21
110.7429999999999
 31
0.0
  0
LINE
  5
A4C
330
1E
100
AcDbEntity
  8
0
100
AcDbLine
 10
170.7969276213679
 20
111.2009144518099
 30
0.0
 11
171.3331703799137
 21
111.2675990247679
 31
0.0
  0
LINE
  5
A4D
330
1E
100
AcDbEntity
  8
0
100
AcDbLine
 10
171.119
 20
111.2559999999999
 30
0.0
 11
173.981
 21
111.4109999999999
 31
0.0
  0
LINE
  5
A4E
330
1E
100
AcDbEntity
  8
0
100
AcDbLine
 10
168.3251999999999
 20
110.7429999999999
 30
0.0
 11
168.9797930960544
 21
110.8901214186179
 31
0.0
  0
LINE
  5
A4F
330
1E
100
AcDbEntity
  8
0
100
AcDbLine
 10
168.4060999999999
 20
110.7919999999999
 30
0.0
 11
171.119
 21
111.2559999999999
 31
0.0
  0
LINE
  5
A50
330
1E
100
AcDbEntity
  8
0
100
AcDbLine
 10
166.4667
 20
110.1629999999999
 30
0.0
 11
167.0969719226146
 21
110.3810362268439
 31
0.0
  0
LINE
  5
A51
330
1E
100
AcDbEntity
  8
0
100
AcDbLine
 10
165.6354
 20
109.8159999999999
 30
0.0
 11
166.4667
 21
110.1629999999999
 31
0.0
  0
LINE
  5
A52
330
1E
100
AcDbEntity
  8
0
100
AcDbLine
 10
165.9882999999999
 20
110.0329999999999
 30
0.0
 11
168.4060999999999
 21
110.7919999999999
 31
0.0
  0
LINE
  5
A53
330
1E
100
AcDbEntity
  8
0
100
AcDbLine
 10
164.8797
 20
109.4319999999999
 30
0.0
 11
165.6354
 21
109.8159999999999
 31
0.0
  0
LINE
  5
A54
330
1E
100
AcDbEntity
  8
0
100
AcDbLine
 10
164.2067
 20
109.0179999999999
 30
0.0
 11
164.8797
 21
109.4319999999999
 31
0.0
  0
LINE
  5
A55
330
1E
100
AcDbEntity
  8
0
100
AcDbLine
 10
163.4923999999999
 20
108.4769999999999
 30
0.0
 11
163.6225
 21
108.5769999999999
 31
0.0
  0
LINE
  5
A56
330
1E
100
AcDbEntity
  8
0
100
AcDbLine
 10
163.6225
 20
108.5769999999999
 30
0.0
 11
164.2067
 21
109.0179999999999
 31
0.0
  0
LINE
  5
A57
330
1E
100
AcDbEntity
  8
0
100
AcDbLine
 10
163.9929
 20
109.0029999999999
 30
0.0
 11
165.9882999999999
 21
110.0329999999999
 31
0.0
  0
LINE
  5
A58
330
1E
100
AcDbEntity
  8
0
100
AcDbLine
 10
162.5985
 20
107.5149999999999
 30
0.0
 11
162.9959999999999
 21
108.0059999999999
 31
0.0
  0
LINE
  5
A59
330
1E
100
AcDbEntity
  8
0
100
AcDbLine
 10
173.0167999999999
 20
104.5629999999999
 30
0.0
 11
173.981
 21
104.5819999999999
 31
0.0
  0
LINE
  5
A5A
330
1E
100
AcDbEntity
  8
0
100
AcDbLine
 10
171.9896999999999
 20
104.4939999999999
 30
0.0
 11
173.0167999999999
 21
104.5629999999999
 31
0.0
  0
LINE
  5
A5B
330
1E
100
AcDbEntity
  8
0
100
AcDbLine
 10
162.3048999999999
 20
107.0079999999999
 30
0.0
 11
162.5985
 21
107.5149999999999
 31
0.0
  0
LINE
  5
A5C
330
1E
100
AcDbEntity
  8
0
100
AcDbLine
 10
162.5389
 20
107.7479999999999
 30
0.0
 11
163.9929
 21
109.0029999999999
 31
0.0
  0
LINE
  5
A5D
330
1E
100
AcDbEntity
  8
0
100
AcDbLine
 10
162.0626999999999
 20
106.3149999999999
 30
0.0
 11
162.1161999999999
 21
106.4919999999999
 31
0.0
  0
LINE
  5
A5E
330
1E
100
AcDbEntity
  8
0
100
AcDbLine
 10
162.1161999999999
 20
106.4919999999999
 30
0.0
 11
162.3048999999999
 21
107.0079999999999
 31
0.0
  0
LINE
  5
A5F
330
1E
100
AcDbEntity
  8
0
100
AcDbLine
 10
161.981
 20
105.7889999999999
 30
0.0
 11
161.981
 21
100.3589999999999
 31
0.0
  0
LINE
  5
A60
330
1E
100
AcDbEntity
  8
0
100
AcDbLine
 10
161.981
 20
105.7889999999999
 30
0.0
 11
162.0626999999999
 21
106.3149999999999
 31
0.0
  0
LINE
  5
A61
330
1E
100
AcDbEntity
  8
0
100
AcDbLine
 10
161.6883
 20
106.3159999999999
 30
0.0
 11
162.5389
 21
107.7479999999999
 31
0.0
  0
LINE
  5
A62
330
1E
100
AcDbEntity
  8
0
100
AcDbLine
 10
153.81472
 20
108.4319999999999
 30
0.0
 11
153.9388
 21
107.9769999999999
 31
0.0
  0
LINE
  5
A63
330
1E
100
AcDbEntity
  8
0
100
AcDbLine
 10
153.9388
 20
107.9769999999999
 30
0.0
 11
154.27704
 21
107.0639999999999
 31
0.0
  0
LINE
  5
A64
330
1E
100
AcDbEntity
  8
0
100
AcDbLine
 10
154.27704
 20
107.0639999999999
 30
0.0
 11
154.84845
 21
105.9759999999999
 31
0.0
  0
LINE
  5
A65
330
1E
100
AcDbEntity
  8
0
100
AcDbLine
 10
153.77469
 20
108.5939999999999
 30
0.0
 11
153.81472
 21
108.4319999999999
 31
0.0
  0
LINE
  5
A66
330
1E
100
AcDbEntity
  8
0
100
AcDbLine
 10
153.6756199999999
 20
109.0599999999999
 30
0.0
 11
153.77469
 21
108.5939999999999
 31
0.0
  0
LINE
  5
A67
330
1E
100
AcDbEntity
  8
0
100
AcDbLine
 10
153.61858
 20
109.5339999999999
 30
0.0
 11
153.6756199999999
 21
109.0599999999999
 31
0.0
  0
LINE
  5
A68
330
1E
100
AcDbEntity
  8
0
100
AcDbLine
 10
153.5905599999999
 20
110.2309999999999
 30
0.0
 11
153.61858
 21
109.5339999999999
 31
0.0
  0
LINE
  5
A69
330
1E
100
AcDbEntity
  8
0
100
AcDbLine
 10
153.58355
 20
110.5479999999999
 30
0.0
 11
153.5905599999999
 21
110.2309999999999
 31
0.0
  0
LINE
  5
A6A
330
1E
100
AcDbEntity
  8
0
100
AcDbLine
 10
154.84845
 20
105.9759999999999
 30
0.0
 11
155.15967
 21
105.3929999999999
 31
0.0
  0
LINE
  5
A6B
330
1E
100
AcDbEntity
  8
0
100
AcDbLine
 10
161.4721
 20
105.0849999999999
 30
0.0
 11
161.6883
 21
106.3159999999999
 31
0.0
  0
LINE
  5
A6C
330
1E
100
AcDbEntity
  8
0
100
AcDbLine
 10
161.4721
 20
105.0849999999999
 30
0.0
 11
161.6782999999999
 21
103.8259999999999
 31
0.0
  0
LINE
  5
A6D
330
1E
100
AcDbEntity
  8
0
100
AcDbLine
 10
155.15967
 20
105.3929999999999
 30
0.0
 11
155.6279999999999
 21
104.7089999999999
 31
0.0
  0
LINE
  5
A6E
330
1E
100
AcDbEntity
  8
0
100
AcDbLine
 10
155.6279999999999
 20
104.7089999999999
 30
0.0
 11
156.09433
 21
104.1179999999999
 31
0.0
  0
LINE
  5
A6F
330
1E
100
AcDbEntity
  8
0
100
AcDbLine
 10
170.9848
 20
104.3759999999999
 30
0.0
 11
171.9896999999999
 21
104.4939999999999
 31
0.0
  0
LINE
  5
A70
330
1E
100
AcDbEntity
  8
0
100
AcDbLine
 10
173.598
 20
103.9749999999999
 30
0.0
 11
173.981
 21
103.9719999999999
 31
0.0
  0
LINE
  5
A71
330
1E
100
AcDbEntity
  8
0
100
AcDbLine
 10
170.0091
 20
104.2139999999999
 30
0.0
 11
170.9848
 21
104.3759999999999
 31
0.0
  0
LINE
  5
A72
330
1E
100
AcDbEntity
  8
0
100
AcDbLine
 10
169.0749
 20
104.0059999999999
 30
0.0
 11
170.0091
 21
104.2139999999999
 31
0.0
  0
LINE
  5
A73
330
1E
100
AcDbEntity
  8
0
100
AcDbLine
 10
156.09433
 20
104.1179999999999
 30
0.0
 11
156.34651
 21
103.8289999999999
 31
0.0
  0
LINE
  5
A74
330
1E
100
AcDbEntity
  8
0
100
AcDbLine
 10
165.3297
 20
97.34599999999998
 30
0.0
 11
165.9289999999999
 21
96.95529999999997
 31
0.0
  0
LINE
  5
A75
330
1E
100
AcDbEntity
  8
0
100
AcDbLine
 10
165.6354
 20
96.07259999999998
 30
0.0
 11
166.4667
 21
95.72419999999997
 31
0.0
  0
LINE
  5
A76
330
1E
100
AcDbEntity
  8
0
100
AcDbLine
 10
167.3657
 20
96.26799999999997
 30
0.0
 11
168.1909999999999
 21
95.97789999999998
 31
0.0
  0
LINE
  5
A77
330
1E
100
AcDbEntity
  8
0
100
AcDbLine
 10
172.5971
 20
103.9279999999999
 30
0.0
 11
173.598
 21
103.9749999999999
 31
0.0
  0
LINE
  5
A78
330
1E
100
AcDbEntity
  8
0
100
AcDbLine
 10
171.6134
 20
103.8289999999999
 30
0.0
 11
172.5971
 21
103.9279999999999
 31
0.0
  0
LINE
  5
A79
330
1E
100
AcDbEntity
  8
0
100
AcDbLine
 10
170.6608999999999
 20
103.6799999999999
 30
0.0
 11
171.6134
 21
103.8289999999999
 31
0.0
  0
LINE
  5
A7A
330
1E
100
AcDbEntity
  8
0
100
AcDbLine
 10
168.1909999999999
 20
103.7559999999999
 30
0.0
 11
169.0749
 21
104.0059999999999
 31
0.0
  0
LINE
  5
A7B
330
1E
100
AcDbEntity
  8
0
100
AcDbLine
 10
169.7518999999999
 20
103.4799999999999
 30
0.0
 11
170.6608999999999
 21
103.6799999999999
 31
0.0
  0
LINE
  5
A7C
330
1E
100
AcDbEntity
  8
0
100
AcDbLine
 10
168.9678999999999
 20
103.2579999999999
 30
0.0
 11
169.7518999999999
 21
103.4799999999999
 31
0.0
  0
LINE
  5
A7D
330
1E
100
AcDbEntity
  8
0
100
AcDbLine
 10
167.5715
 20
102.7079999999999
 30
0.0
 11
168.2385
 21
102.9989999999999
 31
0.0
  0
LINE
  5
A7E
330
1E
100
AcDbEntity
  8
0
100
AcDbLine
 10
168.2385
 20
102.9989999999999
 30
0.0
 11
168.9678999999999
 21
103.2579999999999
 31
0.0
  0
LINE
  5
A7F
330
1E
100
AcDbEntity
  8
0
100
AcDbLine
 10
173.5324
 20
98.47589999999996
 30
0.0
 11
173.981
 21
98.47719999999997
 31
0.0
  0
LINE
  5
A80
330
1E
100
AcDbEntity
  8
0
100
AcDbLine
 10
172.5487
 20
98.52449999999997
 30
0.0
 11
173.5324
 21
98.47589999999996
 31
0.0
  0
LINE
  5
A81
330
1E
100
AcDbEntity
  8
0
100
AcDbLine
 10
171.5820999999999
 20
98.62409999999997
 30
0.0
 11
172.5487
 21
98.52449999999997
 31
0.0
  0
LINE
  5
A82
330
1E
100
AcDbEntity
  8
0
100
AcDbLine
 10
170.6458
 20
98.77239999999998
 30
0.0
 11
171.5820999999999
 21
98.62409999999997
 31
0.0
  0
LINE
  5
A83
330
1E
100
AcDbEntity
  8
0
100
AcDbLine
 10
169.7518999999999
 20
98.96789999999997
 30
0.0
 11
170.6458
 21
98.77239999999998
 31
0.0
  0
LINE
  5
A84
330
1E
100
AcDbEntity
  8
0
100
AcDbLine
 10
168.9114
 20
99.20869999999998
 30
0.0
 11
169.7518999999999
 21
98.96789999999997
 31
0.0
  0
LINE
  5
A85
330
1E
100
AcDbEntity
  8
0
100
AcDbLine
 10
167.4302999999999
 20
99.81289999999997
 30
0.0
 11
168.1335
 21
99.49169999999998
 31
0.0
  0
LINE
  5
A86
330
1E
100
AcDbEntity
  8
0
100
AcDbLine
 10
168.1335
 20
99.49169999999998
 30
0.0
 11
168.9114
 21
99.20869999999998
 31
0.0
  0
LINE
  5
A87
330
1E
100
AcDbEntity
  8
0
100
AcDbLine
 10
170.6608999999999
 20
96.14549999999997
 30
0.0
 11
171.6134
 21
95.99629999999997
 31
0.0
  0
LINE
  5
A88
330
1E
100
AcDbEntity
  8
0
100
AcDbLine
 10
169.7518999999999
 20
96.34409999999997
 30
0.0
 11
170.6608999999999
 21
96.14549999999997
 31
0.0
  0
LINE
  5
A89
330
1E
100
AcDbEntity
  8
0
100
AcDbLine
 10
168.9678999999999
 20
96.56649999999999
 30
0.0
 11
169.7518999999999
 21
96.34409999999997
 31
0.0
  0
LINE
  5
A8A
330
1E
100
AcDbEntity
  8
0
100
AcDbLine
 10
167.5715
 20
97.11809999999998
 30
0.0
 11
168.2385
 21
96.82529999999998
 31
0.0
  0
LINE
  5
A8B
330
1E
100
AcDbEntity
  8
0
100
AcDbLine
 10
168.2385
 20
96.82529999999998
 30
0.0
 11
168.9678999999999
 21
96.56649999999999
 31
0.0
  0
LINE
  5
A8C
330
1E
100
AcDbEntity
  8
0
100
AcDbLine
 10
166.6089999999999
 20
96.59449999999997
 30
0.0
 11
167.3657
 21
96.26799999999997
 31
0.0
  0
LINE
  5
A8D
330
1E
100
AcDbEntity
  8
0
100
AcDbLine
 10
165.9289999999999
 20
96.95529999999997
 30
0.0
 11
166.6089999999999
 21
96.59449999999997
 31
0.0
  0
LINE
  5
A8E
330
1E
100
AcDbEntity
  8
0
100
AcDbLine
 10
166.5031
 20
96.69149999999998
 30
0.0
 11
167.288
 21
96.34409999999997
 31
0.0
  0
LINE
  5
A8F
330
1E
100
AcDbEntity
  8
0
100
AcDbLine
 10
166.8098
 20
100.1681999999999
 30
0.0
 11
167.4302999999999
 21
99.81289999999997
 31
0.0
  0
LINE
  5
A90
330
1E
100
AcDbEntity
  8
0
100
AcDbLine
 10
166.9753
 20
97.44029999999998
 30
0.0
 11
167.5715
 21
97.11809999999998
 31
0.0
  0
LINE
  5
A91
330
1E
100
AcDbEntity
  8
0
100
AcDbLine
 10
167.3657
 20
103.4659999999999
 30
0.0
 11
168.1909999999999
 21
103.7559999999999
 31
0.0
  0
LINE
  5
A92
330
1E
100
AcDbEntity
  8
0
100
AcDbLine
 10
166.9753
 20
102.3839999999999
 30
0.0
 11
167.5715
 21
102.7079999999999
 31
0.0
  0
LINE
  5
A93
330
1E
100
AcDbEntity
  8
0
100
AcDbLine
 10
166.0147
 20
98.16269999999997
 30
0.0
 11
166.4546999999999
 21
97.78999999999998
 31
0.0
  0
LINE
  5
A94
330
1E
100
AcDbEntity
  8
0
100
AcDbLine
 10
166.2790999999999
 20
100.5529999999999
 30
0.0
 11
166.8098
 21
100.1681999999999
 31
0.0
  0
LINE
  5
A95
330
1E
100
AcDbEntity
  8
0
100
AcDbLine
 10
166.6089999999999
 20
103.1389999999999
 30
0.0
 11
167.3657
 21
103.4659999999999
 31
0.0
  0
LINE
  5
A96
330
1E
100
AcDbEntity
  8
0
100
AcDbLine
 10
166.4546999999999
 20
102.0339999999999
 30
0.0
 11
166.9753
 21
102.3839999999999
 31
0.0
  0
LINE
  5
A97
330
1E
100
AcDbEntity
  8
0
100
AcDbLine
 10
166.0147
 20
101.6619999999999
 30
0.0
 11
166.4546999999999
 21
102.0339999999999
 31
0.0
  0
LINE
  5
A98
330
1E
100
AcDbEntity
  8
0
100
AcDbLine
 10
166.4546999999999
 20
97.78999999999998
 30
0.0
 11
166.9753
 21
97.44029999999998
 31
0.0
  0
LINE
  5
A99
330
1E
100
AcDbEntity
  8
0
100
AcDbLine
 10
165.8029
 20
97.07609999999997
 30
0.0
 11
166.5031
 21
96.69149999999998
 31
0.0
  0
LINE
  5
A9A
330
1E
100
AcDbEntity
  8
0
100
AcDbLine
 10
165.4012999999999
 20
98.96119999999998
 30
0.0
 11
165.6625999999999
 21
98.55459999999998
 31
0.0
  0
LINE
  5
A9B
330
1E
100
AcDbEntity
  8
0
100
AcDbLine
 10
165.6625999999999
 20
98.55459999999998
 30
0.0
 11
166.0147
 21
98.16269999999997
 31
0.0
  0
LINE
  5
A9C
330
1E
100
AcDbEntity
  8
0
100
AcDbLine
 10
165.8453
 20
100.9629999999999
 30
0.0
 11
166.2790999999999
 21
100.5529999999999
 31
0.0
  0
LINE
  5
A9D
330
1E
100
AcDbEntity
  8
0
100
AcDbLine
 10
165.9289999999999
 20
102.7789999999999
 30
0.0
 11
166.6089999999999
 21
103.1389999999999
 31
0.0
  0
LINE
  5
A9E
330
1E
100
AcDbEntity
  8
0
100
AcDbLine
 10
165.6378995055653
 20
101.2316211223099
 30
0.0
 11
165.8453
 21
100.9629999999999
 31
0.0
  0
LINE
  5
A9F
330
1E
100
AcDbEntity
  8
0
100
AcDbLine
 10
165.6625999999999
 20
101.2699999999999
 30
0.0
 11
166.0147
 21
101.6619999999999
 31
0.0
  0
LINE
  5
AA0
330
1E
100
AcDbEntity
  8
0
100
AcDbLine
 10
165.4012999999999
 20
100.8639999999999
 30
0.0
 11
165.6625999999999
 21
101.2699999999999
 31
0.0
  0
LINE
  5
AA1
330
1E
100
AcDbEntity
  8
0
100
AcDbLine
 10
167.288
 20
96.34409999999997
 30
0.0
 11
168.1487
 21
96.03709999999999
 31
0.0
  0
LINE
  5
AA2
330
1E
100
AcDbEntity
  8
0
100
AcDbLine
 10
168.1909999999999
 20
95.97789999999998
 30
0.0
 11
169.0749
 21
95.72819999999998
 31
0.0
  0
LINE
  5
AA3
330
1E
100
AcDbEntity
  8
0
100
AcDbLine
 10
172.5971
 20
95.89729999999997
 30
0.0
 11
173.598
 21
95.85059999999996
 31
0.0
  0
LINE
  5
AA4
330
1E
100
AcDbEntity
  8
0
100
AcDbLine
 10
171.6134
 20
95.99629999999997
 30
0.0
 11
172.5971
 21
95.89729999999997
 31
0.0
  0
LINE
  5
AA5
330
1E
100
AcDbEntity
  8
0
100
AcDbLine
 10
168.1487
 20
96.03709999999999
 30
0.0
 11
169.0749
 21
95.77399999999997
 31
0.0
  0
LINE
  5
AA6
330
1E
100
AcDbEntity
  8
0
100
AcDbLine
 10
164.8201999999999
 20
97.76139999999998
 30
0.0
 11
165.3297
 21
97.34599999999998
 31
0.0
  0
LINE
  5
AA7
330
1E
100
AcDbEntity
  8
0
100
AcDbLine
 10
161.981
 20
100.0988999999999
 30
0.0
 11
161.981
 21
105.5289999999999
 31
0.0
  0
LINE
  5
AA8
330
1E
100
AcDbEntity
  8
0
100
AcDbLine
 10
161.981
 20
100.0988999999999
 30
0.0
 11
162.0626999999999
 21
99.57359999999997
 31
0.0
  0
LINE
  5
AA9
330
1E
100
AcDbEntity
  8
0
100
AcDbLine
 10
163.7567999999999
 20
99.86669999999998
 30
0.0
 11
163.7608
 21
100.1378999999999
 31
0.0
  0
LINE
  5
AAA
330
1E
100
AcDbEntity
  8
0
100
AcDbLine
 10
163.7567999999999
 20
99.86669999999998
 30
0.0
 11
163.7608
 21
99.59749999999997
 31
0.0
  0
LINE
  5
AAB
330
1E
100
AcDbEntity
  8
0
100
AcDbLine
 10
165.2327999999999
 20
100.4469999999999
 30
0.0
 11
165.4012999999999
 21
100.8639999999999
 31
0.0
  0
LINE
  5
AAC
330
1E
100
AcDbEntity
  8
0
100
AcDbLine
 10
165.2327999999999
 20
100.4469999999999
 30
0.0
 11
165.2327999999999
 21
99.37809999999998
 31
0.0
  0
LINE
  5
AAD
330
1E
100
AcDbEntity
  8
0
100
AcDbLine
 10
165.3297
 20
102.3889999999999
 30
0.0
 11
165.9289999999999
 21
102.7789999999999
 31
0.0
  0
LINE
  5
AAE
330
1E
100
AcDbEntity
  8
0
100
AcDbLine
 10
164.8201999999999
 20
101.9729999999999
 30
0.0
 11
165.3297
 21
102.3889999999999
 31
0.0
  0
LINE
  5
AAF
330
1E
100
AcDbEntity
  8
0
100
AcDbLine
 10
164.4055
 20
101.5349999999999
 30
0.0
 11
164.8201999999999
 21
101.9729999999999
 31
0.0
  0
LINE
  5
AB0
330
1E
100
AcDbEntity
  8
0
100
AcDbLine
 10
164.0876999999999
 20
101.0789999999999
 30
0.0
 11
164.4055
 21
101.5349999999999
 31
0.0
  0
LINE
  5
AB1
330
1E
100
AcDbEntity
  8
0
100
AcDbLine
 10
163.8727999999999
 20
100.6119999999999
 30
0.0
 11
164.0876999999999
 21
101.0789999999999
 31
0.0
  0
LINE
  5
AB2
330
1E
100
AcDbEntity
  8
0
100
AcDbLine
 10
163.7608
 20
100.1378999999999
 30
0.0
 11
163.8727999999999
 21
100.6119999999999
 31
0.0
  0
LINE
  5
AB3
330
1E
100
AcDbEntity
  8
0
100
AcDbLine
 10
163.8338208816704
 20
100.4469999999999
 30
0.0
 11
165.2327999999999
 21
100.4469999999999
 31
0.0
  0
LINE
  5
AB4
330
1E
100
AcDbEntity
  8
0
100
AcDbLine
 10
163.8338208816704
 20
100.4469999999999
 30
0.0
 11
165.2327999999999
 21
100.4469999999999
 31
0.0
  0
LINE
  5
AB5
330
1E
100
AcDbEntity
  8
0
100
AcDbLine
 10
162.9959999999999
 20
97.88159999999997
 30
0.0
 11
163.4923999999999
 21
97.41089999999998
 31
0.0
  0
LINE
  5
AB6
330
1E
100
AcDbEntity
  8
0
100
AcDbLine
 10
162.5985
 20
98.37299999999999
 30
0.0
 11
162.9959999999999
 21
97.88159999999997
 31
0.0
  0
LINE
  5
AB7
330
1E
100
AcDbEntity
  8
0
100
AcDbLine
 10
164.4055
 20
98.19989999999997
 30
0.0
 11
164.8201999999999
 21
97.76139999999998
 31
0.0
  0
LINE
  5
AB8
330
1E
100
AcDbEntity
  8
0
100
AcDbLine
 10
164.0876999999999
 20
98.65409999999997
 30
0.0
 11
164.4055
 21
98.19989999999997
 31
0.0
  0
LINE
  5
AB9
330
1E
100
AcDbEntity
  8
0
100
AcDbLine
 10
165.2327999999999
 20
99.37809999999998
 30
0.0
 11
165.4012999999999
 21
98.96119999999998
 31
0.0
  0
LINE
  5
ABA
330
1E
100
AcDbEntity
  8
0
100
AcDbLine
 10
165.2327999999999
 20
99.37809999999998
 30
0.0
 11
165.2327999999999
 21
100.4469999999999
 31
0.0
  0
LINE
  5
ABB
330
1E
100
AcDbEntity
  8
0
100
AcDbLine
 10
164.2833999999999
 20
98.40059999999997
 30
0.0
 11
164.687
 21
97.93509999999997
 31
0.0
  0
LINE
  5
ABC
330
1E
100
AcDbEntity
  8
0
100
AcDbLine
 10
163.8727999999999
 20
99.12199999999998
 30
0.0
 11
164.0876999999999
 21
98.65409999999997
 31
0.0
  0
LINE
  5
ABD
330
1E
100
AcDbEntity
  8
0
100
AcDbLine
 10
163.7608
 20
99.59749999999997
 30
0.0
 11
163.8727999999999
 21
99.12199999999998
 31
0.0
  0
LINE
  5
ABE
330
1E
100
AcDbEntity
  8
0
100
AcDbLine
 10
163.8124778128286
 20
99.37809999999998
 30
0.0
 11
165.2327999999999
 21
99.37809999999998
 31
0.0
  0
LINE
  5
ABF
330
1E
100
AcDbEntity
  8
0
100
AcDbLine
 10
163.8183401681801
 20
99.35321116098528
 30
0.0
 11
163.9907999999999
 21
98.88359999999998
 31
0.0
  0
LINE
  5
AC0
330
1E
100
AcDbEntity
  8
0
100
AcDbLine
 10
163.9907999999999
 20
98.88359999999998
 30
0.0
 11
164.2833999999999
 21
98.40059999999997
 31
0.0
  0
LINE
  5
AC1
330
1E
100
AcDbEntity
  8
0
100
AcDbLine
 10
164.687
 20
97.93509999999997
 30
0.0
 11
165.1954999999999
 21
97.49149999999998
 31
0.0
  0
LINE
  5
AC2
330
1E
100
AcDbEntity
  8
0
100
AcDbLine
 10
162.3048999999999
 20
98.87829999999997
 30
0.0
 11
162.5985
 21
98.37299999999999
 31
0.0
  0
LINE
  5
AC3
330
1E
100
AcDbEntity
  8
0
100
AcDbLine
 10
162.1161999999999
 20
99.39609999999998
 30
0.0
 11
162.3048999999999
 21
98.87829999999997
 31
0.0
  0
LINE
  5
AC4
330
1E
100
AcDbEntity
  8
0
100
AcDbLine
 10
162.0626999999999
 20
99.57359999999997
 30
0.0
 11
162.1161999999999
 21
99.39609999999998
 31
0.0
  0
LINE
  5
AC5
330
1E
100
AcDbEntity
  8
0
100
AcDbLine
 10
161.981
 20
100.3589999999999
 30
0.0
 11
161.981
 21
105.7889999999999
 31
0.0
  0
LINE
  5
AC6
330
1E
100
AcDbEntity
  8
0
100
AcDbLine
 10
161.981
 20
100.3589999999999
 30
0.0
 11
161.9877999999999
 21
100.2279999999999
 31
0.0
  0
LINE
  5
AC7
330
1E
100
AcDbEntity
  8
0
100
AcDbLine
 10
160.1121999999999
 20
100.6179999999999
 30
0.0
 11
162.1288930861657
 21
99.36126968724646
 31
0.0
  0
LINE
  5
AC8
330
1E
100
AcDbEntity
  8
0
100
AcDbLine
 10
161.6782999999999
 20
103.8259999999999
 30
0.0
 11
161.981
 21
103.2681131275039
 31
0.0
  0
LINE
  5
AC9
330
1E
100
AcDbEntity
  8
0
100
AcDbLine
 10
158.22084
 20
102.1009999999999
 30
0.0
 11
160.1121999999999
 21
100.6179999999999
 31
0.0
  0
LINE
  5
ACA
330
1E
100
AcDbEntity
  8
0
100
AcDbLine
 10
157.3502199999999
 20
102.8619999999999
 30
0.0
 11
158.22084
 21
102.1009999999999
 31
0.0
  0
LINE
  5
ACB
330
1E
100
AcDbEntity
  8
0
100
AcDbLine
 10
156.7498
 20
103.4009999999999
 30
0.0
 11
157.3502199999999
 21
102.8619999999999
 31
0.0
  0
LINE
  5
ACC
330
1E
100
AcDbEntity
  8
0
100
AcDbLine
 10
156.6127
 20
103.5419999999999
 30
0.0
 11
156.7498
 21
103.4009999999999
 31
0.0
  0
LINE
  5
ACD
330
1E
100
AcDbEntity
  8
0
100
AcDbLine
 10
156.34651
 20
103.8289999999999
 30
0.0
 11
156.6127
 21
103.5419999999999
 31
0.0
  0
LINE
  5
ACE
330
1E
100
AcDbEntity
  8
0
100
AcDbLine
 10
151.9153699999999
 20
101.1089999999999
 30
0.0
 11
152.4167199999999
 21
126.6149999999999
 31
0.0
  0
LINE
  5
ACF
330
1E
100
AcDbEntity
  8
0
100
AcDbLine
 10
151.9153699999999
 20
101.1089999999999
 30
0.0
 11
152.4167199999999
 21
126.6149999999999
 31
0.0
  0
LINE
  5
AD0
330
1E
100
AcDbEntity
  8
0
100
AcDbLine
 10
151.88335
 20
99.20099999999997
 30
0.0
 11
151.9153699999999
 21
101.1089999999999
 31
0.0
  0
LINE
  5
AD1
330
1E
100
AcDbEntity
  8
0
100
AcDbLine
 10
164.8797
 20
96.45489999999998
 30
0.0
 11
165.6354
 21
96.07259999999998
 31
0.0
  0
LINE
  5
AD2
330
1E
100
AcDbEntity
  8
0
100
AcDbLine
 10
165.1954999999999
 20
97.49149999999998
 30
0.0
 11
165.8029
 21
97.07609999999997
 31
0.0
  0
LINE
  5
AD3
330
1E
100
AcDbEntity
  8
0
100
AcDbLine
 10
164.2067
 20
96.86969999999998
 30
0.0
 11
164.8797
 21
96.45489999999998
 31
0.0
  0
LINE
  5
AD4
330
1E
100
AcDbEntity
  8
0
100
AcDbLine
 10
163.6225
 20
97.31169999999998
 30
0.0
 11
164.2067
 21
96.86969999999998
 31
0.0
  0
LINE
  5
AD5
330
1E
100
AcDbEntity
  8
0
100
AcDbLine
 10
163.4923999999999
 20
97.41089999999998
 30
0.0
 11
163.6225
 21
97.31169999999998
 31
0.0
  0
LINE
  5
AD6
330
1E
100
AcDbEntity
  8
0
100
AcDbLine
 10
151.8553299999999
 20
97.20239999999996
 30
0.0
 11
151.88335
 21
99.20099999999997
 31
0.0
  0
LINE
  5
AD7
330
1E
100
AcDbEntity
  8
0
100
AcDbLine
 10
174.3639999999999
 20
95.85059999999996
 30
0.0
 11
175.3648999999999
 21
95.89729999999997
 31
0.0
  0
LINE
  5
AD8
330
1E
100
AcDbEntity
  8
0
100
AcDbLine
 10
178.8870999999999
 20
95.77399999999997
 30
0.0
 11
179.8133
 21
96.03709999999999
 31
0.0
  0
LINE
  5
AD9
330
1E
100
AcDbEntity
  8
0
100
AcDbLine
 10
169.0749
 20
95.77399999999997
 30
0.0
 11
170.0253
 21
95.56339999999996
 31
0.0
  0
LINE
  5
ADA
330
1E
100
AcDbEntity
  8
0
100
AcDbLine
 10
173.598
 20
95.85059999999996
 30
0.0
 11
173.981
 21
95.85299999999996
 31
0.0
  0
LINE
  5
ADB
330
1E
100
AcDbEntity
  8
0
100
AcDbLine
 10
177.9529
 20
95.52069999999998
 30
0.0
 11
178.8870999999999
 21
95.72819999999998
 31
0.0
  0
LINE
  5
ADC
330
1E
100
AcDbEntity
  8
0
100
AcDbLine
 10
177.9366999999999
 20
95.56339999999996
 30
0.0
 11
178.8870999999999
 21
95.77399999999997
 31
0.0
  0
LINE
  5
ADD
330
1E
100
AcDbEntity
  8
0
100
AcDbLine
 10
166.4667
 20
95.72419999999997
 30
0.0
 11
167.3657
 21
95.41419999999998
 31
0.0
  0
LINE
  5
ADE
330
1E
100
AcDbEntity
  8
0
100
AcDbLine
 10
169.0749
 20
95.72819999999998
 30
0.0
 11
170.0091
 21
95.52069999999998
 31
0.0
  0
LINE
  5
ADF
330
1E
100
AcDbEntity
  8
0
100
AcDbLine
 10
170.0091
 20
95.52069999999998
 30
0.0
 11
170.9848
 21
95.35809999999997
 31
0.0
  0
LINE
  5
AE0
330
1E
100
AcDbEntity
  8
0
100
AcDbLine
 10
170.0253
 20
95.56339999999996
 30
0.0
 11
171.0171
 21
95.39829999999998
 31
0.0
  0
LINE
  5
AE1
330
1E
100
AcDbEntity
  8
0
100
AcDbLine
 10
179.6368
 20
95.14499999999998
 30
0.0
 11
180.5963
 21
95.41419999999998
 31
0.0
  0
LINE
  5
AE2
330
1E
100
AcDbEntity
  8
0
100
AcDbLine
 10
180.4495999999999
 20
0.1939999999999653
 30
0.0
 11
183.4777
 21
0.1939999999999653
 31
0.0
  0
LINE
  5
AE3
330
1E
100
AcDbEntity
  8
0
100
AcDbLine
 10
180.7638
 20
0.1939999999999671
 30
0.0
 11
182.483
 21
0.1939999999999671
 31
0.0
  0
LINE
  5
AE4
330
1E
100
AcDbEntity
  8
0
100
AcDbLine
 10
181.4893
 20
0.1939999999999671
 30
0.0
 11
184.9528
 21
0.1939999999999671
 31
0.0
  0
LINE
  5
AE5
330
1E
100
AcDbEntity
  8
0
100
AcDbLine
 10
181.1019999999999
 20
0.1939999999999653
 30
0.0
 11
184.4164
 21
0.1939999999999653
 31
0.0
  0
LINE
  5
AE6
330
1E
100
AcDbEntity
  8
0
100
AcDbLine
 10
173.981
 20
94.48359999999997
 30
0.0
 11
174.2611
 21
94.48059999999998
 31
0.0
  0
LINE
  5
AE7
330
1E
100
AcDbEntity
  8
0
100
AcDbLine
 10
175.3810999999999
 20
94.51809999999998
 30
0.0
 11
176.4889
 21
94.60389999999996
 31
0.0
  0
LINE
  5
AE8
330
1E
100
AcDbEntity
  8
0
100
AcDbLine
 10
176.4889
 20
94.60389999999996
 30
0.0
 11
177.5745
 21
94.73759999999996
 31
0.0
  0
LINE
  5
AE9
330
1E
100
AcDbEntity
  8
0
100
AcDbLine
 10
177.5745
 20
94.73759999999996
 30
0.0
 11
178.6267999999999
 21
94.91829999999998
 31
0.0
  0
LINE
  5
AEA
330
1E
100
AcDbEntity
  8
0
100
AcDbLine
 10
178.6267999999999
 20
94.91829999999998
 30
0.0
 11
179.6368
 21
95.14499999999998
 31
0.0
  0
LINE
  5
AEB
330
1E
100
AcDbEntity
  8
0
100
AcDbLine
 10
175.9723
 20
95.24099999999998
 30
0.0
 11
176.9771999999999
 21
95.35809999999997
 31
0.0
  0
LINE
  5
AEC
330
1E
100
AcDbEntity
  8
0
100
AcDbLine
 10
176.9771999999999
 20
95.35809999999997
 30
0.0
 11
177.9529
 21
95.52069999999998
 31
0.0
  0
LINE
  5
AED
330
1E
100
AcDbEntity
  8
0
100
AcDbLine
 10
176.9449
 20
95.39829999999998
 30
0.0
 11
177.9366999999999
 21
95.56339999999996
 31
0.0
  0
LINE
  5
AEE
330
1E
100
AcDbEntity
  8
0
100
AcDbLine
 10
175.9218999999999
 20
95.28229999999998
 30
0.0
 11
176.9449
 21
95.39829999999998
 31
0.0
  0
LINE
  5
AEF
330
1E
100
AcDbEntity
  8
0
100
AcDbLine
 10
173.981
 20
95.15239999999996
 30
0.0
 11
174.9451999999999
 21
95.17169999999998
 31
0.0
  0
LINE
  5
AF0
330
1E
100
AcDbEntity
  8
0
100
AcDbLine
 10
174.9451999999999
 20
95.17169999999998
 30
0.0
 11
175.9723
 21
95.24099999999998
 31
0.0
  0
LINE
  5
AF1
330
1E
100
AcDbEntity
  8
0
100
AcDbLine
 10
174.8765999999999
 20
95.21449999999997
 30
0.0
 11
175.9218999999999
 21
95.28229999999998
 31
0.0
  0
LINE
  5
AF2
330
1E
100
AcDbEntity
  8
0
100
AcDbLine
 10
167.3657
 20
95.41419999999998
 30
0.0
 11
168.3251999999999
 21
95.14499999999998
 31
0.0
  0
LINE
  5
AF3
330
1E
100
AcDbEntity
  8
0
100
AcDbLine
 10
171.9896999999999
 20
95.24099999999998
 30
0.0
 11
173.0167999999999
 21
95.17169999999998
 31
0.0
  0
LINE
  5
AF4
330
1E
100
AcDbEntity
  8
0
100
AcDbLine
 10
172.0401
 20
95.28229999999998
 30
0.0
 11
173.0853999999999
 21
95.21449999999997
 31
0.0
  0
LINE
  5
AF5
330
1E
100
AcDbEntity
  8
0
100
AcDbLine
 10
170.9848
 20
95.35809999999997
 30
0.0
 11
171.9896999999999
 21
95.24099999999998
 31
0.0
  0
LINE
  5
AF6
330
1E
100
AcDbEntity
  8
0
100
AcDbLine
 10
171.0171
 20
95.39829999999998
 30
0.0
 11
172.0401
 21
95.28229999999998
 31
0.0
  0
LINE
  5
AF7
330
1E
100
AcDbEntity
  8
0
100
AcDbLine
 10
173.981
 20
95.19939999999996
 30
0.0
 11
174.8765999999999
 21
95.21449999999997
 31
0.0
  0
LINE
  5
AF8
330
1E
100
AcDbEntity
  8
0
100
AcDbLine
 10
173.0167999999999
 20
95.17169999999998
 30
0.0
 11
173.981
 21
95.15239999999996
 31
0.0
  0
LINE
  5
AF9
330
1E
100
AcDbEntity
  8
0
100
AcDbLine
 10
173.0853999999999
 20
95.21449999999997
 30
0.0
 11
173.981
 21
95.19939999999996
 31
0.0
  0
LINE
  5
AFA
330
1E
100
AcDbEntity
  8
0
100
AcDbLine
 10
172.5808999999999
 20
94.51809999999998
 30
0.0
 11
173.7009
 21
94.48059999999998
 31
0.0
  0
LINE
  5
AFB
330
1E
100
AcDbEntity
  8
0
100
AcDbLine
 10
171.4731
 20
94.60389999999996
 30
0.0
 11
172.5808999999999
 21
94.51809999999998
 31
0.0
  0
LINE
  5
AFC
330
1E
100
AcDbEntity
  8
0
100
AcDbLine
 10
170.3875
 20
94.73759999999996
 30
0.0
 11
171.4731
 21
94.60389999999996
 31
0.0
  0
LINE
  5
AFD
330
1E
100
AcDbEntity
  8
0
100
AcDbLine
 10
169.3351999999999
 20
94.91829999999998
 30
0.0
 11
170.3875
 21
94.73759999999996
 31
0.0
  0
LINE
  5
AFE
330
1E
100
AcDbEntity
  8
0
100
AcDbLine
 10
168.3251999999999
 20
95.14499999999998
 30
0.0
 11
169.3351999999999
 21
94.91829999999998
 31
0.0
  0
LINE
  5
AFF
330
1E
100
AcDbEntity
  8
0
100
AcDbLine
 10
174.2611
 20
94.48059999999998
 30
0.0
 11
175.3810999999999
 21
94.51809999999998
 31
0.0
  0
LINE
  5
B00
330
1E
100
AcDbEntity
  8
0
100
AcDbLine
 10
179.0396
 20
0.1939999999999671
 30
0.0
 11
180.7638
 21
0.1939999999999671
 31
0.0
  0
LINE
  5
B01
330
1E
100
AcDbEntity
  8
0
100
AcDbLine
 10
177.3263999999999
 20
0.1939999999999671
 30
0.0
 11
179.0396
 21
0.1939999999999671
 31
0.0
  0
LINE
  5
B02
330
1E
100
AcDbEntity
  8
0
100
AcDbLine
 10
177.1712999999999
 20
0.1939999999999653
 30
0.0
 11
180.4495999999999
 21
0.1939999999999653
 31
0.0
  0
LINE
  5
B03
330
1E
100
AcDbEntity
  8
0
100
AcDbLine
 10
177.7937
 20
0.1939999999999671
 30
0.0
 11
181.4893
 21
0.1939999999999671
 31
0.0
  0
LINE
  5
B04
330
1E
100
AcDbEntity
  8
0
100
AcDbLine
 10
177.5915999999999
 20
0.1939999999999653
 30
0.0
 11
181.1019999999999
 21
0.1939999999999653
 31
0.0
  0
LINE
  5
B05
330
1E
100
AcDbEntity
  8
0
100
AcDbLine
 10
173.7009
 20
94.48059999999998
 30
0.0
 11
173.981
 21
94.48359999999997
 31
0.0
  0
LINE
  5
B06
330
1E
100
AcDbEntity
  8
0
100
AcDbLine
 10
167.5124
 20
0.1939999999999653
 30
0.0
 11
170.7907
 21
0.1939999999999653
 31
0.0
  0
LINE
  5
B07
330
1E
100
AcDbEntity
  8
0
100
AcDbLine
 10
170.7907
 20
0.1939999999999653
 30
0.0
 11
173.981
 21
0.1939999999999653
 31
0.0
  0
LINE
  5
B08
330
1E
100
AcDbEntity
  8
0
100
AcDbLine
 10
168.9223999999999
 20
0.1939999999999671
 30
0.0
 11
170.6356
 21
0.1939999999999671
 31
0.0
  0
LINE
  5
B09
330
1E
100
AcDbEntity
  8
0
100
AcDbLine
 10
170.6356
 20
0.1939999999999671
 30
0.0
 11
173.981
 21
0.1939999999999671
 31
0.0
  0
LINE
  5
B0A
330
1E
100
AcDbEntity
  8
0
100
AcDbLine
 10
173.981
 20
0.1939999999999671
 30
0.0
 11
177.3263999999999
 21
0.1939999999999671
 31
0.0
  0
LINE
  5
B0B
330
1E
100
AcDbEntity
  8
0
100
AcDbLine
 10
173.9810999999999
 20
0.1939999999999671
 30
0.0
 11
177.7937
 21
0.1939999999999671
 31
0.0
  0
LINE
  5
B0C
330
1E
100
AcDbEntity
  8
0
100
AcDbLine
 10
173.981
 20
0.1939999999999653
 30
0.0
 11
177.5915999999999
 21
0.1939999999999653
 31
0.0
  0
LINE
  5
B0D
330
1E
100
AcDbEntity
  8
0
100
AcDbLine
 10
170.1682999999999
 20
0.1939999999999671
 30
0.0
 11
173.9809
 21
0.1939999999999671
 31
0.0
  0
LINE
  5
B0E
330
1E
100
AcDbEntity
  8
0
100
AcDbLine
 10
170.3704
 20
0.1939999999999653
 30
0.0
 11
173.981
 21
0.1939999999999653
 31
0.0
  0
LINE
  5
B0F
330
1E
100
AcDbEntity
  8
0
100
AcDbLine
 10
173.981
 20
0.1939999999999653
 30
0.0
 11
177.1712999999999
 21
0.1939999999999653
 31
0.0
  0
LINE
  5
B10
330
1E
100
AcDbEntity
  8
0
100
AcDbLine
 10
164.4843
 20
0.1939999999999653
 30
0.0
 11
167.5124
 21
0.1939999999999653
 31
0.0
  0
LINE
  5
B11
330
1E
100
AcDbEntity
  8
0
100
AcDbLine
 10
161.5531999999999
 20
0.1939999999999653
 30
0.0
 11
164.4843
 21
0.1939999999999653
 31
0.0
  0
LINE
  5
B12
330
1E
100
AcDbEntity
  8
0
100
AcDbLine
 10
162.1236
 20
0.1939999999999671
 30
0.0
 11
163.7817999999999
 21
0.1939999999999671
 31
0.0
  0
LINE
  5
B13
330
1E
100
AcDbEntity
  8
0
100
AcDbLine
 10
163.7817999999999
 20
0.1939999999999671
 30
0.0
 11
165.479
 21
0.1939999999999671
 31
0.0
  0
LINE
  5
B14
330
1E
100
AcDbEntity
  8
0
100
AcDbLine
 10
165.479
 20
0.1939999999999671
 30
0.0
 11
167.1981999999999
 21
0.1939999999999671
 31
0.0
  0
LINE
  5
B15
330
1E
100
AcDbEntity
  8
0
100
AcDbLine
 10
167.1981999999999
 20
0.1939999999999671
 30
0.0
 11
168.9223999999999
 21
0.1939999999999671
 31
0.0
  0
LINE
  5
B16
330
1E
100
AcDbEntity
  8
0
100
AcDbLine
 10
166.4726999999999
 20
0.1939999999999671
 30
0.0
 11
170.1682999999999
 21
0.1939999999999671
 31
0.0
  0
LINE
  5
B17
330
1E
100
AcDbEntity
  8
0
100
AcDbLine
 10
166.86
 20
0.1939999999999653
 30
0.0
 11
170.3704
 21
0.1939999999999653
 31
0.0
  0
LINE
  5
B18
330
1E
100
AcDbEntity
  8
0
100
AcDbLine
 10
163.5455999999999
 20
0.1939999999999653
 30
0.0
 11
166.86
 21
0.1939999999999653
 31
0.0
  0
LINE
  5
B19
330
1E
100
AcDbEntity
  8
0
100
AcDbLine
 10
163.0092
 20
0.1939999999999671
 30
0.0
 11
166.4726999999999
 21
0.1939999999999671
 31
0.0
  0
LINE
  5
B1A
330
1E
100
AcDbEntity
  8
0
100
AcDbLine
 10
154.97554
 20
0.1939999999999653
 30
0.0
 11
156.2024099999999
 21
0.1939999999999653
 31
0.0
  0
LINE
  5
B1B
330
1E
100
AcDbEntity
  8
0
100
AcDbLine
 10
153.8747599999999
 20
0.1939999999999653
 30
0.0
 11
154.97554
 21
0.1939999999999653
 31
0.0
  0
LINE
  5
B1C
330
1E
100
AcDbEntity
  8
0
100
AcDbLine
 10
154.24502
 20
0.1939999999999671
 30
0.0
 11
155.7901099999999
 21
0.1939999999999671
 31
0.0
  0
LINE
  5
B1D
330
1E
100
AcDbEntity
  8
0
100
AcDbLine
 10
155.7901099999999
 20
0.1939999999999671
 30
0.0
 11
157.54336
 21
0.1939999999999671
 31
0.0
  0
LINE
  5
B1E
330
1E
100
AcDbEntity
  8
0
100
AcDbLine
 10
157.54336
 20
0.1939999999999671
 30
0.0
 11
158.9873799999999
 21
0.1939999999999671
 31
0.0
  0
LINE
  5
B1F
330
1E
100
AcDbEntity
  8
0
100
AcDbLine
 10
158.9873799999999
 20
0.1939999999999671
 30
0.0
 11
160.5194999999999
 21
0.1939999999999671
 31
0.0
  0
LINE
  5
B20
330
1E
100
AcDbEntity
  8
0
100
AcDbLine
 10
160.5194999999999
 20
0.1939999999999671
 30
0.0
 11
162.1236
 21
0.1939999999999671
 31
0.0
  0
LINE
  5
B21
330
1E
100
AcDbEntity
  8
0
100
AcDbLine
 10
157.1981099999999
 20
0.1939999999999671
 30
0.0
 11
159.8860199999999
 21
0.1939999999999671
 31
0.0
  0
LINE
  5
B22
330
1E
100
AcDbEntity
  8
0
100
AcDbLine
 10
159.8860199999999
 20
0.1939999999999671
 30
0.0
 11
163.0092
 21
0.1939999999999671
 31
0.0
  0
LINE
  5
B23
330
1E
100
AcDbEntity
  8
0
100
AcDbLine
 10
157.59739
 20
0.1939999999999653
 30
0.0
 11
160.3614
 21
0.1939999999999653
 31
0.0
  0
LINE
  5
B24
330
1E
100
AcDbEntity
  8
0
100
AcDbLine
 10
155.3408
 20
0.1939999999999653
 30
0.0
 11
157.59739
 21
0.1939999999999653
 31
0.0
  0
LINE
  5
B25
330
1E
100
AcDbEntity
  8
0
100
AcDbLine
 10
155.02958
 20
0.1939999999999671
 30
0.0
 11
157.1981099999999
 21
0.1939999999999671
 31
0.0
  0
LINE
  5
B26
330
1E
100
AcDbEntity
  8
0
100
AcDbLine
 10
150.000013
 20
0.1939999999999671
 30
0.0
 11
150.1511209999999
 21
0.1939999999999671
 31
0.0
  0
LINE
  5
B27
330
1E
100
AcDbEntity
  8
0
100
AcDbLine
 10
152.54381
 20
0.1939999999999671
 30
0.0
 11
154.24502
 21
0.1939999999999671
 31
0.0
  0
LINE
  5
B28
330
1E
100
AcDbEntity
  8
0
100
AcDbLine
 10
153.4474499999999
 20
0.1939999999999671
 30
0.0
 11
155.02958
 21
0.1939999999999671
 31
0.0
  0
LINE
  5
B29
330
1E
100
AcDbEntity
  8
0
100
AcDbLine
 10
150.398296
 20
0.1939999999999671
 30
0.0
 11
151.27692
 21
0.1939999999999671
 31
0.0
  0
LINE
  5
B2A
330
1E
100
AcDbEntity
  8
0
100
AcDbLine
 10
151.27692
 20
0.1939999999999671
 30
0.0
 11
152.54381
 21
0.1939999999999671
 31
0.0
  0
LINE
  5
B2B
330
1E
100
AcDbEntity
  8
0
100
AcDbLine
 10
151.63617
 20
83.62209999999997
 30
0.0
 11
151.7424162866951
 21
89.04991424884757
 31
0.0
  0
LINE
  5
B2C
330
1E
100
AcDbEntity
  8
0
100
AcDbLine
 10
151.63617
 20
83.62209999999997
 30
0.0
 11
151.7424162866951
 21
89.04991424884768
 31
0.0
  0
LINE
  5
B2D
330
1E
100
AcDbEntity
  8
0
100
AcDbLine
 10
151.76226
 20
90.59389999999998
 30
0.0
 11
151.8143
 21
94.15309999999998
 31
0.0
  0
LINE
  5
B2E
330
1E
100
AcDbEntity
  8
0
100
AcDbLine
 10
151.8143
 20
94.15309999999998
 30
0.0
 11
151.8553299999999
 21
97.20239999999996
 31
0.0
  0
LINE
  5
B2F
330
1E
100
AcDbEntity
  8
0
100
AcDbLine
 10
151.66419
 20
85.04299999999997
 30
0.0
 11
151.7237595672028
 21
88.08700942364726
 31
0.0
  0
LINE
  5
B30
330
1E
100
AcDbEntity
  8
0
100
AcDbLine
 10
151.66419
 20
85.04299999999997
 30
0.0
 11
151.7237595672028
 21
88.08700942364717
 31
0.0
  0
LINE
  5
B31
330
1E
100
AcDbEntity
  8
0
100
AcDbLine
 10
151.66419
 20
85.04299999999997
 30
0.0
 11
151.76226
 21
90.59389999999998
 31
0.0
  0
LINE
  5
B32
330
1E
100
AcDbEntity
  8
0
100
AcDbLine
 10
151.57013
 20
82.20219999999997
 30
0.0
 11
151.63617
 21
83.62209999999997
 31
0.0
  0
LINE
  5
B33
330
1E
100
AcDbEntity
  8
0
100
AcDbLine
 10
150.000013
 20
0.1939999999999671
 30
0.0
 11
150.398296
 21
0.1939999999999671
 31
0.0
  0
LINE
  5
B34
330
1E
100
AcDbEntity
  8
0
100
AcDbLine
 10
150.000013
 20
0.1939999999999671
 30
0.0
 11
150.398296
 21
0.1939999999999671
 31
0.0
  0
LINE
  5
B35
330
1E
100
AcDbEntity
  8
0
100
AcDbLine
 10
152.4997799999999
 20
0.1939999999999671
 30
0.0
 11
153.4474499999999
 21
0.1939999999999671
 31
0.0
  0
LINE
  5
B36
330
1E
100
AcDbEntity
  8
0
100
AcDbLine
 10
152.21758
 20
0.1939999999999671
 30
0.0
 11
152.4997799999999
 21
0.1939999999999671
 31
0.0
  0
LINE
  5
B37
330
1E
100
AcDbEntity
  8
0
100
AcDbLine
 10
152.21758
 20
0.1939999999999671
 30
0.0
 11
152.60786
 21
0.1939999999999653
 31
0.0
  0
LINE
  5
B38
330
1E
100
AcDbEntity
  8
0
100
AcDbLine
 10
149.981
 20
0.1939999999999671
 30
0.0
 11
151.57013
 21
82.20219999999997
 31
0.0
  0
LINE
  5
B39
330
1E
100
AcDbEntity
  8
0
100
AcDbLine
 10
150.1511209999999
 20
0.1939999999999671
 30
0.0
 11
150.429318
 21
0.1939999999999653
 31
0.0
  0
LINE
  5
B3A
330
1E
100
AcDbEntity
  8
0
100
AcDbLine
 10
152.9070699999999
 20
0.1939999999999653
 30
0.0
 11
153.8747599999999
 21
0.1939999999999653
 31
0.0
  0
LINE
  5
B3B
330
1E
100
AcDbEntity
  8
0
100
AcDbLine
 10
151.3879999999999
 20
0.1939999999999653
 30
0.0
 11
152.0774799999999
 21
0.1939999999999653
 31
0.0
  0
LINE
  5
B3C
330
1E
100
AcDbEntity
  8
0
100
AcDbLine
 10
152.0774799999999
 20
0.1939999999999653
 30
0.0
 11
152.9070699999999
 21
0.1939999999999653
 31
0.0
  0
LINE
  5
B3D
330
1E
100
AcDbEntity
  8
0
100
AcDbLine
 10
153.66061
 20
0.1939999999999653
 30
0.0
 11
155.3408
 21
0.1939999999999653
 31
0.0
  0
LINE
  5
B3E
330
1E
100
AcDbEntity
  8
0
100
AcDbLine
 10
152.60786
 20
0.1939999999999653
 30
0.0
 11
153.66061
 21
0.1939999999999653
 31
0.0
  0
LINE
  5
B3F
330
1E
100
AcDbEntity
  8
0
100
AcDbLine
 10
150.429318
 20
0.1939999999999653
 30
0.0
 11
150.8396079999999
 21
0.1939999999999653
 31
0.0
  0
LINE
  5
B40
330
1E
100
AcDbEntity
  8
0
100
AcDbLine
 10
150.429318
 20
0.1939999999999653
 30
0.0
 11
150.8396079999999
 21
0.1939999999999653
 31
0.0
  0
LINE
  5
B41
330
1E
100
AcDbEntity
  8
0
100
AcDbLine
 10
150.8396079999999
 20
0.1939999999999653
 30
0.0
 11
151.3879999999999
 21
0.1939999999999653
 31
0.0
  0
LINE
  5
B42
330
1E
100
AcDbEntity
  8
0
100
AcDbLine
 10
150.8396079999999
 20
0.1939999999999653
 30
0.0
 11
151.3879999999999
 21
0.1939999999999653
 31
0.0
  0
LINE
  5
B43
330
1E
100
AcDbEntity
  8
0
100
AcDbLine
 10
156.2024099999999
 20
0.1939999999999653
 30
0.0
 11
157.54336
 21
0.1939999999999653
 31
0.0
  0
LINE
  5
B44
330
1E
100
AcDbEntity
  8
0
100
AcDbLine
 10
157.54336
 20
0.1939999999999653
 30
0.0
 11
159.4757299999999
 21
0.1939999999999653
 31
0.0
  0
LINE
  5
B45
330
1E
100
AcDbEntity
  8
0
100
AcDbLine
 10
160.3614
 20
0.1939999999999653
 30
0.0
 11
163.5455999999999
 21
0.1939999999999653
 31
0.0
  0
LINE
  5
B46
330
1E
100
AcDbEntity
  8
0
100
AcDbLine
 10
159.4757299999999
 20
0.1939999999999653
 30
0.0
 11
161.5531999999999
 21
0.1939999999999653
 31
0.0
  0
LINE
  5
B47
330
1E
100
AcDbEntity
  8
0
100
AcDbLine
 10
149.981
 20
0.1939999999999653
 30
0.0
 11
151.57013
 21
82.20219999999997
 31
0.0
  0
ENDSEC
  0
SECTION
  2
OBJECTS
  0
DICTIONARY
  5
C
330
0
100
AcDbDictionary
281
     1
  3
ACAD_GROUP
350
D
  3
ACAD_LAYOUT
350
19
  3
ACAD_MLINESTYLE
350
16
  3
ACAD_PLOTSETTINGS
350
18
  3
ACAD_PLOTSTYLENAME
350
E
  3
AcDbVariableDictionary
350
B49
  0
DICTIONARY
  5
D
102
{ACAD_REACTORS
330
C
102
}
330
C
100
AcDbDictionary
281
     1
  0
DICTIONARY
  5
19
102
{ACAD_REACTORS
330
C
102
}
330
C
100
AcDbDictionary
281
     1
  3
Layout1
350
1D
  3
Model
350
21
  0
DICTIONARY
  5
16
102
{ACAD_REACTORS
330
C
102
}
330
C
100
AcDbDictionary
281
     1
  3
Standard
350
17
  0
DICTIONARY
  5
18
102
{ACAD_REACTORS
330
C
102
}
330
C
100
AcDbDictionary
281
     1
  0
ACDBDICTIONARYWDFLT
  5
E
102
{ACAD_REACTORS
330
C
102
}
330
C
100
AcDbDictionary
281
     1
  3
Normal
350
F
100
AcDbDictionaryWithDefault
340
F
  0
DICTIONARY
  5
B49
102
{ACAD_REACTORS
330
C
102
}
330
C
100
AcDbDictionary
281
     1
  3
DIMASSOC
350
B4A
  0
LAYOUT
  5
1D
102
{ACAD_REACTORS
330
19
102
}
330
19
100
AcDbPlotSettings
  1

  2
C:\Programme\AutoCAD LT 2002 Deu\plotters\DWF ePlot (optimized for plotting).pc3
  4

  6

 40
0.0
 41
0.0
 42
0.0
 43
0.0
 44
0.0
 45
0.0
 46
0.0
 47
0.0
 48
0.0
 49
0.0
140
0.0
141
0.0
142
1.0
143
1.0
 70
   688
 72
     0
 73
     0
 74
     5
  7

 75
    16
147
1.0
148
0.0
149
0.0
100
AcDbLayout
  1
Layout1
 70
     1
 71
     1
 10
0.0
 20
0.0
 11
12.0
 21
9.0
 12
0.0
 22
0.0
 32
0.0
 14
1.000000000000000E+20
 24
1.000000000000000E+20
 34
1.000000000000000E+20
 15
-1.000000000000000E+20
 25
-1.000000000000000E+20
 35
-1.000000000000000E+20
146
0.0
 13
0.0
 23
0.0
 33
0.0
 16
1.0
 26
0.0
 36
0.0
 17
0.0
 27
1.0
 37
0.0
 76
     0
330
1A
  0
LAYOUT
  5
21
102
{ACAD_REACTORS
330
19
102
}
330
19
100
AcDbPlotSettings
  1

  2
C:\Programme\AutoCAD LT 2002 Deu\plotters\DWF ePlot (optimized for plotting).pc3
  4

  6

 40
0.0
 41
0.0
 42
0.0
 43
0.0
 44
0.0
 45
0.0
 46
0.0
 47
0.0
 48
0.0
 49
0.0
140
0.0
141
0.0
142
1.0
143
1.0
 70
  1712
 72
     0
 73
     0
 74
     0
  7

 75
     0
147
1.0
148
0.0
149
0.0
100
AcDbLayout
  1
Model
 70
     1
 71
     0
 10
0.0
 20
0.0
 11
12.0
 21
9.0
 12
0.0
 22
0.0
 32
0.0
 14
0.0
 24
0.0
 34
0.0
 15
0.0
 25
0.0
 35
0.0
146
0.0
 13
0.0
 23
0.0
 33
0.0
 16
1.0
 26
0.0
 36
0.0
 17
0.0
 27
1.0
 37
0.0
 76
     0
330
1E
  0
MLINESTYLE
  5
17
102
{ACAD_REACTORS
330
16
102
}
330
16
100
AcDbMlineStyle
  2
STANDARD
 70
     0
  3

 62
   256
 51
90.0
 52
90.0
 71
     2
 49
0.5
 62
   256
  6
BYLAYER
 49
-0.5
 62
   256
  6
BYLAYER
  0
ACDBPLACEHOLDER
  5
F
102
{ACAD_REACTORS
330
E
102
}
330
E
  0
DICTIONARYVAR
  5
B4A
102
{ACAD_REACTORS
330
B49
102
}
330
B49
100
DictionaryVariables
280
     0
  1
1
  0
ENDSEC
  0
EOF
