  0
SECTION
  2
HEADER
  9
$ACADVER
  1
AC1015
  9
$ACADMAINTVER
 70
    13
  9
$DWGCODEPAGE
  3
ANSI_1252
  9
$INSBASE
 10
0.0
 20
0.0
 30
0.0
  9
$EXTMIN
 10
-0.0000000000000142
 20
-0.0759999999999916
 30
0.0
  9
$EXTMAX
 10
221.0
 20
152.0759999999999
 30
0.0
  9
$LIMMIN
 10
0.0
 20
0.0
  9
$LIMMAX
 10
12.0
 20
9.0
  9
$ORTHOMODE
 70
     0
  9
$REGENMODE
 70
     1
  9
$FILLMODE
 70
     1
  9
$QTEXTMODE
 70
     0
  9
$MIRRTEXT
 70
     1
  9
$LTSCALE
 40
1.0
  9
$ATTMODE
 70
     1
  9
$TEXTSIZE
 40
0.2
  9
$TRACEWID
 40
0.05
  9
$TEXTSTYLE
  7
Standard
  9
$CLAYER
  8
0
  9
$CELTYPE
  6
Continuous
  9
$CECOLOR
 62
   256
  9
$CELTSCALE
 40
1.0
  9
$DISPSILH
 70
     0
  9
$DIMSCALE
 40
1.0
  9
$DIMASZ
 40
0.18
  9
$DIMEXO
 40
0.0625
  9
$DIMDLI
 40
0.38
  9
$DIMRND
 40
0.0
  9
$DIMDLE
 40
0.0
  9
$DIMEXE
 40
0.18
  9
$DIMTP
 40
0.0
  9
$DIMTM
 40
0.0
  9
$DIMTXT
 40
0.18
  9
$DIMCEN
 40
0.09
  9
$DIMTSZ
 40
0.0
  9
$DIMTOL
 70
     0
  9
$DIMLIM
 70
     0
  9
$DIMTIH
 70
     1
  9
$DIMTOH
 70
     1
  9
$DIMSE1
 70
     0
  9
$DIMSE2
 70
     0
  9
$DIMTAD
 70
     0
  9
$DIMZIN
 70
     0
  9
$DIMBLK
  1

  9
$DIMASO
 70
     1
  9
$DIMSHO
 70
     1
  9
$DIMPOST
  1

  9
$DIMAPOST
  1

  9
$DIMALT
 70
     0
  9
$DIMALTD
 70
     2
  9
$DIMALTF
 40
25.4
  9
$DIMLFAC
 40
1.0
  9
$DIMTOFL
 70
     0
  9
$DIMTVP
 40
0.0
  9
$DIMTIX
 70
     0
  9
$DIMSOXD
 70
     0
  9
$DIMSAH
 70
     0
  9
$DIMBLK1
  1

  9
$DIMBLK2
  1

  9
$DIMSTYLE
  2
Standard
  9
$DIMCLRD
 70
     0
  9
$DIMCLRE
 70
     0
  9
$DIMCLRT
 70
     0
  9
$DIMTFAC
 40
1.0
  9
$DIMGAP
 40
0.09
  9
$DIMJUST
 70
     0
  9
$DIMSD1
 70
     0
  9
$DIMSD2
 70
     0
  9
$DIMTOLJ
 70
     1
  9
$DIMTZIN
 70
     0
  9
$DIMALTZ
 70
     0
  9
$DIMALTTZ
 70
     0
  9
$DIMUPT
 70
     0
  9
$DIMDEC
 70
     4
  9
$DIMTDEC
 70
     4
  9
$DIMALTU
 70
     2
  9
$DIMALTTD
 70
     2
  9
$DIMTXSTY
  7
Standard
  9
$DIMAUNIT
 70
     0
  9
$DIMADEC
 70
     0
  9
$DIMALTRND
 40
0.0
  9
$DIMAZIN
 70
     0
  9
$DIMDSEP
 70
    46
  9
$DIMATFIT
 70
     3
  9
$DIMFRAC
 70
     0
  9
$DIMLDRBLK
  1

  9
$DIMLUNIT
 70
     2
  9
$DIMLWD
 70
    -2
  9
$DIMLWE
 70
    -2
  9
$DIMTMOVE
 70
     0
  9
$LUNITS
 70
     2
  9
$LUPREC
 70
     4
  9
$SKETCHINC
 40
0.1
  9
$FILLETRAD
 40
0.0
  9
$AUNITS
 70
     0
  9
$AUPREC
 70
     0
  9
$MENU
  1
.
  9
$ELEVATION
 40
0.0
  9
$PELEVATION
 40
0.0
  9
$THICKNESS
 40
0.0
  9
$LIMCHECK
 70
     0
  9
$CHAMFERA
 40
0.0
  9
$CHAMFERB
 40
0.0
  9
$CHAMFERC
 40
0.0
  9
$CHAMFERD
 40
0.0
  9
$SKPOLY
 70
     0
  9
$TDCREATE
 40
2454834.906170960
  9
$TDUCREATE
 40
2454834.864504294
  9
$TDUPDATE
 40
2454834.907246817
  9
$TDUUPDATE
 40
2454834.865580150
  9
$TDINDWG
 40
0.0010758565
  9
$TDUSRTIMER
 40
0.0010758565
  9
$USRTIMER
 70
     1
  9
$ANGBASE
 50
0.0
  9
$ANGDIR
 70
     0
  9
$PDMODE
 70
     0
  9
$PDSIZE
 40
0.0
  9
$PLINEWID
 40
0.0
  9
$SPLFRAME
 70
     0
  9
$SPLINETYPE
 70
     6
  9
$SPLINESEGS
 70
     8
  9
$HANDSEED
  5
1EA
  9
$SURFTAB1
 70
     6
  9
$SURFTAB2
 70
     6
  9
$SURFTYPE
 70
     6
  9
$SURFU
 70
     6
  9
$SURFV
 70
     6
  9
$UCSBASE
  2

  9
$UCSNAME
  2

  9
$UCSORG
 10
0.0
 20
0.0
 30
0.0
  9
$UCSXDIR
 10
1.0
 20
0.0
 30
0.0
  9
$UCSYDIR
 10
0.0
 20
1.0
 30
0.0
  9
$UCSORTHOREF
  2

  9
$UCSORTHOVIEW
 70
     1
  9
$UCSORGTOP
 10
0.0
 20
0.0
 30
0.0
  9
$UCSORGBOTTOM
 10
0.0
 20
0.0
 30
0.0
  9
$UCSORGLEFT
 10
0.0
 20
0.0
 30
0.0
  9
$UCSORGRIGHT
 10
0.0
 20
0.0
 30
0.0
  9
$UCSORGFRONT
 10
0.0
 20
0.0
 30
0.0
  9
$UCSORGBACK
 10
0.0
 20
0.0
 30
0.0
  9
$PUCSBASE
  2

  9
$PUCSNAME
  2

  9
$PUCSORG
 10
0.0
 20
0.0
 30
0.0
  9
$PUCSXDIR
 10
1.0
 20
0.0
 30
0.0
  9
$PUCSYDIR
 10
0.0
 20
1.0
 30
0.0
  9
$PUCSORTHOREF
  2

  9
$PUCSORTHOVIEW
 70
     0
  9
$PUCSORGTOP
 10
0.0
 20
0.0
 30
0.0
  9
$PUCSORGBOTTOM
 10
0.0
 20
0.0
 30
0.0
  9
$PUCSORGLEFT
 10
0.0
 20
0.0
 30
0.0
  9
$PUCSORGRIGHT
 10
0.0
 20
0.0
 30
0.0
  9
$PUCSORGFRONT
 10
0.0
 20
0.0
 30
0.0
  9
$PUCSORGBACK
 10
0.0
 20
0.0
 30
0.0
  9
$USERI1
 70
     0
  9
$USERI2
 70
     0
  9
$USERI3
 70
     0
  9
$USERI4
 70
     0
  9
$USERI5
 70
     0
  9
$USERR1
 40
0.0
  9
$USERR2
 40
0.0
  9
$USERR3
 40
0.0
  9
$USERR4
 40
0.0
  9
$USERR5
 40
0.0
  9
$WORLDVIEW
 70
     1
  9
$SHADEDGE
 70
     3
  9
$SHADEDIF
 70
    70
  9
$TILEMODE
 70
     1
  9
$MAXACTVP
 70
    64
  9
$PINSBASE
 10
0.0
 20
0.0
 30
0.0
  9
$PLIMCHECK
 70
     0
  9
$PEXTMIN
 10
1.000000000000000E+20
 20
1.000000000000000E+20
 30
1.000000000000000E+20
  9
$PEXTMAX
 10
-1.000000000000000E+20
 20
-1.000000000000000E+20
 30
-1.000000000000000E+20
  9
$PLIMMIN
 10
0.0
 20
0.0
  9
$PLIMMAX
 10
12.0
 20
9.0
  9
$UNITMODE
 70
     0
  9
$VISRETAIN
 70
     1
  9
$PLINEGEN
 70
     0
  9
$PSLTSCALE
 70
     1
  9
$TREEDEPTH
 70
  3020
  9
$CMLSTYLE
  2
Standard
  9
$CMLJUST
 70
     0
  9
$CMLSCALE
 40
1.0
  9
$PROXYGRAPHICS
 70
     1
  9
$MEASUREMENT
 70
     0
  9
$CELWEIGHT
370
    -1
  9
$ENDCAPS
280
     0
  9
$JOINSTYLE
280
     0
  9
$LWDISPLAY
290
     0
  9
$INSUNITS
 70
     0
  9
$HYPERLINKBASE
  1

  9
$STYLESHEET
  1

  9
$XEDIT
290
     1
  9
$CEPSNTYPE
380
     0
  9
$PSTYLEMODE
290
     1
  9
$FINGERPRINTGUID
  2
{BA68BB27-7CB0-4A15-8C1F-A11E61795505}
  9
$VERSIONGUID
  2
{C1D7DCE6-41FD-4E7A-AD88-1A995B824DAA}
  9
$EXTNAMES
290
     1
  9
$PSVPSCALE
 40
0.0
  9
$OLESTARTUP
290
     0
  0
ENDSEC
  0
SECTION
  2
CLASSES
  0
CLASS
  1
ACDBDICTIONARYWDFLT
  2
AcDbDictionaryWithDefault
  3
AutoCAD 2000
 90
        0
280
     0
281
     0
  0
CLASS
  1
ACDBPLACEHOLDER
  2
AcDbPlaceHolder
  3
AutoCAD 2000
 90
        0
280
     0
281
     0
  0
CLASS
  1
LAYOUT
  2
AcDbLayout
  3
AutoCAD 2000
 90
        0
280
     0
281
     0
  0
CLASS
  1
DICTIONARYVAR
  2
AcDbDictionaryVar
  3
AutoCAD 2000
 90
        0
280
     0
281
     0
  0
ENDSEC
  0
SECTION
  2
TABLES
  0
TABLE
  2
VPORT
  5
8
330
0
100
AcDbSymbolTable
 70
     2
  0
VPORT
  5
1E9
330
8
100
AcDbSymbolTableRecord
100
AcDbViewportTableRecord
  2
*Active
 70
     0
 10
0.0
 20
0.0
 11
1.0
 21
1.0
 12
110.4999999999999
 22
76.0
 13
0.0
 23
0.0
 14
1.0
 24
1.0
 15
0.0
 25
0.0
 16
0.0
 26
0.0
 36
1.0
 17
0.0
 27
0.0
 37
0.0
 40
153.3194066496163
 41
2.078104993597951
 42
50.0
 43
0.0
 44
0.0
 50
0.0
 51
0.0
 71
     0
 72
   100
 73
     1
 74
     3
 75
     0
 76
     0
 77
     0
 78
     0
281
     0
 65
     1
110
0.0
120
0.0
130
0.0
111
1.0
121
0.0
131
0.0
112
0.0
122
1.0
132
0.0
 79
     1
146
0.0
  0
ENDTAB
  0
TABLE
  2
LTYPE
  5
5
330
0
100
AcDbSymbolTable
 70
     1
  0
LTYPE
  5
13
330
5
100
AcDbSymbolTableRecord
100
AcDbLinetypeTableRecord
  2
ByBlock
 70
     0
  3

 72
    65
 73
     0
 40
0.0
  0
LTYPE
  5
14
330
5
100
AcDbSymbolTableRecord
100
AcDbLinetypeTableRecord
  2
ByLayer
 70
     0
  3

 72
    65
 73
     0
 40
0.0
  0
LTYPE
  5
15
330
5
100
AcDbSymbolTableRecord
100
AcDbLinetypeTableRecord
  2
Continuous
 70
     0
  3
Solid line
 72
    65
 73
     0
 40
0.0
  0
ENDTAB
  0
TABLE
  2
LAYER
  5
2
330
0
100
AcDbSymbolTable
 70
     1
  0
LAYER
  5
10
330
2
100
AcDbSymbolTableRecord
100
AcDbLayerTableRecord
  2
0
 70
     0
 62
     7
  6
Continuous
370
    -3
390
F
  0
ENDTAB
  0
TABLE
  2
STYLE
  5
3
330
0
100
AcDbSymbolTable
 70
     1
  0
STYLE
  5
11
330
3
100
AcDbSymbolTableRecord
100
AcDbTextStyleTableRecord
  2
Standard
 70
     0
 40
0.0
 41
1.0
 50
0.0
 71
     0
 42
0.2
  3
txt
  4

  0
ENDTAB
  0
TABLE
  2
VIEW
  5
6
330
0
100
AcDbSymbolTable
 70
     0
  0
ENDTAB
  0
TABLE
  2
UCS
  5
7
330
0
100
AcDbSymbolTable
 70
     0
  0
ENDTAB
  0
TABLE
  2
APPID
  5
9
330
0
100
AcDbSymbolTable
 70
     1
  0
APPID
  5
12
330
9
100
AcDbSymbolTableRecord
100
AcDbRegAppTableRecord
  2
ACAD
 70
     0
  0
ENDTAB
  0
TABLE
  2
DIMSTYLE
  5
A
330
0
100
AcDbSymbolTable
 70
     1
100
AcDbDimStyleTable
 71
     0
  0
DIMSTYLE
105
169
330
A
100
AcDbSymbolTableRecord
100
AcDbDimStyleTableRecord
  2
Standard
 70
     0
340
11
  0
ENDTAB
  0
TABLE
  2
BLOCK_RECORD
  5
1
330
0
100
AcDbSymbolTable
 70
     0
  0
BLOCK_RECORD
  5
1E
330
1
100
AcDbSymbolTableRecord
100
AcDbBlockTableRecord
  2
*Model_Space
340
21
  0
BLOCK_RECORD
  5
1A
330
1
100
AcDbSymbolTableRecord
100
AcDbBlockTableRecord
  2
*Paper_Space
340
1D
  0
ENDTAB
  0
ENDSEC
  0
SECTION
  2
BLOCKS
  0
BLOCK
  5
1F
330
1E
100
AcDbEntity
  8
0
100
AcDbBlockBegin
  2
*Model_Space
 70
     0
 10
0.0
 20
0.0
 30
0.0
  3
*Model_Space
  1

  0
ENDBLK
  5
20
330
1E
100
AcDbEntity
  8
0
100
AcDbBlockEnd
  0
BLOCK
  5
1B
330
1A
100
AcDbEntity
 67
     1
  8
0
100
AcDbBlockBegin
  2
*Paper_Space
 70
     0
 10
0.0
 20
0.0
 30
0.0
  3
*Paper_Space
  1

  0
ENDBLK
  5
1C
330
1A
100
AcDbEntity
 67
     1
  8
0
100
AcDbBlockEnd
  0
ENDSEC
  0
SECTION
  2
ENTITIES
  0
LINE
  5
22
330
1E
100
AcDbEntity
  8
0
100
AcDbLine
 10
10.4471
 20
91.52309999999999
 30
0.0
 11
17.8514
 21
85.84314
 31
0.0
  0
LINE
  5
23
330
1E
100
AcDbEntity
  8
0
100
AcDbLine
 10
17.8514
 20
85.84314
 30
0.0
 11
26.3714
 21
82.39456999999999
 31
0.0
  0
LINE
  5
24
330
1E
100
AcDbEntity
  8
0
100
AcDbLine
 10
4.76713999999999
 20
98.92740000000001
 30
0.0
 11
10.4471
 21
91.52309999999999
 31
0.0
  0
LINE
  5
25
330
1E
100
AcDbEntity
  8
0
100
AcDbLine
 10
20.5
 20
101.9407
 30
0.0
 11
20.5
 21
99.77600000000002
 31
0.0
  0
LINE
  5
26
330
1E
100
AcDbEntity
  8
0
100
AcDbLine
 10
20.5
 20
101.9407
 30
0.0
 11
20.5
 21
135.2112999999999
 31
0.0
  0
LINE
  5
27
330
1E
100
AcDbEntity
  8
0
100
AcDbLine
 10
20.5
 20
101.696
 30
0.0
 11
20.5
 21
99.77600000000002
 31
0.0
  0
LINE
  5
28
330
1E
100
AcDbEntity
  8
0
100
AcDbLine
 10
20.5
 20
101.696
 30
0.0
 11
20.5
 21
104.8159999999999
 31
0.0
  0
LINE
  5
29
330
1E
100
AcDbEntity
  8
0
100
AcDbLine
 10
20.5
 20
99.77600000000002
 30
0.0
 11
20.5
 21
99.05599999999999
 31
0.0
  0
LINE
  5
2A
330
1E
100
AcDbEntity
  8
0
100
AcDbLine
 10
20.5
 20
99.77600000000002
 30
0.0
 11
20.5
 21
101.696
 31
0.0
  0
LINE
  5
2B
330
1E
100
AcDbEntity
  8
0
100
AcDbLine
 10
20.5
 20
99.77600000000002
 30
0.0
 11
20.5
 21
101.9407
 31
0.0
  0
LINE
  5
2C
330
1E
100
AcDbEntity
  8
0
100
AcDbLine
 10
20.5
 20
99.05599999999999
 30
0.0
 11
21.1
 21
98.57600000000001
 31
0.0
  0
LINE
  5
2D
330
1E
100
AcDbEntity
  8
0
100
AcDbLine
 10
20.5
 20
99.05599999999999
 30
0.0
 11
20.5
 21
99.77600000000002
 31
0.0
  0
LINE
  5
2E
330
1E
100
AcDbEntity
  8
0
100
AcDbLine
 10
1.31856999999999
 20
107.4474
 30
0.0
 11
4.76713999999999
 21
98.92740000000001
 31
0.0
  0
LINE
  5
2F
330
1E
100
AcDbEntity
  8
0
100
AcDbLine
 10
20.5
 20
108.8959999999999
 30
0.0
 11
20.5
 21
104.8159999999999
 31
0.0
  0
LINE
  5
30
330
1E
100
AcDbEntity
  8
0
100
AcDbLine
 10
20.5
 20
108.8959999999999
 30
0.0
 11
20.5
 21
113.536
 31
0.0
  0
LINE
  5
31
330
1E
100
AcDbEntity
  8
0
100
AcDbLine
 10
20.5
 20
104.8159999999999
 30
0.0
 11
20.5
 21
101.696
 31
0.0
  0
LINE
  5
32
330
1E
100
AcDbEntity
  8
0
100
AcDbLine
 10
20.5
 20
104.8159999999999
 30
0.0
 11
20.5
 21
108.8959999999999
 31
0.0
  0
LINE
  5
33
330
1E
100
AcDbEntity
  8
0
100
AcDbLine
 10
-0.0000000000000142
 20
116.576
 30
0.0
 11
1.31856999999999
 21
125.7046
 31
0.0
  0
LINE
  5
34
330
1E
100
AcDbEntity
  8
0
100
AcDbLine
 10
-0.0000000000000142
 20
116.576
 30
0.0
 11
1.31856999999999
 21
107.4474
 31
0.0
  0
LINE
  5
35
330
1E
100
AcDbEntity
  8
0
100
AcDbLine
 10
1.31856999999999
 20
125.7046
 30
0.0
 11
4.76713999999999
 21
134.2246
 31
0.0
  0
LINE
  5
36
330
1E
100
AcDbEntity
  8
0
100
AcDbLine
 10
20.5
 20
123.6159999999999
 30
0.0
 11
20.5
 21
118.576
 31
0.0
  0
LINE
  5
37
330
1E
100
AcDbEntity
  8
0
100
AcDbLine
 10
20.5
 20
123.6159999999999
 30
0.0
 11
20.5
 21
128.2559999999999
 31
0.0
  0
LINE
  5
38
330
1E
100
AcDbEntity
  8
0
100
AcDbLine
 10
4.76713999999999
 20
134.2246
 30
0.0
 11
10.4471
 21
141.6288999999999
 31
0.0
  0
LINE
  5
39
330
1E
100
AcDbEntity
  8
0
100
AcDbLine
 10
20.5
 20
135.2112999999999
 30
0.0
 11
20.5
 21
137.376
 31
0.0
  0
LINE
  5
3A
330
1E
100
AcDbEntity
  8
0
100
AcDbLine
 10
20.5
 20
135.2112999999999
 30
0.0
 11
20.5
 21
101.9407
 31
0.0
  0
LINE
  5
3B
330
1E
100
AcDbEntity
  8
0
100
AcDbLine
 10
20.5
 20
128.2559999999999
 30
0.0
 11
20.5
 21
123.6159999999999
 31
0.0
  0
LINE
  5
3C
330
1E
100
AcDbEntity
  8
0
100
AcDbLine
 10
20.5
 20
128.2559999999999
 30
0.0
 11
20.5
 21
132.336
 31
0.0
  0
LINE
  5
3D
330
1E
100
AcDbEntity
  8
0
100
AcDbLine
 10
20.5
 20
132.336
 30
0.0
 11
20.5
 21
128.2559999999999
 31
0.0
  0
LINE
  5
3E
330
1E
100
AcDbEntity
  8
0
100
AcDbLine
 10
20.5
 20
132.336
 30
0.0
 11
20.5
 21
135.456
 31
0.0
  0
LINE
  5
3F
330
1E
100
AcDbEntity
  8
0
100
AcDbLine
 10
20.5
 20
135.456
 30
0.0
 11
20.5
 21
132.336
 31
0.0
  0
LINE
  5
40
330
1E
100
AcDbEntity
  8
0
100
AcDbLine
 10
20.5
 20
135.456
 30
0.0
 11
20.5
 21
137.376
 31
0.0
  0
LINE
  5
41
330
1E
100
AcDbEntity
  8
0
100
AcDbLine
 10
20.5
 20
137.376
 30
0.0
 11
20.5
 21
135.456
 31
0.0
  0
LINE
  5
42
330
1E
100
AcDbEntity
  8
0
100
AcDbLine
 10
20.5
 20
137.376
 30
0.0
 11
20.5
 21
138.0959999999999
 31
0.0
  0
LINE
  5
43
330
1E
100
AcDbEntity
  8
0
100
AcDbLine
 10
20.5
 20
137.376
 30
0.0
 11
20.5
 21
135.2112999999999
 31
0.0
  0
LINE
  5
44
330
1E
100
AcDbEntity
  8
0
100
AcDbLine
 10
10.4471
 20
141.6288999999999
 30
0.0
 11
17.8514
 21
147.3088999999999
 31
0.0
  0
LINE
  5
45
330
1E
100
AcDbEntity
  8
0
100
AcDbLine
 10
17.8514
 20
147.3088999999999
 30
0.0
 11
26.3714
 21
150.7573999999999
 31
0.0
  0
LINE
  5
46
330
1E
100
AcDbEntity
  8
0
100
AcDbLine
 10
20.5
 20
138.0959999999999
 30
0.0
 11
20.5
 21
137.376
 31
0.0
  0
LINE
  5
47
330
1E
100
AcDbEntity
  8
0
100
AcDbLine
 10
20.5
 20
138.0959999999999
 30
0.0
 11
21.1
 21
138.5759999999999
 31
0.0
  0
LINE
  5
53
330
1E
100
AcDbEntity
  8
0
100
AcDbLine
 10
21.1
 20
138.5759999999999
 30
0.0
 11
110.002487309645
 21
138.5759999999999
 31
0.0
  0
LINE
  5
54
330
1E
100
AcDbEntity
  8
0
100
AcDbLine
 10
20.5
 20
118.576
 30
0.0
 11
20.5
 21
113.536
 31
0.0
  0
LINE
  5
55
330
1E
100
AcDbEntity
  8
0
100
AcDbLine
 10
20.5
 20
118.576
 30
0.0
 11
20.5
 21
123.6159999999999
 31
0.0
  0
LINE
  5
56
330
1E
100
AcDbEntity
  8
0
100
AcDbLine
 10
20.5
 20
113.536
 30
0.0
 11
20.5
 21
108.8959999999999
 31
0.0
  0
LINE
  5
57
330
1E
100
AcDbEntity
  8
0
100
AcDbLine
 10
20.5
 20
113.536
 30
0.0
 11
20.5
 21
118.576
 31
0.0
  0
LINE
  5
62
330
1E
100
AcDbEntity
  8
0
100
AcDbLine
 10
21.1
 20
98.57600000000001
 30
0.0
 11
88.57801242100149
 21
98.57600000000001
 31
0.0
  0
LINE
  5
64
330
1E
100
AcDbEntity
  8
0
100
AcDbLine
 10
26.3714
 20
82.39456999999999
 30
0.0
 11
35.5
 21
81.07600000000001
 31
0.0
  0
LINE
  5
65
330
1E
100
AcDbEntity
  8
0
100
AcDbLine
 10
88.68506045165799
 20
96.71582851902492
 30
0.0
 11
91.0195
 21
60.7483
 31
0.0
  0
LINE
  5
66
330
1E
100
AcDbEntity
  8
0
100
AcDbLine
 10
88.0295
 20
111.6344
 30
0.0
 11
88.1356
 21
108.2168
 31
0.0
  0
LINE
  5
67
330
1E
100
AcDbEntity
  8
0
100
AcDbLine
 10
88.1356
 20
108.2168
 30
0.0
 11
88.3031
 21
104.2213999999999
 31
0.0
  0
LINE
  5
68
330
1E
100
AcDbEntity
  8
0
100
AcDbLine
 10
88.3031
 20
104.2213999999999
 30
0.0
 11
88.4913
 21
100.0828
 31
0.0
  0
LINE
  5
69
330
1E
100
AcDbEntity
  8
0
100
AcDbLine
 10
88.4913
 20
100.0828
 30
0.0
 11
88.68506045165799
 21
96.71582851902492
 31
0.0
  0
LINE
  5
6A
330
1E
100
AcDbEntity
  8
0
100
AcDbLine
 10
88.7639
 20
121.9208
 30
0.0
 11
89.68659999999999
 21
124.5062
 31
0.0
  0
LINE
  5
6B
330
1E
100
AcDbEntity
  8
0
100
AcDbLine
 10
88.1487
 20
119.2398
 30
0.0
 11
88.7639
 21
121.9208
 31
0.0
  0
LINE
  5
6C
330
1E
100
AcDbEntity
  8
0
100
AcDbLine
 10
87.94360000000001
 20
116.463
 30
0.0
 11
88.1487
 21
119.2398
 31
0.0
  0
LINE
  5
6E
330
1E
100
AcDbEntity
  8
0
100
AcDbLine
 10
87.94360000000001
 20
116.463
 30
0.0
 11
88.0295
 21
111.6344
 31
0.0
  0
LINE
  5
6F
330
1E
100
AcDbEntity
  8
0
100
AcDbLine
 10
60.5529
 20
91.52309999999999
 30
0.0
 11
65.96333339681
 21
98.57600000000001
 31
0.0
  0
LINE
  5
70
330
1E
100
AcDbEntity
  8
0
100
AcDbLine
 10
53.1486
 20
85.84314
 30
0.0
 11
60.5529
 21
91.52309999999999
 31
0.0
  0
LINE
  5
71
330
1E
100
AcDbEntity
  8
0
100
AcDbLine
 10
44.6286
 20
82.39456999999999
 30
0.0
 11
53.1486
 21
85.84314
 31
0.0
  0
LINE
  5
72
330
1E
100
AcDbEntity
  8
0
100
AcDbLine
 10
35.5
 20
81.07600000000001
 30
0.0
 11
44.6286
 21
82.39456999999999
 31
0.0
  0
LINE
  5
73
330
1E
100
AcDbEntity
  8
0
100
AcDbLine
 10
91.2246
 20
58.3545
 30
0.0
 11
91.73720000000001
 21
56.0565
 31
0.0
  0
LINE
  5
74
330
1E
100
AcDbEntity
  8
0
100
AcDbLine
 10
91.0195
 20
60.7483
 30
0.0
 11
91.2246
 21
58.3545
 31
0.0
  0
LINE
  5
75
330
1E
100
AcDbEntity
  8
0
100
AcDbLine
 10
91.73720000000001
 20
56.0565
 30
0.0
 11
92.55740000000001
 21
53.75849999999999
 31
0.0
  0
LINE
  5
79
330
1E
100
AcDbEntity
  8
0
100
AcDbLine
 10
89.68659999999999
 20
124.5062
 30
0.0
 11
90.91700000000001
 21
126.9957
 31
0.0
  0
LINE
  5
7A
330
1E
100
AcDbEntity
  8
0
100
AcDbLine
 10
91.35857741313101
 20
127.57788295776
 30
0.0
 11
91.40399999999999
 21
127.6778999999999
 31
0.0
  0
LINE
  5
7B
330
1E
100
AcDbEntity
  8
0
100
AcDbLine
 10
91.40399999999999
 20
127.6778999999999
 30
0.0
 11
93.076
 21
130.1295
 31
0.0
  0
LINE
  5
7C
330
1E
100
AcDbEntity
  8
0
100
AcDbLine
 10
90.91700000000001
 20
126.9957
 30
0.0
 11
92.66
 21
129.2937
 31
0.0
  0
LINE
  5
7D
330
1E
100
AcDbEntity
  8
0
100
AcDbLine
 10
90.91700000000001
 20
126.9957
 30
0.0
 11
91.40399999999999
 21
127.6778999999999
 31
0.0
  0
LINE
  5
7E
330
1E
100
AcDbEntity
  8
0
100
AcDbLine
 10
92.55740000000001
 20
53.75849999999999
 30
0.0
 11
93.5827
 21
51.652
 31
0.0
  0
LINE
  5
80
330
1E
100
AcDbEntity
  8
0
100
AcDbLine
 10
100.76
 20
44.94939999999999
 30
0.0
 11
103.015
 21
43.99189999999999
 31
0.0
  0
LINE
  5
81
330
1E
100
AcDbEntity
  8
0
100
AcDbLine
 10
96.76110000000001
 20
47.9177
 30
0.0
 11
98.60660000000001
 21
46.3857
 31
0.0
  0
LINE
  5
82
330
1E
100
AcDbEntity
  8
0
100
AcDbLine
 10
98.60660000000001
 20
46.3857
 30
0.0
 11
100.76
 21
44.94939999999999
 31
0.0
  0
LINE
  5
83
330
1E
100
AcDbEntity
  8
0
100
AcDbLine
 10
93.076
 20
130.1295
 30
0.0
 11
95.012
 21
132.2085999999999
 31
0.0
  0
LINE
  5
84
330
1E
100
AcDbEntity
  8
0
100
AcDbLine
 10
93.5827
 20
51.652
 30
0.0
 11
95.12069999999999
 21
49.6412
 31
0.0
  0
LINE
  5
85
330
1E
100
AcDbEntity
  8
0
100
AcDbLine
 10
95.12069999999999
 20
49.6412
 30
0.0
 11
96.76110000000001
 21
47.9177
 31
0.0
  0
LINE
  5
86
330
1E
100
AcDbEntity
  8
0
100
AcDbLine
 10
98.4462
 20
112.9043999999999
 30
0.0
 11
98.65819999999999
 21
112.7469
 31
0.0
  0
LINE
  5
87
330
1E
100
AcDbEntity
  8
0
100
AcDbLine
 10
98.2862
 20
113.1132
 30
0.0
 11
98.4462
 21
112.9043999999999
 31
0.0
  0
LINE
  5
88
330
1E
100
AcDbEntity
  8
0
100
AcDbLine
 10
98.4462
 20
114.2989
 30
0.0
 11
98.65819999999999
 21
114.4565
 31
0.0
  0
LINE
  5
89
330
1E
100
AcDbEntity
  8
0
100
AcDbLine
 10
98.2862
 20
114.0901
 30
0.0
 11
98.4462
 21
114.2989
 31
0.0
  0
LINE
  5
8A
330
1E
100
AcDbEntity
  8
0
100
AcDbLine
 10
98.19020000000001
 20
113.8538
 30
0.0
 11
98.2862
 21
114.0901
 31
0.0
  0
LINE
  5
8B
330
1E
100
AcDbEntity
  8
0
100
AcDbLine
 10
98.19020000000001
 20
113.3496
 30
0.0
 11
98.2862
 21
113.1132
 31
0.0
  0
LINE
  5
8C
330
1E
100
AcDbEntity
  8
0
100
AcDbLine
 10
98.15420000000001
 20
113.6017
 30
0.0
 11
98.19020000000001
 21
113.3496
 31
0.0
  0
LINE
  5
8D
330
1E
100
AcDbEntity
  8
0
100
AcDbLine
 10
98.15420000000001
 20
113.6017
 30
0.0
 11
98.19020000000001
 21
113.8538
 31
0.0
  0
LINE
  5
91
330
1E
100
AcDbEntity
  8
0
100
AcDbLine
 10
99.15420000000001
 20
112.6168999999999
 30
0.0
 11
99.41020000000001
 21
112.6522999999999
 31
0.0
  0
LINE
  5
92
330
1E
100
AcDbEntity
  8
0
100
AcDbLine
 10
99.41020000000001
 20
112.6522999999999
 30
0.0
 11
99.6502
 21
112.7469
 31
0.0
  0
LINE
  5
93
330
1E
100
AcDbEntity
  8
0
100
AcDbLine
 10
99.6502
 20
112.7469
 30
0.0
 11
99.86220000000001
 21
112.9043999999999
 31
0.0
  0
LINE
  5
94
330
1E
100
AcDbEntity
  8
0
100
AcDbLine
 10
98.8982
 20
112.6522999999999
 30
0.0
 11
99.15420000000001
 21
112.6168999999999
 31
0.0
  0
LINE
  5
95
330
1E
100
AcDbEntity
  8
0
100
AcDbLine
 10
99.86220000000001
 20
112.9043999999999
 30
0.0
 11
100.0221999999999
 21
113.1132
 31
0.0
  0
LINE
  5
96
330
1E
100
AcDbEntity
  8
0
100
AcDbLine
 10
98.65819999999999
 20
114.4565
 30
0.0
 11
98.8982
 21
114.551
 31
0.0
  0
LINE
  5
97
330
1E
100
AcDbEntity
  8
0
100
AcDbLine
 10
98.8982
 20
114.551
 30
0.0
 11
99.15420000000001
 21
114.5865
 31
0.0
  0
LINE
  5
98
330
1E
100
AcDbEntity
  8
0
100
AcDbLine
 10
99.15420000000001
 20
114.5865
 30
0.0
 11
99.41020000000001
 21
114.551
 31
0.0
  0
LINE
  5
99
330
1E
100
AcDbEntity
  8
0
100
AcDbLine
 10
99.41020000000001
 20
114.551
 30
0.0
 11
99.6502
 21
114.4565
 31
0.0
  0
LINE
  5
9A
330
1E
100
AcDbEntity
  8
0
100
AcDbLine
 10
99.6502
 20
114.4565
 30
0.0
 11
99.86220000000001
 21
114.2989
 31
0.0
  0
LINE
  5
9B
330
1E
100
AcDbEntity
  8
0
100
AcDbLine
 10
99.86220000000001
 20
114.2989
 30
0.0
 11
100.0221999999999
 21
114.0901
 31
0.0
  0
LINE
  5
9C
330
1E
100
AcDbEntity
  8
0
100
AcDbLine
 10
100.0221999999999
 20
114.0901
 30
0.0
 11
100.1182
 21
113.8538
 31
0.0
  0
LINE
  5
9D
330
1E
100
AcDbEntity
  8
0
100
AcDbLine
 10
100.1182
 20
113.8538
 30
0.0
 11
100.1542
 21
113.6017
 31
0.0
  0
LINE
  5
9E
330
1E
100
AcDbEntity
  8
0
100
AcDbLine
 10
100.0221999999999
 20
113.1132
 30
0.0
 11
100.1182
 21
113.3496
 31
0.0
  0
LINE
  5
9F
330
1E
100
AcDbEntity
  8
0
100
AcDbLine
 10
100.1182
 20
113.3496
 30
0.0
 11
100.1542
 21
113.6017
 31
0.0
  0
LINE
  5
A0
330
1E
100
AcDbEntity
  8
0
100
AcDbLine
 10
98.65819999999999
 20
112.7469
 30
0.0
 11
98.8982
 21
112.6522999999999
 31
0.0
  0
LINE
  5
A3
330
1E
100
AcDbEntity
  8
0
100
AcDbLine
 10
92.66
 20
129.2937
 30
0.0
 11
94.60799999999998
 21
131.3043999999999
 31
0.0
  0
LINE
  5
A4
330
1E
100
AcDbEntity
  8
0
100
AcDbLine
 10
94.60799999999998
 20
131.3043999999999
 30
0.0
 11
96.76110000000001
 21
133.1237
 31
0.0
  0
LINE
  5
A5
330
1E
100
AcDbEntity
  8
0
100
AcDbLine
 10
95.012
 20
132.2085999999999
 30
0.0
 11
97.124
 21
134.1547
 31
0.0
  0
LINE
  5
A6
330
1E
100
AcDbEntity
  8
0
100
AcDbLine
 10
96.76110000000001
 20
133.1237
 30
0.0
 11
99.2218
 21
134.7515
 31
0.0
  0
LINE
  5
A7
330
1E
100
AcDbEntity
  8
0
100
AcDbLine
 10
97.124
 20
134.1547
 30
0.0
 11
99.588
 21
135.7641
 31
0.0
  0
LINE
  5
A8
330
1E
100
AcDbEntity
  8
0
100
AcDbLine
 10
99.588
 20
135.7641
 30
0.0
 11
102.14
 21
136.8824999999999
 31
0.0
  0
LINE
  5
A9
330
1E
100
AcDbEntity
  8
0
100
AcDbLine
 10
99.2218
 20
134.7515
 30
0.0
 11
101.888
 21
135.9005
 31
0.0
  0
LINE
  5
AA
330
1E
100
AcDbEntity
  8
0
100
AcDbLine
 10
102.14
 20
136.8824999999999
 30
0.0
 11
104.868
 21
137.8283
 31
0.0
  0
LINE
  5
AB
330
1E
100
AcDbEntity
  8
0
100
AcDbLine
 10
101.888
 20
135.9005
 30
0.0
 11
104.656
 21
136.7622
 31
0.0
  0
LINE
  5
AC
330
1E
100
AcDbEntity
  8
0
100
AcDbLine
 10
94.92399999999999
 20
132.152
 30
0.0
 11
95.07086753146539
 21
132.2628434199739
 31
0.0
  0
LINE
  5
AD
330
1E
100
AcDbEntity
  8
0
100
AcDbLine
 10
94.77303682369891
 20
131.951973791401
 30
0.0
 11
94.92399999999999
 21
132.152
 31
0.0
  0
LINE
  5
AE
330
1E
100
AcDbEntity
  8
0
100
AcDbLine
 10
21.1
 20
98.57600000000001
 30
0.0
 11
88.57801242100149
 21
98.57600000000001
 31
0.0
  0
LINE
  5
AF
330
1E
100
AcDbEntity
  8
0
100
AcDbLine
 10
26.3714
 20
150.7573999999999
 30
0.0
 11
35.5
 21
152.0759999999999
 31
0.0
  0
LINE
  5
B0
330
1E
100
AcDbEntity
  8
0
100
AcDbLine
 10
60.5529
 20
141.6288999999999
 30
0.0
 11
62.89484616641679
 21
138.5759999999999
 31
0.0
  0
LINE
  5
B1
330
1E
100
AcDbEntity
  8
0
100
AcDbLine
 10
53.1486
 20
147.3088999999999
 30
0.0
 11
60.5529
 21
141.6288999999999
 31
0.0
  0
LINE
  5
B2
330
1E
100
AcDbEntity
  8
0
100
AcDbLine
 10
44.6286
 20
150.7573999999999
 30
0.0
 11
53.1486
 21
147.3088999999999
 31
0.0
  0
LINE
  5
B3
330
1E
100
AcDbEntity
  8
0
100
AcDbLine
 10
35.5
 20
152.0759999999999
 30
0.0
 11
44.6286
 21
150.7573999999999
 31
0.0
  0
LINE
  5
B4
330
1E
100
AcDbEntity
  8
0
100
AcDbLine
 10
21.1
 20
138.5759999999999
 30
0.0
 11
110.002487309645
 21
138.5759999999999
 31
0.0
  0
LINE
  5
B7
330
1E
100
AcDbEntity
  8
0
100
AcDbLine
 10
103.0
 20
43.9982691796009
 30
0.0
 11
103.0
 21
-0.0759999999999916
 31
0.0
  0
LINE
  5
B8
330
1E
100
AcDbEntity
  8
0
100
AcDbLine
 10
103.015
 20
43.99189999999999
 30
0.0
 11
105.4759999999999
 21
43.2259
 31
0.0
  0
LINE
  5
BA
330
1E
100
AcDbEntity
  8
0
100
AcDbLine
 10
105.4759999999999
 20
43.2259
 30
0.0
 11
107.937
 21
42.7471
 31
0.0
  0
LINE
  5
BC
330
1E
100
AcDbEntity
  8
0
100
AcDbLine
 10
104.868
 20
137.8283
 30
0.0
 11
107.596
 21
138.3801
 31
0.0
  0
LINE
  5
BD
330
1E
100
AcDbEntity
  8
0
100
AcDbLine
 10
104.656
 20
136.7622
 30
0.0
 11
107.5269999999999
 21
137.3367
 31
0.0
  0
LINE
  5
BE
330
1E
100
AcDbEntity
  8
0
100
AcDbLine
 10
110.528
 20
4.18579999999999
 30
0.0
 11
112.291
 21
5.535199999999999
 31
0.0
  0
LINE
  5
BF
330
1E
100
AcDbEntity
  8
0
100
AcDbLine
 10
112.291
 20
5.535199999999999
 30
0.0
 11
114.1289999999999
 21
6.73459999999999
 31
0.0
  0
LINE
  5
C0
330
1E
100
AcDbEntity
  8
0
100
AcDbLine
 10
114.1289999999999
 20
6.73459999999999
 30
0.0
 11
115.9299999999999
 21
7.934
 31
0.0
  0
LINE
  5
C1
330
1E
100
AcDbEntity
  8
0
100
AcDbLine
 10
115.9299999999999
 20
7.934
 30
0.0
 11
117.0179999999999
 21
8.98349999999999
 31
0.0
  0
LINE
  5
C2
330
1E
100
AcDbEntity
  8
0
100
AcDbLine
 10
107.937
 20
42.7471
 30
0.0
 11
110.4999999999999
 21
42.5556
 31
0.0
  0
LINE
  5
C8
330
1E
100
AcDbEntity
  8
0
100
AcDbLine
 10
107.596
 20
138.3801
 30
0.0
 11
110.4999999999999
 21
138.6165
 31
0.0
  0
LINE
  5
C9
330
1E
100
AcDbEntity
  8
0
100
AcDbLine
 10
107.5269999999999
 20
137.3367
 30
0.0
 11
110.4999999999999
 21
137.5283
 31
0.0
  0
LINE
  5
D3
330
1E
100
AcDbEntity
  8
0
100
AcDbLine
 10
117.0179999999999
 20
8.98349999999999
 30
0.0
 11
117.731
 21
9.6957
 31
0.0
  0
LINE
  5
D5
330
1E
100
AcDbEntity
  8
0
100
AcDbLine
 10
118.0
 20
9.92400000000001
 30
0.0
 11
118.0
 21
43.9982691796009
 31
0.0
  0
LINE
  5
160
330
1E
100
AcDbEntity
  8
0
100
AcDbLine
 10
118.0
 20
43.9982691796009
 30
0.0
 11
118.0
 21
9.92400000000001
 31
0.0
  0
LINE
  5
161
330
1E
100
AcDbEntity
  8
0
100
AcDbLine
 10
117.731
 20
9.6957
 30
0.0
 11
118.0
 21
9.92400000000001
 31
0.0
  0
LINE
  5
162
330
1E
100
AcDbEntity
  8
0
100
AcDbLine
 10
108.577
 20
2.199200000000019
 30
0.0
 11
110.528
 21
4.18579999999999
 31
0.0
  0
LINE
  5
163
330
1E
100
AcDbEntity
  8
0
100
AcDbLine
 10
106.777
 20
1.074699999999999
 30
0.0
 11
108.577
 21
2.199200000000019
 31
0.0
  0
LINE
  5
164
330
1E
100
AcDbEntity
  8
0
100
AcDbLine
 10
105.276
 20
0.4001000000000121
 30
0.0
 11
106.777
 21
1.074699999999999
 31
0.0
  0
LINE
  5
165
330
1E
100
AcDbEntity
  8
0
100
AcDbLine
 10
104.038
 20
0.0252000000000114
 30
0.0
 11
105.276
 21
0.4001000000000121
 31
0.0
  0
LINE
  5
166
330
1E
100
AcDbEntity
  8
0
100
AcDbLine
 10
103.363
 20
-0.0496999999999836
 30
0.0
 11
104.038
 21
0.0252000000000114
 31
0.0
  0
LINE
  5
167
330
1E
100
AcDbEntity
  8
0
100
AcDbLine
 10
103.0
 20
-0.0759999999999916
 30
0.0
 11
103.0
 21
43.9982691796009
 31
0.0
  0
LINE
  5
168
330
1E
100
AcDbEntity
  8
0
100
AcDbLine
 10
103.0
 20
-0.0759999999999916
 30
0.0
 11
103.363
 21
-0.0496999999999836
 31
0.0
  0
LINE
  5
16D
330
1E
100
AcDbEntity
  8
0
100
AcDbLine
 10
167.8514
 20
147.3088999999999
 30
0.0
 11
160.4471
 21
141.6288999999999
 31
0.0
  0
LINE
  5
16E
330
1E
100
AcDbEntity
  8
0
100
AcDbLine
 10
167.8514
 20
85.84314
 30
0.0
 11
160.4471
 21
91.52309999999999
 31
0.0
  0
LINE
  5
16F
330
1E
100
AcDbEntity
  8
0
100
AcDbLine
 10
199.9
 20
138.5759999999999
 30
0.0
 11
110.997512690355
 21
138.5759999999999
 31
0.0
  0
LINE
  5
170
330
1E
100
AcDbEntity
  8
0
100
AcDbLine
 10
199.9
 20
98.57600000000001
 30
0.0
 11
132.4219875789985
 21
98.57600000000001
 31
0.0
  0
LINE
  5
171
330
1E
100
AcDbEntity
  8
0
100
AcDbLine
 10
199.9
 20
98.57600000000001
 30
0.0
 11
132.4219875789985
 21
98.57600000000001
 31
0.0
  0
LINE
  5
172
330
1E
100
AcDbEntity
  8
0
100
AcDbLine
 10
199.9
 20
138.5759999999999
 30
0.0
 11
110.997512690355
 21
138.5759999999999
 31
0.0
  0
LINE
  5
173
330
1E
100
AcDbEntity
  8
0
100
AcDbLine
 10
203.1486
 20
147.3088999999999
 30
0.0
 11
194.6286
 21
150.7573999999999
 31
0.0
  0
LINE
  5
174
330
1E
100
AcDbEntity
  8
0
100
AcDbLine
 10
203.1486
 20
85.84314
 30
0.0
 11
194.6286
 21
82.39456999999999
 31
0.0
  0
LINE
  5
175
330
1E
100
AcDbEntity
  8
0
100
AcDbLine
 10
200.4999999999999
 20
118.576
 30
0.0
 11
200.4999999999999
 21
123.6159999999999
 31
0.0
  0
LINE
  5
176
330
1E
100
AcDbEntity
  8
0
100
AcDbLine
 10
200.4999999999999
 20
135.2112999999999
 30
0.0
 11
200.4999999999999
 21
101.9407
 31
0.0
  0
LINE
  5
177
330
1E
100
AcDbEntity
  8
0
100
AcDbLine
 10
200.4999999999999
 20
123.6159999999999
 30
0.0
 11
200.4999999999999
 21
118.576
 31
0.0
  0
LINE
  5
178
330
1E
100
AcDbEntity
  8
0
100
AcDbLine
 10
221.0
 20
116.576
 30
0.0
 11
219.68143
 21
125.7046
 31
0.0
  0
LINE
  5
179
330
1E
100
AcDbEntity
  8
0
100
AcDbLine
 10
200.4999999999999
 20
101.9407
 30
0.0
 11
200.4999999999999
 21
135.2112999999999
 31
0.0
  0
LINE
  5
17A
330
1E
100
AcDbEntity
  8
0
100
AcDbLine
 10
219.68143
 20
107.4474
 30
0.0
 11
216.23286
 21
98.92740000000001
 31
0.0
  0
LINE
  5
17B
330
1E
100
AcDbEntity
  8
0
100
AcDbLine
 10
221.0
 20
116.576
 30
0.0
 11
219.68143
 21
107.4474
 31
0.0
  0
LINE
  5
17C
330
1E
100
AcDbEntity
  8
0
100
AcDbLine
 10
200.4999999999999
 20
99.05599999999999
 30
0.0
 11
200.4999999999999
 21
99.77600000000002
 31
0.0
  0
LINE
  5
17D
330
1E
100
AcDbEntity
  8
0
100
AcDbLine
 10
200.4999999999999
 20
99.77600000000002
 30
0.0
 11
200.4999999999999
 21
99.05599999999999
 31
0.0
  0
LINE
  5
17E
330
1E
100
AcDbEntity
  8
0
100
AcDbLine
 10
210.5528999999999
 20
91.52309999999999
 30
0.0
 11
203.1486
 21
85.84314
 31
0.0
  0
LINE
  5
17F
330
1E
100
AcDbEntity
  8
0
100
AcDbLine
 10
216.23286
 20
98.92740000000001
 30
0.0
 11
210.5528999999999
 21
91.52309999999999
 31
0.0
  0
LINE
  5
180
330
1E
100
AcDbEntity
  8
0
100
AcDbLine
 10
200.4999999999999
 20
99.05599999999999
 30
0.0
 11
199.9
 21
98.57600000000001
 31
0.0
  0
LINE
  5
181
330
1E
100
AcDbEntity
  8
0
100
AcDbLine
 10
200.4999999999999
 20
113.536
 30
0.0
 11
200.4999999999999
 21
108.8959999999999
 31
0.0
  0
LINE
  5
182
330
1E
100
AcDbEntity
  8
0
100
AcDbLine
 10
200.4999999999999
 20
108.8959999999999
 30
0.0
 11
200.4999999999999
 21
113.536
 31
0.0
  0
LINE
  5
183
330
1E
100
AcDbEntity
  8
0
100
AcDbLine
 10
200.4999999999999
 20
104.8159999999999
 30
0.0
 11
200.4999999999999
 21
108.8959999999999
 31
0.0
  0
LINE
  5
184
330
1E
100
AcDbEntity
  8
0
100
AcDbLine
 10
200.4999999999999
 20
108.8959999999999
 30
0.0
 11
200.4999999999999
 21
104.8159999999999
 31
0.0
  0
LINE
  5
185
330
1E
100
AcDbEntity
  8
0
100
AcDbLine
 10
200.4999999999999
 20
104.8159999999999
 30
0.0
 11
200.4999999999999
 21
101.696
 31
0.0
  0
LINE
  5
186
330
1E
100
AcDbEntity
  8
0
100
AcDbLine
 10
200.4999999999999
 20
101.696
 30
0.0
 11
200.4999999999999
 21
104.8159999999999
 31
0.0
  0
LINE
  5
187
330
1E
100
AcDbEntity
  8
0
100
AcDbLine
 10
200.4999999999999
 20
99.77600000000002
 30
0.0
 11
200.4999999999999
 21
101.9407
 31
0.0
  0
LINE
  5
188
330
1E
100
AcDbEntity
  8
0
100
AcDbLine
 10
200.4999999999999
 20
99.77600000000002
 30
0.0
 11
200.4999999999999
 21
101.696
 31
0.0
  0
LINE
  5
189
330
1E
100
AcDbEntity
  8
0
100
AcDbLine
 10
200.4999999999999
 20
101.696
 30
0.0
 11
200.4999999999999
 21
99.77600000000002
 31
0.0
  0
LINE
  5
18A
330
1E
100
AcDbEntity
  8
0
100
AcDbLine
 10
200.4999999999999
 20
101.9407
 30
0.0
 11
200.4999999999999
 21
99.77600000000002
 31
0.0
  0
LINE
  5
18B
330
1E
100
AcDbEntity
  8
0
100
AcDbLine
 10
200.4999999999999
 20
113.536
 30
0.0
 11
200.4999999999999
 21
118.576
 31
0.0
  0
LINE
  5
18C
330
1E
100
AcDbEntity
  8
0
100
AcDbLine
 10
200.4999999999999
 20
118.576
 30
0.0
 11
200.4999999999999
 21
113.536
 31
0.0
  0
LINE
  5
18D
330
1E
100
AcDbEntity
  8
0
100
AcDbLine
 10
219.68143
 20
125.7046
 30
0.0
 11
216.23286
 21
134.2246
 31
0.0
  0
LINE
  5
18E
330
1E
100
AcDbEntity
  8
0
100
AcDbLine
 10
210.5528999999999
 20
141.6288999999999
 30
0.0
 11
203.1486
 21
147.3088999999999
 31
0.0
  0
LINE
  5
18F
330
1E
100
AcDbEntity
  8
0
100
AcDbLine
 10
216.23286
 20
134.2246
 30
0.0
 11
210.5528999999999
 21
141.6288999999999
 31
0.0
  0
LINE
  5
190
330
1E
100
AcDbEntity
  8
0
100
AcDbLine
 10
200.4999999999999
 20
137.376
 30
0.0
 11
200.4999999999999
 21
135.2112999999999
 31
0.0
  0
LINE
  5
191
330
1E
100
AcDbEntity
  8
0
100
AcDbLine
 10
200.4999999999999
 20
135.456
 30
0.0
 11
200.4999999999999
 21
132.336
 31
0.0
  0
LINE
  5
192
330
1E
100
AcDbEntity
  8
0
100
AcDbLine
 10
200.4999999999999
 20
132.336
 30
0.0
 11
200.4999999999999
 21
135.456
 31
0.0
  0
LINE
  5
193
330
1E
100
AcDbEntity
  8
0
100
AcDbLine
 10
200.4999999999999
 20
135.2112999999999
 30
0.0
 11
200.4999999999999
 21
137.376
 31
0.0
  0
LINE
  5
194
330
1E
100
AcDbEntity
  8
0
100
AcDbLine
 10
200.4999999999999
 20
132.336
 30
0.0
 11
200.4999999999999
 21
128.2559999999999
 31
0.0
  0
LINE
  5
195
330
1E
100
AcDbEntity
  8
0
100
AcDbLine
 10
200.4999999999999
 20
128.2559999999999
 30
0.0
 11
200.4999999999999
 21
132.336
 31
0.0
  0
LINE
  5
196
330
1E
100
AcDbEntity
  8
0
100
AcDbLine
 10
200.4999999999999
 20
128.2559999999999
 30
0.0
 11
200.4999999999999
 21
123.6159999999999
 31
0.0
  0
LINE
  5
197
330
1E
100
AcDbEntity
  8
0
100
AcDbLine
 10
200.4999999999999
 20
123.6159999999999
 30
0.0
 11
200.4999999999999
 21
128.2559999999999
 31
0.0
  0
LINE
  5
198
330
1E
100
AcDbEntity
  8
0
100
AcDbLine
 10
200.4999999999999
 20
138.0959999999999
 30
0.0
 11
199.9
 21
138.5759999999999
 31
0.0
  0
LINE
  5
199
330
1E
100
AcDbEntity
  8
0
100
AcDbLine
 10
200.4999999999999
 20
138.0959999999999
 30
0.0
 11
200.4999999999999
 21
137.376
 31
0.0
  0
LINE
  5
19A
330
1E
100
AcDbEntity
  8
0
100
AcDbLine
 10
200.4999999999999
 20
137.376
 30
0.0
 11
200.4999999999999
 21
138.0959999999999
 31
0.0
  0
LINE
  5
19B
330
1E
100
AcDbEntity
  8
0
100
AcDbLine
 10
200.4999999999999
 20
137.376
 30
0.0
 11
200.4999999999999
 21
135.456
 31
0.0
  0
LINE
  5
19C
330
1E
100
AcDbEntity
  8
0
100
AcDbLine
 10
200.4999999999999
 20
135.456
 30
0.0
 11
200.4999999999999
 21
137.376
 31
0.0
  0
LINE
  5
19D
330
1E
100
AcDbEntity
  8
0
100
AcDbLine
 10
185.5
 20
81.07600000000001
 30
0.0
 11
176.3714
 21
82.39456999999999
 31
0.0
  0
LINE
  5
19E
330
1E
100
AcDbEntity
  8
0
100
AcDbLine
 10
194.6286
 20
82.39456999999999
 30
0.0
 11
185.5
 21
81.07600000000001
 31
0.0
  0
LINE
  5
19F
330
1E
100
AcDbEntity
  8
0
100
AcDbLine
 10
176.3714
 20
82.39456999999999
 30
0.0
 11
167.8514
 21
85.84314
 31
0.0
  0
LINE
  5
1A0
330
1E
100
AcDbEntity
  8
0
100
AcDbLine
 10
185.5
 20
152.0759999999999
 30
0.0
 11
176.3714
 21
150.7573999999999
 31
0.0
  0
LINE
  5
1A1
330
1E
100
AcDbEntity
  8
0
100
AcDbLine
 10
194.6286
 20
150.7573999999999
 30
0.0
 11
185.5
 21
152.0759999999999
 31
0.0
  0
LINE
  5
1A2
330
1E
100
AcDbEntity
  8
0
100
AcDbLine
 10
176.3714
 20
150.7573999999999
 30
0.0
 11
167.8514
 21
147.3088999999999
 31
0.0
  0
LINE
  5
1A3
330
1E
100
AcDbEntity
  8
0
100
AcDbLine
 10
132.314939548342
 20
96.71582851902492
 30
0.0
 11
129.9805
 21
60.7483
 31
0.0
  0
LINE
  5
1A4
330
1E
100
AcDbEntity
  8
0
100
AcDbLine
 10
125.8793
 20
49.6412
 30
0.0
 11
124.2388999999999
 21
47.9177
 31
0.0
  0
LINE
  5
1A5
330
1E
100
AcDbEntity
  8
0
100
AcDbLine
 10
128.4426
 20
53.75849999999999
 30
0.0
 11
127.4173
 21
51.652
 31
0.0
  0
LINE
  5
1A6
330
1E
100
AcDbEntity
  8
0
100
AcDbLine
 10
127.4173
 20
51.652
 30
0.0
 11
125.8793
 21
49.6412
 31
0.0
  0
LINE
  5
1A7
330
1E
100
AcDbEntity
  8
0
100
AcDbLine
 10
129.7753999999999
 20
58.3545
 30
0.0
 11
129.2628
 21
56.0565
 31
0.0
  0
LINE
  5
1A8
330
1E
100
AcDbEntity
  8
0
100
AcDbLine
 10
129.9805
 20
60.7483
 30
0.0
 11
129.7753999999999
 21
58.3545
 31
0.0
  0
LINE
  5
1A9
330
1E
100
AcDbEntity
  8
0
100
AcDbLine
 10
129.2628
 20
56.0565
 30
0.0
 11
128.4426
 21
53.75849999999999
 31
0.0
  0
LINE
  5
1AA
330
1E
100
AcDbEntity
  8
0
100
AcDbLine
 10
124.2388999999999
 20
47.9177
 30
0.0
 11
122.3934
 21
46.3857
 31
0.0
  0
LINE
  5
1AB
330
1E
100
AcDbEntity
  8
0
100
AcDbLine
 10
125.988
 20
132.2085999999999
 30
0.0
 11
123.876
 21
134.1547
 31
0.0
  0
LINE
  5
1AC
330
1E
100
AcDbEntity
  8
0
100
AcDbLine
 10
126.392
 20
131.3043999999999
 30
0.0
 11
124.2388999999999
 21
133.1237
 31
0.0
  0
LINE
  5
1AD
330
1E
100
AcDbEntity
  8
0
100
AcDbLine
 10
132.2360999999999
 20
121.9208
 30
0.0
 11
131.3134
 21
124.5062
 31
0.0
  0
LINE
  5
1AE
330
1E
100
AcDbEntity
  8
0
100
AcDbLine
 10
160.4471
 20
91.52309999999999
 30
0.0
 11
155.03666660319
 21
98.57600000000001
 31
0.0
  0
LINE
  5
1AF
330
1E
100
AcDbEntity
  8
0
100
AcDbLine
 10
132.5087
 20
100.0828
 30
0.0
 11
132.314939548342
 21
96.71582851902492
 31
0.0
  0
LINE
  5
1B0
330
1E
100
AcDbEntity
  8
0
100
AcDbLine
 10
133.0564
 20
116.463
 30
0.0
 11
132.9705
 21
111.6344
 31
0.0
  0
LINE
  5
1B1
330
1E
100
AcDbEntity
  8
0
100
AcDbLine
 10
132.8643999999999
 20
108.2168
 30
0.0
 11
132.6969
 21
104.2213999999999
 31
0.0
  0
LINE
  5
1B2
330
1E
100
AcDbEntity
  8
0
100
AcDbLine
 10
132.6969
 20
104.2213999999999
 30
0.0
 11
132.5087
 21
100.0828
 31
0.0
  0
LINE
  5
1B3
330
1E
100
AcDbEntity
  8
0
100
AcDbLine
 10
132.9705
 20
111.6344
 30
0.0
 11
132.8643999999999
 21
108.2168
 31
0.0
  0
LINE
  5
1B4
330
1E
100
AcDbEntity
  8
0
100
AcDbLine
 10
133.0564
 20
116.463
 30
0.0
 11
132.8512999999999
 21
119.2398
 31
0.0
  0
LINE
  5
1B5
330
1E
100
AcDbEntity
  8
0
100
AcDbLine
 10
132.8512999999999
 20
119.2398
 30
0.0
 11
132.2360999999999
 21
121.9208
 31
0.0
  0
LINE
  5
1B6
330
1E
100
AcDbEntity
  8
0
100
AcDbLine
 10
160.4471
 20
141.6288999999999
 30
0.0
 11
158.1051538335831
 21
138.5759999999999
 31
0.0
  0
LINE
  5
1B7
330
1E
100
AcDbEntity
  8
0
100
AcDbLine
 10
130.0829999999999
 20
126.9957
 30
0.0
 11
129.596
 21
127.6778999999999
 31
0.0
  0
LINE
  5
1B8
330
1E
100
AcDbEntity
  8
0
100
AcDbLine
 10
130.0829999999999
 20
126.9957
 30
0.0
 11
128.34
 21
129.2937
 31
0.0
  0
LINE
  5
1B9
330
1E
100
AcDbEntity
  8
0
100
AcDbLine
 10
131.3134
 20
124.5062
 30
0.0
 11
130.0829999999999
 21
126.9957
 31
0.0
  0
LINE
  5
1BA
330
1E
100
AcDbEntity
  8
0
100
AcDbLine
 10
129.596
 20
127.6778999999999
 30
0.0
 11
127.9239999999999
 21
130.1295
 31
0.0
  0
LINE
  5
1BB
330
1E
100
AcDbEntity
  8
0
100
AcDbLine
 10
128.34
 20
129.2937
 30
0.0
 11
126.392
 21
131.3043999999999
 31
0.0
  0
LINE
  5
1BC
330
1E
100
AcDbEntity
  8
0
100
AcDbLine
 10
129.6414225868689
 20
127.57788295776
 30
0.0
 11
129.596
 21
127.6778999999999
 31
0.0
  0
LINE
  5
1BD
330
1E
100
AcDbEntity
  8
0
100
AcDbLine
 10
127.9239999999999
 20
130.1295
 30
0.0
 11
125.988
 21
132.2085999999999
 31
0.0
  0
LINE
  5
1BE
330
1E
100
AcDbEntity
  8
0
100
AcDbLine
 10
126.2269631763011
 20
131.951973791401
 30
0.0
 11
126.076
 21
132.152
 31
0.0
  0
LINE
  5
1BF
330
1E
100
AcDbEntity
  8
0
100
AcDbLine
 10
126.076
 20
132.152
 30
0.0
 11
125.9291324685346
 21
132.2628434199739
 31
0.0
  0
LINE
  5
1C0
330
1E
100
AcDbEntity
  8
0
100
AcDbLine
 10
122.8458
 20
113.6017
 30
0.0
 11
122.8097999999999
 21
113.8538
 31
0.0
  0
LINE
  5
1C1
330
1E
100
AcDbEntity
  8
0
100
AcDbLine
 10
122.8458
 20
113.6017
 30
0.0
 11
122.8097999999999
 21
113.3496
 31
0.0
  0
LINE
  5
1C2
330
1E
100
AcDbEntity
  8
0
100
AcDbLine
 10
121.8458
 20
114.5865
 30
0.0
 11
121.5897999999999
 21
114.551
 31
0.0
  0
LINE
  5
1C3
330
1E
100
AcDbEntity
  8
0
100
AcDbLine
 10
121.8458
 20
112.6168999999999
 30
0.0
 11
121.5897999999999
 21
112.6522999999999
 31
0.0
  0
LINE
  5
1C4
330
1E
100
AcDbEntity
  8
0
100
AcDbLine
 10
122.3418
 20
112.7469
 30
0.0
 11
122.1017999999999
 21
112.6522999999999
 31
0.0
  0
LINE
  5
1C5
330
1E
100
AcDbEntity
  8
0
100
AcDbLine
 10
122.1017999999999
 20
114.551
 30
0.0
 11
121.8458
 21
114.5865
 31
0.0
  0
LINE
  5
1C6
330
1E
100
AcDbEntity
  8
0
100
AcDbLine
 10
122.3418
 20
114.4565
 30
0.0
 11
122.1017999999999
 21
114.551
 31
0.0
  0
LINE
  5
1C7
330
1E
100
AcDbEntity
  8
0
100
AcDbLine
 10
122.1017999999999
 20
112.6522999999999
 30
0.0
 11
121.8458
 21
112.6168999999999
 31
0.0
  0
LINE
  5
1C8
330
1E
100
AcDbEntity
  8
0
100
AcDbLine
 10
122.8097999999999
 20
113.3496
 30
0.0
 11
122.7138
 21
113.1132
 31
0.0
  0
LINE
  5
1C9
330
1E
100
AcDbEntity
  8
0
100
AcDbLine
 10
122.8097999999999
 20
113.8538
 30
0.0
 11
122.7138
 21
114.0901
 31
0.0
  0
LINE
  5
1CA
330
1E
100
AcDbEntity
  8
0
100
AcDbLine
 10
122.7138
 20
114.0901
 30
0.0
 11
122.5538
 21
114.2989
 31
0.0
  0
LINE
  5
1CB
330
1E
100
AcDbEntity
  8
0
100
AcDbLine
 10
122.5538
 20
114.2989
 30
0.0
 11
122.3418
 21
114.4565
 31
0.0
  0
LINE
  5
1CC
330
1E
100
AcDbEntity
  8
0
100
AcDbLine
 10
122.7138
 20
113.1132
 30
0.0
 11
122.5538
 21
112.9043999999999
 31
0.0
  0
LINE
  5
1CD
330
1E
100
AcDbEntity
  8
0
100
AcDbLine
 10
122.5538
 20
112.9043999999999
 30
0.0
 11
122.3418
 21
112.7469
 31
0.0
  0
LINE
  5
1CE
330
1E
100
AcDbEntity
  8
0
100
AcDbLine
 10
120.8817999999999
 20
113.3496
 30
0.0
 11
120.8458
 21
113.6017
 31
0.0
  0
LINE
  5
1CF
330
1E
100
AcDbEntity
  8
0
100
AcDbLine
 10
120.9778
 20
113.1132
 30
0.0
 11
120.8817999999999
 21
113.3496
 31
0.0
  0
LINE
  5
1D0
330
1E
100
AcDbEntity
  8
0
100
AcDbLine
 10
120.8817999999999
 20
113.8538
 30
0.0
 11
120.8458
 21
113.6017
 31
0.0
  0
LINE
  5
1D1
330
1E
100
AcDbEntity
  8
0
100
AcDbLine
 10
120.9778
 20
114.0901
 30
0.0
 11
120.8817999999999
 21
113.8538
 31
0.0
  0
LINE
  5
1D2
330
1E
100
AcDbEntity
  8
0
100
AcDbLine
 10
121.1378
 20
114.2989
 30
0.0
 11
120.9778
 21
114.0901
 31
0.0
  0
LINE
  5
1D3
330
1E
100
AcDbEntity
  8
0
100
AcDbLine
 10
121.1378
 20
112.9043999999999
 30
0.0
 11
120.9778
 21
113.1132
 31
0.0
  0
LINE
  5
1D4
330
1E
100
AcDbEntity
  8
0
100
AcDbLine
 10
121.5897999999999
 20
114.551
 30
0.0
 11
121.3497999999999
 21
114.4565
 31
0.0
  0
LINE
  5
1D5
330
1E
100
AcDbEntity
  8
0
100
AcDbLine
 10
121.5897999999999
 20
112.6522999999999
 30
0.0
 11
121.3497999999999
 21
112.7469
 31
0.0
  0
LINE
  5
1D6
330
1E
100
AcDbEntity
  8
0
100
AcDbLine
 10
121.3497999999999
 20
114.4565
 30
0.0
 11
121.1378
 21
114.2989
 31
0.0
  0
LINE
  5
1D7
330
1E
100
AcDbEntity
  8
0
100
AcDbLine
 10
121.3497999999999
 20
112.7469
 30
0.0
 11
121.1378
 21
112.9043999999999
 31
0.0
  0
LINE
  5
1D8
330
1E
100
AcDbEntity
  8
0
100
AcDbLine
 10
116.344
 20
136.7622
 30
0.0
 11
113.473
 21
137.3367
 31
0.0
  0
LINE
  5
1D9
330
1E
100
AcDbEntity
  8
0
100
AcDbLine
 10
116.132
 20
137.8283
 30
0.0
 11
113.4039999999999
 21
138.3801
 31
0.0
  0
LINE
  5
1DA
330
1E
100
AcDbEntity
  8
0
100
AcDbLine
 10
121.7781999999999
 20
134.7515
 30
0.0
 11
119.112
 21
135.9005
 31
0.0
  0
LINE
  5
1DB
330
1E
100
AcDbEntity
  8
0
100
AcDbLine
 10
123.876
 20
134.1547
 30
0.0
 11
121.412
 21
135.7641
 31
0.0
  0
LINE
  5
1DC
330
1E
100
AcDbEntity
  8
0
100
AcDbLine
 10
124.2388999999999
 20
133.1237
 30
0.0
 11
121.7781999999999
 21
134.7515
 31
0.0
  0
LINE
  5
1DD
330
1E
100
AcDbEntity
  8
0
100
AcDbLine
 10
121.412
 20
135.7641
 30
0.0
 11
118.86
 21
136.8824999999999
 31
0.0
  0
LINE
  5
1DE
330
1E
100
AcDbEntity
  8
0
100
AcDbLine
 10
119.112
 20
135.9005
 30
0.0
 11
116.344
 21
136.7622
 31
0.0
  0
LINE
  5
1DF
330
1E
100
AcDbEntity
  8
0
100
AcDbLine
 10
118.86
 20
136.8824999999999
 30
0.0
 11
116.132
 21
137.8283
 31
0.0
  0
LINE
  5
1E0
330
1E
100
AcDbEntity
  8
0
100
AcDbLine
 10
113.473
 20
137.3367
 30
0.0
 11
110.4999999999999
 21
137.5283
 31
0.0
  0
LINE
  5
1E1
330
1E
100
AcDbEntity
  8
0
100
AcDbLine
 10
113.4039999999999
 20
138.3801
 30
0.0
 11
110.4999999999999
 21
138.6165
 31
0.0
  0
LINE
  5
1E2
330
1E
100
AcDbEntity
  8
0
100
AcDbLine
 10
122.3934
 20
46.3857
 30
0.0
 11
120.2399999999999
 21
44.94939999999999
 31
0.0
  0
LINE
  5
1E3
330
1E
100
AcDbEntity
  8
0
100
AcDbLine
 10
120.2399999999999
 20
44.94939999999999
 30
0.0
 11
117.985
 21
43.99189999999999
 31
0.0
  0
LINE
  5
1E4
330
1E
100
AcDbEntity
  8
0
100
AcDbLine
 10
117.985
 20
43.99189999999999
 30
0.0
 11
115.524
 21
43.2259
 31
0.0
  0
LINE
  5
1E5
330
1E
100
AcDbEntity
  8
0
100
AcDbLine
 10
113.0629999999999
 20
42.7471
 30
0.0
 11
110.4999999999999
 21
42.5556
 31
0.0
  0
LINE
  5
1E6
330
1E
100
AcDbEntity
  8
0
100
AcDbLine
 10
115.524
 20
43.2259
 30
0.0
 11
113.0629999999999
 21
42.7471
 31
0.0
  0
ENDSEC
  0
SECTION
  2
OBJECTS
  0
DICTIONARY
  5
C
330
0
100
AcDbDictionary
281
     1
  3
ACAD_GROUP
350
D
  3
ACAD_LAYOUT
350
19
  3
ACAD_MLINESTYLE
350
16
  3
ACAD_PLOTSETTINGS
350
18
  3
ACAD_PLOTSTYLENAME
350
E
  3
AcDbVariableDictionary
350
1E7
  0
DICTIONARY
  5
D
102
{ACAD_REACTORS
330
C
102
}
330
C
100
AcDbDictionary
281
     1
  0
DICTIONARY
  5
19
102
{ACAD_REACTORS
330
C
102
}
330
C
100
AcDbDictionary
281
     1
  3
Layout1
350
1D
  3
Model
350
21
  0
DICTIONARY
  5
16
102
{ACAD_REACTORS
330
C
102
}
330
C
100
AcDbDictionary
281
     1
  3
Standard
350
17
  0
DICTIONARY
  5
18
102
{ACAD_REACTORS
330
C
102
}
330
C
100
AcDbDictionary
281
     1
  0
ACDBDICTIONARYWDFLT
  5
E
102
{ACAD_REACTORS
330
C
102
}
330
C
100
AcDbDictionary
281
     1
  3
Normal
350
F
100
AcDbDictionaryWithDefault
340
F
  0
DICTIONARY
  5
1E7
102
{ACAD_REACTORS
330
C
102
}
330
C
100
AcDbDictionary
281
     1
  3
DIMASSOC
350
1E8
  0
LAYOUT
  5
1D
102
{ACAD_REACTORS
330
19
102
}
330
19
100
AcDbPlotSettings
  1

  2
hp deskjet 980c series
  4

  6

 40
0.0
 41
0.0
 42
0.0
 43
0.0
 44
0.0
 45
0.0
 46
0.0
 47
0.0
 48
0.0
 49
0.0
140
0.0
141
0.0
142
1.0
143
1.0
 70
   688
 72
     0
 73
     0
 74
     5
  7

 75
    16
147
1.0
148
0.0
149
0.0
100
AcDbLayout
  1
Layout1
 70
     1
 71
     1
 10
0.0
 20
0.0
 11
12.0
 21
9.0
 12
0.0
 22
0.0
 32
0.0
 14
1.000000000000000E+20
 24
1.000000000000000E+20
 34
1.000000000000000E+20
 15
-1.000000000000000E+20
 25
-1.000000000000000E+20
 35
-1.000000000000000E+20
146
0.0
 13
0.0
 23
0.0
 33
0.0
 16
1.0
 26
0.0
 36
0.0
 17
0.0
 27
1.0
 37
0.0
 76
     0
330
1A
  0
LAYOUT
  5
21
102
{ACAD_REACTORS
330
19
102
}
330
19
100
AcDbPlotSettings
  1

  2
hp deskjet 980c series
  4

  6

 40
0.0
 41
0.0
 42
0.0
 43
0.0
 44
0.0
 45
0.0
 46
0.0
 47
0.0
 48
0.0
 49
0.0
140
0.0
141
0.0
142
1.0
143
1.0
 70
  1712
 72
     0
 73
     0
 74
     0
  7

 75
     0
147
1.0
148
0.0
149
0.0
100
AcDbLayout
  1
Model
 70
     1
 71
     0
 10
0.0
 20
0.0
 11
12.0
 21
9.0
 12
0.0
 22
0.0
 32
0.0
 14
0.0
 24
0.0
 34
0.0
 15
0.0
 25
0.0
 35
0.0
146
0.0
 13
0.0
 23
0.0
 33
0.0
 16
1.0
 26
0.0
 36
0.0
 17
0.0
 27
1.0
 37
0.0
 76
     0
330
1E
  0
MLINESTYLE
  5
17
102
{ACAD_REACTORS
330
16
102
}
330
16
100
AcDbMlineStyle
  2
STANDARD
 70
     0
  3

 62
   256
 51
90.0
 52
90.0
 71
     2
 49
0.5
 62
   256
  6
BYLAYER
 49
-0.5
 62
   256
  6
BYLAYER
  0
ACDBPLACEHOLDER
  5
F
102
{ACAD_REACTORS
330
E
102
}
330
E
  0
DICTIONARYVAR
  5
1E8
102
{ACAD_REACTORS
330
1E7
102
}
330
1E7
100
DictionaryVariables
280
     0
  1
1
  0
ENDSEC
  0
EOF
