  0
SECTION
  2
HEADER
  9
$ACADVER
  1
AC1015
  9
$ACADMAINTVER
 70
    13
  9
$DWGCODEPAGE
  3
ANSI_1252
  9
$INSBASE
 10
0.0
 20
0.0
 30
0.0
  9
$EXTMIN
 10
-0.0000000000000142
 20
-0.0850000000000001
 30
0.0
  9
$EXTMAX
 10
221.0
 20
202.0576
 30
0.0
  9
$LIMMIN
 10
0.0
 20
0.0
  9
$LIMMAX
 10
12.0
 20
9.0
  9
$ORTHOMODE
 70
     0
  9
$REGENMODE
 70
     1
  9
$FILLMODE
 70
     1
  9
$QTEXTMODE
 70
     0
  9
$MIRRTEXT
 70
     1
  9
$LTSCALE
 40
1.0
  9
$ATTMODE
 70
     1
  9
$TEXTSIZE
 40
0.2
  9
$TRACEWID
 40
0.05
  9
$TEXTSTYLE
  7
Standard
  9
$CLAYER
  8
0
  9
$CELTYPE
  6
Continuous
  9
$CECOLOR
 62
   256
  9
$CELTSCALE
 40
1.0
  9
$DISPSILH
 70
     0
  9
$DIMSCALE
 40
1.0
  9
$DIMASZ
 40
0.18
  9
$DIMEXO
 40
0.0625
  9
$DIMDLI
 40
0.38
  9
$DIMRND
 40
0.0
  9
$DIMDLE
 40
0.0
  9
$DIMEXE
 40
0.18
  9
$DIMTP
 40
0.0
  9
$DIMTM
 40
0.0
  9
$DIMTXT
 40
0.18
  9
$DIMCEN
 40
0.09
  9
$DIMTSZ
 40
0.0
  9
$DIMTOL
 70
     0
  9
$DIMLIM
 70
     0
  9
$DIMTIH
 70
     1
  9
$DIMTOH
 70
     1
  9
$DIMSE1
 70
     0
  9
$DIMSE2
 70
     0
  9
$DIMTAD
 70
     0
  9
$DIMZIN
 70
     0
  9
$DIMBLK
  1

  9
$DIMASO
 70
     1
  9
$DIMSHO
 70
     1
  9
$DIMPOST
  1

  9
$DIMAPOST
  1

  9
$DIMALT
 70
     0
  9
$DIMALTD
 70
     2
  9
$DIMALTF
 40
25.4
  9
$DIMLFAC
 40
1.0
  9
$DIMTOFL
 70
     0
  9
$DIMTVP
 40
0.0
  9
$DIMTIX
 70
     0
  9
$DIMSOXD
 70
     0
  9
$DIMSAH
 70
     0
  9
$DIMBLK1
  1

  9
$DIMBLK2
  1

  9
$DIMSTYLE
  2
Standard
  9
$DIMCLRD
 70
     0
  9
$DIMCLRE
 70
     0
  9
$DIMCLRT
 70
     0
  9
$DIMTFAC
 40
1.0
  9
$DIMGAP
 40
0.09
  9
$DIMJUST
 70
     0
  9
$DIMSD1
 70
     0
  9
$DIMSD2
 70
     0
  9
$DIMTOLJ
 70
     1
  9
$DIMTZIN
 70
     0
  9
$DIMALTZ
 70
     0
  9
$DIMALTTZ
 70
     0
  9
$DIMUPT
 70
     0
  9
$DIMDEC
 70
     4
  9
$DIMTDEC
 70
     4
  9
$DIMALTU
 70
     2
  9
$DIMALTTD
 70
     2
  9
$DIMTXSTY
  7
Standard
  9
$DIMAUNIT
 70
     0
  9
$DIMADEC
 70
     0
  9
$DIMALTRND
 40
0.0
  9
$DIMAZIN
 70
     0
  9
$DIMDSEP
 70
    46
  9
$DIMATFIT
 70
     3
  9
$DIMFRAC
 70
     0
  9
$DIMLDRBLK
  1

  9
$DIMLUNIT
 70
     2
  9
$DIMLWD
 70
    -2
  9
$DIMLWE
 70
    -2
  9
$DIMTMOVE
 70
     0
  9
$LUNITS
 70
     2
  9
$LUPREC
 70
     4
  9
$SKETCHINC
 40
0.1
  9
$FILLETRAD
 40
0.0
  9
$AUNITS
 70
     0
  9
$AUPREC
 70
     0
  9
$MENU
  1
.
  9
$ELEVATION
 40
0.0
  9
$PELEVATION
 40
0.0
  9
$THICKNESS
 40
0.0
  9
$LIMCHECK
 70
     0
  9
$CHAMFERA
 40
0.0
  9
$CHAMFERB
 40
0.0
  9
$CHAMFERC
 40
0.0
  9
$CHAMFERD
 40
0.0
  9
$SKPOLY
 70
     0
  9
$TDCREATE
 40
2454835.601920382
  9
$TDUCREATE
 40
2454835.560253715
  9
$TDUPDATE
 40
2454835.603254838
  9
$TDUUPDATE
 40
2454835.561588171
  9
$TDINDWG
 40
0.0013346412
  9
$TDUSRTIMER
 40
0.0013346412
  9
$USRTIMER
 70
     1
  9
$ANGBASE
 50
0.0
  9
$ANGDIR
 70
     0
  9
$PDMODE
 70
     0
  9
$PDSIZE
 40
0.0
  9
$PLINEWID
 40
0.0
  9
$SPLFRAME
 70
     0
  9
$SPLINETYPE
 70
     6
  9
$SPLINESEGS
 70
     8
  9
$HANDSEED
  5
2AB
  9
$SURFTAB1
 70
     6
  9
$SURFTAB2
 70
     6
  9
$SURFTYPE
 70
     6
  9
$SURFU
 70
     6
  9
$SURFV
 70
     6
  9
$UCSBASE
  2

  9
$UCSNAME
  2

  9
$UCSORG
 10
0.0
 20
0.0
 30
0.0
  9
$UCSXDIR
 10
1.0
 20
0.0
 30
0.0
  9
$UCSYDIR
 10
0.0
 20
1.0
 30
0.0
  9
$UCSORTHOREF
  2

  9
$UCSORTHOVIEW
 70
     1
  9
$UCSORGTOP
 10
0.0
 20
0.0
 30
0.0
  9
$UCSORGBOTTOM
 10
0.0
 20
0.0
 30
0.0
  9
$UCSORGLEFT
 10
0.0
 20
0.0
 30
0.0
  9
$UCSORGRIGHT
 10
0.0
 20
0.0
 30
0.0
  9
$UCSORGFRONT
 10
0.0
 20
0.0
 30
0.0
  9
$UCSORGBACK
 10
0.0
 20
0.0
 30
0.0
  9
$PUCSBASE
  2

  9
$PUCSNAME
  2

  9
$PUCSORG
 10
0.0
 20
0.0
 30
0.0
  9
$PUCSXDIR
 10
1.0
 20
0.0
 30
0.0
  9
$PUCSYDIR
 10
0.0
 20
1.0
 30
0.0
  9
$PUCSORTHOREF
  2

  9
$PUCSORTHOVIEW
 70
     0
  9
$PUCSORGTOP
 10
0.0
 20
0.0
 30
0.0
  9
$PUCSORGBOTTOM
 10
0.0
 20
0.0
 30
0.0
  9
$PUCSORGLEFT
 10
0.0
 20
0.0
 30
0.0
  9
$PUCSORGRIGHT
 10
0.0
 20
0.0
 30
0.0
  9
$PUCSORGFRONT
 10
0.0
 20
0.0
 30
0.0
  9
$PUCSORGBACK
 10
0.0
 20
0.0
 30
0.0
  9
$USERI1
 70
     0
  9
$USERI2
 70
     0
  9
$USERI3
 70
     0
  9
$USERI4
 70
     0
  9
$USERI5
 70
     0
  9
$USERR1
 40
0.0
  9
$USERR2
 40
0.0
  9
$USERR3
 40
0.0
  9
$USERR4
 40
0.0
  9
$USERR5
 40
0.0
  9
$WORLDVIEW
 70
     1
  9
$SHADEDGE
 70
     3
  9
$SHADEDIF
 70
    70
  9
$TILEMODE
 70
     1
  9
$MAXACTVP
 70
    64
  9
$PINSBASE
 10
0.0
 20
0.0
 30
0.0
  9
$PLIMCHECK
 70
     0
  9
$PEXTMIN
 10
1.000000000000000E+20
 20
1.000000000000000E+20
 30
1.000000000000000E+20
  9
$PEXTMAX
 10
-1.000000000000000E+20
 20
-1.000000000000000E+20
 30
-1.000000000000000E+20
  9
$PLIMMIN
 10
0.0
 20
0.0
  9
$PLIMMAX
 10
12.0
 20
9.0
  9
$UNITMODE
 70
     0
  9
$VISRETAIN
 70
     1
  9
$PLINEGEN
 70
     0
  9
$PSLTSCALE
 70
     1
  9
$TREEDEPTH
 70
  3020
  9
$CMLSTYLE
  2
Standard
  9
$CMLJUST
 70
     0
  9
$CMLSCALE
 40
1.0
  9
$PROXYGRAPHICS
 70
     1
  9
$MEASUREMENT
 70
     0
  9
$CELWEIGHT
370
    -1
  9
$ENDCAPS
280
     0
  9
$JOINSTYLE
280
     0
  9
$LWDISPLAY
290
     0
  9
$INSUNITS
 70
     0
  9
$HYPERLINKBASE
  1

  9
$STYLESHEET
  1

  9
$XEDIT
290
     1
  9
$CEPSNTYPE
380
     0
  9
$PSTYLEMODE
290
     1
  9
$FINGERPRINTGUID
  2
{0241037A-FC66-4482-B4C9-B4358102844A}
  9
$VERSIONGUID
  2
{88A8A6E7-DE1D-4958-AD34-CC8C9D4472A3}
  9
$EXTNAMES
290
     1
  9
$PSVPSCALE
 40
0.0
  9
$OLESTARTUP
290
     0
  0
ENDSEC
  0
SECTION
  2
CLASSES
  0
CLASS
  1
ACDBDICTIONARYWDFLT
  2
AcDbDictionaryWithDefault
  3
AutoCAD 2000
 90
        0
280
     0
281
     0
  0
CLASS
  1
ACDBPLACEHOLDER
  2
AcDbPlaceHolder
  3
AutoCAD 2000
 90
        0
280
     0
281
     0
  0
CLASS
  1
LAYOUT
  2
AcDbLayout
  3
AutoCAD 2000
 90
        0
280
     0
281
     0
  0
CLASS
  1
DICTIONARYVAR
  2
AcDbDictionaryVar
  3
AutoCAD 2000
 90
        0
280
     0
281
     0
  0
ENDSEC
  0
SECTION
  2
TABLES
  0
TABLE
  2
VPORT
  5
8
330
0
100
AcDbSymbolTable
 70
     2
  0
VPORT
  5
2AA
330
8
100
AcDbSymbolTableRecord
100
AcDbViewportTableRecord
  2
*Active
 70
     0
 10
0.0
 20
0.0
 11
1.0
 21
1.0
 12
110.4999999999999
 22
100.9863
 13
0.0
 23
0.0
 14
1.0
 24
1.0
 15
0.0
 25
0.0
 16
0.0
 26
0.0
 36
1.0
 17
0.0
 27
0.0
 37
0.0
 40
203.6935662404092
 41
2.078104993597951
 42
50.0
 43
0.0
 44
0.0
 50
0.0
 51
0.0
 71
     0
 72
   100
 73
     1
 74
     3
 75
     0
 76
     0
 77
     0
 78
     0
281
     0
 65
     1
110
0.0
120
0.0
130
0.0
111
1.0
121
0.0
131
0.0
112
0.0
122
1.0
132
0.0
 79
     1
146
0.0
  0
ENDTAB
  0
TABLE
  2
LTYPE
  5
5
330
0
100
AcDbSymbolTable
 70
     1
  0
LTYPE
  5
13
330
5
100
AcDbSymbolTableRecord
100
AcDbLinetypeTableRecord
  2
ByBlock
 70
     0
  3

 72
    65
 73
     0
 40
0.0
  0
LTYPE
  5
14
330
5
100
AcDbSymbolTableRecord
100
AcDbLinetypeTableRecord
  2
ByLayer
 70
     0
  3

 72
    65
 73
     0
 40
0.0
  0
LTYPE
  5
15
330
5
100
AcDbSymbolTableRecord
100
AcDbLinetypeTableRecord
  2
Continuous
 70
     0
  3
Solid line
 72
    65
 73
     0
 40
0.0
  0
ENDTAB
  0
TABLE
  2
LAYER
  5
2
330
0
100
AcDbSymbolTable
 70
     1
  0
LAYER
  5
10
330
2
100
AcDbSymbolTableRecord
100
AcDbLayerTableRecord
  2
0
 70
     0
 62
     7
  6
Continuous
370
    -3
390
F
  0
ENDTAB
  0
TABLE
  2
STYLE
  5
3
330
0
100
AcDbSymbolTable
 70
     1
  0
STYLE
  5
11
330
3
100
AcDbSymbolTableRecord
100
AcDbTextStyleTableRecord
  2
Standard
 70
     0
 40
0.0
 41
1.0
 50
0.0
 71
     0
 42
0.2
  3
txt
  4

  0
ENDTAB
  0
TABLE
  2
VIEW
  5
6
330
0
100
AcDbSymbolTable
 70
     0
  0
ENDTAB
  0
TABLE
  2
UCS
  5
7
330
0
100
AcDbSymbolTable
 70
     0
  0
ENDTAB
  0
TABLE
  2
APPID
  5
9
330
0
100
AcDbSymbolTable
 70
     1
  0
APPID
  5
12
330
9
100
AcDbSymbolTableRecord
100
AcDbRegAppTableRecord
  2
ACAD
 70
     0
  0
ENDTAB
  0
TABLE
  2
DIMSTYLE
  5
A
330
0
100
AcDbSymbolTable
 70
     1
100
AcDbDimStyleTable
 71
     0
  0
DIMSTYLE
105
234
330
A
100
AcDbSymbolTableRecord
100
AcDbDimStyleTableRecord
  2
Standard
 70
     0
340
11
  0
ENDTAB
  0
TABLE
  2
BLOCK_RECORD
  5
1
330
0
100
AcDbSymbolTable
 70
     1
  0
BLOCK_RECORD
  5
1E
330
1
100
AcDbSymbolTableRecord
100
AcDbBlockTableRecord
  2
*Model_Space
340
21
  0
BLOCK_RECORD
  5
1A
330
1
100
AcDbSymbolTableRecord
100
AcDbBlockTableRecord
  2
*Paper_Space
340
1D
  0
ENDTAB
  0
ENDSEC
  0
SECTION
  2
BLOCKS
  0
BLOCK
  5
1F
330
1E
100
AcDbEntity
  8
0
100
AcDbBlockBegin
  2
*Model_Space
 70
     0
 10
0.0
 20
0.0
 30
0.0
  3
*Model_Space
  1

  0
ENDBLK
  5
20
330
1E
100
AcDbEntity
  8
0
100
AcDbBlockEnd
  0
BLOCK
  5
1B
330
1A
100
AcDbEntity
 67
     1
  8
0
100
AcDbBlockBegin
  2
*Paper_Space
 70
     0
 10
0.0
 20
0.0
 30
0.0
  3
*Paper_Space
  1

  0
ENDBLK
  5
1C
330
1A
100
AcDbEntity
 67
     1
  8
0
100
AcDbBlockEnd
  0
ENDSEC
  0
SECTION
  2
ENTITIES
  0
LINE
  5
22
330
1E
100
AcDbEntity
  8
0
100
AcDbLine
 10
17.8514
 20
84.83414000000001
 30
0.0
 11
26.3714
 21
81.38557
 31
0.0
  0
LINE
  5
23
330
1E
100
AcDbEntity
  8
0
100
AcDbLine
 10
26.3714
 20
81.38557
 30
0.0
 11
35.5
 21
80.067
 31
0.0
  0
LINE
  5
24
330
1E
100
AcDbEntity
  8
0
100
AcDbLine
 10
53.1486
 20
84.83414000000001
 30
0.0
 11
60.5529
 21
90.5141
 31
0.0
  0
LINE
  5
25
330
1E
100
AcDbEntity
  8
0
100
AcDbLine
 10
44.6286
 20
81.38557
 30
0.0
 11
53.1486
 21
84.83414000000001
 31
0.0
  0
LINE
  5
26
330
1E
100
AcDbEntity
  8
0
100
AcDbLine
 10
35.5
 20
80.067
 30
0.0
 11
44.6286
 21
81.38557
 31
0.0
  0
LINE
  5
27
330
1E
100
AcDbEntity
  8
0
100
AcDbLine
 10
99.40000000000001
 20
89.91502
 30
0.0
 11
100.5
 21
89.91502
 31
0.0
  0
LINE
  5
28
330
1E
100
AcDbEntity
  8
0
100
AcDbLine
 10
99.0
 20
89.91502
 30
0.0
 11
100.0
 21
59.915
 31
0.0
  0
LINE
  5
29
330
1E
100
AcDbEntity
  8
0
100
AcDbLine
 10
99.0
 20
89.91502
 30
0.0
 11
99.40000000000001
 21
89.91502
 31
0.0
  0
LINE
  5
2A
330
1E
100
AcDbEntity
  8
0
100
AcDbLine
 10
10.4471
 20
90.5141
 30
0.0
 11
17.8514
 21
84.83414000000001
 31
0.0
  0
LINE
  5
2B
330
1E
100
AcDbEntity
  8
0
100
AcDbLine
 10
4.76713999999999
 20
97.9184
 30
0.0
 11
10.4471
 21
90.5141
 31
0.0
  0
LINE
  5
2C
330
1E
100
AcDbEntity
  8
0
100
AcDbLine
 10
20.5
 20
100.9317
 30
0.0
 11
20.5
 21
98.76700000000001
 31
0.0
  0
LINE
  5
2D
330
1E
100
AcDbEntity
  8
0
100
AcDbLine
 10
20.5
 20
100.9317
 30
0.0
 11
20.5
 21
134.2023
 31
0.0
  0
LINE
  5
2E
330
1E
100
AcDbEntity
  8
0
100
AcDbLine
 10
20.5
 20
100.687
 30
0.0
 11
20.5
 21
98.76700000000001
 31
0.0
  0
LINE
  5
2F
330
1E
100
AcDbEntity
  8
0
100
AcDbLine
 10
20.5
 20
100.687
 30
0.0
 11
20.5
 21
103.807
 31
0.0
  0
LINE
  5
30
330
1E
100
AcDbEntity
  8
0
100
AcDbLine
 10
20.5
 20
98.76700000000001
 30
0.0
 11
20.5
 21
98.04700000000002
 31
0.0
  0
LINE
  5
31
330
1E
100
AcDbEntity
  8
0
100
AcDbLine
 10
20.5
 20
98.76700000000001
 30
0.0
 11
20.5
 21
100.687
 31
0.0
  0
LINE
  5
32
330
1E
100
AcDbEntity
  8
0
100
AcDbLine
 10
20.5
 20
98.76700000000001
 30
0.0
 11
20.5
 21
100.9317
 31
0.0
  0
LINE
  5
33
330
1E
100
AcDbEntity
  8
0
100
AcDbLine
 10
20.5
 20
98.04700000000002
 30
0.0
 11
21.1
 21
97.56700000000002
 31
0.0
  0
LINE
  5
34
330
1E
100
AcDbEntity
  8
0
100
AcDbLine
 10
20.5
 20
98.04700000000002
 30
0.0
 11
20.5
 21
98.76700000000001
 31
0.0
  0
LINE
  5
35
330
1E
100
AcDbEntity
  8
0
100
AcDbLine
 10
1.31856999999999
 20
106.4383999999999
 30
0.0
 11
4.76713999999999
 21
97.9184
 31
0.0
  0
LINE
  5
36
330
1E
100
AcDbEntity
  8
0
100
AcDbLine
 10
20.5
 20
107.8869999999999
 30
0.0
 11
20.5
 21
103.807
 31
0.0
  0
LINE
  5
37
330
1E
100
AcDbEntity
  8
0
100
AcDbLine
 10
20.5
 20
107.8869999999999
 30
0.0
 11
20.5
 21
112.5269999999999
 31
0.0
  0
LINE
  5
38
330
1E
100
AcDbEntity
  8
0
100
AcDbLine
 10
20.5
 20
103.807
 30
0.0
 11
20.5
 21
100.687
 31
0.0
  0
LINE
  5
39
330
1E
100
AcDbEntity
  8
0
100
AcDbLine
 10
20.5
 20
103.807
 30
0.0
 11
20.5
 21
107.8869999999999
 31
0.0
  0
LINE
  5
3A
330
1E
100
AcDbEntity
  8
0
100
AcDbLine
 10
-0.0000000000000142
 20
115.567
 30
0.0
 11
1.31856999999999
 21
124.6955999999999
 31
0.0
  0
LINE
  5
3B
330
1E
100
AcDbEntity
  8
0
100
AcDbLine
 10
-0.0000000000000142
 20
115.567
 30
0.0
 11
1.31856999999999
 21
106.4383999999999
 31
0.0
  0
LINE
  5
3C
330
1E
100
AcDbEntity
  8
0
100
AcDbLine
 10
1.31856999999999
 20
124.6955999999999
 30
0.0
 11
4.76713999999999
 21
133.2155999999999
 31
0.0
  0
LINE
  5
3D
330
1E
100
AcDbEntity
  8
0
100
AcDbLine
 10
20.5
 20
122.607
 30
0.0
 11
20.5
 21
117.5669999999999
 31
0.0
  0
LINE
  5
3E
330
1E
100
AcDbEntity
  8
0
100
AcDbLine
 10
20.5
 20
122.607
 30
0.0
 11
20.5
 21
127.247
 31
0.0
  0
LINE
  5
3F
330
1E
100
AcDbEntity
  8
0
100
AcDbLine
 10
4.76713999999999
 20
133.2155999999999
 30
0.0
 11
10.4471
 21
140.6198999999999
 31
0.0
  0
LINE
  5
40
330
1E
100
AcDbEntity
  8
0
100
AcDbLine
 10
20.5
 20
134.2023
 30
0.0
 11
20.5
 21
136.367
 31
0.0
  0
LINE
  5
41
330
1E
100
AcDbEntity
  8
0
100
AcDbLine
 10
20.5
 20
134.2023
 30
0.0
 11
20.5
 21
100.9317
 31
0.0
  0
LINE
  5
42
330
1E
100
AcDbEntity
  8
0
100
AcDbLine
 10
20.5
 20
127.247
 30
0.0
 11
20.5
 21
122.607
 31
0.0
  0
LINE
  5
43
330
1E
100
AcDbEntity
  8
0
100
AcDbLine
 10
20.5
 20
127.247
 30
0.0
 11
20.5
 21
131.3269999999999
 31
0.0
  0
LINE
  5
44
330
1E
100
AcDbEntity
  8
0
100
AcDbLine
 10
20.5
 20
131.3269999999999
 30
0.0
 11
20.5
 21
127.247
 31
0.0
  0
LINE
  5
45
330
1E
100
AcDbEntity
  8
0
100
AcDbLine
 10
20.5
 20
131.3269999999999
 30
0.0
 11
20.5
 21
134.447
 31
0.0
  0
LINE
  5
46
330
1E
100
AcDbEntity
  8
0
100
AcDbLine
 10
20.5
 20
134.447
 30
0.0
 11
20.5
 21
131.3269999999999
 31
0.0
  0
LINE
  5
47
330
1E
100
AcDbEntity
  8
0
100
AcDbLine
 10
20.5
 20
134.447
 30
0.0
 11
20.5
 21
136.367
 31
0.0
  0
LINE
  5
48
330
1E
100
AcDbEntity
  8
0
100
AcDbLine
 10
20.5
 20
136.367
 30
0.0
 11
20.5
 21
134.447
 31
0.0
  0
LINE
  5
49
330
1E
100
AcDbEntity
  8
0
100
AcDbLine
 10
20.5
 20
136.367
 30
0.0
 11
20.5
 21
137.087
 31
0.0
  0
LINE
  5
4A
330
1E
100
AcDbEntity
  8
0
100
AcDbLine
 10
20.5
 20
136.367
 30
0.0
 11
20.5
 21
134.2023
 31
0.0
  0
LINE
  5
4B
330
1E
100
AcDbEntity
  8
0
100
AcDbLine
 10
10.4471
 20
140.6198999999999
 30
0.0
 11
17.8514
 21
146.2999
 31
0.0
  0
LINE
  5
4C
330
1E
100
AcDbEntity
  8
0
100
AcDbLine
 10
17.8514
 20
146.2999
 30
0.0
 11
26.3714
 21
149.7484
 31
0.0
  0
LINE
  5
4D
330
1E
100
AcDbEntity
  8
0
100
AcDbLine
 10
20.5
 20
137.087
 30
0.0
 11
20.5
 21
136.367
 31
0.0
  0
LINE
  5
4E
330
1E
100
AcDbEntity
  8
0
100
AcDbLine
 10
20.5
 20
137.087
 30
0.0
 11
21.1
 21
137.567
 31
0.0
  0
LINE
  5
5A
330
1E
100
AcDbEntity
  8
0
100
AcDbLine
 10
21.1
 20
137.567
 30
0.0
 11
88.49999999999999
 21
137.567
 31
0.0
  0
LINE
  5
5B
330
1E
100
AcDbEntity
  8
0
100
AcDbLine
 10
20.5
 20
117.5669999999999
 30
0.0
 11
20.5
 21
112.5269999999999
 31
0.0
  0
LINE
  5
5C
330
1E
100
AcDbEntity
  8
0
100
AcDbLine
 10
20.5
 20
117.5669999999999
 30
0.0
 11
20.5
 21
122.607
 31
0.0
  0
LINE
  5
5D
330
1E
100
AcDbEntity
  8
0
100
AcDbLine
 10
20.5
 20
112.5269999999999
 30
0.0
 11
20.5
 21
107.8869999999999
 31
0.0
  0
LINE
  5
5E
330
1E
100
AcDbEntity
  8
0
100
AcDbLine
 10
20.5
 20
112.5269999999999
 30
0.0
 11
20.5
 21
117.5669999999999
 31
0.0
  0
LINE
  5
69
330
1E
100
AcDbEntity
  8
0
100
AcDbLine
 10
21.1
 20
97.56700000000002
 30
0.0
 11
97.5
 21
97.56700000000002
 31
0.0
  0
LINE
  5
6B
330
1E
100
AcDbEntity
  8
0
100
AcDbLine
 10
97.5
 20
93.10219999999999
 30
0.0
 11
97.96799999999999
 21
91.96389999999999
 31
0.0
  0
LINE
  5
6C
330
1E
100
AcDbEntity
  8
0
100
AcDbLine
 10
97.5
 20
93.10219999999999
 30
0.0
 11
97.5
 21
101.9352999999999
 31
0.0
  0
LINE
  5
6D
330
1E
100
AcDbEntity
  8
0
100
AcDbLine
 10
98.28000000000001
 20
91.4179
 30
0.0
 11
99.52799999999999
 21
90.38639000000001
 31
0.0
  0
LINE
  5
6E
330
1E
100
AcDbEntity
  8
0
100
AcDbLine
 10
97.96799999999999
 20
91.96389999999999
 30
0.0
 11
98.28000000000001
 21
91.4179
 31
0.0
  0
LINE
  5
6F
330
1E
100
AcDbEntity
  8
0
100
AcDbLine
 10
98.28000000000001
 20
93.6588
 30
0.0
 11
99.52799999999999
 21
94.6903
 31
0.0
  0
LINE
  5
70
330
1E
100
AcDbEntity
  8
0
100
AcDbLine
 10
97.81200000000001
 20
92.5384
 30
0.0
 11
98.28000000000001
 21
93.6588
 31
0.0
  0
LINE
  5
71
330
1E
100
AcDbEntity
  8
0
100
AcDbLine
 10
97.81200000000001
 20
92.5384
 30
0.0
 11
98.28000000000001
 21
91.4179
 31
0.0
  0
LINE
  5
72
330
1E
100
AcDbEntity
  8
0
100
AcDbLine
 10
97.5
 20
101.9352999999999
 30
0.0
 11
97.5
 21
93.10219999999999
 31
0.0
  0
LINE
  5
73
330
1E
100
AcDbEntity
  8
0
100
AcDbLine
 10
96.86289999999999
 20
101.3257
 30
0.0
 11
97.5
 21
100.760261370198
 31
0.0
  0
LINE
  5
74
330
1E
100
AcDbEntity
  8
0
100
AcDbLine
 10
95.20180000000001
 20
103.6872999999999
 30
0.0
 11
96.86289999999999
 21
101.3257
 31
0.0
  0
LINE
  5
75
330
1E
100
AcDbEntity
  8
0
100
AcDbLine
 10
92.46689999999999
 20
107.4019999999999
 30
0.0
 11
95.20180000000001
 21
103.6872999999999
 31
0.0
  0
LINE
  5
76
330
1E
100
AcDbEntity
  8
0
100
AcDbLine
 10
95.7
 20
117.5412
 30
0.0
 11
97.3
 21
117.2112999999999
 31
0.0
  0
LINE
  5
77
330
1E
100
AcDbEntity
  8
0
100
AcDbLine
 10
94.29999999999999
 20
117.8884999999999
 30
0.0
 11
95.7
 21
117.5412
 31
0.0
  0
LINE
  5
78
330
1E
100
AcDbEntity
  8
0
100
AcDbLine
 10
93.3
 20
118.2706
 30
0.0
 11
94.29999999999999
 21
117.8884999999999
 31
0.0
  0
LINE
  5
79
330
1E
100
AcDbEntity
  8
0
100
AcDbLine
 10
92.5
 20
118.67
 30
0.0
 11
93.3
 21
118.2706
 31
0.0
  0
LINE
  5
7A
330
1E
100
AcDbEntity
  8
0
100
AcDbLine
 10
92.0
 20
119.0866999999999
 30
0.0
 11
92.5
 21
118.67
 31
0.0
  0
LINE
  5
7C
330
1E
100
AcDbEntity
  8
0
100
AcDbLine
 10
85.33456919126779
 20
136.306534371893
 30
0.0
 11
91.79999999999999
 21
119.5035
 31
0.0
  0
LINE
  5
7D
330
1E
100
AcDbEntity
  8
0
100
AcDbLine
 10
91.79999999999999
 20
119.5035
 30
0.0
 11
92.0
 21
119.0866999999999
 31
0.0
  0
LINE
  5
7E
330
1E
100
AcDbEntity
  8
0
100
AcDbLine
 10
97.3
 20
117.2112999999999
 30
0.0
 11
99.20000000000001
 21
116.9335
 31
0.0
  0
LINE
  5
7F
330
1E
100
AcDbEntity
  8
0
100
AcDbLine
 10
99.20000000000001
 20
116.9335
 30
0.0
 11
101.2
 21
116.6903999999999
 31
0.0
  0
LINE
  5
80
330
1E
100
AcDbEntity
  8
0
100
AcDbLine
 10
60.5529
 20
90.5141
 30
0.0
 11
65.96333339681
 21
97.56700000000002
 31
0.0
  0
LINE
  5
81
330
1E
100
AcDbEntity
  8
0
100
AcDbLine
 10
88.49999999999999
 20
137.567
 30
0.0
 11
88.49999999999999
 21
160.5810999999999
 31
0.0
  0
LINE
  5
82
330
1E
100
AcDbEntity
  8
0
100
AcDbLine
 10
21.1
 20
97.56700000000002
 30
0.0
 11
97.5
 21
97.56700000000002
 31
0.0
  0
LINE
  5
83
330
1E
100
AcDbEntity
  8
0
100
AcDbLine
 10
26.3714
 20
149.7484
 30
0.0
 11
35.5
 21
151.067
 31
0.0
  0
LINE
  5
84
330
1E
100
AcDbEntity
  8
0
100
AcDbLine
 10
60.5529
 20
140.6198999999999
 30
0.0
 11
62.89484616641679
 21
137.567
 31
0.0
  0
LINE
  5
85
330
1E
100
AcDbEntity
  8
0
100
AcDbLine
 10
53.1486
 20
146.2999
 30
0.0
 11
60.5529
 21
140.6198999999999
 31
0.0
  0
LINE
  5
86
330
1E
100
AcDbEntity
  8
0
100
AcDbLine
 10
44.6286
 20
149.7484
 30
0.0
 11
53.1486
 21
146.2999
 31
0.0
  0
LINE
  5
8B
330
1E
100
AcDbEntity
  8
0
100
AcDbLine
 10
88.49999999999999
 20
163.645
 30
0.0
 11
88.764
 21
163.1407
 31
0.0
  0
LINE
  5
90
330
1E
100
AcDbEntity
  8
0
100
AcDbLine
 10
35.5
 20
151.067
 30
0.0
 11
44.6286
 21
149.7484
 31
0.0
  0
LINE
  5
91
330
1E
100
AcDbEntity
  8
0
100
AcDbLine
 10
95.70449999999999
 20
159.5851999999999
 30
0.0
 11
97.7091
 21
159.2701999999999
 31
0.0
  0
LINE
  5
92
330
1E
100
AcDbEntity
  8
0
100
AcDbLine
 10
97.7091
 20
159.2701999999999
 30
0.0
 11
100.0
 21
158.9884
 31
0.0
  0
LINE
  5
93
330
1E
100
AcDbEntity
  8
0
100
AcDbLine
 10
95.36399999999998
 20
158.5436
 30
0.0
 11
99.852
 21
157.9475999999999
 31
0.0
  0
LINE
  5
94
330
1E
100
AcDbEntity
  8
0
100
AcDbLine
 10
91.932
 20
159.3229
 30
0.0
 11
95.36399999999998
 21
158.5436
 31
0.0
  0
LINE
  5
95
330
1E
100
AcDbEntity
  8
0
100
AcDbLine
 10
94.92399999999999
 20
157.8762999999999
 30
0.0
 11
99.588
 21
157.2651
 31
0.0
  0
LINE
  5
96
330
1E
100
AcDbEntity
  8
0
100
AcDbLine
 10
91.40399999999999
 20
158.6862
 30
0.0
 11
94.92399999999999
 21
157.8762999999999
 31
0.0
  0
LINE
  5
97
330
1E
100
AcDbEntity
  8
0
100
AcDbLine
 10
88.764
 20
163.1407
 30
0.0
 11
89.29199999999999
 21
162.667
 31
0.0
  0
LINE
  5
99
330
1E
100
AcDbEntity
  8
0
100
AcDbLine
 10
93.89090000000001
 20
159.9331999999999
 30
0.0
 11
95.70449999999999
 21
159.5851999999999
 31
0.0
  0
LINE
  5
9A
330
1E
100
AcDbEntity
  8
0
100
AcDbLine
 10
89.29199999999999
 20
162.667
 30
0.0
 11
90.26000000000001
 21
162.1933
 31
0.0
  0
LINE
  5
9B
330
1E
100
AcDbEntity
  8
0
100
AcDbLine
 10
89.50000000000001
 20
161.1718999999999
 30
0.0
 11
89.50000000000001
 21
162.5652132231399
 31
0.0
  0
LINE
  5
9C
330
1E
100
AcDbEntity
  8
0
100
AcDbLine
 10
91.1227
 20
160.762
 30
0.0
 11
92.2682
 21
160.3310999999999
 31
0.0
  0
LINE
  5
9D
330
1E
100
AcDbEntity
  8
0
100
AcDbLine
 10
90.2636
 20
161.2096
 30
0.0
 11
91.1227
 21
160.762
 31
0.0
  0
LINE
  5
9E
330
1E
100
AcDbEntity
  8
0
100
AcDbLine
 10
89.69089999999999
 20
161.6737
 30
0.0
 11
90.2636
 21
161.2096
 31
0.0
  0
LINE
  5
9F
330
1E
100
AcDbEntity
  8
0
100
AcDbLine
 10
89.50000000000001
 20
162.1544
 30
0.0
 11
89.69089999999999
 21
161.6737
 31
0.0
  0
LINE
  5
A0
330
1E
100
AcDbEntity
  8
0
100
AcDbLine
 10
89.50000000000001
 20
162.1544
 30
0.0
 11
89.50000000000001
 21
162.5652132231399
 31
0.0
  0
LINE
  5
A1
330
1E
100
AcDbEntity
  8
0
100
AcDbLine
 10
89.50000000000001
 20
162.5652132231399
 30
0.0
 11
89.50000000000001
 21
162.1544
 31
0.0
  0
LINE
  5
A2
330
1E
100
AcDbEntity
  8
0
100
AcDbLine
 10
89.50000000000001
 20
162.5652132231399
 30
0.0
 11
89.50000000000001
 21
161.1718999999999
 31
0.0
  0
LINE
  5
A5
330
1E
100
AcDbEntity
  8
0
100
AcDbLine
 10
90.26000000000001
 20
162.1933
 30
0.0
 11
91.40399999999999
 21
161.7501
 31
0.0
  0
LINE
  5
A6
330
1E
100
AcDbEntity
  8
0
100
AcDbLine
 10
92.2682
 20
160.3310999999999
 30
0.0
 11
93.89090000000001
 21
159.9331999999999
 31
0.0
  0
LINE
  5
A7
330
1E
100
AcDbEntity
  8
0
100
AcDbLine
 10
91.40399999999999
 20
161.7501
 30
0.0
 11
93.076
 21
161.3223
 31
0.0
  0
LINE
  5
A8
330
1E
100
AcDbEntity
  8
0
100
AcDbLine
 10
95.012
 20
160.9555
 30
0.0
 11
97.124
 21
160.6193
 31
0.0
  0
LINE
  5
A9
330
1E
100
AcDbEntity
  8
0
100
AcDbLine
 10
93.076
 20
161.3223
 30
0.0
 11
95.012
 21
160.9555
 31
0.0
  0
LINE
  5
B0
330
1E
100
AcDbEntity
  8
0
100
AcDbLine
 10
97.124
 20
160.6193
 30
0.0
 11
99.588
 21
160.329
 31
0.0
  0
LINE
  5
B8
330
1E
100
AcDbEntity
  8
0
100
AcDbLine
 10
89.29199999999999
 20
161.559
 30
0.0
 11
89.37672059625521
 21
161.5957804520389
 31
0.0
  0
LINE
  5
B9
330
1E
100
AcDbEntity
  8
0
100
AcDbLine
 10
89.29199999999999
 20
161.559
 30
0.0
 11
89.50000000000001
 21
161.7857515151519
 31
0.0
  0
LINE
  5
BA
330
1E
100
AcDbEntity
  8
0
100
AcDbLine
 10
89.81999999999999
 20
160.2092
 30
0.0
 11
91.932
 21
159.3229
 31
0.0
  0
LINE
  5
BB
330
1E
100
AcDbEntity
  8
0
100
AcDbLine
 10
89.02799999999999
 20
161.1718999999999
 30
0.0
 11
89.81999999999999
 21
160.2092
 31
0.0
  0
LINE
  5
BC
330
1E
100
AcDbEntity
  8
0
100
AcDbLine
 10
89.02799999999999
 20
161.1718999999999
 30
0.0
 11
89.50000000000001
 21
161.74563030303
 31
0.0
  0
LINE
  5
BD
330
1E
100
AcDbEntity
  8
0
100
AcDbLine
 10
89.29199999999999
 20
159.6031
 30
0.0
 11
91.40399999999999
 21
158.6862
 31
0.0
  0
LINE
  5
BE
330
1E
100
AcDbEntity
  8
0
100
AcDbLine
 10
88.49999999999999
 20
160.5810999999999
 30
0.0
 11
88.49999999999999
 21
137.567
 31
0.0
  0
LINE
  5
BF
330
1E
100
AcDbEntity
  8
0
100
AcDbLine
 10
88.49999999999999
 20
160.5810999999999
 30
0.0
 11
89.29199999999999
 21
159.6031
 31
0.0
  0
LINE
  5
C0
330
1E
100
AcDbEntity
  8
0
100
AcDbLine
 10
88.49999999999999
 20
160.5810999999999
 30
0.0
 11
89.29199999999999
 21
161.559
 31
0.0
  0
LINE
  5
C1
330
1E
100
AcDbEntity
  8
0
100
AcDbLine
 10
21.1
 20
137.567
 30
0.0
 11
88.49999999999999
 21
137.567
 31
0.0
  0
LINE
  5
C4
330
1E
100
AcDbEntity
  8
0
100
AcDbLine
 10
99.50000000000001
 20
90.40953285256408
 30
0.0
 11
99.50000000000001
 21
90.27502
 31
0.0
  0
LINE
  5
C5
330
1E
100
AcDbEntity
  8
0
100
AcDbLine
 10
99.52799999999999
 20
90.38639000000001
 30
0.0
 11
101.556
 21
89.47933
 31
0.0
  0
LINE
  5
C6
330
1E
100
AcDbEntity
  8
0
100
AcDbLine
 10
99.52799999999999
 20
94.6903
 30
0.0
 11
101.556
 21
95.59739999999999
 31
0.0
  0
LINE
  5
C7
330
1E
100
AcDbEntity
  8
0
100
AcDbLine
 10
99.588
 20
160.329
 30
0.0
 11
102.14
 21
160.1303
 31
0.0
  0
LINE
  5
C8
330
1E
100
AcDbEntity
  8
0
100
AcDbLine
 10
100.0
 20
158.9884
 30
0.0
 11
102.482
 21
158.7895
 31
0.0
  0
LINE
  5
C9
330
1E
100
AcDbEntity
  8
0
100
AcDbLine
 10
99.852
 20
157.9475999999999
 30
0.0
 11
104.956
 21
157.5809
 31
0.0
  0
LINE
  5
CA
330
1E
100
AcDbEntity
  8
0
100
AcDbLine
 10
99.588
 20
157.2651
 30
0.0
 11
104.868
 21
156.8983
 31
0.0
  0
LINE
  5
CB
330
1E
100
AcDbEntity
  8
0
100
AcDbLine
 10
100.0
 20
59.915
 30
0.0
 11
100.4
 21
59.915
 31
0.0
  0
LINE
  5
CC
330
1E
100
AcDbEntity
  8
0
100
AcDbLine
 10
99.50000000000001
 20
90.27502
 30
0.0
 11
99.50000000000001
 21
90.40953285256408
 31
0.0
  0
LINE
  5
CD
330
1E
100
AcDbEntity
  8
0
100
AcDbLine
 10
99.50000000000001
 20
90.27502
 30
0.0
 11
99.76399999999999
 21
89.91502
 31
0.0
  0
LINE
  5
CE
330
1E
100
AcDbEntity
  8
0
100
AcDbLine
 10
99.50000000000001
 20
90.27502
 30
0.0
 11
99.77700046303439
 21
90.27502
 31
0.0
  0
LINE
  5
CF
330
1E
100
AcDbEntity
  8
0
100
AcDbLine
 10
105.276
 20
0.39110000000001
 30
0.0
 11
106.777
 21
1.06569999999999
 31
0.0
  0
LINE
  5
D0
330
1E
100
AcDbEntity
  8
0
100
AcDbLine
 10
105.2
 20
59.915
 30
0.0
 11
106.8
 21
59.915
 31
0.0
  0
LINE
  5
D1
330
1E
100
AcDbEntity
  8
0
100
AcDbLine
 10
104.0
 20
59.915
 30
0.0
 11
105.2
 21
59.915
 31
0.0
  0
LINE
  5
D2
330
1E
100
AcDbEntity
  8
0
100
AcDbLine
 10
104.038
 20
0.0161999999999978
 30
0.0
 11
105.276
 21
0.39110000000001
 31
0.0
  0
LINE
  5
D3
330
1E
100
AcDbEntity
  8
0
100
AcDbLine
 10
103.2999999999999
 20
59.915
 30
0.0
 11
104.0
 21
59.915
 31
0.0
  0
LINE
  5
D4
330
1E
100
AcDbEntity
  8
0
100
AcDbLine
 10
103.363
 20
-0.0586999999999922
 30
0.0
 11
104.038
 21
0.0161999999999978
 31
0.0
  0
LINE
  5
D5
330
1E
100
AcDbEntity
  8
0
100
AcDbLine
 10
103.0
 20
59.915
 30
0.0
 11
103.2999999999999
 21
59.915
 31
0.0
  0
LINE
  5
D6
330
1E
100
AcDbEntity
  8
0
100
AcDbLine
 10
103.0
 20
59.915
 30
0.0
 11
103.0
 21
-0.0850000000000001
 31
0.0
  0
LINE
  5
D7
330
1E
100
AcDbEntity
  8
0
100
AcDbLine
 10
103.0
 20
-0.0850000000000001
 30
0.0
 11
103.0
 21
59.915
 31
0.0
  0
LINE
  5
D8
330
1E
100
AcDbEntity
  8
0
100
AcDbLine
 10
103.0
 20
-0.0850000000000001
 30
0.0
 11
103.363
 21
-0.0586999999999922
 31
0.0
  0
LINE
  5
D9
330
1E
100
AcDbEntity
  8
0
100
AcDbLine
 10
106.8
 20
59.915
 30
0.0
 11
108.6
 21
59.915
 31
0.0
  0
LINE
  5
DA
330
1E
100
AcDbEntity
  8
0
100
AcDbLine
 10
106.777
 20
1.06569999999999
 30
0.0
 11
108.577
 21
2.190199999999999
 31
0.0
  0
LINE
  5
DB
330
1E
100
AcDbEntity
  8
0
100
AcDbLine
 10
107.8
 20
59.915
 30
0.0
 11
110.4999999999999
 21
59.915
 31
0.0
  0
LINE
  5
DC
330
1E
100
AcDbEntity
  8
0
100
AcDbLine
 10
105.2999999999999
 20
59.915
 30
0.0
 11
107.8
 21
59.915
 31
0.0
  0
LINE
  5
DD
330
1E
100
AcDbEntity
  8
0
100
AcDbLine
 10
103.0999999999999
 20
59.915
 30
0.0
 11
105.2999999999999
 21
59.915
 31
0.0
  0
LINE
  5
DE
330
1E
100
AcDbEntity
  8
0
100
AcDbLine
 10
101.4
 20
59.915
 30
0.0
 11
103.0999999999999
 21
59.915
 31
0.0
  0
LINE
  5
DF
330
1E
100
AcDbEntity
  8
0
100
AcDbLine
 10
101.4
 20
59.915
 30
0.0
 11
103.0
 21
59.915
 31
0.0
  0
LINE
  5
E0
330
1E
100
AcDbEntity
  8
0
100
AcDbLine
 10
101.556
 20
89.47933
 30
0.0
 11
104.2079999999999
 21
88.78569
 31
0.0
  0
LINE
  5
E1
330
1E
100
AcDbEntity
  8
0
100
AcDbLine
 10
107.2239999999999
 20
88.35886999999999
 30
0.0
 11
110.4999999999999
 21
88.19879
 31
0.0
  0
LINE
  5
E2
330
1E
100
AcDbEntity
  8
0
100
AcDbLine
 10
104.2079999999999
 20
88.78569
 30
0.0
 11
107.2239999999999
 21
88.35886999999999
 31
0.0
  0
LINE
  5
E3
330
1E
100
AcDbEntity
  8
0
100
AcDbLine
 10
107.2239999999999
 20
96.71790000000001
 30
0.0
 11
110.4999999999999
 21
96.87789999999999
 31
0.0
  0
LINE
  5
E4
330
1E
100
AcDbEntity
  8
0
100
AcDbLine
 10
104.2079999999999
 20
96.29100000000001
 30
0.0
 11
107.2239999999999
 21
96.71790000000001
 31
0.0
  0
LINE
  5
E5
330
1E
100
AcDbEntity
  8
0
100
AcDbLine
 10
101.556
 20
95.59739999999999
 30
0.0
 11
104.2079999999999
 21
96.29100000000001
 31
0.0
  0
LINE
  5
E6
330
1E
100
AcDbEntity
  8
0
100
AcDbLine
 10
101.5
 20
131.4208999999999
 30
0.0
 11
101.8
 21
131.4208999999999
 31
0.0
  0
LINE
  5
E7
330
1E
100
AcDbEntity
  8
0
100
AcDbLine
 10
101.5
 20
131.4208999999999
 30
0.0
 11
101.5
 21
148.4461
 31
0.0
  0
LINE
  5
E8
330
1E
100
AcDbEntity
  8
0
100
AcDbLine
 10
101.8
 20
131.4208999999999
 30
0.0
 11
102.7
 21
131.4208999999999
 31
0.0
  0
LINE
  5
E9
330
1E
100
AcDbEntity
  8
0
100
AcDbLine
 10
101.5
 20
148.4461
 30
0.0
 11
101.8
 21
148.4461
 31
0.0
  0
LINE
  5
EA
330
1E
100
AcDbEntity
  8
0
100
AcDbLine
 10
101.5
 20
148.4461
 30
0.0
 11
102.7
 21
149.1772
 31
0.0
  0
LINE
  5
EB
330
1E
100
AcDbEntity
  8
0
100
AcDbLine
 10
101.5
 20
148.4461
 30
0.0
 11
101.5
 21
131.4208999999999
 31
0.0
  0
LINE
  5
EC
330
1E
100
AcDbEntity
  8
0
100
AcDbLine
 10
102.7
 20
131.4208999999999
 30
0.0
 11
104.14
 21
131.4208999999999
 31
0.0
  0
LINE
  5
ED
330
1E
100
AcDbEntity
  8
0
100
AcDbLine
 10
102.7
 20
131.4208999999999
 30
0.0
 11
103.4999999999999
 21
131.4208999999999
 31
0.0
  0
LINE
  5
EE
330
1E
100
AcDbEntity
  8
0
100
AcDbLine
 10
101.8
 20
148.4461
 30
0.0
 11
102.7
 21
148.4461
 31
0.0
  0
LINE
  5
EF
330
1E
100
AcDbEntity
  8
0
100
AcDbLine
 10
102.7
 20
148.4461
 30
0.0
 11
104.14
 21
148.4461
 31
0.0
  0
LINE
  5
F0
330
1E
100
AcDbEntity
  8
0
100
AcDbLine
 10
102.7
 20
149.1772
 30
0.0
 11
110.4999999999999
 21
149.4208999999999
 31
0.0
  0
LINE
  5
F1
330
1E
100
AcDbEntity
  8
0
100
AcDbLine
 10
101.2
 20
116.6903999999999
 30
0.0
 11
103.4
 21
116.5167
 31
0.0
  0
LINE
  5
F2
330
1E
100
AcDbEntity
  8
0
100
AcDbLine
 10
103.4999999999999
 20
130.217183333333
 30
0.0
 11
103.4999999999999
 21
131.4208999999999
 31
0.0
  0
LINE
  5
F3
330
1E
100
AcDbEntity
  8
0
100
AcDbLine
 10
103.4999999999999
 20
131.4208999999999
 30
0.0
 11
103.4635344317606
 21
124.5004917209109
 31
0.0
  0
LINE
  5
F4
330
1E
100
AcDbEntity
  8
0
100
AcDbLine
 10
104.14
 20
131.4208999999999
 30
0.0
 11
106.0
 21
131.4208999999999
 31
0.0
  0
LINE
  5
F5
330
1E
100
AcDbEntity
  8
0
100
AcDbLine
 10
106.0
 20
131.4208999999999
 30
0.0
 11
108.1599999999999
 21
131.4208999999999
 31
0.0
  0
LINE
  5
F6
330
1E
100
AcDbEntity
  8
0
100
AcDbLine
 10
104.14
 20
148.4461
 30
0.0
 11
106.0
 21
148.4461
 31
0.0
  0
LINE
  5
F7
330
1E
100
AcDbEntity
  8
0
100
AcDbLine
 10
106.0
 20
148.4461
 30
0.0
 11
108.1599999999999
 21
148.4461
 31
0.0
  0
LINE
  5
F8
330
1E
100
AcDbEntity
  8
0
100
AcDbLine
 10
103.4
 20
116.5167
 30
0.0
 11
105.6999999999999
 21
116.3777999999999
 31
0.0
  0
LINE
  5
F9
330
1E
100
AcDbEntity
  8
0
100
AcDbLine
 10
105.6999999999999
 20
116.3777999999999
 30
0.0
 11
108.0999999999999
 21
116.2909999999999
 31
0.0
  0
LINE
  5
FA
330
1E
100
AcDbEntity
  8
0
100
AcDbLine
 10
108.1599999999999
 20
131.4208999999999
 30
0.0
 11
110.4999999999999
 21
131.4208999999999
 31
0.0
  0
LINE
  5
FB
330
1E
100
AcDbEntity
  8
0
100
AcDbLine
 10
108.1599999999999
 20
148.4461
 30
0.0
 11
110.4999999999999
 21
148.4461
 31
0.0
  0
LINE
  5
FC
330
1E
100
AcDbEntity
  8
0
100
AcDbLine
 10
108.0999999999999
 20
116.2909999999999
 30
0.0
 11
110.4999999999999
 21
116.2563
 31
0.0
  0
LINE
  5
100
330
1E
100
AcDbEntity
  8
0
100
AcDbLine
 10
102.482
 20
158.7895
 30
0.0
 11
105.0589999999999
 21
158.6403999999999
 31
0.0
  0
LINE
  5
103
330
1E
100
AcDbEntity
  8
0
100
AcDbLine
 10
104.868
 20
159.9622
 30
0.0
 11
107.596
 21
159.8705999999999
 31
0.0
  0
LINE
  5
104
330
1E
100
AcDbEntity
  8
0
100
AcDbLine
 10
102.14
 20
160.1303
 30
0.0
 11
104.868
 21
159.9622
 31
0.0
  0
LINE
  5
109
330
1E
100
AcDbEntity
  8
0
100
AcDbLine
 10
105.0589999999999
 20
158.6403999999999
 30
0.0
 11
107.732
 21
158.5409
 31
0.0
  0
LINE
  5
10B
330
1E
100
AcDbEntity
  8
0
100
AcDbLine
 10
107.732
 20
158.5409
 30
0.0
 11
110.4999999999999
 21
158.5078
 31
0.0
  0
LINE
  5
10C
330
1E
100
AcDbEntity
  8
0
100
AcDbLine
 10
107.596
 20
159.8705999999999
 30
0.0
 11
110.4999999999999
 21
159.8247
 31
0.0
  0
LINE
  5
112
330
1E
100
AcDbEntity
  8
0
100
AcDbLine
 10
104.956
 20
157.5809
 30
0.0
 11
110.4999999999999
 21
157.4434
 31
0.0
  0
LINE
  5
113
330
1E
100
AcDbEntity
  8
0
100
AcDbLine
 10
104.868
 20
156.8983
 30
0.0
 11
110.4999999999999
 21
156.7607999999999
 31
0.0
  0
LINE
  5
114
330
1E
100
AcDbEntity
  8
0
100
AcDbLine
 10
100.5
 20
89.91502
 30
0.0
 11
100.5818865786169
 21
89.91502
 31
0.0
  0
LINE
  5
115
330
1E
100
AcDbEntity
  8
0
100
AcDbLine
 10
100.4
 20
59.915
 30
0.0
 11
101.4
 21
59.915
 31
0.0
  0
LINE
  5
120
330
1E
100
AcDbEntity
  8
0
100
AcDbLine
 10
110.4999999999999
 20
59.915
 30
0.0
 11
112.4
 21
59.915
 31
0.0
  0
LINE
  5
121
330
1E
100
AcDbEntity
  8
0
100
AcDbLine
 10
110.4999999999999
 20
59.915
 30
0.0
 11
113.2
 21
59.915
 31
0.0
  0
LINE
  5
122
330
1E
100
AcDbEntity
  8
0
100
AcDbLine
 10
110.4999999999999
 20
131.4208999999999
 30
0.0
 11
112.84
 21
131.4208999999999
 31
0.0
  0
LINE
  5
123
330
1E
100
AcDbEntity
  8
0
100
AcDbLine
 10
110.4999999999999
 20
148.4461
 30
0.0
 11
112.84
 21
148.4461
 31
0.0
  0
LINE
  5
124
330
1E
100
AcDbEntity
  8
0
100
AcDbLine
 10
110.4999999999999
 20
149.4208999999999
 30
0.0
 11
118.3
 21
149.1772
 31
0.0
  0
LINE
  5
125
330
1E
100
AcDbEntity
  8
0
100
AcDbLine
 10
110.4999999999999
 20
157.4434
 30
0.0
 11
116.0439999999999
 21
157.5809
 31
0.0
  0
LINE
  5
126
330
1E
100
AcDbEntity
  8
0
100
AcDbLine
 10
110.4999999999999
 20
156.7607999999999
 30
0.0
 11
116.132
 21
156.8983
 31
0.0
  0
LINE
  5
127
330
1E
100
AcDbEntity
  8
0
100
AcDbLine
 10
110.4999999999999
 20
116.2563
 30
0.0
 11
112.9
 21
116.2909999999999
 31
0.0
  0
LINE
  5
128
330
1E
100
AcDbEntity
  8
0
100
AcDbLine
 10
110.4999999999999
 20
88.19879
 30
0.0
 11
113.776
 21
88.35886999999999
 31
0.0
  0
LINE
  5
129
330
1E
100
AcDbEntity
  8
0
100
AcDbLine
 10
110.4999999999999
 20
96.87789999999999
 30
0.0
 11
113.776
 21
96.71790000000001
 31
0.0
  0
LINE
  5
12A
330
1E
100
AcDbEntity
  8
0
100
AcDbLine
 10
110.4999999999999
 20
158.5078
 30
0.0
 11
113.2679999999999
 21
158.5409
 31
0.0
  0
LINE
  5
12B
330
1E
100
AcDbEntity
  8
0
100
AcDbLine
 10
110.4999999999999
 20
159.8247
 30
0.0
 11
113.4039999999999
 21
159.8705999999999
 31
0.0
  0
LINE
  5
12C
330
1E
100
AcDbEntity
  8
0
100
AcDbLine
 10
108.6
 20
59.915
 30
0.0
 11
110.4999999999999
 21
59.915
 31
0.0
  0
LINE
  5
12D
330
1E
100
AcDbEntity
  8
0
100
AcDbLine
 10
108.577
 20
2.190199999999999
 30
0.0
 11
110.528
 21
4.176799999999979
 31
0.0
  0
LINE
  5
12F
330
1E
100
AcDbEntity
  8
0
100
AcDbLine
 10
110.528
 20
4.176799999999979
 30
0.0
 11
112.291
 21
5.52619999999999
 31
0.0
  0
LINE
  5
138
330
1E
100
AcDbEntity
  8
0
100
AcDbLine
 10
112.4
 20
59.915
 30
0.0
 11
114.2
 21
59.915
 31
0.0
  0
LINE
  5
139
330
1E
100
AcDbEntity
  8
0
100
AcDbLine
 10
112.291
 20
5.52619999999999
 30
0.0
 11
114.1289999999999
 21
6.72559999999999
 31
0.0
  0
LINE
  5
13C
330
1E
100
AcDbEntity
  8
0
100
AcDbLine
 10
113.2
 20
59.915
 30
0.0
 11
115.7
 21
59.915
 31
0.0
  0
LINE
  5
13D
330
1E
100
AcDbEntity
  8
0
100
AcDbLine
 10
115.7
 20
59.915
 30
0.0
 11
117.9
 21
59.915
 31
0.0
  0
LINE
  5
13E
330
1E
100
AcDbEntity
  8
0
100
AcDbLine
 10
114.2
 20
59.915
 30
0.0
 11
115.7999999999999
 21
59.915
 31
0.0
  0
LINE
  5
13F
330
1E
100
AcDbEntity
  8
0
100
AcDbLine
 10
114.1289999999999
 20
6.72559999999999
 30
0.0
 11
115.9299999999999
 21
7.924999999999999
 31
0.0
  0
LINE
  5
140
330
1E
100
AcDbEntity
  8
0
100
AcDbLine
 10
115.7999999999999
 20
59.915
 30
0.0
 11
117.0
 21
59.915
 31
0.0
  0
LINE
  5
141
330
1E
100
AcDbEntity
  8
0
100
AcDbLine
 10
115.9299999999999
 20
7.924999999999999
 30
0.0
 11
117.0179999999999
 21
8.97449999999999
 31
0.0
  0
LINE
  5
142
330
1E
100
AcDbEntity
  8
0
100
AcDbLine
 10
117.0
 20
59.915
 30
0.0
 11
117.7
 21
59.915
 31
0.0
  0
LINE
  5
143
330
1E
100
AcDbEntity
  8
0
100
AcDbLine
 10
117.0179999999999
 20
8.97449999999999
 30
0.0
 11
117.731
 21
9.6867
 31
0.0
  0
LINE
  5
144
330
1E
100
AcDbEntity
  8
0
100
AcDbLine
 10
113.776
 20
88.35886999999999
 30
0.0
 11
116.792
 21
88.78569
 31
0.0
  0
LINE
  5
145
330
1E
100
AcDbEntity
  8
0
100
AcDbLine
 10
116.792
 20
88.78569
 30
0.0
 11
119.4439999999999
 21
89.47933
 31
0.0
  0
LINE
  5
146
330
1E
100
AcDbEntity
  8
0
100
AcDbLine
 10
117.7
 20
59.915
 30
0.0
 11
118.0
 21
59.915
 31
0.0
  0
LINE
  5
147
330
1E
100
AcDbEntity
  8
0
100
AcDbLine
 10
118.0
 20
9.915000000000009
 30
0.0
 11
118.0
 21
59.915
 31
0.0
  0
LINE
  5
148
330
1E
100
AcDbEntity
  8
0
100
AcDbLine
 10
117.9
 20
59.915
 30
0.0
 11
119.5999999999999
 21
59.915
 31
0.0
  0
LINE
  5
149
330
1E
100
AcDbEntity
  8
0
100
AcDbLine
 10
119.5999999999999
 20
59.915
 30
0.0
 11
120.5999999999999
 21
59.915
 31
0.0
  0
LINE
  5
14A
330
1E
100
AcDbEntity
  8
0
100
AcDbLine
 10
120.5999999999999
 20
59.915
 30
0.0
 11
121.0
 21
59.915
 31
0.0
  0
LINE
  5
14B
330
1E
100
AcDbEntity
  8
0
100
AcDbLine
 10
121.0
 20
59.915
 30
0.0
 11
122.0
 21
89.91502
 31
0.0
  0
LINE
  5
14C
330
1E
100
AcDbEntity
  8
0
100
AcDbLine
 10
119.4439999999999
 20
89.47933
 30
0.0
 11
121.472
 21
90.38639000000001
 31
0.0
  0
LINE
  5
14D
330
1E
100
AcDbEntity
  8
0
100
AcDbLine
 10
120.4181134213829
 20
89.91502
 30
0.0
 11
120.5
 21
89.91502
 31
0.0
  0
LINE
  5
14E
330
1E
100
AcDbEntity
  8
0
100
AcDbLine
 10
120.5
 20
89.91502
 30
0.0
 11
121.5999999999999
 21
89.91502
 31
0.0
  0
LINE
  5
14F
330
1E
100
AcDbEntity
  8
0
100
AcDbLine
 10
118.0
 20
59.915
 30
0.0
 11
118.0
 21
9.915000000000009
 31
0.0
  0
LINE
  5
150
330
1E
100
AcDbEntity
  8
0
100
AcDbLine
 10
118.0
 20
59.915
 30
0.0
 11
119.5999999999999
 21
59.915
 31
0.0
  0
LINE
  5
151
330
1E
100
AcDbEntity
  8
0
100
AcDbLine
 10
117.731
 20
9.6867
 30
0.0
 11
118.0
 21
9.915000000000009
 31
0.0
  0
LINE
  5
152
330
1E
100
AcDbEntity
  8
0
100
AcDbLine
 10
121.222999536966
 20
90.27502
 30
0.0
 11
121.5
 21
90.27502
 31
0.0
  0
LINE
  5
153
330
1E
100
AcDbEntity
  8
0
100
AcDbLine
 10
194.629
 20
81.38557
 30
0.0
 11
203.149
 21
84.83414000000001
 31
0.0
  0
LINE
  5
154
330
1E
100
AcDbEntity
  8
0
100
AcDbLine
 10
185.5
 20
80.067
 30
0.0
 11
194.629
 21
81.38557
 31
0.0
  0
LINE
  5
155
330
1E
100
AcDbEntity
  8
0
100
AcDbLine
 10
203.149
 20
84.83414000000001
 30
0.0
 11
210.5529999999999
 21
90.5141
 31
0.0
  0
LINE
  5
156
330
1E
100
AcDbEntity
  8
0
100
AcDbLine
 10
167.8509999999999
 20
84.83414000000001
 30
0.0
 11
176.3709999999999
 21
81.38557
 31
0.0
  0
LINE
  5
157
330
1E
100
AcDbEntity
  8
0
100
AcDbLine
 10
176.3709999999999
 20
81.38557
 30
0.0
 11
185.5
 21
80.067
 31
0.0
  0
LINE
  5
158
330
1E
100
AcDbEntity
  8
0
100
AcDbLine
 10
121.5999999999999
 20
89.91502
 30
0.0
 11
122.0
 21
89.91502
 31
0.0
  0
LINE
  5
159
330
1E
100
AcDbEntity
  8
0
100
AcDbLine
 10
121.472
 20
90.38639000000001
 30
0.0
 11
122.72
 21
91.4179
 31
0.0
  0
LINE
  5
15A
330
1E
100
AcDbEntity
  8
0
100
AcDbLine
 10
121.5
 20
90.27502
 30
0.0
 11
121.5
 21
90.40953285256408
 31
0.0
  0
LINE
  5
15B
330
1E
100
AcDbEntity
  8
0
100
AcDbLine
 10
121.236
 20
89.91502
 30
0.0
 11
121.5
 21
90.27502
 31
0.0
  0
LINE
  5
15C
330
1E
100
AcDbEntity
  8
0
100
AcDbLine
 10
122.72
 20
91.4179
 30
0.0
 11
123.032
 21
91.96389999999999
 31
0.0
  0
LINE
  5
15D
330
1E
100
AcDbEntity
  8
0
100
AcDbLine
 10
122.72
 20
91.4179
 30
0.0
 11
123.1879999999999
 21
92.5384
 31
0.0
  0
LINE
  5
15E
330
1E
100
AcDbEntity
  8
0
100
AcDbLine
 10
123.032
 20
91.96389999999999
 30
0.0
 11
123.5
 21
93.10219999999999
 31
0.0
  0
LINE
  5
15F
330
1E
100
AcDbEntity
  8
0
100
AcDbLine
 10
113.776
 20
96.71790000000001
 30
0.0
 11
116.792
 21
96.29100000000001
 31
0.0
  0
LINE
  5
160
330
1E
100
AcDbEntity
  8
0
100
AcDbLine
 10
116.792
 20
96.29100000000001
 30
0.0
 11
119.4439999999999
 21
95.59739999999999
 31
0.0
  0
LINE
  5
161
330
1E
100
AcDbEntity
  8
0
100
AcDbLine
 10
119.4439999999999
 20
95.59739999999999
 30
0.0
 11
121.472
 21
94.6903
 31
0.0
  0
LINE
  5
162
330
1E
100
AcDbEntity
  8
0
100
AcDbLine
 10
121.472
 20
94.6903
 30
0.0
 11
122.72
 21
93.6588
 31
0.0
  0
LINE
  5
163
330
1E
100
AcDbEntity
  8
0
100
AcDbLine
 10
122.72
 20
93.6588
 30
0.0
 11
123.1879999999999
 21
92.5384
 31
0.0
  0
LINE
  5
164
330
1E
100
AcDbEntity
  8
0
100
AcDbLine
 10
123.5
 20
93.10219999999999
 30
0.0
 11
123.5
 21
101.9352999999999
 31
0.0
  0
LINE
  5
165
330
1E
100
AcDbEntity
  8
0
100
AcDbLine
 10
155.0365666031899
 20
97.56700000000002
 30
0.0
 11
160.447
 21
90.5141
 31
0.0
  0
LINE
  5
166
330
1E
100
AcDbEntity
  8
0
100
AcDbLine
 10
160.447
 20
90.5141
 30
0.0
 11
167.8509999999999
 21
84.83414000000001
 31
0.0
  0
LINE
  5
167
330
1E
100
AcDbEntity
  8
0
100
AcDbLine
 10
123.5
 20
100.760287340366
 30
0.0
 11
124.137
 21
101.3257
 31
0.0
  0
LINE
  5
168
330
1E
100
AcDbEntity
  8
0
100
AcDbLine
 10
124.137
 20
101.3257
 30
0.0
 11
125.7979999999999
 21
103.6872999999999
 31
0.0
  0
LINE
  5
169
330
1E
100
AcDbEntity
  8
0
100
AcDbLine
 10
125.7979999999999
 20
103.6872999999999
 30
0.0
 11
128.0988502592649
 21
106.812334171149
 31
0.0
  0
LINE
  5
16A
330
1E
100
AcDbEntity
  8
0
100
AcDbLine
 10
123.5
 20
101.9352999999999
 30
0.0
 11
123.5
 21
93.10219999999999
 31
0.0
  0
LINE
  5
16B
330
1E
100
AcDbEntity
  8
0
100
AcDbLine
 10
123.7
 20
117.2112999999999
 30
0.0
 11
125.2999999999999
 21
117.5412
 31
0.0
  0
LINE
  5
16C
330
1E
100
AcDbEntity
  8
0
100
AcDbLine
 10
125.2999999999999
 20
117.5412
 30
0.0
 11
126.7
 21
117.8884999999999
 31
0.0
  0
LINE
  5
16D
330
1E
100
AcDbEntity
  8
0
100
AcDbLine
 10
121.7999999999999
 20
116.9335
 30
0.0
 11
123.7
 21
117.2112999999999
 31
0.0
  0
LINE
  5
16E
330
1E
100
AcDbEntity
  8
0
100
AcDbLine
 10
119.7999999999999
 20
116.6903999999999
 30
0.0
 11
121.7999999999999
 21
116.9335
 31
0.0
  0
LINE
  5
16F
330
1E
100
AcDbEntity
  8
0
100
AcDbLine
 10
117.5999999999999
 20
116.5167
 30
0.0
 11
119.7999999999999
 21
116.6903999999999
 31
0.0
  0
LINE
  5
170
330
1E
100
AcDbEntity
  8
0
100
AcDbLine
 10
115.3
 20
116.3777999999999
 30
0.0
 11
117.5999999999999
 21
116.5167
 31
0.0
  0
LINE
  5
171
330
1E
100
AcDbEntity
  8
0
100
AcDbLine
 10
112.9
 20
116.2909999999999
 30
0.0
 11
115.3
 21
116.3777999999999
 31
0.0
  0
LINE
  5
172
330
1E
100
AcDbEntity
  8
0
100
AcDbLine
 10
126.7
 20
117.8884999999999
 30
0.0
 11
127.7
 21
118.2706
 31
0.0
  0
LINE
  5
173
330
1E
100
AcDbEntity
  8
0
100
AcDbLine
 10
127.7
 20
118.2706
 30
0.0
 11
128.4999999999999
 21
118.67
 31
0.0
  0
LINE
  5
174
330
1E
100
AcDbEntity
  8
0
100
AcDbLine
 10
128.4999999999999
 20
118.67
 30
0.0
 11
129.0
 21
119.0866999999999
 31
0.0
  0
LINE
  5
175
330
1E
100
AcDbEntity
  8
0
100
AcDbLine
 10
129.1999999999999
 20
119.5035
 30
0.0
 11
135.697
 21
136.3877999999999
 31
0.0
  0
LINE
  5
176
330
1E
100
AcDbEntity
  8
0
100
AcDbLine
 10
129.0
 20
119.0866999999999
 30
0.0
 11
129.1999999999999
 21
119.5035
 31
0.0
  0
LINE
  5
177
330
1E
100
AcDbEntity
  8
0
100
AcDbLine
 10
117.5
 20
124.669857142857
 30
0.0
 11
117.5
 21
131.4208999999999
 31
0.0
  0
LINE
  5
178
330
1E
100
AcDbEntity
  8
0
100
AcDbLine
 10
117.5
 20
131.4208999999999
 30
0.0
 11
118.3
 21
131.4208999999999
 31
0.0
  0
LINE
  5
179
330
1E
100
AcDbEntity
  8
0
100
AcDbLine
 10
117.5
 20
131.4208999999999
 30
0.0
 11
117.5
 21
124.669857142857
 31
0.0
  0
LINE
  5
17A
330
1E
100
AcDbEntity
  8
0
100
AcDbLine
 10
119.1999999999999
 20
131.4208999999999
 30
0.0
 11
119.5
 21
131.4208999999999
 31
0.0
  0
LINE
  5
17B
330
1E
100
AcDbEntity
  8
0
100
AcDbLine
 10
119.5
 20
131.4208999999999
 30
0.0
 11
119.5
 21
148.4461
 31
0.0
  0
LINE
  5
17C
330
1E
100
AcDbEntity
  8
0
100
AcDbLine
 10
118.3
 20
131.4208999999999
 30
0.0
 11
119.1999999999999
 21
131.4208999999999
 31
0.0
  0
LINE
  5
17D
330
1E
100
AcDbEntity
  8
0
100
AcDbLine
 10
116.86
 20
131.4208999999999
 30
0.0
 11
118.3
 21
131.4208999999999
 31
0.0
  0
LINE
  5
17E
330
1E
100
AcDbEntity
  8
0
100
AcDbLine
 10
115.0
 20
131.4208999999999
 30
0.0
 11
116.86
 21
131.4208999999999
 31
0.0
  0
LINE
  5
17F
330
1E
100
AcDbEntity
  8
0
100
AcDbLine
 10
112.84
 20
131.4208999999999
 30
0.0
 11
115.0
 21
131.4208999999999
 31
0.0
  0
LINE
  5
184
330
1E
100
AcDbEntity
  8
0
100
AcDbLine
 10
132.4999999999999
 20
135.107408163265
 30
0.0
 11
132.4999999999999
 21
160.5810999999999
 31
0.0
  0
LINE
  5
186
330
1E
100
AcDbEntity
  8
0
100
AcDbLine
 10
158.1050538335829
 20
137.567
 30
0.0
 11
160.447
 21
140.6198999999999
 31
0.0
  0
LINE
  5
188
330
1E
100
AcDbEntity
  8
0
100
AcDbLine
 10
199.9
 20
137.567
 30
0.0
 11
200.4999999999999
 21
137.087
 31
0.0
  0
LINE
  5
18D
330
1E
100
AcDbEntity
  8
0
100
AcDbLine
 10
160.447
 20
140.6198999999999
 30
0.0
 11
167.8509999999999
 21
146.2999
 31
0.0
  0
LINE
  5
18E
330
1E
100
AcDbEntity
  8
0
100
AcDbLine
 10
112.84
 20
148.4461
 30
0.0
 11
115.0
 21
148.4461
 31
0.0
  0
LINE
  5
18F
330
1E
100
AcDbEntity
  8
0
100
AcDbLine
 10
113.2679999999999
 20
158.5409
 30
0.0
 11
115.941
 21
158.6403999999999
 31
0.0
  0
LINE
  5
190
330
1E
100
AcDbEntity
  8
0
100
AcDbLine
 10
115.0
 20
148.4461
 30
0.0
 11
116.86
 21
148.4461
 31
0.0
  0
LINE
  5
191
330
1E
100
AcDbEntity
  8
0
100
AcDbLine
 10
116.0439999999999
 20
157.5809
 30
0.0
 11
121.1479999999999
 21
157.9475999999999
 31
0.0
  0
LINE
  5
192
330
1E
100
AcDbEntity
  8
0
100
AcDbLine
 10
118.3
 20
148.4461
 30
0.0
 11
119.1999999999999
 21
148.4461
 31
0.0
  0
LINE
  5
193
330
1E
100
AcDbEntity
  8
0
100
AcDbLine
 10
118.3
 20
149.1772
 30
0.0
 11
119.5
 21
148.4461
 31
0.0
  0
LINE
  5
194
330
1E
100
AcDbEntity
  8
0
100
AcDbLine
 10
116.86
 20
148.4461
 30
0.0
 11
118.3
 21
148.4461
 31
0.0
  0
LINE
  5
195
330
1E
100
AcDbEntity
  8
0
100
AcDbLine
 10
116.132
 20
156.8983
 30
0.0
 11
121.412
 21
157.2651
 31
0.0
  0
LINE
  5
196
330
1E
100
AcDbEntity
  8
0
100
AcDbLine
 10
118.5179999999999
 20
158.7895
 30
0.0
 11
121.0
 21
158.9884
 31
0.0
  0
LINE
  5
197
330
1E
100
AcDbEntity
  8
0
100
AcDbLine
 10
115.941
 20
158.6403999999999
 30
0.0
 11
118.5179999999999
 21
158.7895
 31
0.0
  0
LINE
  5
198
330
1E
100
AcDbEntity
  8
0
100
AcDbLine
 10
113.4039999999999
 20
159.8705999999999
 30
0.0
 11
116.132
 21
159.9622
 31
0.0
  0
LINE
  5
199
330
1E
100
AcDbEntity
  8
0
100
AcDbLine
 10
116.132
 20
159.9622
 30
0.0
 11
118.86
 21
160.1303
 31
0.0
  0
LINE
  5
19A
330
1E
100
AcDbEntity
  8
0
100
AcDbLine
 10
119.5
 20
148.4461
 30
0.0
 11
119.5
 21
131.4208999999999
 31
0.0
  0
LINE
  5
19B
330
1E
100
AcDbEntity
  8
0
100
AcDbLine
 10
119.1999999999999
 20
148.4461
 30
0.0
 11
119.5
 21
148.4461
 31
0.0
  0
LINE
  5
19C
330
1E
100
AcDbEntity
  8
0
100
AcDbLine
 10
121.1479999999999
 20
157.9475999999999
 30
0.0
 11
125.636
 21
158.5436
 31
0.0
  0
LINE
  5
19D
330
1E
100
AcDbEntity
  8
0
100
AcDbLine
 10
121.412
 20
157.2651
 30
0.0
 11
126.076
 21
157.8762999999999
 31
0.0
  0
LINE
  5
19E
330
1E
100
AcDbEntity
  8
0
100
AcDbLine
 10
123.2909999999999
 20
159.2701999999999
 30
0.0
 11
125.296
 21
159.5851999999999
 31
0.0
  0
LINE
  5
19F
330
1E
100
AcDbEntity
  8
0
100
AcDbLine
 10
121.0
 20
158.9884
 30
0.0
 11
123.2909999999999
 21
159.2701999999999
 31
0.0
  0
LINE
  5
1A0
330
1E
100
AcDbEntity
  8
0
100
AcDbLine
 10
118.86
 20
160.1303
 30
0.0
 11
121.412
 21
160.329
 31
0.0
  0
LINE
  5
1A1
330
1E
100
AcDbEntity
  8
0
100
AcDbLine
 10
121.412
 20
160.329
 30
0.0
 11
123.876
 21
160.6193
 31
0.0
  0
LINE
  5
1A2
330
1E
100
AcDbEntity
  8
0
100
AcDbLine
 10
125.636
 20
158.5436
 30
0.0
 11
129.0679999999999
 21
159.3229
 31
0.0
  0
LINE
  5
1A3
330
1E
100
AcDbEntity
  8
0
100
AcDbLine
 10
126.076
 20
157.8762999999999
 30
0.0
 11
129.596
 21
158.6862
 31
0.0
  0
LINE
  5
1A4
330
1E
100
AcDbEntity
  8
0
100
AcDbLine
 10
125.296
 20
159.5851999999999
 30
0.0
 11
127.109
 21
159.9331999999999
 31
0.0
  0
LINE
  5
1A5
330
1E
100
AcDbEntity
  8
0
100
AcDbLine
 10
127.109
 20
159.9331999999999
 30
0.0
 11
128.732
 21
160.3310999999999
 31
0.0
  0
LINE
  5
1A6
330
1E
100
AcDbEntity
  8
0
100
AcDbLine
 10
123.876
 20
160.6193
 30
0.0
 11
125.988
 21
160.9555
 31
0.0
  0
LINE
  5
1A7
330
1E
100
AcDbEntity
  8
0
100
AcDbLine
 10
125.988
 20
160.9555
 30
0.0
 11
127.9239999999999
 21
161.3223
 31
0.0
  0
LINE
  5
1A8
330
1E
100
AcDbEntity
  8
0
100
AcDbLine
 10
129.0679999999999
 20
159.3229
 30
0.0
 11
131.18
 21
160.2092
 31
0.0
  0
LINE
  5
1A9
330
1E
100
AcDbEntity
  8
0
100
AcDbLine
 10
129.596
 20
158.6862
 30
0.0
 11
131.708
 21
159.6031
 31
0.0
  0
LINE
  5
1AA
330
1E
100
AcDbEntity
  8
0
100
AcDbLine
 10
128.732
 20
160.3310999999999
 30
0.0
 11
129.877
 21
160.762
 31
0.0
  0
LINE
  5
1AB
330
1E
100
AcDbEntity
  8
0
100
AcDbLine
 10
129.877
 20
160.762
 30
0.0
 11
130.7359999999999
 21
161.2096
 31
0.0
  0
LINE
  5
1AC
330
1E
100
AcDbEntity
  8
0
100
AcDbLine
 10
130.7359999999999
 20
161.2096
 30
0.0
 11
131.309
 21
161.6737
 31
0.0
  0
LINE
  5
1AD
330
1E
100
AcDbEntity
  8
0
100
AcDbLine
 10
127.9239999999999
 20
161.3223
 30
0.0
 11
129.596
 21
161.7501
 31
0.0
  0
LINE
  5
1AE
330
1E
100
AcDbEntity
  8
0
100
AcDbLine
 10
129.596
 20
161.7501
 30
0.0
 11
130.74
 21
162.1933
 31
0.0
  0
LINE
  5
1AF
330
1E
100
AcDbEntity
  8
0
100
AcDbLine
 10
131.18
 20
160.2092
 30
0.0
 11
131.972
 21
161.1718999999999
 31
0.0
  0
LINE
  5
1B0
330
1E
100
AcDbEntity
  8
0
100
AcDbLine
 10
131.708
 20
159.6031
 30
0.0
 11
132.4999999999999
 21
160.5810999999999
 31
0.0
  0
LINE
  5
1B1
330
1E
100
AcDbEntity
  8
0
100
AcDbLine
 10
131.623279403745
 20
161.5957804520389
 30
0.0
 11
131.708
 21
161.559
 31
0.0
  0
LINE
  5
1B2
330
1E
100
AcDbEntity
  8
0
100
AcDbLine
 10
131.708
 20
161.559
 30
0.0
 11
132.4999999999999
 21
160.5810999999999
 31
0.0
  0
LINE
  5
1B3
330
1E
100
AcDbEntity
  8
0
100
AcDbLine
 10
131.4999999999999
 20
161.1718999999999
 30
0.0
 11
131.4999999999999
 21
162.5652132231399
 31
0.0
  0
LINE
  5
1B4
330
1E
100
AcDbEntity
  8
0
100
AcDbLine
 10
131.4999999999999
 20
161.7857515151519
 30
0.0
 11
131.708
 21
161.559
 31
0.0
  0
LINE
  5
1B5
330
1E
100
AcDbEntity
  8
0
100
AcDbLine
 10
131.4999999999999
 20
161.74563030303
 30
0.0
 11
131.972
 21
161.1718999999999
 31
0.0
  0
LINE
  5
1B6
330
1E
100
AcDbEntity
  8
0
100
AcDbLine
 10
131.4999999999999
 20
162.5652132231399
 30
0.0
 11
131.4999999999999
 21
162.1544
 31
0.0
  0
LINE
  5
1B7
330
1E
100
AcDbEntity
  8
0
100
AcDbLine
 10
131.4999999999999
 20
162.5652132231399
 30
0.0
 11
131.4999999999999
 21
161.1718999999999
 31
0.0
  0
LINE
  5
1B8
330
1E
100
AcDbEntity
  8
0
100
AcDbLine
 10
131.4999999999999
 20
162.1544
 30
0.0
 11
131.4999999999999
 21
162.5652132231399
 31
0.0
  0
LINE
  5
1B9
330
1E
100
AcDbEntity
  8
0
100
AcDbLine
 10
131.309
 20
161.6737
 30
0.0
 11
131.4999999999999
 21
162.1544
 31
0.0
  0
LINE
  5
1BA
330
1E
100
AcDbEntity
  8
0
100
AcDbLine
 10
130.74
 20
162.1933
 30
0.0
 11
131.708
 21
162.667
 31
0.0
  0
LINE
  5
1BB
330
1E
100
AcDbEntity
  8
0
100
AcDbLine
 10
131.708
 20
162.667
 30
0.0
 11
132.2359999999999
 21
163.1407
 31
0.0
  0
LINE
  5
1BC
330
1E
100
AcDbEntity
  8
0
100
AcDbLine
 10
132.4999999999999
 20
160.5810999999999
 30
0.0
 11
132.4999999999999
 21
137.567
 31
0.0
  0
LINE
  5
1BE
330
1E
100
AcDbEntity
  8
0
100
AcDbLine
 10
132.2359999999999
 20
163.1407
 30
0.0
 11
132.4999999999999
 21
163.645
 31
0.0
  0
LINE
  5
1BF
330
1E
100
AcDbEntity
  8
0
100
AcDbLine
 10
167.8509999999999
 20
146.2999
 30
0.0
 11
176.3709999999999
 21
149.7484
 31
0.0
  0
LINE
  5
1C0
330
1E
100
AcDbEntity
  8
0
100
AcDbLine
 10
194.629
 20
149.7484
 30
0.0
 11
203.149
 21
146.2999
 31
0.0
  0
LINE
  5
1C1
330
1E
100
AcDbEntity
  8
0
100
AcDbLine
 10
185.5
 20
151.067
 30
0.0
 11
194.629
 21
149.7484
 31
0.0
  0
LINE
  5
1C2
330
1E
100
AcDbEntity
  8
0
100
AcDbLine
 10
176.3709999999999
 20
149.7484
 30
0.0
 11
185.5
 21
151.067
 31
0.0
  0
LINE
  5
1C3
330
1E
100
AcDbEntity
  8
0
100
AcDbLine
 10
132.4999999999999
 20
137.567
 30
0.0
 11
199.9
 21
137.567
 31
0.0
  0
LINE
  5
1D2
330
1E
100
AcDbEntity
  8
0
100
AcDbLine
 10
123.5
 20
97.56700000000002
 30
0.0
 11
199.9
 21
97.56700000000002
 31
0.0
  0
LINE
  5
1D3
330
1E
100
AcDbEntity
  8
0
100
AcDbLine
 10
216.233
 20
97.9184
 30
0.0
 11
219.6809999999999
 21
106.4383999999999
 31
0.0
  0
LINE
  5
1D4
330
1E
100
AcDbEntity
  8
0
100
AcDbLine
 10
210.5529999999999
 20
90.5141
 30
0.0
 11
216.233
 21
97.9184
 31
0.0
  0
LINE
  5
1D5
330
1E
100
AcDbEntity
  8
0
100
AcDbLine
 10
200.4999999999999
 20
122.607
 30
0.0
 11
200.4999999999999
 21
127.247
 31
0.0
  0
LINE
  5
1D6
330
1E
100
AcDbEntity
  8
0
100
AcDbLine
 10
200.4999999999999
 20
122.607
 30
0.0
 11
200.4999999999999
 21
117.5669999999999
 31
0.0
  0
LINE
  5
1D7
330
1E
100
AcDbEntity
  8
0
100
AcDbLine
 10
200.4999999999999
 20
127.247
 30
0.0
 11
200.4999999999999
 21
131.3269999999999
 31
0.0
  0
LINE
  5
1D8
330
1E
100
AcDbEntity
  8
0
100
AcDbLine
 10
200.4999999999999
 20
127.247
 30
0.0
 11
200.4999999999999
 21
122.607
 31
0.0
  0
LINE
  5
1D9
330
1E
100
AcDbEntity
  8
0
100
AcDbLine
 10
200.4999999999999
 20
131.3269999999999
 30
0.0
 11
200.4999999999999
 21
134.447
 31
0.0
  0
LINE
  5
1DA
330
1E
100
AcDbEntity
  8
0
100
AcDbLine
 10
200.4999999999999
 20
131.3269999999999
 30
0.0
 11
200.4999999999999
 21
127.247
 31
0.0
  0
LINE
  5
1DB
330
1E
100
AcDbEntity
  8
0
100
AcDbLine
 10
200.4999999999999
 20
137.087
 30
0.0
 11
200.4999999999999
 21
136.367
 31
0.0
  0
LINE
  5
1DC
330
1E
100
AcDbEntity
  8
0
100
AcDbLine
 10
200.4999999999999
 20
134.447
 30
0.0
 11
200.4999999999999
 21
136.367
 31
0.0
  0
LINE
  5
1DD
330
1E
100
AcDbEntity
  8
0
100
AcDbLine
 10
200.4999999999999
 20
134.447
 30
0.0
 11
200.4999999999999
 21
131.3269999999999
 31
0.0
  0
LINE
  5
1DE
330
1E
100
AcDbEntity
  8
0
100
AcDbLine
 10
200.4999999999999
 20
136.367
 30
0.0
 11
200.4999999999999
 21
137.087
 31
0.0
  0
LINE
  5
1DF
330
1E
100
AcDbEntity
  8
0
100
AcDbLine
 10
200.4999999999999
 20
136.367
 30
0.0
 11
200.4999999999999
 21
134.447
 31
0.0
  0
LINE
  5
1E0
330
1E
100
AcDbEntity
  8
0
100
AcDbLine
 10
200.4999999999999
 20
117.5669999999999
 30
0.0
 11
200.4999999999999
 21
112.5269999999999
 31
0.0
  0
LINE
  5
1E1
330
1E
100
AcDbEntity
  8
0
100
AcDbLine
 10
200.4999999999999
 20
117.5669999999999
 30
0.0
 11
200.4999999999999
 21
122.607
 31
0.0
  0
LINE
  5
1E2
330
1E
100
AcDbEntity
  8
0
100
AcDbLine
 10
200.4999999999999
 20
112.5269999999999
 30
0.0
 11
200.4999999999999
 21
117.5669999999999
 31
0.0
  0
LINE
  5
1E3
330
1E
100
AcDbEntity
  8
0
100
AcDbLine
 10
200.4999999999999
 20
112.5269999999999
 30
0.0
 11
200.4999999999999
 21
107.8869999999999
 31
0.0
  0
LINE
  5
1E4
330
1E
100
AcDbEntity
  8
0
100
AcDbLine
 10
200.4999999999999
 20
107.8869999999999
 30
0.0
 11
200.4999999999999
 21
112.5269999999999
 31
0.0
  0
LINE
  5
1E5
330
1E
100
AcDbEntity
  8
0
100
AcDbLine
 10
200.4999999999999
 20
107.8869999999999
 30
0.0
 11
200.4999999999999
 21
103.807
 31
0.0
  0
LINE
  5
1E6
330
1E
100
AcDbEntity
  8
0
100
AcDbLine
 10
200.4999999999999
 20
103.807
 30
0.0
 11
200.4999999999999
 21
107.8869999999999
 31
0.0
  0
LINE
  5
1E7
330
1E
100
AcDbEntity
  8
0
100
AcDbLine
 10
200.4999999999999
 20
103.807
 30
0.0
 11
200.4999999999999
 21
100.687
 31
0.0
  0
LINE
  5
1E8
330
1E
100
AcDbEntity
  8
0
100
AcDbLine
 10
200.4999999999999
 20
100.687
 30
0.0
 11
200.4999999999999
 21
103.807
 31
0.0
  0
LINE
  5
1E9
330
1E
100
AcDbEntity
  8
0
100
AcDbLine
 10
200.4999999999999
 20
100.687
 30
0.0
 11
200.4999999999999
 21
98.76700000000001
 31
0.0
  0
LINE
  5
1EA
330
1E
100
AcDbEntity
  8
0
100
AcDbLine
 10
219.6809999999999
 20
106.4383999999999
 30
0.0
 11
221.0
 21
115.567
 31
0.0
  0
LINE
  5
1EB
330
1E
100
AcDbEntity
  8
0
100
AcDbLine
 10
219.6809999999999
 20
124.6955999999999
 30
0.0
 11
221.0
 21
115.567
 31
0.0
  0
LINE
  5
1EC
330
1E
100
AcDbEntity
  8
0
100
AcDbLine
 10
216.233
 20
133.2155999999999
 30
0.0
 11
219.6809999999999
 21
124.6955999999999
 31
0.0
  0
LINE
  5
1ED
330
1E
100
AcDbEntity
  8
0
100
AcDbLine
 10
210.5529999999999
 20
140.6198999999999
 30
0.0
 11
216.233
 21
133.2155999999999
 31
0.0
  0
LINE
  5
1EE
330
1E
100
AcDbEntity
  8
0
100
AcDbLine
 10
203.149
 20
146.2999
 30
0.0
 11
210.5529999999999
 21
140.6198999999999
 31
0.0
  0
LINE
  5
1EF
330
1E
100
AcDbEntity
  8
0
100
AcDbLine
 10
200.4999999999999
 20
98.76700000000001
 30
0.0
 11
200.4999999999999
 21
100.687
 31
0.0
  0
LINE
  5
1F0
330
1E
100
AcDbEntity
  8
0
100
AcDbLine
 10
200.4999999999999
 20
98.76700000000001
 30
0.0
 11
200.4999999999999
 21
98.04700000000002
 31
0.0
  0
LINE
  5
1F1
330
1E
100
AcDbEntity
  8
0
100
AcDbLine
 10
200.4999999999999
 20
98.04700000000002
 30
0.0
 11
200.4999999999999
 21
98.76700000000001
 31
0.0
  0
LINE
  5
1F3
330
1E
100
AcDbEntity
  8
0
100
AcDbLine
 10
199.9
 20
97.56700000000002
 30
0.0
 11
200.4999999999999
 21
98.04700000000002
 31
0.0
  0
LINE
  5
1F4
330
1E
100
AcDbEntity
  8
0
100
AcDbLine
 10
121.5
 20
90.40953285256408
 30
0.0
 11
121.5
 21
90.27502
 31
0.0
  0
LINE
  5
272
330
1E
100
AcDbEntity
  8
0
100
AcDbLine
 10
115.5238999999999
 20
198.1875999999999
 30
0.0
 11
110.4999999999999
 21
198.0075999999998
 31
0.0
  0
LINE
  5
273
330
1E
100
AcDbEntity
  8
0
100
AcDbLine
 10
92.2498
 20
202.0576
 30
0.0
 11
128.2374999999999
 21
202.0576
 31
0.0
  0
LINE
  5
274
330
1E
100
AcDbEntity
  8
0
100
AcDbLine
 10
110.4999999999999
 20
176.5425999999999
 30
0.0
 11
111.0119999999999
 21
176.4735999999999
 31
0.0
  0
LINE
  5
275
330
1E
100
AcDbEntity
  8
0
100
AcDbLine
 10
110.4999999999999
 20
172.6905999999999
 30
0.0
 11
111.0119999999999
 21
172.7605999999999
 31
0.0
  0
LINE
  5
276
330
1E
100
AcDbEntity
  8
0
100
AcDbLine
 10
96.40170814842656
 20
198.8542650356897
 30
0.0
 11
91.23959666800249
 21
199.4161022873682
 31
0.0
  0
LINE
  5
277
330
1E
100
AcDbEntity
  8
0
100
AcDbLine
 10
88.12738000000001
 20
192.7425999999999
 30
0.0
 11
88.49999999999999
 21
163.645
 31
0.0
  0
LINE
  5
278
330
1E
100
AcDbEntity
  8
0
100
AcDbLine
 10
87.94360000000001
 20
201.8626
 30
0.0
 11
88.02951
 21
197.6455999999999
 31
0.0
  0
LINE
  5
279
330
1E
100
AcDbEntity
  8
0
100
AcDbLine
 10
88.04748749782953
 20
197.5171535182659
 30
0.0
 11
88.11106999999999
 21
194.8575999999999
 31
0.0
  0
LINE
  5
27A
330
1E
100
AcDbEntity
  8
0
100
AcDbLine
 10
88.11106999999999
 20
194.8575999999999
 30
0.0
 11
88.12738000000001
 21
192.7425999999999
 31
0.0
  0
LINE
  5
27B
330
1E
100
AcDbEntity
  8
0
100
AcDbLine
 10
88.9689
 20
202.0546
 30
0.0
 11
92.0448
 21
202.0576
 31
0.0
  0
LINE
  5
27C
330
1E
100
AcDbEntity
  8
0
100
AcDbLine
 10
91.23959666800249
 20
199.4161022873682
 30
0.0
 11
87.99749361501516
 21
199.8045788405718
 31
0.0
  0
LINE
  5
27D
330
1E
100
AcDbEntity
  8
0
100
AcDbLine
 10
88.2512
 20
201.9976
 30
0.0
 11
88.9689
 21
202.0546
 31
0.0
  0
LINE
  5
27E
330
1E
100
AcDbEntity
  8
0
100
AcDbLine
 10
87.94360000000001
 20
201.8626
 30
0.0
 11
88.2512
 21
201.9976
 31
0.0
  0
LINE
  5
27F
330
1E
100
AcDbEntity
  8
0
100
AcDbLine
 10
92.0448
 20
202.0576
 30
0.0
 11
92.2498
 21
202.0576
 31
0.0
  0
LINE
  5
280
330
1E
100
AcDbEntity
  8
0
100
AcDbLine
 10
108.572
 20
175.1095999999999
 30
0.0
 11
108.7639999999999
 21
175.5715999999999
 31
0.0
  0
LINE
  5
281
330
1E
100
AcDbEntity
  8
0
100
AcDbLine
 10
108.572
 20
174.1236
 30
0.0
 11
108.7639999999999
 21
173.6616
 31
0.0
  0
LINE
  5
282
330
1E
100
AcDbEntity
  8
0
100
AcDbLine
 10
108.4999999999999
 20
174.6165999999998
 30
0.0
 11
108.572
 21
174.1236
 31
0.0
  0
LINE
  5
283
330
1E
100
AcDbEntity
  8
0
100
AcDbLine
 10
108.4999999999999
 20
174.6165999999998
 30
0.0
 11
108.572
 21
175.1095999999999
 31
0.0
  0
LINE
  5
284
330
1E
100
AcDbEntity
  8
0
100
AcDbLine
 10
109.508
 20
176.2886
 30
0.0
 11
109.9879999999999
 21
176.4735999999999
 31
0.0
  0
LINE
  5
285
330
1E
100
AcDbEntity
  8
0
100
AcDbLine
 10
109.508
 20
172.9455999999998
 30
0.0
 11
109.9879999999999
 21
172.7605999999999
 31
0.0
  0
LINE
  5
286
330
1E
100
AcDbEntity
  8
0
100
AcDbLine
 10
108.7639999999999
 20
173.6616
 30
0.0
 11
109.084
 21
173.2535999999998
 31
0.0
  0
LINE
  5
287
330
1E
100
AcDbEntity
  8
0
100
AcDbLine
 10
109.084
 20
173.2535999999998
 30
0.0
 11
109.508
 21
172.9455999999998
 31
0.0
  0
LINE
  5
288
330
1E
100
AcDbEntity
  8
0
100
AcDbLine
 10
108.7639999999999
 20
175.5715999999999
 30
0.0
 11
109.084
 21
175.9805999999999
 31
0.0
  0
LINE
  5
289
330
1E
100
AcDbEntity
  8
0
100
AcDbLine
 10
109.084
 20
175.9805999999999
 30
0.0
 11
109.508
 21
176.2886
 31
0.0
  0
LINE
  5
28A
330
1E
100
AcDbEntity
  8
0
100
AcDbLine
 10
109.9879999999999
 20
172.7605999999999
 30
0.0
 11
110.4999999999999
 21
172.6905999999999
 31
0.0
  0
LINE
  5
28B
330
1E
100
AcDbEntity
  8
0
100
AcDbLine
 10
109.9879999999999
 20
176.4735999999999
 30
0.0
 11
110.4999999999999
 21
176.5425999999999
 31
0.0
  0
LINE
  5
28C
330
1E
100
AcDbEntity
  8
0
100
AcDbLine
 10
100.7597999999999
 20
198.4955999999998
 30
0.0
 11
103.0154
 21
198.3245999999999
 31
0.0
  0
LINE
  5
28D
330
1E
100
AcDbEntity
  8
0
100
AcDbLine
 10
100.7597999999999
 20
198.4955999999998
 30
0.0
 11
96.40170814842656
 21
198.8542650356897
 31
0.0
  0
LINE
  5
28E
330
1E
100
AcDbEntity
  8
0
100
AcDbLine
 10
105.4761
 20
198.1875999999999
 30
0.0
 11
110.4999999999999
 21
198.0075999999998
 31
0.0
  0
LINE
  5
28F
330
1E
100
AcDbEntity
  8
0
100
AcDbLine
 10
103.0154
 20
198.3245999999999
 30
0.0
 11
105.4761
 21
198.1875999999999
 31
0.0
  0
LINE
  5
290
330
1E
100
AcDbEntity
  8
0
100
AcDbLine
 10
124.5982918515734
 20
198.8542650356897
 30
0.0
 11
129.7604033319975
 21
199.4161022873682
 31
0.0
  0
LINE
  5
291
330
1E
100
AcDbEntity
  8
0
100
AcDbLine
 10
112.236
 20
175.5715999999999
 30
0.0
 11
112.4279999999999
 21
175.1095999999999
 31
0.0
  0
LINE
  5
292
330
1E
100
AcDbEntity
  8
0
100
AcDbLine
 10
112.236
 20
173.6616
 30
0.0
 11
112.4279999999999
 21
174.1236
 31
0.0
  0
LINE
  5
293
330
1E
100
AcDbEntity
  8
0
100
AcDbLine
 10
111.0119999999999
 20
176.4735999999999
 30
0.0
 11
111.4919999999999
 21
176.2886
 31
0.0
  0
LINE
  5
294
330
1E
100
AcDbEntity
  8
0
100
AcDbLine
 10
111.0119999999999
 20
172.7605999999999
 30
0.0
 11
111.4919999999999
 21
172.9455999999998
 31
0.0
  0
LINE
  5
295
330
1E
100
AcDbEntity
  8
0
100
AcDbLine
 10
111.9159999999999
 20
173.2535999999998
 30
0.0
 11
112.236
 21
173.6616
 31
0.0
  0
LINE
  5
296
330
1E
100
AcDbEntity
  8
0
100
AcDbLine
 10
111.4919999999999
 20
172.9455999999998
 30
0.0
 11
111.9159999999999
 21
173.2535999999998
 31
0.0
  0
LINE
  5
297
330
1E
100
AcDbEntity
  8
0
100
AcDbLine
 10
111.9159999999999
 20
175.9805999999999
 30
0.0
 11
112.236
 21
175.5715999999999
 31
0.0
  0
LINE
  5
298
330
1E
100
AcDbEntity
  8
0
100
AcDbLine
 10
111.4919999999999
 20
176.2886
 30
0.0
 11
111.9159999999999
 21
175.9805999999999
 31
0.0
  0
LINE
  5
299
330
1E
100
AcDbEntity
  8
0
100
AcDbLine
 10
112.4279999999999
 20
174.1236
 30
0.0
 11
112.5
 21
174.6165999999998
 31
0.0
  0
LINE
  5
29A
330
1E
100
AcDbEntity
  8
0
100
AcDbLine
 10
112.4279999999999
 20
175.1095999999999
 30
0.0
 11
112.5
 21
174.6165999999998
 31
0.0
  0
LINE
  5
29B
330
1E
100
AcDbEntity
  8
0
100
AcDbLine
 10
120.2401999999999
 20
198.4955999999998
 30
0.0
 11
117.9845999999999
 21
198.3245999999999
 31
0.0
  0
LINE
  5
29C
330
1E
100
AcDbEntity
  8
0
100
AcDbLine
 10
117.9845999999999
 20
198.3245999999999
 30
0.0
 11
115.5238999999999
 21
198.1875999999999
 31
0.0
  0
LINE
  5
29D
330
1E
100
AcDbEntity
  8
0
100
AcDbLine
 10
120.2401999999999
 20
198.4955999999998
 30
0.0
 11
124.5982918515734
 21
198.8542650356897
 31
0.0
  0
LINE
  5
29E
330
1E
100
AcDbEntity
  8
0
100
AcDbLine
 10
132.4999999999999
 20
163.645
 30
0.0
 11
132.8726
 21
192.7425999999999
 31
0.0
  0
LINE
  5
29F
330
1E
100
AcDbEntity
  8
0
100
AcDbLine
 10
132.9704999999999
 20
197.6455999999999
 30
0.0
 11
133.0564
 21
201.8626
 31
0.0
  0
LINE
  5
2A0
330
1E
100
AcDbEntity
  8
0
100
AcDbLine
 10
132.8888999999999
 20
194.8575999999999
 30
0.0
 11
132.952487376507
 21
197.5168810294429
 31
0.0
  0
LINE
  5
2A1
330
1E
100
AcDbEntity
  8
0
100
AcDbLine
 10
132.8726
 20
192.7425999999999
 30
0.0
 11
132.8888999999999
 21
194.8575999999999
 31
0.0
  0
LINE
  5
2A2
330
1E
100
AcDbEntity
  8
0
100
AcDbLine
 10
128.9552
 20
202.0576
 30
0.0
 11
132.0311
 21
202.0546
 31
0.0
  0
LINE
  5
2A3
330
1E
100
AcDbEntity
  8
0
100
AcDbLine
 10
128.2374999999999
 20
202.0576
 30
0.0
 11
128.7502
 21
202.0576
 31
0.0
  0
LINE
  5
2A4
330
1E
100
AcDbEntity
  8
0
100
AcDbLine
 10
128.7502
 20
202.0576
 30
0.0
 11
128.9552
 21
202.0576
 31
0.0
  0
LINE
  5
2A5
330
1E
100
AcDbEntity
  8
0
100
AcDbLine
 10
129.7604033319975
 20
199.4161022873682
 30
0.0
 11
133.0025063849848
 21
199.8045788405718
 31
0.0
  0
LINE
  5
2A6
330
1E
100
AcDbEntity
  8
0
100
AcDbLine
 10
132.0311
 20
202.0546
 30
0.0
 11
132.7488
 21
201.9976
 31
0.0
  0
LINE
  5
2A7
330
1E
100
AcDbEntity
  8
0
100
AcDbLine
 10
132.7488
 20
201.9976
 30
0.0
 11
133.0564
 21
201.8626
 31
0.0
  0
ENDSEC
  0
SECTION
  2
OBJECTS
  0
DICTIONARY
  5
C
330
0
100
AcDbDictionary
281
     1
  3
ACAD_GROUP
350
D
  3
ACAD_LAYOUT
350
19
  3
ACAD_MLINESTYLE
350
16
  3
ACAD_PLOTSETTINGS
350
18
  3
ACAD_PLOTSTYLENAME
350
E
  3
AcDbVariableDictionary
350
2A8
  0
DICTIONARY
  5
D
102
{ACAD_REACTORS
330
C
102
}
330
C
100
AcDbDictionary
281
     1
  0
DICTIONARY
  5
19
102
{ACAD_REACTORS
330
C
102
}
330
C
100
AcDbDictionary
281
     1
  3
Layout1
350
1D
  3
Model
350
21
  0
DICTIONARY
  5
16
102
{ACAD_REACTORS
330
C
102
}
330
C
100
AcDbDictionary
281
     1
  3
Standard
350
17
  0
DICTIONARY
  5
18
102
{ACAD_REACTORS
330
C
102
}
330
C
100
AcDbDictionary
281
     1
  0
ACDBDICTIONARYWDFLT
  5
E
102
{ACAD_REACTORS
330
C
102
}
330
C
100
AcDbDictionary
281
     1
  3
Normal
350
F
100
AcDbDictionaryWithDefault
340
F
  0
DICTIONARY
  5
2A8
102
{ACAD_REACTORS
330
C
102
}
330
C
100
AcDbDictionary
281
     1
  3
DIMASSOC
350
2A9
  0
LAYOUT
  5
1D
102
{ACAD_REACTORS
330
19
102
}
330
19
100
AcDbPlotSettings
  1

  2
hp deskjet 980c series
  4

  6

 40
0.0
 41
0.0
 42
0.0
 43
0.0
 44
0.0
 45
0.0
 46
0.0
 47
0.0
 48
0.0
 49
0.0
140
0.0
141
0.0
142
1.0
143
1.0
 70
   688
 72
     0
 73
     0
 74
     5
  7

 75
    16
147
1.0
148
0.0
149
0.0
100
AcDbLayout
  1
Layout1
 70
     1
 71
     1
 10
0.0
 20
0.0
 11
12.0
 21
9.0
 12
0.0
 22
0.0
 32
0.0
 14
1.000000000000000E+20
 24
1.000000000000000E+20
 34
1.000000000000000E+20
 15
-1.000000000000000E+20
 25
-1.000000000000000E+20
 35
-1.000000000000000E+20
146
0.0
 13
0.0
 23
0.0
 33
0.0
 16
1.0
 26
0.0
 36
0.0
 17
0.0
 27
1.0
 37
0.0
 76
     0
330
1A
  0
LAYOUT
  5
21
102
{ACAD_REACTORS
330
19
102
}
330
19
100
AcDbPlotSettings
  1

  2
hp deskjet 980c series
  4

  6

 40
0.0
 41
0.0
 42
0.0
 43
0.0
 44
0.0
 45
0.0
 46
0.0
 47
0.0
 48
0.0
 49
0.0
140
0.0
141
0.0
142
1.0
143
1.0
 70
  1712
 72
     0
 73
     0
 74
     0
  7

 75
     0
147
1.0
148
0.0
149
0.0
100
AcDbLayout
  1
Model
 70
     1
 71
     0
 10
0.0
 20
0.0
 11
12.0
 21
9.0
 12
0.0
 22
0.0
 32
0.0
 14
0.0
 24
0.0
 34
0.0
 15
0.0
 25
0.0
 35
0.0
146
0.0
 13
0.0
 23
0.0
 33
0.0
 16
1.0
 26
0.0
 36
0.0
 17
0.0
 27
1.0
 37
0.0
 76
     0
330
1E
  0
MLINESTYLE
  5
17
102
{ACAD_REACTORS
330
16
102
}
330
16
100
AcDbMlineStyle
  2
STANDARD
 70
     0
  3

 62
   256
 51
90.0
 52
90.0
 71
     2
 49
0.5
 62
   256
  6
BYLAYER
 49
-0.5
 62
   256
  6
BYLAYER
  0
ACDBPLACEHOLDER
  5
F
102
{ACAD_REACTORS
330
E
102
}
330
E
  0
DICTIONARYVAR
  5
2A9
102
{ACAD_REACTORS
330
2A8
102
}
330
2A8
100
DictionaryVariables
280
     0
  1
1
  0
ENDSEC
  0
EOF
