  0
SECTION
  2
HEADER
  9
$ACADVER
  1
AC1015
  9
$ACADMAINTVER
 70
    13
  9
$DWGCODEPAGE
  3
ANSI_1252
  9
$INSBASE
 10
0.0
 20
0.0
 30
0.0
  9
$EXTMIN
 10
0.131910000000012
 20
-0.0841249999999945
 30
0.0
  9
$EXTMAX
 10
260.8680899999999
 20
82.08412499999999
 30
0.0
  9
$LIMMIN
 10
0.0
 20
0.0
  9
$LIMMAX
 10
12.0
 20
9.0
  9
$ORTHOMODE
 70
     0
  9
$REGENMODE
 70
     1
  9
$FILLMODE
 70
     1
  9
$QTEXTMODE
 70
     0
  9
$MIRRTEXT
 70
     1
  9
$LTSCALE
 40
1.0
  9
$ATTMODE
 70
     1
  9
$TEXTSIZE
 40
0.2
  9
$TRACEWID
 40
0.05
  9
$TEXTSTYLE
  7
Standard
  9
$CLAYER
  8
0
  9
$CELTYPE
  6
Continuous
  9
$CECOLOR
 62
   256
  9
$CELTSCALE
 40
1.0
  9
$DISPSILH
 70
     0
  9
$DIMSCALE
 40
1.0
  9
$DIMASZ
 40
0.18
  9
$DIMEXO
 40
0.0625
  9
$DIMDLI
 40
0.38
  9
$DIMRND
 40
0.0
  9
$DIMDLE
 40
0.0
  9
$DIMEXE
 40
0.18
  9
$DIMTP
 40
0.0
  9
$DIMTM
 40
0.0
  9
$DIMTXT
 40
0.18
  9
$DIMCEN
 40
0.09
  9
$DIMTSZ
 40
0.0
  9
$DIMTOL
 70
     0
  9
$DIMLIM
 70
     0
  9
$DIMTIH
 70
     1
  9
$DIMTOH
 70
     1
  9
$DIMSE1
 70
     0
  9
$DIMSE2
 70
     0
  9
$DIMTAD
 70
     0
  9
$DIMZIN
 70
     0
  9
$DIMBLK
  1

  9
$DIMASO
 70
     1
  9
$DIMSHO
 70
     1
  9
$DIMPOST
  1

  9
$DIMAPOST
  1

  9
$DIMALT
 70
     0
  9
$DIMALTD
 70
     2
  9
$DIMALTF
 40
25.4
  9
$DIMLFAC
 40
1.0
  9
$DIMTOFL
 70
     0
  9
$DIMTVP
 40
0.0
  9
$DIMTIX
 70
     0
  9
$DIMSOXD
 70
     0
  9
$DIMSAH
 70
     0
  9
$DIMBLK1
  1

  9
$DIMBLK2
  1

  9
$DIMSTYLE
  2
Standard
  9
$DIMCLRD
 70
     0
  9
$DIMCLRE
 70
     0
  9
$DIMCLRT
 70
     0
  9
$DIMTFAC
 40
1.0
  9
$DIMGAP
 40
0.09
  9
$DIMJUST
 70
     0
  9
$DIMSD1
 70
     0
  9
$DIMSD2
 70
     0
  9
$DIMTOLJ
 70
     1
  9
$DIMTZIN
 70
     0
  9
$DIMALTZ
 70
     0
  9
$DIMALTTZ
 70
     0
  9
$DIMUPT
 70
     0
  9
$DIMDEC
 70
     4
  9
$DIMTDEC
 70
     4
  9
$DIMALTU
 70
     2
  9
$DIMALTTD
 70
     2
  9
$DIMTXSTY
  7
Standard
  9
$DIMAUNIT
 70
     0
  9
$DIMADEC
 70
     0
  9
$DIMALTRND
 40
0.0
  9
$DIMAZIN
 70
     0
  9
$DIMDSEP
 70
    46
  9
$DIMATFIT
 70
     3
  9
$DIMFRAC
 70
     0
  9
$DIMLDRBLK
  1

  9
$DIMLUNIT
 70
     2
  9
$DIMLWD
 70
    -2
  9
$DIMLWE
 70
    -2
  9
$DIMTMOVE
 70
     0
  9
$LUNITS
 70
     2
  9
$LUPREC
 70
     4
  9
$SKETCHINC
 40
0.1
  9
$FILLETRAD
 40
0.0
  9
$AUNITS
 70
     0
  9
$AUPREC
 70
     0
  9
$MENU
  1
.
  9
$ELEVATION
 40
0.0
  9
$PELEVATION
 40
0.0
  9
$THICKNESS
 40
0.0
  9
$LIMCHECK
 70
     0
  9
$CHAMFERA
 40
0.0
  9
$CHAMFERB
 40
0.0
  9
$CHAMFERC
 40
0.0
  9
$CHAMFERD
 40
0.0
  9
$SKPOLY
 70
     0
  9
$TDCREATE
 40
2454780.710719942
  9
$TDUCREATE
 40
2454780.669053275
  9
$TDUPDATE
 40
2454780.712261285
  9
$TDUUPDATE
 40
2454780.670594618
  9
$TDINDWG
 40
0.0015415162
  9
$TDUSRTIMER
 40
0.0015415162
  9
$USRTIMER
 70
     1
  9
$ANGBASE
 50
0.0
  9
$ANGDIR
 70
     0
  9
$PDMODE
 70
     0
  9
$PDSIZE
 40
0.0
  9
$PLINEWID
 40
0.0
  9
$SPLFRAME
 70
     0
  9
$SPLINETYPE
 70
     6
  9
$SPLINESEGS
 70
     8
  9
$HANDSEED
  5
231
  9
$SURFTAB1
 70
     6
  9
$SURFTAB2
 70
     6
  9
$SURFTYPE
 70
     6
  9
$SURFU
 70
     6
  9
$SURFV
 70
     6
  9
$UCSBASE
  2

  9
$UCSNAME
  2

  9
$UCSORG
 10
0.0
 20
0.0
 30
0.0
  9
$UCSXDIR
 10
1.0
 20
0.0
 30
0.0
  9
$UCSYDIR
 10
0.0
 20
1.0
 30
0.0
  9
$UCSORTHOREF
  2

  9
$UCSORTHOVIEW
 70
     1
  9
$UCSORGTOP
 10
0.0
 20
0.0
 30
0.0
  9
$UCSORGBOTTOM
 10
0.0
 20
0.0
 30
0.0
  9
$UCSORGLEFT
 10
0.0
 20
0.0
 30
0.0
  9
$UCSORGRIGHT
 10
0.0
 20
0.0
 30
0.0
  9
$UCSORGFRONT
 10
0.0
 20
0.0
 30
0.0
  9
$UCSORGBACK
 10
0.0
 20
0.0
 30
0.0
  9
$PUCSBASE
  2

  9
$PUCSNAME
  2

  9
$PUCSORG
 10
0.0
 20
0.0
 30
0.0
  9
$PUCSXDIR
 10
1.0
 20
0.0
 30
0.0
  9
$PUCSYDIR
 10
0.0
 20
1.0
 30
0.0
  9
$PUCSORTHOREF
  2

  9
$PUCSORTHOVIEW
 70
     0
  9
$PUCSORGTOP
 10
0.0
 20
0.0
 30
0.0
  9
$PUCSORGBOTTOM
 10
0.0
 20
0.0
 30
0.0
  9
$PUCSORGLEFT
 10
0.0
 20
0.0
 30
0.0
  9
$PUCSORGRIGHT
 10
0.0
 20
0.0
 30
0.0
  9
$PUCSORGFRONT
 10
0.0
 20
0.0
 30
0.0
  9
$PUCSORGBACK
 10
0.0
 20
0.0
 30
0.0
  9
$USERI1
 70
     0
  9
$USERI2
 70
     0
  9
$USERI3
 70
     0
  9
$USERI4
 70
     0
  9
$USERI5
 70
     0
  9
$USERR1
 40
0.0
  9
$USERR2
 40
0.0
  9
$USERR3
 40
0.0
  9
$USERR4
 40
0.0
  9
$USERR5
 40
0.0
  9
$WORLDVIEW
 70
     1
  9
$SHADEDGE
 70
     3
  9
$SHADEDIF
 70
    70
  9
$TILEMODE
 70
     1
  9
$MAXACTVP
 70
    64
  9
$PINSBASE
 10
0.0
 20
0.0
 30
0.0
  9
$PLIMCHECK
 70
     0
  9
$PEXTMIN
 10
1.000000000000000E+20
 20
1.000000000000000E+20
 30
1.000000000000000E+20
  9
$PEXTMAX
 10
-1.000000000000000E+20
 20
-1.000000000000000E+20
 30
-1.000000000000000E+20
  9
$PLIMMIN
 10
0.0
 20
0.0
  9
$PLIMMAX
 10
12.0
 20
9.0
  9
$UNITMODE
 70
     0
  9
$VISRETAIN
 70
     1
  9
$PLINEGEN
 70
     0
  9
$PSLTSCALE
 70
     1
  9
$TREEDEPTH
 70
  3020
  9
$CMLSTYLE
  2
Standard
  9
$CMLJUST
 70
     0
  9
$CMLSCALE
 40
1.0
  9
$PROXYGRAPHICS
 70
     1
  9
$MEASUREMENT
 70
     0
  9
$CELWEIGHT
370
    -1
  9
$ENDCAPS
280
     0
  9
$JOINSTYLE
280
     0
  9
$LWDISPLAY
290
     0
  9
$INSUNITS
 70
     0
  9
$HYPERLINKBASE
  1

  9
$STYLESHEET
  1

  9
$XEDIT
290
     1
  9
$CEPSNTYPE
380
     0
  9
$PSTYLEMODE
290
     1
  9
$FINGERPRINTGUID
  2
{4A66A6CB-1CBF-4900-BDB2-84065CCBAC99}
  9
$VERSIONGUID
  2
{FC278189-11F3-4A3D-B8BD-BE2507C2ED09}
  9
$EXTNAMES
290
     1
  9
$PSVPSCALE
 40
0.0
  9
$OLESTARTUP
290
     0
  0
ENDSEC
  0
SECTION
  2
CLASSES
  0
CLASS
  1
ACDBDICTIONARYWDFLT
  2
AcDbDictionaryWithDefault
  3
AutoCAD 2000
 90
        0
280
     0
281
     0
  0
CLASS
  1
ACDBPLACEHOLDER
  2
AcDbPlaceHolder
  3
AutoCAD 2000
 90
        0
280
     0
281
     0
  0
CLASS
  1
LAYOUT
  2
AcDbLayout
  3
AutoCAD 2000
 90
        0
280
     0
281
     0
  0
CLASS
  1
DICTIONARYVAR
  2
AcDbDictionaryVar
  3
AutoCAD 2000
 90
        0
280
     0
281
     0
  0
ENDSEC
  0
SECTION
  2
TABLES
  0
TABLE
  2
VPORT
  5
8
330
0
100
AcDbSymbolTable
 70
     2
  0
VPORT
  5
230
330
8
100
AcDbSymbolTableRecord
100
AcDbViewportTableRecord
  2
*Active
 70
     0
 10
0.0
 20
0.0
 11
1.0
 21
1.0
 12
130.4999999999999
 22
41.0
 13
0.0
 23
0.0
 14
1.0
 24
1.0
 15
0.0
 25
0.0
 16
0.0
 26
0.0
 36
1.0
 17
0.0
 27
0.0
 37
0.0
 40
125.9317945032006
 41
2.078104993597951
 42
50.0
 43
0.0
 44
0.0
 50
0.0
 51
0.0
 71
     0
 72
   100
 73
     1
 74
     3
 75
     0
 76
     0
 77
     0
 78
     0
281
     0
 65
     1
110
0.0
120
0.0
130
0.0
111
1.0
121
0.0
131
0.0
112
0.0
122
1.0
132
0.0
 79
     1
146
0.0
  0
ENDTAB
  0
TABLE
  2
LTYPE
  5
5
330
0
100
AcDbSymbolTable
 70
     1
  0
LTYPE
  5
13
330
5
100
AcDbSymbolTableRecord
100
AcDbLinetypeTableRecord
  2
ByBlock
 70
     0
  3

 72
    65
 73
     0
 40
0.0
  0
LTYPE
  5
14
330
5
100
AcDbSymbolTableRecord
100
AcDbLinetypeTableRecord
  2
ByLayer
 70
     0
  3

 72
    65
 73
     0
 40
0.0
  0
LTYPE
  5
15
330
5
100
AcDbSymbolTableRecord
100
AcDbLinetypeTableRecord
  2
Continuous
 70
     0
  3
Solid line
 72
    65
 73
     0
 40
0.0
  0
ENDTAB
  0
TABLE
  2
LAYER
  5
2
330
0
100
AcDbSymbolTable
 70
     1
  0
LAYER
  5
10
330
2
100
AcDbSymbolTableRecord
100
AcDbLayerTableRecord
  2
0
 70
     0
 62
     7
  6
Continuous
370
    -3
390
F
  0
ENDTAB
  0
TABLE
  2
STYLE
  5
3
330
0
100
AcDbSymbolTable
 70
     1
  0
STYLE
  5
11
330
3
100
AcDbSymbolTableRecord
100
AcDbTextStyleTableRecord
  2
Standard
 70
     0
 40
0.0
 41
1.0
 50
0.0
 71
     0
 42
0.2
  3
txt
  4

  0
ENDTAB
  0
TABLE
  2
VIEW
  5
6
330
0
100
AcDbSymbolTable
 70
     0
  0
ENDTAB
  0
TABLE
  2
UCS
  5
7
330
0
100
AcDbSymbolTable
 70
     0
  0
ENDTAB
  0
TABLE
  2
APPID
  5
9
330
0
100
AcDbSymbolTable
 70
     1
  0
APPID
  5
12
330
9
100
AcDbSymbolTableRecord
100
AcDbRegAppTableRecord
  2
ACAD
 70
     0
  0
ENDTAB
  0
TABLE
  2
DIMSTYLE
  5
A
330
0
100
AcDbSymbolTable
 70
     1
100
AcDbDimStyleTable
 71
     0
  0
DIMSTYLE
105
227
330
A
100
AcDbSymbolTableRecord
100
AcDbDimStyleTableRecord
  2
Standard
 70
     0
340
11
  0
ENDTAB
  0
TABLE
  2
BLOCK_RECORD
  5
1
330
0
100
AcDbSymbolTable
 70
     0
  0
BLOCK_RECORD
  5
1E
330
1
100
AcDbSymbolTableRecord
100
AcDbBlockTableRecord
  2
*Model_Space
340
21
  0
BLOCK_RECORD
  5
1A
330
1
100
AcDbSymbolTableRecord
100
AcDbBlockTableRecord
  2
*Paper_Space
340
1D
  0
ENDTAB
  0
ENDSEC
  0
SECTION
  2
BLOCKS
  0
BLOCK
  5
1F
330
1E
100
AcDbEntity
  8
0
100
AcDbBlockBegin
  2
*Model_Space
 70
     0
 10
0.0
 20
0.0
 30
0.0
  3
*Model_Space
  1

  0
ENDBLK
  5
20
330
1E
100
AcDbEntity
  8
0
100
AcDbBlockEnd
  0
BLOCK
  5
1B
330
1A
100
AcDbEntity
 67
     1
  8
0
100
AcDbBlockBegin
  2
*Paper_Space
 70
     0
 10
0.0
 20
0.0
 30
0.0
  3
*Paper_Space
  1

  0
ENDBLK
  5
1C
330
1A
100
AcDbEntity
 67
     1
  8
0
100
AcDbBlockEnd
  0
ENDSEC
  0
SECTION
  2
ENTITIES
  0
LINE
  5
22
330
1E
100
AcDbEntity
  8
0
100
AcDbLine
 10
0.282650000000013
 20
18.63932499999999
 30
0.0
 11
1.17066000000001
 21
15.93822499999999
 31
0.0
  0
LINE
  5
23
330
1E
100
AcDbEntity
  8
0
100
AcDbLine
 10
0.131910000000012
 20
21.55712499999999
 30
0.0
 11
0.282650000000013
 21
18.63932499999999
 31
0.0
  0
LINE
  5
24
330
1E
100
AcDbEntity
  8
0
100
AcDbLine
 10
0.131910000000012
 20
21.55712499999999
 30
0.0
 11
0.282650000000013
 21
18.63932499999999
 31
0.0
  0
LINE
  5
25
330
1E
100
AcDbEntity
  8
0
100
AcDbLine
 10
0.131910000000012
 20
21.55712499999999
 30
0.0
 11
0.787020000000013
 21
24.404325
 31
0.0
  0
LINE
  5
26
330
1E
100
AcDbEntity
  8
0
100
AcDbLine
 10
0.787020000000013
 20
24.404325
 30
0.0
 11
2.130590000000009
 21
26.910225
 31
0.0
  0
LINE
  5
27
330
1E
100
AcDbEntity
  8
0
100
AcDbLine
 10
0.787020000000013
 20
24.404325
 30
0.0
 11
2.130590000000009
 21
26.910225
 31
0.0
  0
LINE
  5
28
330
1E
100
AcDbEntity
  8
0
100
AcDbLine
 10
0.282650000000013
 20
18.63932499999999
 30
0.0
 11
1.17066000000001
 21
15.93822499999999
 31
0.0
  0
LINE
  5
29
330
1E
100
AcDbEntity
  8
0
100
AcDbLine
 10
1.17066000000001
 20
15.93822499999999
 30
0.0
 11
2.677400000000009
 21
13.526495
 31
0.0
  0
LINE
  5
2A
330
1E
100
AcDbEntity
  8
0
100
AcDbLine
 10
2.130590000000009
 20
26.910225
 30
0.0
 11
2.639795253716859
 21
28.3319415110828
 31
0.0
  0
LINE
  5
2B
330
1E
100
AcDbEntity
  8
0
100
AcDbLine
 10
2.402110000000009
 20
17.454525
 30
0.0
 11
2.46377000000001
 21
16.260915
 31
0.0
  0
LINE
  5
2C
330
1E
100
AcDbEntity
  8
0
100
AcDbLine
 10
2.402110000000009
 20
17.454525
 30
0.0
 11
2.670110000000009
 21
18.61932499999999
 31
0.0
  0
LINE
  5
2D
330
1E
100
AcDbEntity
  8
0
100
AcDbLine
 10
2.670110000000009
 20
18.61932499999999
 30
0.0
 11
3.219750000000009
 21
19.64442499999999
 31
0.0
  0
LINE
  5
2E
330
1E
100
AcDbEntity
  8
0
100
AcDbLine
 10
2.46377000000001
 20
16.260915
 30
0.0
 11
2.827050000000009
 21
15.155895
 31
0.0
  0
LINE
  5
2F
330
1E
100
AcDbEntity
  8
0
100
AcDbLine
 10
2.677400000000009
 20
13.526495
 30
0.0
 11
4.790890000000009
 21
11.623855
 31
0.0
  0
LINE
  5
30
330
1E
100
AcDbEntity
  8
0
100
AcDbLine
 10
1.290860000000009
 20
32.435025
 30
0.0
 11
3.793490000000009
 21
24.822725
 31
0.0
  0
LINE
  5
31
330
1E
100
AcDbEntity
  8
0
100
AcDbLine
 10
0.8660400000000128
 20
40.657625
 30
0.0
 11
2.712260000000009
 21
48.681625
 31
0.0
  0
LINE
  5
32
330
1E
100
AcDbEntity
  8
0
100
AcDbLine
 10
0.8660400000000128
 20
40.657625
 30
0.0
 11
1.290860000000009
 21
32.435025
 31
0.0
  0
LINE
  5
33
330
1E
100
AcDbEntity
  8
0
100
AcDbLine
 10
1.290860000000009
 20
32.435025
 30
0.0
 11
3.793490000000009
 21
24.822725
 31
0.0
  0
LINE
  5
34
330
1E
100
AcDbEntity
  8
0
100
AcDbLine
 10
3.219750000000009
 20
19.64442499999999
 30
0.0
 11
3.998090000000009
 21
20.509025
 31
0.0
  0
LINE
  5
35
330
1E
100
AcDbEntity
  8
0
100
AcDbLine
 10
2.827050000000009
 20
15.155895
 30
0.0
 11
3.443450000000009
 21
14.169285
 31
0.0
  0
LINE
  5
36
330
1E
100
AcDbEntity
  8
0
100
AcDbLine
 10
3.443450000000009
 20
14.169285
 30
0.0
 11
4.307990000000009
 21
13.390935
 31
0.0
  0
LINE
  5
37
330
1E
100
AcDbEntity
  8
0
100
AcDbLine
 10
4.307990000000009
 20
13.390935
 30
0.0
 11
5.333190000000009
 21
12.841285
 31
0.0
  0
LINE
  5
38
330
1E
100
AcDbEntity
  8
0
100
AcDbLine
 10
5.333190000000009
 20
12.841285
 30
0.0
 11
6.497990000000009
 21
12.573285
 31
0.0
  0
LINE
  5
39
330
1E
100
AcDbEntity
  8
0
100
AcDbLine
 10
6.497990000000009
 20
12.573285
 30
0.0
 11
7.691590000000009
 21
12.634955
 31
0.0
  0
LINE
  5
3A
330
1E
100
AcDbEntity
  8
0
100
AcDbLine
 10
9.78319000000001
 20
13.614625
 30
0.0
 11
10.56158999999999
 21
14.479215
 31
0.0
  0
LINE
  5
3B
330
1E
100
AcDbEntity
  8
0
100
AcDbLine
 10
10.56158999999999
 20
14.479215
 30
0.0
 11
11.0231545652066
 21
15.34015552769569
 31
0.0
  0
LINE
  5
3C
330
1E
100
AcDbEntity
  8
0
100
AcDbLine
 10
8.796590000000009
 20
12.998235
 30
0.0
 11
9.78319000000001
 21
13.614625
 31
0.0
  0
LINE
  5
3D
330
1E
100
AcDbEntity
  8
0
100
AcDbLine
 10
7.691590000000009
 20
12.634955
 30
0.0
 11
8.796590000000009
 21
12.998235
 31
0.0
  0
LINE
  5
3E
330
1E
100
AcDbEntity
  8
0
100
AcDbLine
 10
7.296790000000009
 20
10.280285
 30
0.0
 11
10.14398999999999
 21
9.625175000000009
 31
0.0
  0
LINE
  5
3F
330
1E
100
AcDbEntity
  8
0
100
AcDbLine
 10
10.14398999999999
 20
9.625175000000009
 30
0.0
 11
13.06168999999999
 21
9.77591500000001
 31
0.0
  0
LINE
  5
40
330
1E
100
AcDbEntity
  8
0
100
AcDbLine
 10
4.790890000000009
 20
11.623855
 30
0.0
 11
7.296790000000009
 21
10.280285
 31
0.0
  0
LINE
  5
41
330
1E
100
AcDbEntity
  8
0
100
AcDbLine
 10
4.984690000000009
 20
21.12542499999999
 30
0.0
 11
5.912734732830149
 21
21.4305459515269
 31
0.0
  0
LINE
  5
42
330
1E
100
AcDbEntity
  8
0
100
AcDbLine
 10
3.998090000000009
 20
20.509025
 30
0.0
 11
4.984690000000009
 21
21.12542499999999
 31
0.0
  0
LINE
  5
43
330
1E
100
AcDbEntity
  8
0
100
AcDbLine
 10
8.039690000000009
 20
18.026025
 30
0.0
 11
13.99579
 21
12.664035
 31
0.0
  0
LINE
  5
44
330
1E
100
AcDbEntity
  8
0
100
AcDbLine
 10
3.793490000000009
 20
24.822725
 30
0.0
 11
8.039690000000009
 21
18.026025
 31
0.0
  0
LINE
  5
45
330
1E
100
AcDbEntity
  8
0
100
AcDbLine
 10
3.793490000000009
 20
24.822725
 30
0.0
 11
8.039690000000009
 21
18.026025
 31
0.0
  0
LINE
  5
46
330
1E
100
AcDbEntity
  8
0
100
AcDbLine
 10
2.712260000000009
 20
48.681625
 30
0.0
 11
6.498690000000009
 21
55.74372499999999
 31
0.0
  0
LINE
  5
47
330
1E
100
AcDbEntity
  8
0
100
AcDbLine
 10
6.498690000000009
 20
55.74372499999999
 30
0.0
 11
11.86069
 21
61.69982499999999
 31
0.0
  0
LINE
  5
48
330
1E
100
AcDbEntity
  8
0
100
AcDbLine
 10
29.08189
 20
7.031379000000009
 30
0.0
 11
37.30449
 21
7.456199000000009
 31
0.0
  0
LINE
  5
49
330
1E
100
AcDbEntity
  8
0
100
AcDbLine
 10
37.30449
 20
7.456199000000009
 30
0.0
 11
44.91679
 21
9.958795000000009
 31
0.0
  0
LINE
  5
4A
330
1E
100
AcDbEntity
  8
0
100
AcDbLine
 10
29.08189
 20
7.031379000000009
 30
0.0
 11
37.30449
 21
7.456199000000009
 31
0.0
  0
LINE
  5
4B
330
1E
100
AcDbEntity
  8
0
100
AcDbLine
 10
15.76278999999999
 20
10.66393499999999
 30
0.0
 11
17.2513453006644
 21
10.918525192344
 31
0.0
  0
LINE
  5
4C
330
1E
100
AcDbEntity
  8
0
100
AcDbLine
 10
13.06168999999999
 20
9.77591500000001
 30
0.0
 11
15.76278999999999
 21
10.66393499999999
 31
0.0
  0
LINE
  5
4D
330
1E
100
AcDbEntity
  8
0
100
AcDbLine
 10
13.99579
 20
12.664035
 30
0.0
 11
21.05789
 21
8.87759500000001
 31
0.0
  0
LINE
  5
51
330
1E
100
AcDbEntity
  8
0
100
AcDbLine
 10
28.25879
 20
36.30772499999999
 30
0.0
 11
28.79649
 21
35.443025
 31
0.0
  0
LINE
  5
53
330
1E
100
AcDbEntity
  8
0
100
AcDbLine
 10
27.95649
 20
37.265425
 30
0.0
 11
28.25879
 21
36.30772499999999
 31
0.0
  0
LINE
  5
54
330
1E
100
AcDbEntity
  8
0
100
AcDbLine
 10
27.90999
 20
38.291625
 30
0.0
 11
28.13399
 21
39.294125
 31
0.0
  0
LINE
  5
55
330
1E
100
AcDbEntity
  8
0
100
AcDbLine
 10
27.90999
 20
38.291625
 30
0.0
 11
27.95649
 21
37.265425
 31
0.0
  0
LINE
  5
56
330
1E
100
AcDbEntity
  8
0
100
AcDbLine
 10
28.13399
 20
39.294125
 30
0.0
 11
28.59799
 21
40.184825
 31
0.0
  0
LINE
  5
57
330
1E
100
AcDbEntity
  8
0
100
AcDbLine
 10
30.44539
 20
34.299325
 30
0.0
 11
31.44789
 21
34.075325
 31
0.0
  0
LINE
  5
58
330
1E
100
AcDbEntity
  8
0
100
AcDbLine
 10
31.44789
 20
34.075325
 30
0.0
 11
32.47409
 21
34.121825
 31
0.0
  0
LINE
  5
59
330
1E
100
AcDbEntity
  8
0
100
AcDbLine
 10
32.47409
 20
34.121825
 30
0.0
 11
33.43179
 21
34.42412499999999
 31
0.0
  0
LINE
  5
5A
330
1E
100
AcDbEntity
  8
0
100
AcDbLine
 10
31.53269
 20
35.044625
 30
0.0
 11
32.30229
 21
35.079425
 31
0.0
  0
LINE
  5
5B
330
1E
100
AcDbEntity
  8
0
100
AcDbLine
 10
30.78079
 20
35.212625
 30
0.0
 11
31.53269
 21
35.044625
 31
0.0
  0
LINE
  5
5C
330
1E
100
AcDbEntity
  8
0
100
AcDbLine
 10
32.30229
 20
35.079425
 30
0.0
 11
33.02059
 21
35.30622499999999
 31
0.0
  0
LINE
  5
60
330
1E
100
AcDbEntity
  8
0
100
AcDbLine
 10
33.02059
 20
35.30622499999999
 30
0.0
 11
33.66919
 21
35.709425
 31
0.0
  0
LINE
  5
63
330
1E
100
AcDbEntity
  8
0
100
AcDbLine
 10
29.55469
 20
34.763325
 30
0.0
 11
30.44539
 21
34.299325
 31
0.0
  0
LINE
  5
64
330
1E
100
AcDbEntity
  8
0
100
AcDbLine
 10
33.43179
 20
34.42412499999999
 30
0.0
 11
34.29649
 21
34.96182499999999
 31
0.0
  0
LINE
  5
65
330
1E
100
AcDbEntity
  8
0
100
AcDbLine
 10
34.29649
 20
34.96182499999999
 30
0.0
 11
34.97619
 21
35.72002499999999
 31
0.0
  0
LINE
  5
68
330
1E
100
AcDbEntity
  8
0
100
AcDbLine
 10
30.11279
 20
35.560625
 30
0.0
 11
30.78079
 21
35.212625
 31
0.0
  0
LINE
  5
69
330
1E
100
AcDbEntity
  8
0
100
AcDbLine
 10
33.66919
 20
35.709425
 30
0.0
 11
34.17889
 21
36.278125
 31
0.0
  0
LINE
  5
6B
330
1E
100
AcDbEntity
  8
0
100
AcDbLine
 10
28.79649
 20
35.443025
 30
0.0
 11
29.55469
 21
34.763325
 31
0.0
  0
LINE
  5
6F
330
1E
100
AcDbEntity
  8
0
100
AcDbLine
 10
29.14089
 20
36.718925
 30
0.0
 11
29.54409
 21
36.07032499999999
 31
0.0
  0
LINE
  5
71
330
1E
100
AcDbEntity
  8
0
100
AcDbLine
 10
28.91409
 20
37.437225
 30
0.0
 11
29.14089
 21
36.718925
 31
0.0
  0
LINE
  5
72
330
1E
100
AcDbEntity
  8
0
100
AcDbLine
 10
28.87929
 20
38.206825
 30
0.0
 11
29.04729
 21
38.958725
 31
0.0
  0
LINE
  5
73
330
1E
100
AcDbEntity
  8
0
100
AcDbLine
 10
28.87929
 20
38.206825
 30
0.0
 11
28.91409
 21
37.437225
 31
0.0
  0
LINE
  5
76
330
1E
100
AcDbEntity
  8
0
100
AcDbLine
 10
29.04729
 20
38.958725
 30
0.0
 11
29.39529
 21
39.626725
 31
0.0
  0
LINE
  5
77
330
1E
100
AcDbEntity
  8
0
100
AcDbLine
 10
29.54409
 20
36.07032499999999
 30
0.0
 11
30.11279
 21
35.560625
 31
0.0
  0
LINE
  5
78
330
1E
100
AcDbEntity
  8
0
100
AcDbLine
 10
34.03009
 20
39.834525
 30
0.0
 11
34.43329
 21
39.18592499999999
 31
0.0
  0
LINE
  5
79
330
1E
100
AcDbEntity
  8
0
100
AcDbLine
 10
34.43329
 20
39.18592499999999
 30
0.0
 11
34.66009
 21
38.467625
 31
0.0
  0
LINE
  5
7A
330
1E
100
AcDbEntity
  8
0
100
AcDbLine
 10
34.66009
 20
38.467625
 30
0.0
 11
34.69489
 21
37.698025
 31
0.0
  0
LINE
  5
7B
330
1E
100
AcDbEntity
  8
0
100
AcDbLine
 10
34.52689
 20
36.946125
 30
0.0
 11
34.69489
 21
37.698025
 31
0.0
  0
LINE
  5
7C
330
1E
100
AcDbEntity
  8
0
100
AcDbLine
 10
34.17889
 20
36.278125
 30
0.0
 11
34.52689
 21
36.946125
 31
0.0
  0
LINE
  5
7E
330
1E
100
AcDbEntity
  8
0
100
AcDbLine
 10
29.39529
 20
39.626725
 30
0.0
 11
29.90499
 21
40.195425
 31
0.0
  0
LINE
  5
80
330
1E
100
AcDbEntity
  8
0
100
AcDbLine
 10
33.46139
 20
40.344225
 30
0.0
 11
34.03009
 21
39.834525
 31
0.0
  0
LINE
  5
83
330
1E
100
AcDbEntity
  8
0
100
AcDbLine
 10
32.79339
 20
40.692225
 30
0.0
 11
33.46139
 21
40.344225
 31
0.0
  0
LINE
  5
84
330
1E
100
AcDbEntity
  8
0
100
AcDbLine
 10
32.04149
 20
40.860225
 30
0.0
 11
32.79339
 21
40.692225
 31
0.0
  0
LINE
  5
85
330
1E
100
AcDbEntity
  8
0
100
AcDbLine
 10
31.27189
 20
40.825425
 30
0.0
 11
32.04149
 21
40.860225
 31
0.0
  0
LINE
  5
86
330
1E
100
AcDbEntity
  8
0
100
AcDbLine
 10
30.55359
 20
40.598625
 30
0.0
 11
31.27189
 21
40.825425
 31
0.0
  0
LINE
  5
88
330
1E
100
AcDbEntity
  8
0
100
AcDbLine
 10
29.90499
 20
40.195425
 30
0.0
 11
30.55359
 21
40.598625
 31
0.0
  0
LINE
  5
89
330
1E
100
AcDbEntity
  8
0
100
AcDbLine
 10
34.77769
 20
40.46182499999999
 30
0.0
 11
35.31539
 21
39.597125
 31
0.0
  0
LINE
  5
8A
330
1E
100
AcDbEntity
  8
0
100
AcDbLine
 10
34.97619
 20
35.72002499999999
 30
0.0
 11
35.44019
 21
36.610725
 31
0.0
  0
LINE
  5
8B
330
1E
100
AcDbEntity
  8
0
100
AcDbLine
 10
35.31539
 20
39.597125
 30
0.0
 11
35.61769
 21
38.639425
 31
0.0
  0
LINE
  5
8C
330
1E
100
AcDbEntity
  8
0
100
AcDbLine
 10
35.61769
 20
38.639425
 30
0.0
 11
35.66419
 21
37.613225
 31
0.0
  0
LINE
  5
8D
330
1E
100
AcDbEntity
  8
0
100
AcDbLine
 10
35.44019
 20
36.610725
 30
0.0
 11
35.66419
 21
37.613225
 31
0.0
  0
LINE
  5
93
330
1E
100
AcDbEntity
  8
0
100
AcDbLine
 10
28.59799
 20
40.184825
 30
0.0
 11
29.27769
 21
40.943025
 31
0.0
  0
LINE
  5
95
330
1E
100
AcDbEntity
  8
0
100
AcDbLine
 10
34.01949
 20
41.141525
 30
0.0
 11
34.77769
 21
40.46182499999999
 31
0.0
  0
LINE
  5
97
330
1E
100
AcDbEntity
  8
0
100
AcDbLine
 10
33.12879
 20
41.605525
 30
0.0
 11
34.01949
 21
41.141525
 31
0.0
  0
LINE
  5
99
330
1E
100
AcDbEntity
  8
0
100
AcDbLine
 10
32.12629
 20
41.82952499999999
 30
0.0
 11
33.12879
 21
41.605525
 31
0.0
  0
LINE
  5
9B
330
1E
100
AcDbEntity
  8
0
100
AcDbLine
 10
31.10009
 20
41.783025
 30
0.0
 11
32.12629
 21
41.82952499999999
 31
0.0
  0
LINE
  5
9D
330
1E
100
AcDbEntity
  8
0
100
AcDbLine
 10
30.14239
 20
41.480725
 30
0.0
 11
31.10009
 21
41.783025
 31
0.0
  0
LINE
  5
9F
330
1E
100
AcDbEntity
  8
0
100
AcDbLine
 10
29.27769
 20
40.943025
 30
0.0
 11
30.14239
 21
41.480725
 31
0.0
  0
LINE
  5
A0
330
1E
100
AcDbEntity
  8
0
100
AcDbLine
 10
21.05789
 20
8.87759500000001
 30
0.0
 11
29.08189
 21
7.031379000000009
 31
0.0
  0
LINE
  5
A1
330
1E
100
AcDbEntity
  8
0
100
AcDbLine
 10
21.05789
 20
8.87759500000001
 30
0.0
 11
29.08189
 21
7.031379000000009
 31
0.0
  0
LINE
  5
A2
330
1E
100
AcDbEntity
  8
0
100
AcDbLine
 10
37.30449
 20
7.456199000000009
 30
0.0
 11
44.91679
 21
9.958795000000009
 31
0.0
  0
LINE
  5
A3
330
1E
100
AcDbEntity
  8
0
100
AcDbLine
 10
46.3228015715075
 20
64.98633412981179
 30
0.0
 11
47.81139
 21
65.240925
 31
0.0
  0
LINE
  5
A4
330
1E
100
AcDbEntity
  8
0
100
AcDbLine
 10
47.81139
 20
65.240925
 30
0.0
 11
50.51249
 21
66.128925
 31
0.0
  0
LINE
  5
A5
330
1E
100
AcDbEntity
  8
0
100
AcDbLine
 10
44.91679
 20
9.958795000000009
 30
0.0
 11
51.71349
 21
14.205045
 31
0.0
  0
LINE
  5
A6
330
1E
100
AcDbEntity
  8
0
100
AcDbLine
 10
44.91679
 20
9.958795000000009
 30
0.0
 11
51.71349
 21
14.205045
 31
0.0
  0
LINE
  5
A7
330
1E
100
AcDbEntity
  8
0
100
AcDbLine
 10
42.51629
 20
67.027225
 30
0.0
 11
49.57838999999999
 21
63.240825
 31
0.0
  0
LINE
  5
A8
330
1E
100
AcDbEntity
  8
0
100
AcDbLine
 10
18.65738999999999
 20
65.946025
 30
0.0
 11
26.26969
 21
68.44862500000001
 31
0.0
  0
LINE
  5
A9
330
1E
100
AcDbEntity
  8
0
100
AcDbLine
 10
114.76409
 20
-0.0841249999999945
 30
0.0
 11
117.54709
 21
0.209615000000006
 31
0.0
  0
LINE
  5
AA
330
1E
100
AcDbEntity
  8
0
100
AcDbLine
 10
117.54709
 20
0.209615000000006
 30
0.0
 11
120.0350899999999
 21
1.20422500000001
 31
0.0
  0
LINE
  5
AB
330
1E
100
AcDbEntity
  8
0
100
AcDbLine
 10
114.76409
 20
-0.0841249999999945
 30
0.0
 11
117.54709
 21
0.209615000000006
 31
0.0
  0
LINE
  5
AC
330
1E
100
AcDbEntity
  8
0
100
AcDbLine
 10
119.7170899999999
 20
3.067315000000009
 30
0.0
 11
123.15509
 21
3.422705000000009
 31
0.0
  0
LINE
  5
AD
330
1E
100
AcDbEntity
  8
0
100
AcDbLine
 10
120.0350899999999
 20
1.20422500000001
 30
0.0
 11
122.1730899999999
 21
2.781645000000009
 31
0.0
  0
LINE
  5
AE
330
1E
100
AcDbEntity
  8
0
100
AcDbLine
 10
111.9550899999999
 20
0.4039950000000061
 30
0.0
 11
114.76409
 21
-0.0841249999999945
 31
0.0
  0
LINE
  5
AF
330
1E
100
AcDbEntity
  8
0
100
AcDbLine
 10
111.9550899999999
 20
0.4039950000000061
 30
0.0
 11
114.76409
 21
-0.0841249999999945
 31
0.0
  0
LINE
  5
B0
330
1E
100
AcDbEntity
  8
0
100
AcDbLine
 10
109.39109
 20
1.574184999999999
 30
0.0
 11
111.9550899999999
 21
0.4039950000000061
 31
0.0
  0
LINE
  5
B1
330
1E
100
AcDbEntity
  8
0
100
AcDbLine
 10
116.4880899999999
 20
3.623165000000009
 30
0.0
 11
119.7170899999999
 21
3.067315000000009
 31
0.0
  0
LINE
  5
B2
330
1E
100
AcDbEntity
  8
0
100
AcDbLine
 10
113.4660899999999
 20
4.980885000000009
 30
0.0
 11
116.4880899999999
 21
3.623165000000009
 31
0.0
  0
LINE
  5
B3
330
1E
100
AcDbEntity
  8
0
100
AcDbLine
 10
110.83809
 20
7.003351000000009
 30
0.0
 11
113.4660899999999
 21
4.980885000000009
 31
0.0
  0
LINE
  5
B4
330
1E
100
AcDbEntity
  8
0
100
AcDbLine
 10
105.4090899999999
 20
5.556615000000009
 30
0.0
 11
107.1390899999999
 21
3.304195000000009
 31
0.0
  0
LINE
  5
B5
330
1E
100
AcDbEntity
  8
0
100
AcDbLine
 10
107.1390899999999
 20
3.304195000000009
 30
0.0
 11
109.39109
 21
1.574184999999999
 31
0.0
  0
LINE
  5
B6
330
1E
100
AcDbEntity
  8
0
100
AcDbLine
 10
123.15509
 20
3.422705000000009
 30
0.0
 11
126.14209
 21
4.571545000000009
 31
0.0
  0
LINE
  5
B7
330
1E
100
AcDbEntity
  8
0
100
AcDbLine
 10
128.66109
 20
6.441272000000009
 30
0.0
 11
131.2808144575249
 21
9.06113542564919
 31
0.0
  0
LINE
  5
B8
330
1E
100
AcDbEntity
  8
0
100
AcDbLine
 10
128.66109
 20
6.441272000000009
 30
0.0
 11
131.2808144575249
 21
9.06113542564919
 31
0.0
  0
LINE
  5
B9
330
1E
100
AcDbEntity
  8
0
100
AcDbLine
 10
126.14209
 20
4.571545000000009
 30
0.0
 11
128.66109
 21
6.441272000000009
 31
0.0
  0
LINE
  5
BA
330
1E
100
AcDbEntity
  8
0
100
AcDbLine
 10
122.1730899999999
 20
2.781645000000009
 30
0.0
 11
122.774768843355
 21
3.383390766183779
 31
0.0
  0
LINE
  5
BB
330
1E
100
AcDbEntity
  8
0
100
AcDbLine
 10
122.69509
 20
7.846647000000009
 30
0.0
 11
125.5890899999999
 21
8.251115000000009
 31
0.0
  0
LINE
  5
BC
330
1E
100
AcDbEntity
  8
0
100
AcDbLine
 10
133.6330899999999
 20
8.05312500000001
 30
0.0
 11
141.7870899999999
 21
6.913266000000009
 31
0.0
  0
LINE
  5
BD
330
1E
100
AcDbEntity
  8
0
100
AcDbLine
 10
108.8150899999999
 20
9.631105000000008
 30
0.0
 11
110.83809
 21
7.003351000000009
 31
0.0
  0
LINE
  5
BE
330
1E
100
AcDbEntity
  8
0
100
AcDbLine
 10
103.7500899999999
 20
10.92977499999999
 30
0.0
 11
104.23909
 21
8.11994500000001
 31
0.0
  0
LINE
  5
BF
330
1E
100
AcDbEntity
  8
0
100
AcDbLine
 10
103.7500899999999
 20
10.92977499999999
 30
0.0
 11
104.0440899999999
 21
13.71252499999999
 31
0.0
  0
LINE
  5
C0
330
1E
100
AcDbEntity
  8
0
100
AcDbLine
 10
104.23909
 20
8.11994500000001
 30
0.0
 11
105.4090899999999
 21
5.556615000000009
 31
0.0
  0
LINE
  5
C1
330
1E
100
AcDbEntity
  8
0
100
AcDbLine
 10
117.1880899999999
 20
9.37116500000001
 30
0.0
 11
119.8020899999999
 21
8.251115000000009
 31
0.0
  0
LINE
  5
C2
330
1E
100
AcDbEntity
  8
0
100
AcDbLine
 10
114.9170899999999
 20
11.082365
 30
0.0
 11
117.1880899999999
 21
9.37116500000001
 31
0.0
  0
LINE
  5
C3
330
1E
100
AcDbEntity
  8
0
100
AcDbLine
 10
125.5890899999999
 20
8.251115000000009
 30
0.0
 11
128.20209
 21
9.37116500000001
 31
0.0
  0
LINE
  5
C4
330
1E
100
AcDbEntity
  8
0
100
AcDbLine
 10
119.8020899999999
 20
8.251115000000009
 30
0.0
 11
122.69509
 21
7.846647000000009
 31
0.0
  0
LINE
  5
C5
330
1E
100
AcDbEntity
  8
0
100
AcDbLine
 10
121.0590899999999
 20
11.089435
 30
0.0
 11
121.9880899999999
 21
11.789475
 31
0.0
  0
LINE
  5
C6
330
1E
100
AcDbEntity
  8
0
100
AcDbLine
 10
119.99009
 20
10.631235
 30
0.0
 11
121.0590899999999
 21
11.089435
 31
0.0
  0
LINE
  5
C7
330
1E
100
AcDbEntity
  8
0
100
AcDbLine
 10
118.8060899999999
 20
10.465775
 30
0.0
 11
119.99009
 21
10.631235
 31
0.0
  0
LINE
  5
C8
330
1E
100
AcDbEntity
  8
0
100
AcDbLine
 10
117.6220899999999
 20
10.631235
 30
0.0
 11
118.8060899999999
 21
10.465775
 31
0.0
  0
LINE
  5
C9
330
1E
100
AcDbEntity
  8
0
100
AcDbLine
 10
107.4580899999999
 20
12.653345
 30
0.0
 11
108.8150899999999
 21
9.631105000000008
 31
0.0
  0
LINE
  5
CA
330
1E
100
AcDbEntity
  8
0
100
AcDbLine
 10
104.0440899999999
 20
13.71252499999999
 30
0.0
 11
105.0390899999999
 21
16.200545
 31
0.0
  0
LINE
  5
CB
330
1E
100
AcDbEntity
  8
0
100
AcDbLine
 10
113.2060899999999
 20
13.353595
 30
0.0
 11
114.9170899999999
 21
11.082365
 31
0.0
  0
LINE
  5
CC
330
1E
100
AcDbEntity
  8
0
100
AcDbLine
 10
114.4660899999999
 20
13.78775499999999
 30
0.0
 11
114.9240899999999
 21
12.71861499999999
 31
0.0
  0
LINE
  5
CD
330
1E
100
AcDbEntity
  8
0
100
AcDbLine
 10
114.9240899999999
 20
12.71861499999999
 30
0.0
 11
115.62409
 21
11.789475
 31
0.0
  0
LINE
  5
CE
330
1E
100
AcDbEntity
  8
0
100
AcDbLine
 10
121.9880899999999
 20
11.789475
 30
0.0
 11
122.6880899999999
 21
12.71861499999999
 31
0.0
  0
LINE
  5
CF
330
1E
100
AcDbEntity
  8
0
100
AcDbLine
 10
122.6880899999999
 20
12.71861499999999
 30
0.0
 11
123.072770269618
 21
13.6165998547149
 31
0.0
  0
LINE
  5
D0
330
1E
100
AcDbEntity
  8
0
100
AcDbLine
 10
115.62409
 20
11.789475
 30
0.0
 11
116.55309
 21
11.089435
 31
0.0
  0
LINE
  5
D1
330
1E
100
AcDbEntity
  8
0
100
AcDbLine
 10
116.55309
 20
11.089435
 30
0.0
 11
117.6220899999999
 21
10.631235
 31
0.0
  0
LINE
  5
D2
330
1E
100
AcDbEntity
  8
0
100
AcDbLine
 10
128.20209
 20
9.37116500000001
 30
0.0
 11
129.662858809395
 21
9.75447093507576
 31
0.0
  0
LINE
  5
D3
330
1E
100
AcDbEntity
  8
0
100
AcDbLine
 10
126.26709
 20
11.209645
 30
0.0
 11
133.6330899999999
 21
8.05312500000001
 31
0.0
  0
LINE
  5
D4
330
1E
100
AcDbEntity
  8
0
100
AcDbLine
 10
126.26709
 20
11.209645
 30
0.0
 11
133.6330899999999
 21
8.05312500000001
 31
0.0
  0
LINE
  5
D5
330
1E
100
AcDbEntity
  8
0
100
AcDbLine
 10
133.6330899999999
 20
8.05312500000001
 30
0.0
 11
141.7870899999999
 21
6.913266000000009
 31
0.0
  0
LINE
  5
D6
330
1E
100
AcDbEntity
  8
0
100
AcDbLine
 10
149.9410899999999
 20
8.05312500000001
 30
0.0
 11
157.3070899999999
 21
11.209645
 31
0.0
  0
LINE
  5
D7
330
1E
100
AcDbEntity
  8
0
100
AcDbLine
 10
157.3070899999999
 20
11.209645
 30
0.0
 11
163.7070899999999
 21
16.032115
 31
0.0
  0
LINE
  5
D8
330
1E
100
AcDbEntity
  8
0
100
AcDbLine
 10
141.7870899999999
 20
6.913266000000009
 30
0.0
 11
149.9410899999999
 21
8.05312500000001
 31
0.0
  0
LINE
  5
D9
330
1E
100
AcDbEntity
  8
0
100
AcDbLine
 10
141.7870899999999
 20
6.913266000000009
 30
0.0
 11
149.9410899999999
 21
8.05312500000001
 31
0.0
  0
LINE
  5
DA
330
1E
100
AcDbEntity
  8
0
100
AcDbLine
 10
52.5510156779452
 20
60.5647082650321
 30
0.0
 11
53.01259
 21
61.425625
 31
0.0
  0
LINE
  5
DB
330
1E
100
AcDbEntity
  8
0
100
AcDbLine
 10
54.77759
 20
62.90662499999999
 30
0.0
 11
55.88259
 21
63.269925
 31
0.0
  0
LINE
  5
DC
330
1E
100
AcDbEntity
  8
0
100
AcDbLine
 10
53.79099
 20
62.290225
 30
0.0
 11
54.77759
 21
62.90662499999999
 31
0.0
  0
LINE
  5
DD
330
1E
100
AcDbEntity
  8
0
100
AcDbLine
 10
53.01259
 20
61.425625
 30
0.0
 11
53.79099
 21
62.290225
 31
0.0
  0
LINE
  5
DE
330
1E
100
AcDbEntity
  8
0
100
AcDbLine
 10
50.51249
 20
66.128925
 30
0.0
 11
53.43019
 21
66.27962499999999
 31
0.0
  0
LINE
  5
DF
330
1E
100
AcDbEntity
  8
0
100
AcDbLine
 10
53.43019
 20
66.27962499999999
 30
0.0
 11
56.27739
 21
65.624525
 31
0.0
  0
LINE
  5
E0
330
1E
100
AcDbEntity
  8
0
100
AcDbLine
 10
55.88259
 20
63.269925
 30
0.0
 11
57.07619000000001
 21
63.331525
 31
0.0
  0
LINE
  5
E1
330
1E
100
AcDbEntity
  8
0
100
AcDbLine
 10
56.27739
 20
65.624525
 30
0.0
 11
58.78329
 21
64.281025
 31
0.0
  0
LINE
  5
E2
330
1E
100
AcDbEntity
  8
0
100
AcDbLine
 10
55.53449
 20
57.878825
 30
0.0
 11
59.78069
 21
51.082125
 31
0.0
  0
LINE
  5
E3
330
1E
100
AcDbEntity
  8
0
100
AcDbLine
 10
51.71349
 20
14.205045
 30
0.0
 11
57.07549
 21
20.16112499999999
 31
0.0
  0
LINE
  5
E4
330
1E
100
AcDbEntity
  8
0
100
AcDbLine
 10
106.9020899999999
 20
15.882635
 30
0.0
 11
107.2570899999999
 21
19.320125
 31
0.0
  0
LINE
  5
E5
330
1E
100
AcDbEntity
  8
0
100
AcDbLine
 10
106.9020899999999
 20
15.882635
 30
0.0
 11
107.4580899999999
 21
12.653345
 31
0.0
  0
LINE
  5
E6
330
1E
100
AcDbEntity
  8
0
100
AcDbLine
 10
105.0390899999999
 20
16.200545
 30
0.0
 11
106.6160899999999
 21
18.338025
 31
0.0
  0
LINE
  5
E7
330
1E
100
AcDbEntity
  8
0
100
AcDbLine
 10
112.0860899999999
 20
15.96706499999999
 30
0.0
 11
113.2060899999999
 21
13.353595
 31
0.0
  0
LINE
  5
E8
330
1E
100
AcDbEntity
  8
0
100
AcDbLine
 10
114.9240899999999
 20
17.224325
 30
0.0
 11
115.62409
 21
18.15342499999999
 31
0.0
  0
LINE
  5
E9
330
1E
100
AcDbEntity
  8
0
100
AcDbLine
 10
114.4660899999999
 20
16.155155
 30
0.0
 11
114.9240899999999
 21
17.224325
 31
0.0
  0
LINE
  5
EA
330
1E
100
AcDbEntity
  8
0
100
AcDbLine
 10
114.30009
 20
14.971455
 30
0.0
 11
114.4660899999999
 21
13.78775499999999
 31
0.0
  0
LINE
  5
EB
330
1E
100
AcDbEntity
  8
0
100
AcDbLine
 10
114.30009
 20
14.971455
 30
0.0
 11
114.4660899999999
 21
16.155155
 31
0.0
  0
LINE
  5
EC
330
1E
100
AcDbEntity
  8
0
100
AcDbLine
 10
114.30009
 20
14.971455
 30
0.0
 11
114.4660899999999
 21
13.78775499999999
 31
0.0
  0
LINE
  5
ED
330
1E
100
AcDbEntity
  8
0
100
AcDbLine
 10
119.8670899999999
 20
16.032115
 30
0.0
 11
126.26709
 21
11.209645
 31
0.0
  0
LINE
  5
EE
330
1E
100
AcDbEntity
  8
0
100
AcDbLine
 10
107.2570899999999
 20
19.320125
 30
0.0
 11
108.4060899999999
 21
22.30752499999999
 31
0.0
  0
LINE
  5
EF
330
1E
100
AcDbEntity
  8
0
100
AcDbLine
 10
106.6160899999999
 20
18.338025
 30
0.0
 11
107.218540935061
 21
18.9404132058927
 31
0.0
  0
LINE
  5
F0
330
1E
100
AcDbEntity
  8
0
100
AcDbLine
 10
111.6810899999999
 20
18.86052499999999
 30
0.0
 11
112.0860899999999
 21
15.96706499999999
 31
0.0
  0
LINE
  5
F1
330
1E
100
AcDbEntity
  8
0
100
AcDbLine
 10
111.6810899999999
 20
18.86052499999999
 30
0.0
 11
112.0860899999999
 21
21.754025
 31
0.0
  0
LINE
  5
F2
330
1E
100
AcDbEntity
  8
0
100
AcDbLine
 10
115.62409
 20
18.15342499999999
 30
0.0
 11
116.55309
 21
18.853425
 31
0.0
  0
LINE
  5
F3
330
1E
100
AcDbEntity
  8
0
100
AcDbLine
 10
116.55309
 20
18.853425
 30
0.0
 11
117.4511058902909
 21
19.23842096119769
 31
0.0
  0
LINE
  5
F4
330
1E
100
AcDbEntity
  8
0
100
AcDbLine
 10
131.7740899999999
 20
20.69902499999999
 30
0.0
 11
136.5260899999999
 21
18.66252499999999
 31
0.0
  0
LINE
  5
F5
330
1E
100
AcDbEntity
  8
0
100
AcDbLine
 10
136.5260899999999
 20
18.66252499999999
 30
0.0
 11
141.7870899999999
 21
17.927125
 31
0.0
  0
LINE
  5
F6
330
1E
100
AcDbEntity
  8
0
100
AcDbLine
 10
141.7870899999999
 20
17.927125
 30
0.0
 11
147.04809
 21
18.66252499999999
 31
0.0
  0
LINE
  5
F7
330
1E
100
AcDbEntity
  8
0
100
AcDbLine
 10
147.04809
 20
18.66252499999999
 30
0.0
 11
151.8000899999999
 21
20.69902499999999
 31
0.0
  0
LINE
  5
F8
330
1E
100
AcDbEntity
  8
0
100
AcDbLine
 10
108.4060899999999
 20
22.30752499999999
 30
0.0
 11
110.27609
 21
24.826025
 31
0.0
  0
LINE
  5
F9
330
1E
100
AcDbEntity
  8
0
100
AcDbLine
 10
112.0860899999999
 20
21.754025
 30
0.0
 11
113.2060899999999
 21
24.367525
 31
0.0
  0
LINE
  5
FA
330
1E
100
AcDbEntity
  8
0
100
AcDbLine
 10
110.27609
 20
24.826025
 30
0.0
 11
112.895986103965
 21
27.44588419362299
 31
0.0
  0
LINE
  5
FB
330
1E
100
AcDbEntity
  8
0
100
AcDbLine
 10
113.2060899999999
 20
24.367525
 30
0.0
 11
113.5891658537369
 21
25.8282012110451
 31
0.0
  0
LINE
  5
FC
330
1E
100
AcDbEntity
  8
0
100
AcDbLine
 10
115.0440899999999
 20
22.432825
 30
0.0
 11
119.8670899999999
 21
16.032115
 31
0.0
  0
LINE
  5
FD
330
1E
100
AcDbEntity
  8
0
100
AcDbLine
 10
127.6450899999999
 20
23.81032499999999
 30
0.0
 11
131.7740899999999
 21
20.69902499999999
 31
0.0
  0
LINE
  5
FE
330
1E
100
AcDbEntity
  8
0
100
AcDbLine
 10
151.8000899999999
 20
20.69902499999999
 30
0.0
 11
155.92909
 21
23.81032499999999
 31
0.0
  0
LINE
  5
FF
330
1E
100
AcDbEntity
  8
0
100
AcDbLine
 10
163.7070899999999
 20
16.032115
 30
0.0
 11
168.53009
 21
22.432825
 31
0.0
  0
LINE
  5
100
330
1E
100
AcDbEntity
  8
0
100
AcDbLine
 10
168.53009
 20
22.432825
 30
0.0
 11
171.6860899999999
 21
29.79802499999999
 31
0.0
  0
LINE
  5
101
330
1E
100
AcDbEntity
  8
0
100
AcDbLine
 10
155.92909
 20
23.81032499999999
 30
0.0
 11
159.0400899999999
 21
27.939825
 31
0.0
  0
LINE
  5
102
330
1E
100
AcDbEntity
  8
0
100
AcDbLine
 10
60.9343703737397
 20
47.57291013984729
 30
0.0
 11
61.44359
 21
48.994625
 31
0.0
  0
LINE
  5
104
330
1E
100
AcDbEntity
  8
0
100
AcDbLine
 10
61.9742230606494
 20
44.4099313943176
 30
0.0
 11
62.30949
 21
43.895425
 31
0.0
  0
LINE
  5
105
330
1E
100
AcDbEntity
  8
0
100
AcDbLine
 10
61.44359
 20
48.994625
 30
0.0
 11
62.78719
 21
51.50052500000001
 31
0.0
  0
LINE
  5
106
330
1E
100
AcDbEntity
  8
0
100
AcDbLine
 10
57.66144526716989
 20
54.4743040484732
 30
0.0
 11
58.58949
 21
54.77942500000001
 31
0.0
  0
LINE
  5
107
330
1E
100
AcDbEntity
  8
0
100
AcDbLine
 10
58.58949
 20
54.77942500000001
 30
0.0
 11
59.57609
 21
55.395825
 31
0.0
  0
LINE
  5
108
330
1E
100
AcDbEntity
  8
0
100
AcDbLine
 10
59.57609
 20
55.395825
 30
0.0
 11
60.35439
 21
56.260425
 31
0.0
  0
LINE
  5
109
330
1E
100
AcDbEntity
  8
0
100
AcDbLine
 10
57.07619000000001
 20
63.331525
 30
0.0
 11
58.24099
 21
63.063525
 31
0.0
  0
LINE
  5
10A
330
1E
100
AcDbEntity
  8
0
100
AcDbLine
 10
58.24099
 20
63.063525
 30
0.0
 11
59.26619
 21
62.513925
 31
0.0
  0
LINE
  5
10B
330
1E
100
AcDbEntity
  8
0
100
AcDbLine
 10
59.26619
 20
62.513925
 30
0.0
 11
60.13069
 21
61.735525
 31
0.0
  0
LINE
  5
10C
330
1E
100
AcDbEntity
  8
0
100
AcDbLine
 10
60.13069
 20
61.735525
 30
0.0
 11
60.74709
 21
60.748925
 31
0.0
  0
LINE
  5
10D
330
1E
100
AcDbEntity
  8
0
100
AcDbLine
 10
60.35439
 20
56.260425
 30
0.0
 11
60.90409000000001
 21
57.285525
 31
0.0
  0
LINE
  5
10E
330
1E
100
AcDbEntity
  8
0
100
AcDbLine
 10
60.74709
 20
60.748925
 30
0.0
 11
61.11039
 21
59.643925
 31
0.0
  0
LINE
  5
10F
330
1E
100
AcDbEntity
  8
0
100
AcDbLine
 10
58.78329
 20
64.281025
 30
0.0
 11
60.89679
 21
62.37832499999999
 31
0.0
  0
LINE
  5
110
330
1E
100
AcDbEntity
  8
0
100
AcDbLine
 10
60.90409000000001
 20
57.285525
 30
0.0
 11
61.17209
 21
58.450325
 31
0.0
  0
LINE
  5
111
330
1E
100
AcDbEntity
  8
0
100
AcDbLine
 10
61.97835668924461
 20
60.647114815855
 30
0.0
 11
66.14949
 21
62.165325
 31
0.0
  0
LINE
  5
112
330
1E
100
AcDbEntity
  8
0
100
AcDbLine
 10
61.11039
 20
59.643925
 30
0.0
 11
61.17209
 21
58.450325
 31
0.0
  0
LINE
  5
113
330
1E
100
AcDbEntity
  8
0
100
AcDbLine
 10
60.89679
 20
62.37832499999999
 30
0.0
 11
62.40349000000001
 21
59.966625
 31
0.0
  0
LINE
  5
114
330
1E
100
AcDbEntity
  8
0
100
AcDbLine
 10
59.78069
 20
51.082125
 30
0.0
 11
62.28329
 21
43.469825
 31
0.0
  0
LINE
  5
115
330
1E
100
AcDbEntity
  8
0
100
AcDbLine
 10
111.8880899999999
 20
29.79802499999999
 30
0.0
 11
115.0440899999999
 21
22.432825
 31
0.0
  0
LINE
  5
116
330
1E
100
AcDbEntity
  8
0
100
AcDbLine
 10
110.7480899999999
 20
37.952425
 30
0.0
 11
111.8880899999999
 21
46.106825
 31
0.0
  0
LINE
  5
117
330
1E
100
AcDbEntity
  8
0
100
AcDbLine
 10
110.7480899999999
 20
37.952425
 30
0.0
 11
111.8880899999999
 21
29.79802499999999
 31
0.0
  0
LINE
  5
118
330
1E
100
AcDbEntity
  8
0
100
AcDbLine
 10
124.5340899999999
 20
27.939825
 30
0.0
 11
127.6450899999999
 21
23.81032499999999
 31
0.0
  0
LINE
  5
119
330
1E
100
AcDbEntity
  8
0
100
AcDbLine
 10
122.4970899999999
 20
32.691525
 30
0.0
 11
124.5340899999999
 21
27.939825
 31
0.0
  0
LINE
  5
11A
330
1E
100
AcDbEntity
  8
0
100
AcDbLine
 10
121.7620899999999
 20
37.952425
 30
0.0
 11
122.4970899999999
 21
43.21332499999999
 31
0.0
  0
LINE
  5
11B
330
1E
100
AcDbEntity
  8
0
100
AcDbLine
 10
121.7620899999999
 20
37.952425
 30
0.0
 11
122.4970899999999
 21
32.691525
 31
0.0
  0
LINE
  5
11C
330
1E
100
AcDbEntity
  8
0
100
AcDbLine
 10
121.7620899999999
 20
37.952425
 30
0.0
 11
122.4970899999999
 21
43.21332499999999
 31
0.0
  0
LINE
  5
11D
330
1E
100
AcDbEntity
  8
0
100
AcDbLine
 10
64.26739000000001
 20
38.516125
 30
0.0
 11
64.32589
 21
38.355625
 31
0.0
  0
LINE
  5
11E
330
1E
100
AcDbEntity
  8
0
100
AcDbLine
 10
64.32589
 20
38.355625
 30
0.0
 11
65.08258999999999
 21
38.365025
 31
0.0
  0
LINE
  5
11F
330
1E
100
AcDbEntity
  8
0
100
AcDbLine
 10
63.59989
 20
39.135825
 30
0.0
 11
64.26739000000001
 21
38.516125
 31
0.0
  0
LINE
  5
121
330
1E
100
AcDbEntity
  8
0
100
AcDbLine
 10
63.14149
 20
39.520925
 30
0.0
 11
63.59939
 21
38.889325
 31
0.0
  0
LINE
  5
122
330
1E
100
AcDbEntity
  8
0
100
AcDbLine
 10
63.59939
 20
38.889325
 30
0.0
 11
64.32589
 21
38.355625
 31
0.0
  0
LINE
  5
124
330
1E
100
AcDbEntity
  8
0
100
AcDbLine
 10
65.08258999999999
 20
38.365025
 30
0.0
 11
73.67399
 21
41.492025
 31
0.0
  0
LINE
  5
125
330
1E
100
AcDbEntity
  8
0
100
AcDbLine
 10
135.7790899999999
 20
37.952425
 30
0.0
 11
136.0000899999999
 21
36.37412499999999
 31
0.0
  0
LINE
  5
126
330
1E
100
AcDbEntity
  8
0
100
AcDbLine
 10
135.7790899999999
 20
37.952425
 30
0.0
 11
136.0000899999999
 21
36.37412499999999
 31
0.0
  0
LINE
  5
127
330
1E
100
AcDbEntity
  8
0
100
AcDbLine
 10
136.0000899999999
 20
36.37412499999999
 30
0.0
 11
136.61109
 21
34.94862499999999
 31
0.0
  0
LINE
  5
128
330
1E
100
AcDbEntity
  8
0
100
AcDbLine
 10
136.1530899999999
 20
36.42502499999999
 30
0.0
 11
136.7300899999999
 21
35.033525
 31
0.0
  0
LINE
  5
129
330
1E
100
AcDbEntity
  8
0
100
AcDbLine
 10
136.0000899999999
 20
36.37412499999999
 30
0.0
 11
136.61109
 21
34.94862499999999
 31
0.0
  0
LINE
  5
12A
330
1E
100
AcDbEntity
  8
0
100
AcDbLine
 10
135.9490899999999
 20
37.952425
 30
0.0
 11
136.1530899999999
 21
39.479825
 31
0.0
  0
LINE
  5
12B
330
1E
100
AcDbEntity
  8
0
100
AcDbLine
 10
135.9490899999999
 20
37.952425
 30
0.0
 11
136.1530899999999
 21
36.42502499999999
 31
0.0
  0
LINE
  5
12C
330
1E
100
AcDbEntity
  8
0
100
AcDbLine
 10
62.99959000000001
 20
40.33322499999999
 30
0.0
 11
63.59989
 21
39.135825
 31
0.0
  0
LINE
  5
12D
330
1E
100
AcDbEntity
  8
0
100
AcDbLine
 10
63.02179
 20
39.84972499999999
 30
0.0
 11
63.14149
 21
39.520925
 31
0.0
  0
LINE
  5
12F
330
1E
100
AcDbEntity
  8
0
100
AcDbLine
 10
62.71409
 20
40.695525
 30
0.0
 11
63.02179
 21
39.84972499999999
 31
0.0
  0
LINE
  5
132
330
1E
100
AcDbEntity
  8
0
100
AcDbLine
 10
62.6960267107135
 20
40.7449401248331
 30
0.0
 11
62.8257720568515
 21
40.3885354527626
 31
0.0
  0
LINE
  5
133
330
1E
100
AcDbEntity
  8
0
100
AcDbLine
 10
62.6960267107135
 20
40.7449401248331
 30
0.0
 11
62.74139
 21
40.62042499999999
 31
0.0
  0
LINE
  5
134
330
1E
100
AcDbEntity
  8
0
100
AcDbLine
 10
62.64969
 20
40.872225
 30
0.0
 11
62.8257720568515
 21
40.3885354527626
 31
0.0
  0
LINE
  5
135
330
1E
100
AcDbEntity
  8
0
100
AcDbLine
 10
62.48588628464379
 20
39.5482896654609
 30
0.0
 11
63.0559879232442
 21
39.7557878474296
 31
0.0
  0
LINE
  5
136
330
1E
100
AcDbEntity
  8
0
100
AcDbLine
 10
136.0000899999999
 20
39.53072499999999
 30
0.0
 11
136.61109
 21
40.956225
 31
0.0
  0
LINE
  5
137
330
1E
100
AcDbEntity
  8
0
100
AcDbLine
 10
136.61109
 20
34.94862499999999
 30
0.0
 11
137.5440899999999
 21
33.709825
 31
0.0
  0
LINE
  5
138
330
1E
100
AcDbEntity
  8
0
100
AcDbLine
 10
136.7300899999999
 20
35.033525
 30
0.0
 11
137.6460899999999
 21
33.811625
 31
0.0
  0
LINE
  5
139
330
1E
100
AcDbEntity
  8
0
100
AcDbLine
 10
136.61109
 20
34.94862499999999
 30
0.0
 11
137.5440899999999
 21
33.709825
 31
0.0
  0
LINE
  5
13A
330
1E
100
AcDbEntity
  8
0
100
AcDbLine
 10
136.1530899999999
 20
39.479825
 30
0.0
 11
136.7300899999999
 21
40.871325
 31
0.0
  0
LINE
  5
13D
330
1E
100
AcDbEntity
  8
0
100
AcDbLine
 10
62.3790731238115
 20
41.61580825364279
 30
0.0
 11
62.71409
 21
40.695525
 31
0.0
  0
LINE
  5
13E
330
1E
100
AcDbEntity
  8
0
100
AcDbLine
 10
62.65029000000001
 20
41.630025
 30
0.0
 11
62.75699
 21
42.666025
 31
0.0
  0
LINE
  5
13F
330
1E
100
AcDbEntity
  8
0
100
AcDbLine
 10
62.65029000000001
 20
41.630025
 30
0.0
 11
62.99959000000001
 21
40.33322499999999
 31
0.0
  0
LINE
  5
140
330
1E
100
AcDbEntity
  8
0
100
AcDbLine
 10
73.67399
 20
41.492025
 30
0.0
 11
74.25969000000001
 21
41.971325
 31
0.0
  0
LINE
  5
141
330
1E
100
AcDbEntity
  8
0
100
AcDbLine
 10
74.25969000000001
 20
41.971325
 30
0.0
 11
74.47299
 21
42.847025
 31
0.0
  0
LINE
  5
142
330
1E
100
AcDbEntity
  8
0
100
AcDbLine
 10
62.44306873039289
 20
41.4400138706447
 30
0.0
 11
62.64969
 21
40.872225
 31
0.0
  0
LINE
  5
143
330
1E
100
AcDbEntity
  8
0
100
AcDbLine
 10
136.61109
 20
40.956225
 30
0.0
 11
137.5440899999999
 21
42.19502499999999
 31
0.0
  0
LINE
  5
144
330
1E
100
AcDbEntity
  8
0
100
AcDbLine
 10
141.7870899999999
 20
31.944825
 30
0.0
 11
143.3650899999999
 21
32.165425
 31
0.0
  0
LINE
  5
145
330
1E
100
AcDbEntity
  8
0
100
AcDbLine
 10
138.7830899999999
 20
32.776425
 30
0.0
 11
140.20909
 21
32.165425
 31
0.0
  0
LINE
  5
146
330
1E
100
AcDbEntity
  8
0
100
AcDbLine
 10
140.2600899999999
 20
32.31822499999999
 30
0.0
 11
141.7870899999999
 21
32.114525
 31
0.0
  0
LINE
  5
147
330
1E
100
AcDbEntity
  8
0
100
AcDbLine
 10
141.7870899999999
 20
32.114525
 30
0.0
 11
143.3140899999999
 21
32.31822499999999
 31
0.0
  0
LINE
  5
148
330
1E
100
AcDbEntity
  8
0
100
AcDbLine
 10
143.3140899999999
 20
32.31822499999999
 30
0.0
 11
144.7060899999999
 21
32.895225
 31
0.0
  0
LINE
  5
149
330
1E
100
AcDbEntity
  8
0
100
AcDbLine
 10
140.20909
 20
32.165425
 30
0.0
 11
141.7870899999999
 21
31.944825
 31
0.0
  0
LINE
  5
14A
330
1E
100
AcDbEntity
  8
0
100
AcDbLine
 10
140.20909
 20
32.165425
 30
0.0
 11
141.7870899999999
 21
31.944825
 31
0.0
  0
LINE
  5
14B
330
1E
100
AcDbEntity
  8
0
100
AcDbLine
 10
143.3650899999999
 20
32.165425
 30
0.0
 11
144.7910899999999
 21
32.776425
 31
0.0
  0
LINE
  5
14C
330
1E
100
AcDbEntity
  8
0
100
AcDbLine
 10
138.8680899999999
 20
32.895225
 30
0.0
 11
140.2600899999999
 21
32.31822499999999
 31
0.0
  0
LINE
  5
14D
330
1E
100
AcDbEntity
  8
0
100
AcDbLine
 10
144.7060899999999
 20
32.895225
 30
0.0
 11
145.9280899999999
 21
33.811625
 31
0.0
  0
LINE
  5
14E
330
1E
100
AcDbEntity
  8
0
100
AcDbLine
 10
144.7910899999999
 20
32.776425
 30
0.0
 11
146.03009
 21
33.709825
 31
0.0
  0
LINE
  5
14F
330
1E
100
AcDbEntity
  8
0
100
AcDbLine
 10
171.6860899999999
 20
29.79802499999999
 30
0.0
 11
172.8260899999999
 21
37.952425
 31
0.0
  0
LINE
  5
150
330
1E
100
AcDbEntity
  8
0
100
AcDbLine
 10
161.07709
 20
32.691525
 30
0.0
 11
161.8120899999999
 21
37.952425
 31
0.0
  0
LINE
  5
151
330
1E
100
AcDbEntity
  8
0
100
AcDbLine
 10
159.0400899999999
 20
27.939825
 30
0.0
 11
161.07709
 21
32.691525
 31
0.0
  0
LINE
  5
152
330
1E
100
AcDbEntity
  8
0
100
AcDbLine
 10
146.03009
 20
33.709825
 30
0.0
 11
146.96309
 21
34.94862499999999
 31
0.0
  0
LINE
  5
153
330
1E
100
AcDbEntity
  8
0
100
AcDbLine
 10
137.6460899999999
 20
33.811625
 30
0.0
 11
138.8680899999999
 21
32.895225
 31
0.0
  0
LINE
  5
154
330
1E
100
AcDbEntity
  8
0
100
AcDbLine
 10
145.9280899999999
 20
42.09322499999999
 30
0.0
 11
146.84409
 21
40.871325
 31
0.0
  0
LINE
  5
155
330
1E
100
AcDbEntity
  8
0
100
AcDbLine
 10
145.9280899999999
 20
33.811625
 30
0.0
 11
146.84409
 21
35.033525
 31
0.0
  0
LINE
  5
156
330
1E
100
AcDbEntity
  8
0
100
AcDbLine
 10
147.5740899999999
 20
36.37412499999999
 30
0.0
 11
147.7950899999999
 21
37.952425
 31
0.0
  0
LINE
  5
157
330
1E
100
AcDbEntity
  8
0
100
AcDbLine
 10
147.4210899999999
 20
39.479825
 30
0.0
 11
147.6250899999999
 21
37.952425
 31
0.0
  0
LINE
  5
158
330
1E
100
AcDbEntity
  8
0
100
AcDbLine
 10
147.4210899999999
 20
36.42502499999999
 30
0.0
 11
147.6250899999999
 21
37.952425
 31
0.0
  0
LINE
  5
159
330
1E
100
AcDbEntity
  8
0
100
AcDbLine
 10
146.84409
 20
35.033525
 30
0.0
 11
147.4210899999999
 21
36.42502499999999
 31
0.0
  0
LINE
  5
15A
330
1E
100
AcDbEntity
  8
0
100
AcDbLine
 10
146.84409
 20
40.871325
 30
0.0
 11
147.4210899999999
 21
39.479825
 31
0.0
  0
LINE
  5
15B
330
1E
100
AcDbEntity
  8
0
100
AcDbLine
 10
146.96309
 20
40.956225
 30
0.0
 11
147.5740899999999
 21
39.53072499999999
 31
0.0
  0
LINE
  5
15C
330
1E
100
AcDbEntity
  8
0
100
AcDbLine
 10
147.5740899999999
 20
39.53072499999999
 30
0.0
 11
147.7950899999999
 21
37.952425
 31
0.0
  0
LINE
  5
15D
330
1E
100
AcDbEntity
  8
0
100
AcDbLine
 10
172.4104345089849
 20
40.9256014350275
 30
0.0
 11
180.5010899999999
 21
43.570525
 31
0.0
  0
LINE
  5
15E
330
1E
100
AcDbEntity
  8
0
100
AcDbLine
 10
147.5740899999999
 20
36.37412499999999
 30
0.0
 11
147.7950899999999
 21
37.952425
 31
0.0
  0
LINE
  5
15F
330
1E
100
AcDbEntity
  8
0
100
AcDbLine
 10
146.96309
 20
34.94862499999999
 30
0.0
 11
147.5740899999999
 21
36.37412499999999
 31
0.0
  0
LINE
  5
160
330
1E
100
AcDbEntity
  8
0
100
AcDbLine
 10
146.96309
 20
34.94862499999999
 30
0.0
 11
147.5740899999999
 21
36.37412499999999
 31
0.0
  0
LINE
  5
161
330
1E
100
AcDbEntity
  8
0
100
AcDbLine
 10
137.5440899999999
 20
33.709825
 30
0.0
 11
138.7830899999999
 21
32.776425
 31
0.0
  0
LINE
  5
162
330
1E
100
AcDbEntity
  8
0
100
AcDbLine
 10
136.7300899999999
 20
40.871325
 30
0.0
 11
137.6460899999999
 21
42.09322499999999
 31
0.0
  0
LINE
  5
164
330
1E
100
AcDbEntity
  8
0
100
AcDbLine
 10
74.20129
 20
42.131825
 30
0.0
 11
74.31418999999999
 21
43.035525
 31
0.0
  0
LINE
  5
166
330
1E
100
AcDbEntity
  8
0
100
AcDbLine
 10
74.20129
 20
42.131825
 30
0.0
 11
74.25969000000001
 21
41.971325
 31
0.0
  0
LINE
  5
169
330
1E
100
AcDbEntity
  8
0
100
AcDbLine
 10
137.5440899999999
 20
42.19502499999999
 30
0.0
 11
138.7830899999999
 21
43.128425
 31
0.0
  0
LINE
  5
16B
330
1E
100
AcDbEntity
  8
0
100
AcDbLine
 10
62.47889
 20
43.43002499999999
 30
0.0
 11
62.75699
 21
42.666025
 31
0.0
  0
LINE
  5
170
330
1E
100
AcDbEntity
  8
0
100
AcDbLine
 10
62.30949
 20
43.895425
 30
0.0
 11
62.47889
 21
43.43002499999999
 31
0.0
  0
LINE
  5
171
330
1E
100
AcDbEntity
  8
0
100
AcDbLine
 10
73.8515066158409
 20
45.1813392352395
 30
0.0
 11
111.2310899999999
 21
53.664625
 31
0.0
  0
LINE
  5
172
330
1E
100
AcDbEntity
  8
0
100
AcDbLine
 10
73.99039000000001
 20
44.799725
 30
0.0
 11
74.29809
 21
43.954025
 31
0.0
  0
LINE
  5
174
330
1E
100
AcDbEntity
  8
0
100
AcDbLine
 10
74.00449
 20
44.33872499999999
 30
0.0
 11
74.31418999999999
 21
43.035525
 31
0.0
  0
LINE
  5
176
330
1E
100
AcDbEntity
  8
0
100
AcDbLine
 10
73.43839
 20
45.55662499999999
 30
0.0
 11
74.00449
 21
44.33872499999999
 31
0.0
  0
LINE
  5
177
330
1E
100
AcDbEntity
  8
0
100
AcDbLine
 10
74.29809
 20
43.954025
 30
0.0
 11
74.41779
 21
43.625125
 31
0.0
  0
LINE
  5
179
330
1E
100
AcDbEntity
  8
0
100
AcDbLine
 10
74.41779
 20
43.625125
 30
0.0
 11
74.47299
 21
42.847025
 31
0.0
  0
LINE
  5
17A
330
1E
100
AcDbEntity
  8
0
100
AcDbLine
 10
72.24329
 20
47.511025
 30
0.0
 11
72.41279
 21
47.045525
 31
0.0
  0
LINE
  5
17C
330
1E
100
AcDbEntity
  8
0
100
AcDbLine
 10
72.41279
 20
47.045525
 30
0.0
 11
72.69079000000001
 21
46.281725
 31
0.0
  0
LINE
  5
17E
330
1E
100
AcDbEntity
  8
0
100
AcDbLine
 10
73.49448999999999
 20
46.162325
 30
0.0
 11
73.99039000000001
 21
44.799725
 31
0.0
  0
LINE
  5
181
330
1E
100
AcDbEntity
  8
0
100
AcDbLine
 10
72.69079000000001
 20
46.281725
 30
0.0
 11
73.43839
 21
45.55662499999999
 31
0.0
  0
LINE
  5
183
330
1E
100
AcDbEntity
  8
0
100
AcDbLine
 10
111.8880899999999
 20
46.106825
 30
0.0
 11
115.0440899999999
 21
53.472025
 31
0.0
  0
LINE
  5
184
330
1E
100
AcDbEntity
  8
0
100
AcDbLine
 10
122.4970899999999
 20
43.21332499999999
 30
0.0
 11
124.5340899999999
 21
47.96502499999999
 31
0.0
  0
LINE
  5
185
330
1E
100
AcDbEntity
  8
0
100
AcDbLine
 10
71.95499000000001
 20
49.890625
 30
0.0
 11
72.24329
 21
47.511025
 31
0.0
  0
LINE
  5
186
330
1E
100
AcDbEntity
  8
0
100
AcDbLine
 10
71.25419
 20
52.31732499999999
 30
0.0
 11
71.85919
 21
50.655025
 31
0.0
  0
LINE
  5
188
330
1E
100
AcDbEntity
  8
0
100
AcDbLine
 10
71.18708999999999
 20
52.292825
 30
0.0
 11
71.95499000000001
 21
49.890625
 31
0.0
  0
LINE
  5
189
330
1E
100
AcDbEntity
  8
0
100
AcDbLine
 10
71.85919
 20
50.655025
 30
0.0
 11
72.09028376056491
 21
50.02000933061029
 31
0.0
  0
LINE
  5
18A
330
1E
100
AcDbEntity
  8
0
100
AcDbLine
 10
72.07499
 20
50.062025
 30
0.0
 11
73.49448999999999
 21
46.162325
 31
0.0
  0
LINE
  5
18B
330
1E
100
AcDbEntity
  8
0
100
AcDbLine
 10
62.78719
 20
51.50052500000001
 30
0.0
 11
63.44229
 21
54.347725
 31
0.0
  0
LINE
  5
18C
330
1E
100
AcDbEntity
  8
0
100
AcDbLine
 10
62.40349000000001
 20
59.966625
 30
0.0
 11
63.29149000000001
 21
57.265525
 31
0.0
  0
LINE
  5
18F
330
1E
100
AcDbEntity
  8
0
100
AcDbLine
 10
68.23249
 20
60.196925
 30
0.0
 11
68.58178999999999
 21
58.900225
 31
0.0
  0
LINE
  5
192
330
1E
100
AcDbEntity
  8
0
100
AcDbLine
 10
68.47509000000001
 20
57.864225
 30
0.0
 11
68.58178999999999
 21
58.900225
 31
0.0
  0
LINE
  5
194
330
1E
100
AcDbEntity
  8
0
100
AcDbLine
 10
68.47509000000001
 20
57.864225
 30
0.0
 11
68.75309
 21
57.100325
 31
0.0
  0
LINE
  5
197
330
1E
100
AcDbEntity
  8
0
100
AcDbLine
 10
67.63219000000001
 20
61.394525
 30
0.0
 11
68.23249
 21
60.196925
 31
0.0
  0
LINE
  5
198
330
1E
100
AcDbEntity
  8
0
100
AcDbLine
 10
68.09049
 20
61.009425
 30
0.0
 11
68.21018999999999
 21
60.680525
 31
0.0
  0
LINE
  5
199
330
1E
100
AcDbEntity
  8
0
100
AcDbLine
 10
68.75309
 20
57.100325
 30
0.0
 11
68.92248999999999
 21
56.634925
 31
0.0
  0
LINE
  5
19B
330
1E
100
AcDbEntity
  8
0
100
AcDbLine
 10
111.2310899999999
 20
53.664625
 30
0.0
 11
115.729461241417
 21
54.38159491601389
 31
0.0
  0
LINE
  5
19C
330
1E
100
AcDbEntity
  8
0
100
AcDbLine
 10
68.21018999999999
 20
60.680525
 30
0.0
 11
71.25419
 21
52.31732499999999
 31
0.0
  0
LINE
  5
19F
330
1E
100
AcDbEntity
  8
0
100
AcDbLine
 10
70.23129
 20
54.626725
 30
0.0
 11
71.18708999999999
 21
52.292825
 31
0.0
  0
LINE
  5
1A0
330
1E
100
AcDbEntity
  8
0
100
AcDbLine
 10
68.92248999999999
 20
56.634925
 30
0.0
 11
70.23129
 21
54.626725
 31
0.0
  0
LINE
  5
1A1
330
1E
100
AcDbEntity
  8
0
100
AcDbLine
 10
69.06128849202639
 20
58.3422658505185
 30
0.0
 11
108.3600899999999
 21
67.367225
 31
0.0
  0
LINE
  5
1A6
330
1E
100
AcDbEntity
  8
0
100
AcDbLine
 10
66.96469
 20
62.01412499999999
 30
0.0
 11
67.63219000000001
 21
61.394525
 31
0.0
  0
LINE
  5
1A7
330
1E
100
AcDbEntity
  8
0
100
AcDbLine
 10
67.63259000000001
 20
61.640925
 30
0.0
 11
68.09049
 21
61.009425
 31
0.0
  0
LINE
  5
1A8
330
1E
100
AcDbEntity
  8
0
100
AcDbLine
 10
66.14949
 20
62.165325
 30
0.0
 11
66.90619000000001
 21
62.17462499999999
 31
0.0
  0
LINE
  5
1A9
330
1E
100
AcDbEntity
  8
0
100
AcDbLine
 10
108.3600899999999
 20
67.367225
 30
0.0
 11
150.75509
 21
74.111525
 31
0.0
  0
LINE
  5
1AA
330
1E
100
AcDbEntity
  8
0
100
AcDbLine
 10
66.90619000000001
 20
62.17462499999999
 30
0.0
 11
67.63259000000001
 21
61.640925
 31
0.0
  0
LINE
  5
1AB
330
1E
100
AcDbEntity
  8
0
100
AcDbLine
 10
66.90619000000001
 20
62.17462499999999
 30
0.0
 11
66.96469
 21
62.01412499999999
 31
0.0
  0
LINE
  5
1AC
330
1E
100
AcDbEntity
  8
0
100
AcDbLine
 10
63.29149000000001
 20
57.265525
 30
0.0
 11
63.44229
 21
54.347725
 31
0.0
  0
LINE
  5
1AD
330
1E
100
AcDbEntity
  8
0
100
AcDbLine
 10
115.0440899999999
 20
53.472025
 30
0.0
 11
119.8670899999999
 21
59.872725
 31
0.0
  0
LINE
  5
1AE
330
1E
100
AcDbEntity
  8
0
100
AcDbLine
 10
126.26709
 20
64.695225
 30
0.0
 11
133.6330899999999
 21
67.851725
 31
0.0
  0
LINE
  5
1AF
330
1E
100
AcDbEntity
  8
0
100
AcDbLine
 10
119.8670899999999
 20
59.872725
 30
0.0
 11
126.26709
 21
64.695225
 31
0.0
  0
LINE
  5
1B0
330
1E
100
AcDbEntity
  8
0
100
AcDbLine
 10
124.5340899999999
 20
47.96502499999999
 30
0.0
 11
127.6450899999999
 21
52.094525
 31
0.0
  0
LINE
  5
1B1
330
1E
100
AcDbEntity
  8
0
100
AcDbLine
 10
133.6330899999999
 20
67.851725
 30
0.0
 11
141.7870899999999
 21
68.991625
 31
0.0
  0
LINE
  5
1B2
330
1E
100
AcDbEntity
  8
0
100
AcDbLine
 10
136.5260899999999
 20
57.242325
 30
0.0
 11
141.7870899999999
 21
57.977725
 31
0.0
  0
LINE
  5
1B3
330
1E
100
AcDbEntity
  8
0
100
AcDbLine
 10
131.7740899999999
 20
55.20582499999999
 30
0.0
 11
136.5260899999999
 21
57.242325
 31
0.0
  0
LINE
  5
1B4
330
1E
100
AcDbEntity
  8
0
100
AcDbLine
 10
127.6450899999999
 20
52.094525
 30
0.0
 11
131.7740899999999
 21
55.20582499999999
 31
0.0
  0
LINE
  5
1B5
330
1E
100
AcDbEntity
  8
0
100
AcDbLine
 10
138.7830899999999
 20
43.128425
 30
0.0
 11
140.20909
 21
43.739425
 31
0.0
  0
LINE
  5
1B6
330
1E
100
AcDbEntity
  8
0
100
AcDbLine
 10
180.5010899999999
 20
43.570525
 30
0.0
 11
190.7890899999999
 21
46.933325
 31
0.0
  0
LINE
  5
1B7
330
1E
100
AcDbEntity
  8
0
100
AcDbLine
 10
161.07709
 20
43.21332499999999
 30
0.0
 11
161.8120899999999
 21
37.952425
 31
0.0
  0
LINE
  5
1B8
330
1E
100
AcDbEntity
  8
0
100
AcDbLine
 10
144.7910899999999
 20
43.128425
 30
0.0
 11
146.03009
 21
42.19502499999999
 31
0.0
  0
LINE
  5
1B9
330
1E
100
AcDbEntity
  8
0
100
AcDbLine
 10
144.7060899999999
 20
43.00962499999999
 30
0.0
 11
145.9280899999999
 21
42.09322499999999
 31
0.0
  0
LINE
  5
1BA
330
1E
100
AcDbEntity
  8
0
100
AcDbLine
 10
143.3140899999999
 20
43.586625
 30
0.0
 11
144.7060899999999
 21
43.00962499999999
 31
0.0
  0
LINE
  5
1BB
330
1E
100
AcDbEntity
  8
0
100
AcDbLine
 10
140.20909
 20
43.739425
 30
0.0
 11
141.7870899999999
 21
43.960025
 31
0.0
  0
LINE
  5
1BC
330
1E
100
AcDbEntity
  8
0
100
AcDbLine
 10
141.7870899999999
 20
57.977725
 30
0.0
 11
147.04809
 21
57.242325
 31
0.0
  0
LINE
  5
1BD
330
1E
100
AcDbEntity
  8
0
100
AcDbLine
 10
141.7870899999999
 20
43.960025
 30
0.0
 11
143.3650899999999
 21
43.739425
 31
0.0
  0
LINE
  5
1BE
330
1E
100
AcDbEntity
  8
0
100
AcDbLine
 10
190.7890899999999
 20
46.933325
 30
0.0
 11
199.99209
 21
49.942025
 31
0.0
  0
LINE
  5
1BF
330
1E
100
AcDbEntity
  8
0
100
AcDbLine
 10
171.6860899999999
 20
46.106825
 30
0.0
 11
172.8260899999999
 21
37.952425
 31
0.0
  0
LINE
  5
1C0
330
1E
100
AcDbEntity
  8
0
100
AcDbLine
 10
169.985014146263
 20
50.07664878895489
 30
0.0
 11
170.3680899999999
 21
51.537325
 31
0.0
  0
LINE
  5
1C1
330
1E
100
AcDbEntity
  8
0
100
AcDbLine
 10
199.99209
 20
49.942025
 30
0.0
 11
209.19609
 21
52.950625
 31
0.0
  0
LINE
  5
1C2
330
1E
100
AcDbEntity
  8
0
100
AcDbLine
 10
209.19609
 20
52.950625
 30
0.0
 11
219.4830899999999
 21
56.313525
 31
0.0
  0
LINE
  5
1C3
330
1E
100
AcDbEntity
  8
0
100
AcDbLine
 10
173.29809
 20
51.078825
 30
0.0
 11
175.1680899999999
 21
53.597425
 31
0.0
  0
LINE
  5
1C4
330
1E
100
AcDbEntity
  8
0
100
AcDbLine
 10
170.6781938960349
 20
48.458965806377
 30
0.0
 11
173.29809
 21
51.078825
 31
0.0
  0
LINE
  5
1C5
330
1E
100
AcDbEntity
  8
0
100
AcDbLine
 10
170.3680899999999
 20
51.537325
 30
0.0
 11
171.4880899999999
 21
54.150825
 31
0.0
  0
LINE
  5
1C6
330
1E
100
AcDbEntity
  8
0
100
AcDbLine
 10
166.123023421292
 20
56.66649131771389
 30
0.0
 11
167.0210899999999
 21
57.051425
 31
0.0
  0
LINE
  5
1C7
330
1E
100
AcDbEntity
  8
0
100
AcDbLine
 10
175.1680899999999
 20
53.597425
 30
0.0
 11
176.3170899999999
 21
56.584725
 31
0.0
  0
LINE
  5
1C8
330
1E
100
AcDbEntity
  8
0
100
AcDbLine
 10
176.3535340713289
 20
56.9436991025926
 30
0.0
 11
186.43909
 21
60.240425
 31
0.0
  0
LINE
  5
1C9
330
1E
100
AcDbEntity
  8
0
100
AcDbLine
 10
219.4830899999999
 20
56.313525
 30
0.0
 11
230.8650899999999
 21
60.034325
 31
0.0
  0
LINE
  5
1CA
330
1E
100
AcDbEntity
  8
0
100
AcDbLine
 10
176.355639460918
 20
56.9644371900457
 30
0.0
 11
176.95809
 21
57.566825
 31
0.0
  0
LINE
  5
1CB
330
1E
100
AcDbEntity
  8
0
100
AcDbLine
 10
171.4880899999999
 20
54.150825
 30
0.0
 11
171.89309
 21
57.044325
 31
0.0
  0
LINE
  5
1CC
330
1E
100
AcDbEntity
  8
0
100
AcDbLine
 10
167.0210899999999
 20
57.051425
 30
0.0
 11
167.9500899999999
 21
57.751425
 31
0.0
  0
LINE
  5
1CD
330
1E
100
AcDbEntity
  8
0
100
AcDbLine
 10
168.53009
 20
53.472025
 30
0.0
 11
171.6860899999999
 21
46.106825
 31
0.0
  0
LINE
  5
1CE
330
1E
100
AcDbEntity
  8
0
100
AcDbLine
 10
155.92909
 20
52.094525
 30
0.0
 11
159.0400899999999
 21
47.96502499999999
 31
0.0
  0
LINE
  5
1CF
330
1E
100
AcDbEntity
  8
0
100
AcDbLine
 10
159.0400899999999
 20
47.96502499999999
 30
0.0
 11
161.07709
 21
43.21332499999999
 31
0.0
  0
LINE
  5
1D0
330
1E
100
AcDbEntity
  8
0
100
AcDbLine
 10
151.8000899999999
 20
55.20582499999999
 30
0.0
 11
155.92909
 21
52.094525
 31
0.0
  0
LINE
  5
1D1
330
1E
100
AcDbEntity
  8
0
100
AcDbLine
 10
161.5860899999999
 20
64.115425
 30
0.0
 11
162.5150899999999
 21
64.815425
 31
0.0
  0
LINE
  5
1D2
330
1E
100
AcDbEntity
  8
0
100
AcDbLine
 10
160.8860899999999
 20
63.186225
 30
0.0
 11
161.5860899999999
 21
64.115425
 31
0.0
  0
LINE
  5
1D3
330
1E
100
AcDbEntity
  8
0
100
AcDbLine
 10
160.5014037164129
 20
62.28825970353099
 30
0.0
 11
160.8860899999999
 21
63.186225
 31
0.0
  0
LINE
  5
1D4
330
1E
100
AcDbEntity
  8
0
100
AcDbLine
 10
167.9500899999999
 20
57.751425
 30
0.0
 11
168.6500899999999
 21
58.68052500000001
 31
0.0
  0
LINE
  5
1D5
330
1E
100
AcDbEntity
  8
0
100
AcDbLine
 10
168.6500899999999
 20
58.68052500000001
 30
0.0
 11
169.10809
 21
59.74972499999999
 31
0.0
  0
LINE
  5
1D6
330
1E
100
AcDbEntity
  8
0
100
AcDbLine
 10
176.3985016828929
 20
57.38663007649771
 30
0.0
 11
176.6720899999999
 21
60.022225
 31
0.0
  0
LINE
  5
1D7
330
1E
100
AcDbEntity
  8
0
100
AcDbLine
 10
176.95809
 20
57.566825
 30
0.0
 11
178.53509
 21
59.704325
 31
0.0
  0
LINE
  5
1D8
330
1E
100
AcDbEntity
  8
0
100
AcDbLine
 10
178.53509
 20
59.704325
 30
0.0
 11
179.5300899999999
 21
62.192325
 31
0.0
  0
LINE
  5
1D9
330
1E
100
AcDbEntity
  8
0
100
AcDbLine
 10
170.689132839234
 20
61.80210593209389
 30
0.0
 11
195.5620899999999
 21
63.977925
 31
0.0
  0
LINE
  5
1DA
330
1E
100
AcDbEntity
  8
0
100
AcDbLine
 10
186.43909
 20
60.240425
 30
0.0
 11
195.6420899999999
 21
63.249025
 31
0.0
  0
LINE
  5
1DB
330
1E
100
AcDbEntity
  8
0
100
AcDbLine
 10
230.8650899999999
 20
60.034325
 30
0.0
 11
239.0520899999999
 21
62.71072499999999
 31
0.0
  0
LINE
  5
1DC
330
1E
100
AcDbEntity
  8
0
100
AcDbLine
 10
171.4880899999999
 20
59.937825
 30
0.0
 11
171.89309
 21
57.044325
 31
0.0
  0
LINE
  5
1DD
330
1E
100
AcDbEntity
  8
0
100
AcDbLine
 10
169.10809
 20
59.74972499999999
 30
0.0
 11
169.2740899999999
 21
60.933425
 31
0.0
  0
LINE
  5
1DE
330
1E
100
AcDbEntity
  8
0
100
AcDbLine
 10
239.0520899999999
 20
62.71072499999999
 30
0.0
 11
246.0610899999999
 21
65.001925
 31
0.0
  0
LINE
  5
1DF
330
1E
100
AcDbEntity
  8
0
100
AcDbLine
 10
176.281414707709
 20
62.2913036356032
 30
0.0
 11
176.6720899999999
 21
60.022225
 31
0.0
  0
LINE
  5
1E0
330
1E
100
AcDbEntity
  8
0
100
AcDbLine
 10
179.5300899999999
 20
62.192325
 30
0.0
 11
179.570948494762
 21
62.57906316062189
 31
0.0
  0
LINE
  5
1E1
330
1E
100
AcDbEntity
  8
0
100
AcDbLine
 10
170.3680899999999
 20
62.551225
 30
0.0
 11
171.4880899999999
 21
59.937825
 31
0.0
  0
LINE
  5
1E2
330
1E
100
AcDbEntity
  8
0
100
AcDbLine
 10
195.6420899999999
 20
63.249025
 30
0.0
 11
198.5139811577149
 21
64.18778768330089
 31
0.0
  0
LINE
  5
1E3
330
1E
100
AcDbEntity
  8
0
100
AcDbLine
 10
195.5620899999999
 20
63.977925
 30
0.0
 11
205.2210899999999
 21
64.664625
 31
0.0
  0
LINE
  5
1E4
330
1E
100
AcDbEntity
  8
0
100
AcDbLine
 10
205.2210899999999
 20
64.664625
 30
0.0
 11
216.01609
 21
65.432225
 31
0.0
  0
LINE
  5
1E5
330
1E
100
AcDbEntity
  8
0
100
AcDbLine
 10
168.6500899999999
 20
63.186225
 30
0.0
 11
169.10809
 21
62.117125
 31
0.0
  0
LINE
  5
1E6
330
1E
100
AcDbEntity
  8
0
100
AcDbLine
 10
167.9500899999999
 20
64.115425
 30
0.0
 11
168.6500899999999
 21
63.186225
 31
0.0
  0
LINE
  5
1E7
330
1E
100
AcDbEntity
  8
0
100
AcDbLine
 10
169.10809
 20
62.117125
 30
0.0
 11
169.2740899999999
 21
60.933425
 31
0.0
  0
LINE
  5
1E8
330
1E
100
AcDbEntity
  8
0
100
AcDbLine
 10
163.7070899999999
 20
59.872725
 30
0.0
 11
168.53009
 21
53.472025
 31
0.0
  0
LINE
  5
1E9
330
1E
100
AcDbEntity
  8
0
100
AcDbLine
 10
162.5150899999999
 20
64.815425
 30
0.0
 11
163.5840899999999
 21
65.27362499999999
 31
0.0
  0
LINE
  5
1EA
330
1E
100
AcDbEntity
  8
0
100
AcDbLine
 10
163.5840899999999
 20
65.27362499999999
 30
0.0
 11
164.76809
 21
65.43912500000001
 31
0.0
  0
LINE
  5
1EB
330
1E
100
AcDbEntity
  8
0
100
AcDbLine
 10
153.911300554268
 20
66.15039868795171
 30
0.0
 11
155.3720899999999
 21
66.533725
 31
0.0
  0
LINE
  5
1EC
330
1E
100
AcDbEntity
  8
0
100
AcDbLine
 10
155.3720899999999
 20
66.533725
 30
0.0
 11
157.9850899999999
 21
67.65372499999999
 31
0.0
  0
LINE
  5
1ED
330
1E
100
AcDbEntity
  8
0
100
AcDbLine
 10
163.7720899999999
 20
67.65372499999999
 30
0.0
 11
166.3860899999999
 21
66.533725
 31
0.0
  0
LINE
  5
1EE
330
1E
100
AcDbEntity
  8
0
100
AcDbLine
 10
157.9850899999999
 20
67.65372499999999
 30
0.0
 11
160.8790899999999
 21
68.05822499999999
 31
0.0
  0
LINE
  5
1EF
330
1E
100
AcDbEntity
  8
0
100
AcDbLine
 10
160.8790899999999
 20
68.05822499999999
 30
0.0
 11
163.7720899999999
 21
67.65372499999999
 31
0.0
  0
LINE
  5
1F0
330
1E
100
AcDbEntity
  8
0
100
AcDbLine
 10
166.3860899999999
 20
66.533725
 30
0.0
 11
168.6570899999999
 21
64.822525
 31
0.0
  0
LINE
  5
1F1
330
1E
100
AcDbEntity
  8
0
100
AcDbLine
 10
164.76809
 20
65.43912500000001
 30
0.0
 11
165.9520899999999
 21
65.27362499999999
 31
0.0
  0
LINE
  5
1F2
330
1E
100
AcDbEntity
  8
0
100
AcDbLine
 10
165.9520899999999
 20
65.27362499999999
 30
0.0
 11
167.0210899999999
 21
64.815425
 31
0.0
  0
LINE
  5
1F3
330
1E
100
AcDbEntity
  8
0
100
AcDbLine
 10
236.5530899999999
 20
66.892325
 30
0.0
 11
243.9080899999999
 21
67.41522500000001
 31
0.0
  0
LINE
  5
1F4
330
1E
100
AcDbEntity
  8
0
100
AcDbLine
 10
227.9610899999999
 20
66.281425
 30
0.0
 11
236.5530899999999
 21
66.892325
 31
0.0
  0
LINE
  5
1F5
330
1E
100
AcDbEntity
  8
0
100
AcDbLine
 10
216.01609
 20
65.432225
 30
0.0
 11
227.9610899999999
 21
66.281425
 31
0.0
  0
LINE
  5
1F6
330
1E
100
AcDbEntity
  8
0
100
AcDbLine
 10
249.1940899999999
 20
67.791025
 30
0.0
 11
252.05009
 21
67.99412499999999
 31
0.0
  0
LINE
  5
1F7
330
1E
100
AcDbEntity
  8
0
100
AcDbLine
 10
243.9080899999999
 20
67.41522500000001
 30
0.0
 11
249.1940899999999
 21
67.791025
 31
0.0
  0
LINE
  5
1F8
330
1E
100
AcDbEntity
  8
0
100
AcDbLine
 10
252.05009
 20
67.99412499999999
 30
0.0
 11
253.81209
 21
68.119425
 31
0.0
  0
LINE
  5
1F9
330
1E
100
AcDbEntity
  8
0
100
AcDbLine
 10
251.0980899999999
 20
66.648325
 30
0.0
 11
253.81909
 21
67.538025
 31
0.0
  0
LINE
  5
1FA
330
1E
100
AcDbEntity
  8
0
100
AcDbLine
 10
246.0610899999999
 20
65.001925
 30
0.0
 11
251.0980899999999
 21
66.648325
 31
0.0
  0
LINE
  5
1FB
330
1E
100
AcDbEntity
  8
0
100
AcDbLine
 10
256.07209
 20
68.274425
 30
0.0
 11
257.69709
 21
69.07072499999999
 31
0.0
  0
LINE
  5
1FC
330
1E
100
AcDbEntity
  8
0
100
AcDbLine
 10
255.4980899999999
 20
68.08692499999999
 30
0.0
 11
256.07209
 21
68.274425
 31
0.0
  0
LINE
  5
1FD
330
1E
100
AcDbEntity
  8
0
100
AcDbLine
 10
253.81909
 20
67.538025
 30
0.0
 11
255.4980899999999
 21
68.08692499999999
 31
0.0
  0
LINE
  5
1FE
330
1E
100
AcDbEntity
  8
0
100
AcDbLine
 10
168.6570899999999
 20
64.822525
 30
0.0
 11
170.3680899999999
 21
62.551225
 31
0.0
  0
LINE
  5
1FF
330
1E
100
AcDbEntity
  8
0
100
AcDbLine
 10
167.0210899999999
 20
64.815425
 30
0.0
 11
167.9500899999999
 21
64.115425
 31
0.0
  0
LINE
  5
200
330
1E
100
AcDbEntity
  8
0
100
AcDbLine
 10
157.3070899999999
 20
64.695225
 30
0.0
 11
163.7070899999999
 21
59.872725
 31
0.0
  0
LINE
  5
201
330
1E
100
AcDbEntity
  8
0
100
AcDbLine
 10
149.9410899999999
 20
67.851725
 30
0.0
 11
157.3070899999999
 21
64.695225
 31
0.0
  0
LINE
  5
202
330
1E
100
AcDbEntity
  8
0
100
AcDbLine
 10
147.04809
 20
57.242325
 30
0.0
 11
151.8000899999999
 21
55.20582499999999
 31
0.0
  0
LINE
  5
203
330
1E
100
AcDbEntity
  8
0
100
AcDbLine
 10
141.7870899999999
 20
43.790325
 30
0.0
 11
143.3140899999999
 21
43.586625
 31
0.0
  0
LINE
  5
204
330
1E
100
AcDbEntity
  8
0
100
AcDbLine
 10
140.2600899999999
 20
43.586625
 30
0.0
 11
141.7870899999999
 21
43.790325
 31
0.0
  0
LINE
  5
205
330
1E
100
AcDbEntity
  8
0
100
AcDbLine
 10
138.8680899999999
 20
43.00962499999999
 30
0.0
 11
140.2600899999999
 21
43.586625
 31
0.0
  0
LINE
  5
206
330
1E
100
AcDbEntity
  8
0
100
AcDbLine
 10
137.6460899999999
 20
42.09322499999999
 30
0.0
 11
138.8680899999999
 21
43.00962499999999
 31
0.0
  0
LINE
  5
207
330
1E
100
AcDbEntity
  8
0
100
AcDbLine
 10
62.28329
 20
43.469825
 30
0.0
 11
62.70809
 21
35.247225
 31
0.0
  0
LINE
  5
208
330
1E
100
AcDbEntity
  8
0
100
AcDbLine
 10
60.86189
 20
27.223225
 30
0.0
 11
62.70809
 21
35.247225
 31
0.0
  0
LINE
  5
209
330
1E
100
AcDbEntity
  8
0
100
AcDbLine
 10
57.07549
 20
20.16112499999999
 30
0.0
 11
60.86189
 21
27.223225
 31
0.0
  0
LINE
  5
20A
330
1E
100
AcDbEntity
  8
0
100
AcDbLine
 10
51.71349
 20
14.205045
 30
0.0
 11
57.07549
 21
20.16112499999999
 31
0.0
  0
LINE
  5
20B
330
1E
100
AcDbEntity
  8
0
100
AcDbLine
 10
49.57838999999999
 20
63.240825
 30
0.0
 11
55.53449
 21
57.878825
 31
0.0
  0
LINE
  5
20C
330
1E
100
AcDbEntity
  8
0
100
AcDbLine
 10
150.75509
 20
74.111525
 30
0.0
 11
194.57009
 21
77.94262500000001
 31
0.0
  0
LINE
  5
20F
330
1E
100
AcDbEntity
  8
0
100
AcDbLine
 10
257.69709
 20
69.07072499999999
 30
0.0
 11
259.0850899999999
 21
70.231425
 31
0.0
  0
LINE
  5
210
330
1E
100
AcDbEntity
  8
0
100
AcDbLine
 10
259.0850899999999
 20
70.231425
 30
0.0
 11
260.1470899999999
 21
71.757125
 31
0.0
  0
LINE
  5
211
330
1E
100
AcDbEntity
  8
0
100
AcDbLine
 10
260.1470899999999
 20
71.757125
 30
0.0
 11
260.7510899999999
 21
73.515625
 31
0.0
  0
LINE
  5
212
330
1E
100
AcDbEntity
  8
0
100
AcDbLine
 10
260.7510899999999
 20
73.515625
 30
0.0
 11
260.8680899999999
 21
75.321325
 31
0.0
  0
LINE
  5
213
330
1E
100
AcDbEntity
  8
0
100
AcDbLine
 10
194.57009
 20
77.94262500000001
 30
0.0
 11
204.2280899999999
 21
78.62932499999999
 31
0.0
  0
LINE
  5
214
330
1E
100
AcDbEntity
  8
0
100
AcDbLine
 10
215.02409
 20
79.39692499999999
 30
0.0
 11
226.96809
 21
80.24622499999999
 31
0.0
  0
LINE
  5
215
330
1E
100
AcDbEntity
  8
0
100
AcDbLine
 10
204.2280899999999
 20
78.62932499999999
 30
0.0
 11
215.02409
 21
79.39692499999999
 31
0.0
  0
LINE
  5
216
330
1E
100
AcDbEntity
  8
0
100
AcDbLine
 10
226.96809
 20
80.24622499999999
 30
0.0
 11
235.56009
 21
80.857025
 31
0.0
  0
LINE
  5
217
330
1E
100
AcDbEntity
  8
0
100
AcDbLine
 10
235.56009
 20
80.857025
 30
0.0
 11
242.9150899999999
 21
81.380025
 31
0.0
  0
LINE
  5
218
330
1E
100
AcDbEntity
  8
0
100
AcDbLine
 10
248.20109
 20
81.75572499999999
 30
0.0
 11
251.0570899999999
 21
81.95882500000001
 31
0.0
  0
LINE
  5
219
330
1E
100
AcDbEntity
  8
0
100
AcDbLine
 10
242.9150899999999
 20
81.380025
 30
0.0
 11
248.20109
 21
81.75572499999999
 31
0.0
  0
LINE
  5
21A
330
1E
100
AcDbEntity
  8
0
100
AcDbLine
 10
251.0570899999999
 20
81.95882500000001
 30
0.0
 11
252.8190899999999
 21
82.08412499999999
 31
0.0
  0
LINE
  5
21B
330
1E
100
AcDbEntity
  8
0
100
AcDbLine
 10
252.8190899999999
 20
82.08412499999999
 30
0.0
 11
254.6230899999999
 21
81.95972500000001
 31
0.0
  0
LINE
  5
21C
330
1E
100
AcDbEntity
  8
0
100
AcDbLine
 10
254.6230899999999
 20
81.95972500000001
 30
0.0
 11
255.3090899999999
 21
81.78192499999999
 31
0.0
  0
LINE
  5
21D
330
1E
100
AcDbEntity
  8
0
100
AcDbLine
 10
255.3090899999999
 20
81.78192499999999
 30
0.0
 11
257.0680899999999
 21
81.17852499999999
 31
0.0
  0
LINE
  5
21E
330
1E
100
AcDbEntity
  8
0
100
AcDbLine
 10
257.0680899999999
 20
81.17852499999999
 30
0.0
 11
258.59309
 21
80.115925
 31
0.0
  0
LINE
  5
21F
330
1E
100
AcDbEntity
  8
0
100
AcDbLine
 10
258.59309
 20
80.115925
 30
0.0
 11
259.7540899999999
 21
78.727925
 31
0.0
  0
LINE
  5
220
330
1E
100
AcDbEntity
  8
0
100
AcDbLine
 10
259.7540899999999
 20
78.727925
 30
0.0
 11
260.55009
 21
77.102925
 31
0.0
  0
LINE
  5
221
330
1E
100
AcDbEntity
  8
0
100
AcDbLine
 10
260.55009
 20
77.102925
 30
0.0
 11
260.8680899999999
 21
75.321325
 31
0.0
  0
LINE
  5
223
330
1E
100
AcDbEntity
  8
0
100
AcDbLine
 10
141.7870899999999
 20
68.991625
 30
0.0
 11
149.9410899999999
 21
67.851725
 31
0.0
  0
LINE
  5
224
330
1E
100
AcDbEntity
  8
0
100
AcDbLine
 10
34.49229
 20
68.87342499999999
 30
0.0
 11
42.51629
 21
67.027225
 31
0.0
  0
LINE
  5
225
330
1E
100
AcDbEntity
  8
0
100
AcDbLine
 10
26.26969
 20
68.44862500000001
 30
0.0
 11
34.49229
 21
68.87342499999999
 31
0.0
  0
LINE
  5
226
330
1E
100
AcDbEntity
  8
0
100
AcDbLine
 10
11.86069
 20
61.69982499999999
 30
0.0
 11
18.65738999999999
 21
65.946025
 31
0.0
  0
LINE
  5
22B
330
1E
100
AcDbEntity
  8
0
100
AcDbLine
 10
135.7790899999999
 20
37.952425
 30
0.0
 11
136.0000899999999
 21
39.53072499999999
 31
0.0
  0
LINE
  5
22C
330
1E
100
AcDbEntity
  8
0
100
AcDbLine
 10
146.03009
 20
42.19502499999999
 30
0.0
 11
146.96309
 21
40.956225
 31
0.0
  0
LINE
  5
22D
330
1E
100
AcDbEntity
  8
0
100
AcDbLine
 10
144.7910899999999
 20
43.128425
 30
0.0
 11
143.3650899999999
 21
43.739425
 31
0.0
  0
ENDSEC
  0
SECTION
  2
OBJECTS
  0
DICTIONARY
  5
C
330
0
100
AcDbDictionary
281
     1
  3
ACAD_GROUP
350
D
  3
ACAD_LAYOUT
350
19
  3
ACAD_MLINESTYLE
350
16
  3
ACAD_PLOTSETTINGS
350
18
  3
ACAD_PLOTSTYLENAME
350
E
  3
AcDbVariableDictionary
350
22E
  0
DICTIONARY
  5
D
102
{ACAD_REACTORS
330
C
102
}
330
C
100
AcDbDictionary
281
     1
  0
DICTIONARY
  5
19
102
{ACAD_REACTORS
330
C
102
}
330
C
100
AcDbDictionary
281
     1
  3
Layout1
350
1D
  3
Model
350
21
  0
DICTIONARY
  5
16
102
{ACAD_REACTORS
330
C
102
}
330
C
100
AcDbDictionary
281
     1
  3
Standard
350
17
  0
DICTIONARY
  5
18
102
{ACAD_REACTORS
330
C
102
}
330
C
100
AcDbDictionary
281
     1
  0
ACDBDICTIONARYWDFLT
  5
E
102
{ACAD_REACTORS
330
C
102
}
330
C
100
AcDbDictionary
281
     1
  3
Normal
350
F
100
AcDbDictionaryWithDefault
340
F
  0
DICTIONARY
  5
22E
102
{ACAD_REACTORS
330
C
102
}
330
C
100
AcDbDictionary
281
     1
  3
DIMASSOC
350
22F
  0
LAYOUT
  5
1D
102
{ACAD_REACTORS
330
19
102
}
330
19
100
AcDbPlotSettings
  1

  2
hp deskjet 980c series
  4

  6

 40
0.0
 41
0.0
 42
0.0
 43
0.0
 44
0.0
 45
0.0
 46
0.0
 47
0.0
 48
0.0
 49
0.0
140
0.0
141
0.0
142
1.0
143
1.0
 70
   688
 72
     0
 73
     0
 74
     5
  7

 75
    16
147
1.0
148
0.0
149
0.0
100
AcDbLayout
  1
Layout1
 70
     1
 71
     1
 10
0.0
 20
0.0
 11
12.0
 21
9.0
 12
0.0
 22
0.0
 32
0.0
 14
1.000000000000000E+20
 24
1.000000000000000E+20
 34
1.000000000000000E+20
 15
-1.000000000000000E+20
 25
-1.000000000000000E+20
 35
-1.000000000000000E+20
146
0.0
 13
0.0
 23
0.0
 33
0.0
 16
1.0
 26
0.0
 36
0.0
 17
0.0
 27
1.0
 37
0.0
 76
     0
330
1A
  0
LAYOUT
  5
21
102
{ACAD_REACTORS
330
19
102
}
330
19
100
AcDbPlotSettings
  1

  2
hp deskjet 980c series
  4

  6

 40
0.0
 41
0.0
 42
0.0
 43
0.0
 44
0.0
 45
0.0
 46
0.0
 47
0.0
 48
0.0
 49
0.0
140
0.0
141
0.0
142
1.0
143
1.0
 70
  1712
 72
     0
 73
     0
 74
     0
  7

 75
     0
147
1.0
148
0.0
149
0.0
100
AcDbLayout
  1
Model
 70
     1
 71
     0
 10
0.0
 20
0.0
 11
12.0
 21
9.0
 12
0.0
 22
0.0
 32
0.0
 14
0.0
 24
0.0
 34
0.0
 15
0.0
 25
0.0
 35
0.0
146
0.0
 13
0.0
 23
0.0
 33
0.0
 16
1.0
 26
0.0
 36
0.0
 17
0.0
 27
1.0
 37
0.0
 76
     0
330
1E
  0
MLINESTYLE
  5
17
102
{ACAD_REACTORS
330
16
102
}
330
16
100
AcDbMlineStyle
  2
STANDARD
 70
     0
  3

 62
   256
 51
90.0
 52
90.0
 71
     2
 49
0.5
 62
   256
  6
BYLAYER
 49
-0.5
 62
   256
  6
BYLAYER
  0
ACDBPLACEHOLDER
  5
F
102
{ACAD_REACTORS
330
E
102
}
330
E
  0
DICTIONARYVAR
  5
22F
102
{ACAD_REACTORS
330
22E
102
}
330
22E
100
DictionaryVariables
280
     0
  1
1
  0
ENDSEC
  0
EOF
