  0
SECTION
  2
HEADER
  9
$ACADVER
  1
AC1015
  9
$ACADMAINTVER
 70
    13
  9
$DWGCODEPAGE
  3
ANSI_1252
  9
$INSBASE
 10
0.0
 20
0.0
 30
0.0
  9
$EXTMIN
 10
0.0
 20
0.156999999999997
 30
0.0
  9
$EXTMAX
 10
54.0
 20
78.843
 30
0.0
  9
$LIMMIN
 10
0.0
 20
0.0
  9
$LIMMAX
 10
12.0
 20
9.0
  9
$ORTHOMODE
 70
     0
  9
$REGENMODE
 70
     1
  9
$FILLMODE
 70
     1
  9
$QTEXTMODE
 70
     0
  9
$MIRRTEXT
 70
     1
  9
$LTSCALE
 40
1.0
  9
$ATTMODE
 70
     1
  9
$TEXTSIZE
 40
0.2
  9
$TRACEWID
 40
0.05
  9
$TEXTSTYLE
  7
Standard
  9
$CLAYER
  8
0
  9
$CELTYPE
  6
Continuous
  9
$CECOLOR
 62
   256
  9
$CELTSCALE
 40
1.0
  9
$DISPSILH
 70
     0
  9
$DIMSCALE
 40
1.0
  9
$DIMASZ
 40
0.18
  9
$DIMEXO
 40
0.0625
  9
$DIMDLI
 40
0.38
  9
$DIMRND
 40
0.0
  9
$DIMDLE
 40
0.0
  9
$DIMEXE
 40
0.18
  9
$DIMTP
 40
0.0
  9
$DIMTM
 40
0.0
  9
$DIMTXT
 40
0.18
  9
$DIMCEN
 40
0.09
  9
$DIMTSZ
 40
0.0
  9
$DIMTOL
 70
     0
  9
$DIMLIM
 70
     0
  9
$DIMTIH
 70
     1
  9
$DIMTOH
 70
     1
  9
$DIMSE1
 70
     0
  9
$DIMSE2
 70
     0
  9
$DIMTAD
 70
     0
  9
$DIMZIN
 70
     0
  9
$DIMBLK
  1

  9
$DIMASO
 70
     1
  9
$DIMSHO
 70
     1
  9
$DIMPOST
  1

  9
$DIMAPOST
  1

  9
$DIMALT
 70
     0
  9
$DIMALTD
 70
     2
  9
$DIMALTF
 40
25.4
  9
$DIMLFAC
 40
1.0
  9
$DIMTOFL
 70
     0
  9
$DIMTVP
 40
0.0
  9
$DIMTIX
 70
     0
  9
$DIMSOXD
 70
     0
  9
$DIMSAH
 70
     0
  9
$DIMBLK1
  1

  9
$DIMBLK2
  1

  9
$DIMSTYLE
  2
Standard
  9
$DIMCLRD
 70
     0
  9
$DIMCLRE
 70
     0
  9
$DIMCLRT
 70
     0
  9
$DIMTFAC
 40
1.0
  9
$DIMGAP
 40
0.09
  9
$DIMJUST
 70
     0
  9
$DIMSD1
 70
     0
  9
$DIMSD2
 70
     0
  9
$DIMTOLJ
 70
     1
  9
$DIMTZIN
 70
     0
  9
$DIMALTZ
 70
     0
  9
$DIMALTTZ
 70
     0
  9
$DIMUPT
 70
     0
  9
$DIMDEC
 70
     4
  9
$DIMTDEC
 70
     4
  9
$DIMALTU
 70
     2
  9
$DIMALTTD
 70
     2
  9
$DIMTXSTY
  7
Standard
  9
$DIMAUNIT
 70
     0
  9
$DIMADEC
 70
     0
  9
$DIMALTRND
 40
0.0
  9
$DIMAZIN
 70
     0
  9
$DIMDSEP
 70
    46
  9
$DIMATFIT
 70
     3
  9
$DIMFRAC
 70
     0
  9
$DIMLDRBLK
  1

  9
$DIMLUNIT
 70
     2
  9
$DIMLWD
 70
    -2
  9
$DIMLWE
 70
    -2
  9
$DIMTMOVE
 70
     0
  9
$LUNITS
 70
     2
  9
$LUPREC
 70
     4
  9
$SKETCHINC
 40
0.1
  9
$FILLETRAD
 40
0.0
  9
$AUNITS
 70
     0
  9
$AUPREC
 70
     0
  9
$MENU
  1
.
  9
$ELEVATION
 40
0.0
  9
$PELEVATION
 40
0.0
  9
$THICKNESS
 40
0.0
  9
$LIMCHECK
 70
     0
  9
$CHAMFERA
 40
0.0
  9
$CHAMFERB
 40
0.0
  9
$CHAMFERC
 40
0.0
  9
$CHAMFERD
 40
0.0
  9
$SKPOLY
 70
     0
  9
$TDCREATE
 40
2455651.997433449
  9
$TDUCREATE
 40
2455651.914100115
  9
$TDUPDATE
 40
2455652.001582754
  9
$TDUUPDATE
 40
2455651.918249421
  9
$TDINDWG
 40
0.0041493056
  9
$TDUSRTIMER
 40
0.0041493056
  9
$USRTIMER
 70
     1
  9
$ANGBASE
 50
0.0
  9
$ANGDIR
 70
     0
  9
$PDMODE
 70
     0
  9
$PDSIZE
 40
0.0
  9
$PLINEWID
 40
0.0
  9
$SPLFRAME
 70
     0
  9
$SPLINETYPE
 70
     6
  9
$SPLINESEGS
 70
     8
  9
$HANDSEED
  5
266
  9
$SURFTAB1
 70
     6
  9
$SURFTAB2
 70
     6
  9
$SURFTYPE
 70
     6
  9
$SURFU
 70
     6
  9
$SURFV
 70
     6
  9
$UCSBASE
  2

  9
$UCSNAME
  2

  9
$UCSORG
 10
0.0
 20
0.0
 30
0.0
  9
$UCSXDIR
 10
1.0
 20
0.0
 30
0.0
  9
$UCSYDIR
 10
0.0
 20
1.0
 30
0.0
  9
$UCSORTHOREF
  2

  9
$UCSORTHOVIEW
 70
     1
  9
$UCSORGTOP
 10
0.0
 20
0.0
 30
0.0
  9
$UCSORGBOTTOM
 10
0.0
 20
0.0
 30
0.0
  9
$UCSORGLEFT
 10
0.0
 20
0.0
 30
0.0
  9
$UCSORGRIGHT
 10
0.0
 20
0.0
 30
0.0
  9
$UCSORGFRONT
 10
0.0
 20
0.0
 30
0.0
  9
$UCSORGBACK
 10
0.0
 20
0.0
 30
0.0
  9
$PUCSBASE
  2

  9
$PUCSNAME
  2

  9
$PUCSORG
 10
0.0
 20
0.0
 30
0.0
  9
$PUCSXDIR
 10
1.0
 20
0.0
 30
0.0
  9
$PUCSYDIR
 10
0.0
 20
1.0
 30
0.0
  9
$PUCSORTHOREF
  2

  9
$PUCSORTHOVIEW
 70
     0
  9
$PUCSORGTOP
 10
0.0
 20
0.0
 30
0.0
  9
$PUCSORGBOTTOM
 10
0.0
 20
0.0
 30
0.0
  9
$PUCSORGLEFT
 10
0.0
 20
0.0
 30
0.0
  9
$PUCSORGRIGHT
 10
0.0
 20
0.0
 30
0.0
  9
$PUCSORGFRONT
 10
0.0
 20
0.0
 30
0.0
  9
$PUCSORGBACK
 10
0.0
 20
0.0
 30
0.0
  9
$USERI1
 70
     0
  9
$USERI2
 70
     0
  9
$USERI3
 70
     0
  9
$USERI4
 70
     0
  9
$USERI5
 70
     0
  9
$USERR1
 40
0.0
  9
$USERR2
 40
0.0
  9
$USERR3
 40
0.0
  9
$USERR4
 40
0.0
  9
$USERR5
 40
0.0
  9
$WORLDVIEW
 70
     1
  9
$SHADEDGE
 70
     3
  9
$SHADEDIF
 70
    70
  9
$TILEMODE
 70
     1
  9
$MAXACTVP
 70
    64
  9
$PINSBASE
 10
0.0
 20
0.0
 30
0.0
  9
$PLIMCHECK
 70
     0
  9
$PEXTMIN
 10
1.000000000000000E+20
 20
1.000000000000000E+20
 30
1.000000000000000E+20
  9
$PEXTMAX
 10
-1.000000000000000E+20
 20
-1.000000000000000E+20
 30
-1.000000000000000E+20
  9
$PLIMMIN
 10
0.0
 20
0.0
  9
$PLIMMAX
 10
12.0
 20
9.0
  9
$UNITMODE
 70
     0
  9
$VISRETAIN
 70
     1
  9
$PLINEGEN
 70
     0
  9
$PSLTSCALE
 70
     1
  9
$TREEDEPTH
 70
  3020
  9
$CMLSTYLE
  2
Standard
  9
$CMLJUST
 70
     0
  9
$CMLSCALE
 40
1.0
  9
$PROXYGRAPHICS
 70
     1
  9
$MEASUREMENT
 70
     0
  9
$CELWEIGHT
370
    -1
  9
$ENDCAPS
280
     0
  9
$JOINSTYLE
280
     0
  9
$LWDISPLAY
290
     0
  9
$INSUNITS
 70
     0
  9
$HYPERLINKBASE
  1

  9
$STYLESHEET
  1

  9
$XEDIT
290
     1
  9
$CEPSNTYPE
380
     0
  9
$PSTYLEMODE
290
     1
  9
$FINGERPRINTGUID
  2
{CF1C3398-7649-46BE-BD43-BDFA9D431A56}
  9
$VERSIONGUID
  2
{4AF11F04-10A5-4579-82B4-A3B86730701B}
  9
$EXTNAMES
290
     1
  9
$PSVPSCALE
 40
0.0
  9
$OLESTARTUP
290
     0
  0
ENDSEC
  0
SECTION
  2
CLASSES
  0
CLASS
  1
ACDBDICTIONARYWDFLT
  2
AcDbDictionaryWithDefault
  3
AutoCAD 2000
 90
        0
280
     0
281
     0
  0
CLASS
  1
ACDBPLACEHOLDER
  2
AcDbPlaceHolder
  3
AutoCAD 2000
 90
        0
280
     0
281
     0
  0
CLASS
  1
LAYOUT
  2
AcDbLayout
  3
AutoCAD 2000
 90
        0
280
     0
281
     0
  0
CLASS
  1
DICTIONARYVAR
  2
AcDbDictionaryVar
  3
AutoCAD 2000
 90
        0
280
     0
281
     0
  0
ENDSEC
  0
SECTION
  2
TABLES
  0
TABLE
  2
VPORT
  5
8
330
0
100
AcDbSymbolTable
 70
     3
  0
VPORT
  5
265
330
8
100
AcDbSymbolTableRecord
100
AcDbViewportTableRecord
  2
*Active
 70
     0
 10
0.0
 20
0.0
 11
1.0
 21
1.0
 12
27.0
 22
39.5
 13
0.0
 23
0.0
 14
1.0
 24
1.0
 15
0.0
 25
0.0
 16
0.0
 26
0.0
 36
1.0
 17
0.0
 27
0.0
 37
0.0
 40
79.21826155580609
 41
2.073363431151241
 42
50.0
 43
0.0
 44
0.0
 50
0.0
 51
0.0
 71
     0
 72
   100
 73
     1
 74
     3
 75
     0
 76
     0
 77
     0
 78
     0
281
     0
 65
     1
110
0.0
120
0.0
130
0.0
111
1.0
121
0.0
131
0.0
112
0.0
122
1.0
132
0.0
 79
     1
146
0.0
  0
ENDTAB
  0
TABLE
  2
LTYPE
  5
5
330
0
100
AcDbSymbolTable
 70
     1
  0
LTYPE
  5
13
330
5
100
AcDbSymbolTableRecord
100
AcDbLinetypeTableRecord
  2
ByBlock
 70
     0
  3

 72
    65
 73
     0
 40
0.0
  0
LTYPE
  5
14
330
5
100
AcDbSymbolTableRecord
100
AcDbLinetypeTableRecord
  2
ByLayer
 70
     0
  3

 72
    65
 73
     0
 40
0.0
  0
LTYPE
  5
15
330
5
100
AcDbSymbolTableRecord
100
AcDbLinetypeTableRecord
  2
Continuous
 70
     0
  3
Solid line
 72
    65
 73
     0
 40
0.0
  0
ENDTAB
  0
TABLE
  2
LAYER
  5
2
330
0
100
AcDbSymbolTable
 70
     1
  0
LAYER
  5
10
330
2
100
AcDbSymbolTableRecord
100
AcDbLayerTableRecord
  2
0
 70
     0
 62
     7
  6
Continuous
370
    -3
390
F
  0
ENDTAB
  0
TABLE
  2
STYLE
  5
3
330
0
100
AcDbSymbolTable
 70
     1
  0
STYLE
  5
11
330
3
100
AcDbSymbolTableRecord
100
AcDbTextStyleTableRecord
  2
Standard
 70
     0
 40
0.0
 41
1.0
 50
0.0
 71
     0
 42
0.2
  3
txt
  4

  0
ENDTAB
  0
TABLE
  2
VIEW
  5
6
330
0
100
AcDbSymbolTable
 70
     0
  0
ENDTAB
  0
TABLE
  2
UCS
  5
7
330
0
100
AcDbSymbolTable
 70
     0
  0
ENDTAB
  0
TABLE
  2
APPID
  5
9
330
0
100
AcDbSymbolTable
 70
     1
  0
APPID
  5
12
330
9
100
AcDbSymbolTableRecord
100
AcDbRegAppTableRecord
  2
ACAD
 70
     0
  0
ENDTAB
  0
TABLE
  2
DIMSTYLE
  5
A
330
0
100
AcDbSymbolTable
 70
     1
100
AcDbDimStyleTable
 71
     0
  0
DIMSTYLE
105
259
330
A
100
AcDbSymbolTableRecord
100
AcDbDimStyleTableRecord
  2
Standard
 70
     0
340
11
  0
ENDTAB
  0
TABLE
  2
BLOCK_RECORD
  5
1
330
0
100
AcDbSymbolTable
 70
     0
  0
BLOCK_RECORD
  5
1E
330
1
100
AcDbSymbolTableRecord
100
AcDbBlockTableRecord
  2
*Model_Space
340
21
  0
BLOCK_RECORD
  5
1A
330
1
100
AcDbSymbolTableRecord
100
AcDbBlockTableRecord
  2
*Paper_Space
340
1D
  0
ENDTAB
  0
ENDSEC
  0
SECTION
  2
BLOCKS
  0
BLOCK
  5
1F
330
1E
100
AcDbEntity
  8
0
100
AcDbBlockBegin
  2
*Model_Space
 70
     0
 10
0.0
 20
0.0
 30
0.0
  3
*Model_Space
  1

  0
ENDBLK
  5
20
330
1E
100
AcDbEntity
  8
0
100
AcDbBlockEnd
  0
BLOCK
  5
1B
330
1A
100
AcDbEntity
 67
     1
  8
0
100
AcDbBlockBegin
  2
*Paper_Space
 70
     0
 10
0.0
 20
0.0
 30
0.0
  3
*Paper_Space
  1

  0
ENDBLK
  5
1C
330
1A
100
AcDbEntity
 67
     1
  8
0
100
AcDbBlockEnd
  0
ENDSEC
  0
SECTION
  2
ENTITIES
  0
LINE
  5
22
330
1E
100
AcDbEntity
  8
0
100
AcDbLine
 10
14.7738
 20
5.657
 30
0.0
 11
14.7738
 21
25.15699999999999
 31
0.0
  0
LINE
  5
23
330
1E
100
AcDbEntity
  8
0
100
AcDbLine
 10
14.7738
 20
5.657
 30
0.0
 11
17.66079999999999
 21
0.6569999999999972
 31
0.0
  0
LINE
  5
24
330
1E
100
AcDbEntity
  8
0
100
AcDbLine
 10
14.7738
 20
5.657
 30
0.0
 11
17.66079999999999
 21
0.6569999999999979
 31
0.0
  0
LINE
  5
25
330
1E
100
AcDbEntity
  8
0
100
AcDbLine
 10
14.7738
 20
25.15699999999999
 30
0.0
 11
14.7738
 21
5.657
 31
0.0
  0
LINE
  5
26
330
1E
100
AcDbEntity
  8
0
100
AcDbLine
 10
14.7738
 20
25.15699999999999
 30
0.0
 11
14.8398
 21
25.15699999999999
 31
0.0
  0
LINE
  5
27
330
1E
100
AcDbEntity
  8
0
100
AcDbLine
 10
14.7738
 20
25.15699999999999
 30
0.0
 11
16.7738
 21
27.157
 31
0.0
  0
LINE
  5
28
330
1E
100
AcDbEntity
  8
0
100
AcDbLine
 10
14.8398
 20
25.15699999999999
 30
0.0
 11
14.8398
 21
5.657
 31
0.0
  0
LINE
  5
29
330
1E
100
AcDbEntity
  8
0
100
AcDbLine
 10
14.8398
 20
25.15699999999999
 30
0.0
 11
15.17479999999999
 21
25.46699999999999
 31
0.0
  0
LINE
  5
2A
330
1E
100
AcDbEntity
  8
0
100
AcDbLine
 10
14.8398
 20
5.657
 30
0.0
 11
15.0208
 21
5.366
 31
0.0
  0
LINE
  5
2B
330
1E
100
AcDbEntity
  8
0
100
AcDbLine
 10
14.8398
 20
5.657
 30
0.0
 11
14.8398
 21
25.15699999999999
 31
0.0
  0
LINE
  5
2C
330
1E
100
AcDbEntity
  8
0
100
AcDbLine
 10
15.17479999999999
 20
25.46699999999999
 30
0.0
 11
15.4508
 21
25.713
 31
0.0
  0
LINE
  5
2D
330
1E
100
AcDbEntity
  8
0
100
AcDbLine
 10
15.0208
 20
5.366
 30
0.0
 11
15.4198
 21
4.741999999999999
 31
0.0
  0
LINE
  5
2E
330
1E
100
AcDbEntity
  8
0
100
AcDbLine
 10
15.4508
 20
25.713
 30
0.0
 11
15.8858
 21
26.074
 31
0.0
  0
LINE
  5
2F
330
1E
100
AcDbEntity
  8
0
100
AcDbLine
 10
15.4198
 20
4.741999999999999
 30
0.0
 11
15.73879999999999
 21
4.272
 31
0.0
  0
LINE
  5
30
330
1E
100
AcDbEntity
  8
0
100
AcDbLine
 10
15.8858
 20
26.074
 30
0.0
 11
16.1568
 21
26.272
 31
0.0
  0
LINE
  5
31
330
1E
100
AcDbEntity
  8
0
100
AcDbLine
 10
15.73879999999999
 20
4.272
 30
0.0
 11
16.0968
 21
3.797001
 31
0.0
  0
LINE
  5
32
330
1E
100
AcDbEntity
  8
0
100
AcDbLine
 10
16.51679999999999
 20
25.15699999999999
 30
0.0
 11
16.6908
 21
25.53
 31
0.0
  0
LINE
  5
33
330
1E
100
AcDbEntity
  8
0
100
AcDbLine
 10
16.51679999999999
 20
25.15699999999999
 30
0.0
 11
16.51679999999999
 21
5.657
 31
0.0
  0
LINE
  5
34
330
1E
100
AcDbEntity
  8
0
100
AcDbLine
 10
16.51679999999999
 20
25.15699999999999
 30
0.0
 11
17.2278
 21
25.15699999999999
 31
0.0
  0
LINE
  5
35
330
1E
100
AcDbEntity
  8
0
100
AcDbLine
 10
16.51679999999999
 20
5.657
 30
0.0
 11
16.6538
 21
5.157999999999999
 31
0.0
  0
LINE
  5
36
330
1E
100
AcDbEntity
  8
0
100
AcDbLine
 10
16.51679999999999
 20
5.657
 30
0.0
 11
16.51679999999999
 21
25.15699999999999
 31
0.0
  0
LINE
  5
37
330
1E
100
AcDbEntity
  8
0
100
AcDbLine
 10
16.1568
 20
26.272
 30
0.0
 11
16.3748
 21
26.405
 31
0.0
  0
LINE
  5
38
330
1E
100
AcDbEntity
  8
0
100
AcDbLine
 10
16.0968
 20
3.797001
 30
0.0
 11
16.3708
 21
3.499001
 31
0.0
  0
LINE
  5
39
330
1E
100
AcDbEntity
  8
0
100
AcDbLine
 10
16.3748
 20
26.405
 30
0.0
 11
16.60879999999999
 21
26.498
 31
0.0
  0
LINE
  5
3A
330
1E
100
AcDbEntity
  8
0
100
AcDbLine
 10
18.4188
 20
0.6569999999999972
 30
0.0
 11
18.9958
 21
0.6569999999999972
 31
0.0
  0
LINE
  5
3B
330
1E
100
AcDbEntity
  8
0
100
AcDbLine
 10
17.9998
 20
0.6569999999999972
 30
0.0
 11
18.4188
 21
0.6569999999999972
 31
0.0
  0
LINE
  5
3C
330
1E
100
AcDbEntity
  8
0
100
AcDbLine
 10
17.7458
 20
0.6569999999999979
 30
0.0
 11
17.9998
 21
0.6569999999999979
 31
0.0
  0
LINE
  5
3D
330
1E
100
AcDbEntity
  8
0
100
AcDbLine
 10
17.7458
 20
0.6569999999999979
 30
0.0
 11
17.9998
 21
0.6569999999999972
 31
0.0
  0
LINE
  5
3E
330
1E
100
AcDbEntity
  8
0
100
AcDbLine
 10
17.9998
 20
0.6569999999999979
 30
0.0
 11
18.4188
 21
0.6569999999999979
 31
0.0
  0
LINE
  5
3F
330
1E
100
AcDbEntity
  8
0
100
AcDbLine
 10
18.4188
 20
0.6569999999999979
 30
0.0
 11
18.9958
 21
0.6569999999999979
 31
0.0
  0
LINE
  5
40
330
1E
100
AcDbEntity
  8
0
100
AcDbLine
 10
17.66079999999999
 20
0.6569999999999979
 30
0.0
 11
17.7458
 21
0.6569999999999979
 31
0.0
  0
LINE
  5
41
330
1E
100
AcDbEntity
  8
0
100
AcDbLine
 10
16.8748
 20
3.611001
 30
0.0
 11
16.8768
 21
3.935
 31
0.0
  0
LINE
  5
42
330
1E
100
AcDbEntity
  8
0
100
AcDbLine
 10
18.7488
 20
4.741999999999999
 30
0.0
 11
19.1788
 21
4.272
 31
0.0
  0
LINE
  5
43
330
1E
100
AcDbEntity
  8
0
100
AcDbLine
 10
16.8368
 20
4.286
 30
0.0
 11
16.8768
 21
3.935
 31
0.0
  0
LINE
  5
44
330
1E
100
AcDbEntity
  8
0
100
AcDbLine
 10
16.7508
 20
4.75
 30
0.0
 11
16.8368
 21
4.286
 31
0.0
  0
LINE
  5
45
330
1E
100
AcDbEntity
  8
0
100
AcDbLine
 10
17.2278
 20
25.15699999999999
 30
0.0
 11
18.0468
 21
25.15699999999999
 31
0.0
  0
LINE
  5
46
330
1E
100
AcDbEntity
  8
0
100
AcDbLine
 10
18.0468
 20
25.15699999999999
 30
0.0
 11
18.0468
 21
5.657
 31
0.0
  0
LINE
  5
47
330
1E
100
AcDbEntity
  8
0
100
AcDbLine
 10
18.0468
 20
25.15699999999999
 30
0.0
 11
18.4418
 21
25.46699999999999
 31
0.0
  0
LINE
  5
48
330
1E
100
AcDbEntity
  8
0
100
AcDbLine
 10
18.0468
 20
5.657
 30
0.0
 11
18.2558
 21
5.366
 31
0.0
  0
LINE
  5
49
330
1E
100
AcDbEntity
  8
0
100
AcDbLine
 10
18.0468
 20
5.657
 30
0.0
 11
18.0468
 21
25.15699999999999
 31
0.0
  0
LINE
  5
4A
330
1E
100
AcDbEntity
  8
0
100
AcDbLine
 10
18.4418
 20
25.46699999999999
 30
0.0
 11
18.78879999999999
 21
25.713
 31
0.0
  0
LINE
  5
4B
330
1E
100
AcDbEntity
  8
0
100
AcDbLine
 10
18.2558
 20
5.366
 30
0.0
 11
18.7488
 21
4.741999999999999
 31
0.0
  0
LINE
  5
4C
330
1E
100
AcDbEntity
  8
0
100
AcDbLine
 10
16.7708
 20
26.491
 30
0.0
 11
16.8628
 21
26.383
 31
0.0
  0
LINE
  5
4D
330
1E
100
AcDbEntity
  8
0
100
AcDbLine
 10
16.8628
 20
26.383
 30
0.0
 11
16.8818
 21
26.223
 31
0.0
  0
LINE
  5
4E
330
1E
100
AcDbEntity
  8
0
100
AcDbLine
 10
16.84479999999999
 20
25.98
 30
0.0
 11
16.8818
 21
26.223
 31
0.0
  0
LINE
  5
4F
330
1E
100
AcDbEntity
  8
0
100
AcDbLine
 10
16.78679999999999
 20
25.781
 30
0.0
 11
16.84479999999999
 21
25.98
 31
0.0
  0
LINE
  5
50
330
1E
100
AcDbEntity
  8
0
100
AcDbLine
 10
16.6908
 20
25.53
 30
0.0
 11
16.78679999999999
 21
25.781
 31
0.0
  0
LINE
  5
51
330
1E
100
AcDbEntity
  8
0
100
AcDbLine
 10
16.6538
 20
5.157999999999999
 30
0.0
 11
16.7508
 21
4.75
 31
0.0
  0
LINE
  5
52
330
1E
100
AcDbEntity
  8
0
100
AcDbLine
 10
16.60879999999999
 20
26.498
 30
0.0
 11
16.7708
 21
26.491
 31
0.0
  0
LINE
  5
53
330
1E
100
AcDbEntity
  8
0
100
AcDbLine
 10
18.1158
 20
27.157
 30
0.0
 11
18.8458
 21
27.157
 31
0.0
  0
LINE
  5
54
330
1E
100
AcDbEntity
  8
0
100
AcDbLine
 10
17.53579999999999
 20
27.157
 30
0.0
 11
18.1158
 21
27.157
 31
0.0
  0
LINE
  5
55
330
1E
100
AcDbEntity
  8
0
100
AcDbLine
 10
17.11479999999999
 20
27.157
 30
0.0
 11
17.53579999999999
 21
27.157
 31
0.0
  0
LINE
  5
56
330
1E
100
AcDbEntity
  8
0
100
AcDbLine
 10
16.85979999999999
 20
27.157
 30
0.0
 11
17.11479999999999
 21
27.157
 31
0.0
  0
LINE
  5
57
330
1E
100
AcDbEntity
  8
0
100
AcDbLine
 10
16.7738
 20
27.157
 30
0.0
 11
16.85979999999999
 21
27.157
 31
0.0
  0
LINE
  5
58
330
1E
100
AcDbEntity
  8
0
100
AcDbLine
 10
18.75355034550239
 20
27.157
 30
0.0
 11
18.7655156207698
 21
37.45532349730329
 31
0.0
  0
LINE
  5
59
330
1E
100
AcDbEntity
  8
0
100
AcDbLine
 10
21.5778
 20
0.156999999999997
 30
0.0
 11
22.3848
 21
0.156999999999997
 31
0.0
  0
LINE
  5
5A
330
1E
100
AcDbEntity
  8
0
100
AcDbLine
 10
22.3848
 20
0.156999999999997
 30
0.0
 11
23.2988
 21
0.156999999999997
 31
0.0
  0
LINE
  5
5B
330
1E
100
AcDbEntity
  8
0
100
AcDbLine
 10
23.2988
 20
0.156999999999997
 30
0.0
 11
24.3008
 21
0.156999999999997
 31
0.0
  0
LINE
  5
5C
330
1E
100
AcDbEntity
  8
0
100
AcDbLine
 10
20.89379999999999
 20
0.156999999999998
 30
0.0
 11
21.5778
 21
0.156999999999999
 31
0.0
  0
LINE
  5
5D
330
1E
100
AcDbEntity
  8
0
100
AcDbLine
 10
20.89379999999999
 20
0.156999999999998
 30
0.0
 11
21.5778
 21
0.156999999999997
 31
0.0
  0
LINE
  5
5E
330
1E
100
AcDbEntity
  8
0
100
AcDbLine
 10
20.3468
 20
0.156999999999998
 30
0.0
 11
20.89379999999999
 21
0.156999999999998
 31
0.0
  0
LINE
  5
5F
330
1E
100
AcDbEntity
  8
0
100
AcDbLine
 10
19.9478
 20
0.156999999999998
 30
0.0
 11
20.3468
 21
0.156999999999998
 31
0.0
  0
LINE
  5
60
330
1E
100
AcDbEntity
  8
0
100
AcDbLine
 10
19.7048
 20
0.156999999999998
 30
0.0
 11
19.9478
 21
0.156999999999998
 31
0.0
  0
LINE
  5
61
330
1E
100
AcDbEntity
  8
0
100
AcDbLine
 10
24.3008
 20
0.156999999999999
 30
0.0
 11
25.3698
 21
0.156999999999999
 31
0.0
  0
LINE
  5
62
330
1E
100
AcDbEntity
  8
0
100
AcDbLine
 10
22.3848
 20
0.156999999999999
 30
0.0
 11
23.2988
 21
0.156999999999999
 31
0.0
  0
LINE
  5
63
330
1E
100
AcDbEntity
  8
0
100
AcDbLine
 10
21.5778
 20
0.156999999999999
 30
0.0
 11
22.3848
 21
0.156999999999999
 31
0.0
  0
LINE
  5
64
330
1E
100
AcDbEntity
  8
0
100
AcDbLine
 10
19.62379999999999
 20
0.156999999999998
 30
0.0
 11
19.7048
 21
0.156999999999998
 31
0.0
  0
LINE
  5
65
330
1E
100
AcDbEntity
  8
0
100
AcDbLine
 10
25.3698
 20
0.156999999999999
 30
0.0
 11
26.4858
 21
0.156999999999999
 31
0.0
  0
LINE
  5
66
330
1E
100
AcDbEntity
  8
0
100
AcDbLine
 10
25.3698
 20
0.156999999999997
 30
0.0
 11
26.4858
 21
0.156999999999997
 31
0.0
  0
LINE
  5
67
330
1E
100
AcDbEntity
  8
0
100
AcDbLine
 10
24.3008
 20
0.156999999999997
 30
0.0
 11
25.3698
 21
0.156999999999997
 31
0.0
  0
LINE
  5
68
330
1E
100
AcDbEntity
  8
0
100
AcDbLine
 10
18.9958
 20
0.6569999999999972
 30
0.0
 11
19.12379999999999
 21
0.6569999999999972
 31
0.0
  0
LINE
  5
69
330
1E
100
AcDbEntity
  8
0
100
AcDbLine
 10
18.9958
 20
0.6569999999999979
 30
0.0
 11
19.7198
 21
0.6569999999999979
 31
0.0
  0
LINE
  5
6A
330
1E
100
AcDbEntity
  8
0
100
AcDbLine
 10
18.8458
 20
27.157
 30
0.0
 11
19.7148
 21
27.157
 31
0.0
  0
LINE
  5
6B
330
1E
100
AcDbEntity
  8
0
100
AcDbLine
 10
18.78879999999999
 20
25.713
 30
0.0
 11
19.3898
 21
26.074
 31
0.0
  0
LINE
  5
6C
330
1E
100
AcDbEntity
  8
0
100
AcDbLine
 10
19.3898
 20
26.074
 30
0.0
 11
19.8118
 21
26.272
 31
0.0
  0
LINE
  5
6D
330
1E
100
AcDbEntity
  8
0
100
AcDbLine
 10
19.1788
 20
4.272
 30
0.0
 11
19.71379999999999
 21
3.797001
 31
0.0
  0
LINE
  5
6E
330
1E
100
AcDbEntity
  8
0
100
AcDbLine
 10
19.7198
 20
0.6569999999999979
 30
0.0
 11
20.5788
 21
0.6569999999999979
 31
0.0
  0
LINE
  5
6F
330
1E
100
AcDbEntity
  8
0
100
AcDbLine
 10
22.0578
 20
0.6569999999999979
 30
0.0
 11
23.0288
 21
0.6569999999999979
 31
0.0
  0
LINE
  5
70
330
1E
100
AcDbEntity
  8
0
100
AcDbLine
 10
21.19979999999999
 20
0.6569999999999979
 30
0.0
 11
22.0578
 21
0.6569999999999979
 31
0.0
  0
LINE
  5
71
330
1E
100
AcDbEntity
  8
0
100
AcDbLine
 10
20.4728
 20
0.6569999999999979
 30
0.0
 11
21.19979999999999
 21
0.6569999999999979
 31
0.0
  0
LINE
  5
72
330
1E
100
AcDbEntity
  8
0
100
AcDbLine
 10
20.5788
 20
0.6569999999999979
 30
0.0
 11
21.5588
 21
0.6569999999999979
 31
0.0
  0
LINE
  5
73
330
1E
100
AcDbEntity
  8
0
100
AcDbLine
 10
21.5588
 20
0.6569999999999979
 30
0.0
 11
22.6418
 21
0.6569999999999979
 31
0.0
  0
LINE
  5
74
330
1E
100
AcDbEntity
  8
0
100
AcDbLine
 10
19.71379999999999
 20
3.797001
 30
0.0
 11
20.18479999999999
 21
3.499001
 31
0.0
  0
LINE
  5
75
330
1E
100
AcDbEntity
  8
0
100
AcDbLine
 10
21.5968
 20
3.611001
 30
0.0
 11
21.8718
 21
3.935
 31
0.0
  0
LINE
  5
76
330
1E
100
AcDbEntity
  8
0
100
AcDbLine
 10
21.8718
 20
3.935
 30
0.0
 11
22.0658
 21
4.286
 31
0.0
  0
LINE
  5
77
330
1E
100
AcDbEntity
  8
0
100
AcDbLine
 10
22.0658
 20
4.286
 30
0.0
 11
22.2408
 21
4.75
 31
0.0
  0
LINE
  5
78
330
1E
100
AcDbEntity
  8
0
100
AcDbLine
 10
22.2408
 20
4.75
 30
0.0
 11
22.3468
 21
5.157999999999999
 31
0.0
  0
LINE
  5
79
330
1E
100
AcDbEntity
  8
0
100
AcDbLine
 10
22.6418
 20
0.6569999999999979
 30
0.0
 11
23.8108
 21
0.6569999999999979
 31
0.0
  0
LINE
  5
7A
330
1E
100
AcDbEntity
  8
0
100
AcDbLine
 10
22.4358
 20
5.657
 30
0.0
 11
22.4358
 21
25.15699999999999
 31
0.0
  0
LINE
  5
7B
330
1E
100
AcDbEntity
  8
0
100
AcDbLine
 10
22.3468
 20
5.157999999999999
 30
0.0
 11
22.4358
 21
5.657
 31
0.0
  0
LINE
  5
7C
330
1E
100
AcDbEntity
  8
0
100
AcDbLine
 10
19.8118
 20
26.272
 30
0.0
 11
20.19179999999999
 21
26.405
 31
0.0
  0
LINE
  5
7D
330
1E
100
AcDbEntity
  8
0
100
AcDbLine
 10
20.19179999999999
 20
26.405
 30
0.0
 11
20.67379999999999
 21
26.498
 31
0.0
  0
LINE
  5
7E
330
1E
100
AcDbEntity
  8
0
100
AcDbLine
 10
19.7148
 20
27.157
 30
0.0
 11
20.7078
 21
27.157
 31
0.0
  0
LINE
  5
7F
330
1E
100
AcDbEntity
  8
0
100
AcDbLine
 10
20.7078
 20
27.157
 30
0.0
 11
21.80979999999999
 21
27.157
 31
0.0
  0
LINE
  5
80
330
1E
100
AcDbEntity
  8
0
100
AcDbLine
 10
20.67379999999999
 20
26.498
 30
0.0
 11
21.1078
 21
26.491
 31
0.0
  0
LINE
  5
81
330
1E
100
AcDbEntity
  8
0
100
AcDbLine
 10
21.1078
 20
26.491
 30
0.0
 11
21.50279999999999
 21
26.383
 31
0.0
  0
LINE
  5
82
330
1E
100
AcDbEntity
  8
0
100
AcDbLine
 10
21.80979999999999
 20
27.157
 30
0.0
 11
23.0038
 21
27.157
 31
0.0
  0
LINE
  5
83
330
1E
100
AcDbEntity
  8
0
100
AcDbLine
 10
21.50279999999999
 20
26.383
 30
0.0
 11
21.7828
 21
26.22199999999999
 31
0.0
  0
LINE
  5
84
330
1E
100
AcDbEntity
  8
0
100
AcDbLine
 10
21.7828
 20
26.22199999999999
 30
0.0
 11
22.0398
 21
25.98
 31
0.0
  0
LINE
  5
85
330
1E
100
AcDbEntity
  8
0
100
AcDbLine
 10
22.0398
 20
25.98
 30
0.0
 11
22.1828
 21
25.781
 31
0.0
  0
LINE
  5
86
330
1E
100
AcDbEntity
  8
0
100
AcDbLine
 10
22.1828
 20
25.781
 30
0.0
 11
22.31279999999999
 21
25.531
 31
0.0
  0
LINE
  5
87
330
1E
100
AcDbEntity
  8
0
100
AcDbLine
 10
23.0038
 20
27.157
 30
0.0
 11
24.2708
 21
27.157
 31
0.0
  0
LINE
  5
88
330
1E
100
AcDbEntity
  8
0
100
AcDbLine
 10
22.31279999999999
 20
25.531
 30
0.0
 11
22.4358
 21
25.15699999999999
 31
0.0
  0
LINE
  5
89
330
1E
100
AcDbEntity
  8
0
100
AcDbLine
 10
22.4358
 20
25.15699999999999
 30
0.0
 11
22.4358
 21
5.657
 31
0.0
  0
LINE
  5
8A
330
1E
100
AcDbEntity
  8
0
100
AcDbLine
 10
22.4358
 20
25.15699999999999
 30
0.0
 11
23.65279999999999
 21
25.15699999999999
 31
0.0
  0
LINE
  5
8B
330
1E
100
AcDbEntity
  8
0
100
AcDbLine
 10
25.0448
 20
0.6569999999999979
 30
0.0
 11
26.3228
 21
0.6569999999999979
 31
0.0
  0
LINE
  5
8C
330
1E
100
AcDbEntity
  8
0
100
AcDbLine
 10
23.8108
 20
0.6569999999999979
 30
0.0
 11
25.0448
 21
0.6569999999999979
 31
0.0
  0
LINE
  5
8D
330
1E
100
AcDbEntity
  8
0
100
AcDbLine
 10
25.2288
 20
0.6569999999999979
 30
0.0
 11
26.41379999999999
 21
0.6569999999999979
 31
0.0
  0
LINE
  5
8E
330
1E
100
AcDbEntity
  8
0
100
AcDbLine
 10
24.2708
 20
27.157
 30
0.0
 11
25.5908
 21
27.157
 31
0.0
  0
LINE
  5
8F
330
1E
100
AcDbEntity
  8
0
100
AcDbLine
 10
23.65279999999999
 20
25.15699999999999
 30
0.0
 11
24.9108
 21
25.15699999999999
 31
0.0
  0
LINE
  5
90
330
1E
100
AcDbEntity
  8
0
100
AcDbLine
 10
24.9108
 20
25.15699999999999
 30
0.0
 11
24.9108
 21
5.657
 31
0.0
  0
LINE
  5
91
330
1E
100
AcDbEntity
  8
0
100
AcDbLine
 10
24.9108
 20
25.15699999999999
 30
0.0
 11
25.2148
 21
25.46699999999999
 31
0.0
  0
LINE
  5
92
330
1E
100
AcDbEntity
  8
0
100
AcDbLine
 10
24.9108
 20
5.657
 30
0.0
 11
25.0688
 21
5.366
 31
0.0
  0
LINE
  5
93
330
1E
100
AcDbEntity
  8
0
100
AcDbLine
 10
24.9108
 20
5.657
 30
0.0
 11
24.9108
 21
25.15699999999999
 31
0.0
  0
LINE
  5
94
330
1E
100
AcDbEntity
  8
0
100
AcDbLine
 10
25.2148
 20
25.46699999999999
 30
0.0
 11
25.5018
 21
25.713
 31
0.0
  0
LINE
  5
95
330
1E
100
AcDbEntity
  8
0
100
AcDbLine
 10
25.0688
 20
5.366
 30
0.0
 11
25.4668
 21
4.741999999999999
 31
0.0
  0
LINE
  5
96
330
1E
100
AcDbEntity
  8
0
100
AcDbLine
 10
25.5908
 20
27.157
 30
0.0
 11
26.9428
 21
27.157
 31
0.0
  0
LINE
  5
97
330
1E
100
AcDbEntity
  8
0
100
AcDbLine
 10
25.5018
 20
25.713
 30
0.0
 11
26.0388
 21
26.074
 31
0.0
  0
LINE
  5
98
330
1E
100
AcDbEntity
  8
0
100
AcDbLine
 10
25.4668
 20
4.741999999999999
 30
0.0
 11
25.8438
 21
4.272
 31
0.0
  0
LINE
  5
99
330
1E
100
AcDbEntity
  8
0
100
AcDbLine
 10
25.8438
 20
4.272
 30
0.0
 11
26.35279999999999
 21
3.797001
 31
0.0
  0
LINE
  5
9A
330
1E
100
AcDbEntity
  8
0
100
AcDbLine
 10
24.0928
 20
0.6569999999999979
 30
0.0
 11
25.2288
 21
0.6569999999999979
 31
0.0
  0
LINE
  5
9B
330
1E
100
AcDbEntity
  8
0
100
AcDbLine
 10
23.0288
 20
0.6569999999999979
 30
0.0
 11
24.0928
 21
0.6569999999999979
 31
0.0
  0
LINE
  5
9C
330
1E
100
AcDbEntity
  8
0
100
AcDbLine
 10
19.8918
 20
0.6569999999999979
 30
0.0
 11
20.4728
 21
0.6569999999999979
 31
0.0
  0
LINE
  5
9D
330
1E
100
AcDbEntity
  8
0
100
AcDbLine
 10
19.4678
 20
0.6569999999999979
 30
0.0
 11
19.8918
 21
0.6569999999999979
 31
0.0
  0
LINE
  5
9E
330
1E
100
AcDbEntity
  8
0
100
AcDbLine
 10
19.21079999999999
 20
0.6569999999999979
 30
0.0
 11
19.4678
 21
0.6569999999999979
 31
0.0
  0
LINE
  5
9F
330
1E
100
AcDbEntity
  8
0
100
AcDbLine
 10
19.12379999999999
 20
0.6569999999999979
 30
0.0
 11
19.21079999999999
 21
0.6569999999999979
 31
0.0
  0
LINE
  5
A0
330
1E
100
AcDbEntity
  8
0
100
AcDbLine
 10
19.12379999999999
 20
0.6569999999999979
 30
0.0
 11
19.62379999999999
 21
0.156999999999998
 31
0.0
  0
LINE
  5
A1
330
1E
100
AcDbEntity
  8
0
100
AcDbLine
 10
23.2988
 20
0.156999999999999
 30
0.0
 11
24.3008
 21
0.156999999999999
 31
0.0
  0
LINE
  5
A2
330
1E
100
AcDbEntity
  8
0
100
AcDbLine
 10
26.4858
 20
0.156999999999997
 30
0.0
 11
27.6237
 21
0.156999999999997
 31
0.0
  0
LINE
  5
A3
330
1E
100
AcDbEntity
  8
0
100
AcDbLine
 10
26.4858
 20
0.156999999999999
 30
0.0
 11
27.6237
 21
0.156999999999999
 31
0.0
  0
LINE
  5
A4
330
1E
100
AcDbEntity
  8
0
100
AcDbLine
 10
26.5238
 20
0.156999999999997
 30
0.0
 11
28.7238
 21
0.156999999999997
 31
0.0
  0
LINE
  5
A5
330
1E
100
AcDbEntity
  8
0
100
AcDbLine
 10
26.3228
 20
0.6569999999999979
 30
0.0
 11
27.624
 21
0.6569999999999979
 31
0.0
  0
LINE
  5
A6
330
1E
100
AcDbEntity
  8
0
100
AcDbLine
 10
26.0388
 20
26.074
 30
0.0
 11
26.4508
 21
26.272
 31
0.0
  0
LINE
  5
A7
330
1E
100
AcDbEntity
  8
0
100
AcDbLine
 10
26.35279999999999
 20
3.797001
 30
0.0
 11
26.8398
 21
3.499001
 31
0.0
  0
LINE
  5
A8
330
1E
100
AcDbEntity
  8
0
100
AcDbLine
 10
26.4508
 20
26.272
 30
0.0
 11
26.84779999999999
 21
26.405
 31
0.0
  0
LINE
  5
A9
330
1E
100
AcDbEntity
  8
0
100
AcDbLine
 10
26.84779999999999
 20
26.405
 30
0.0
 11
27.3928
 21
26.498
 31
0.0
  0
LINE
  5
AA
330
1E
100
AcDbEntity
  8
0
100
AcDbLine
 10
26.9428
 20
27.157
 30
0.0
 11
28.3048
 21
27.157
 31
0.0
  0
LINE
  5
AB
330
1E
100
AcDbEntity
  8
0
100
AcDbLine
 10
27.3928
 20
26.498
 30
0.0
 11
27.9328
 21
26.491
 31
0.0
  0
LINE
  5
AC
330
1E
100
AcDbEntity
  8
0
100
AcDbLine
 10
26.41379999999999
 20
0.6569999999999979
 30
0.0
 11
27.6237
 21
0.6569999999999979
 31
0.0
  0
LINE
  5
AD
330
1E
100
AcDbEntity
  8
0
100
AcDbLine
 10
26.5238
 20
0.156999999999999
 30
0.0
 11
28.7238
 21
0.156999999999999
 31
0.0
  0
LINE
  5
B0
330
1E
100
AcDbEntity
  8
0
100
AcDbLine
 10
18.75355034550239
 20
27.157
 30
0.0
 11
18.7655156207698
 21
37.45532349730329
 31
0.0
  0
LINE
  5
B2
330
1E
100
AcDbEntity
  8
0
100
AcDbLine
 10
26.6989
 20
33.397
 30
0.0
 11
27.0
 21
33.4121
 31
0.0
  0
LINE
  5
B4
330
1E
100
AcDbEntity
  8
0
100
AcDbLine
 10
25.0684
 20
33.573
 30
0.0
 11
26.6989
 21
33.397
 31
0.0
  0
LINE
  5
B5
330
1E
100
AcDbEntity
  8
0
100
AcDbLine
 10
23.485
 20
34.001
 30
0.0
 11
25.0684
 21
33.573
 31
0.0
  0
LINE
  5
B6
330
1E
100
AcDbEntity
  8
0
100
AcDbLine
 10
25.4405
 20
34.725
 30
0.0
 11
26.963
 21
34.593
 31
0.0
  0
LINE
  5
B7
330
1E
100
AcDbEntity
  8
0
100
AcDbLine
 10
23.96109999999999
 20
35.106
 30
0.0
 11
25.4405
 21
34.725
 31
0.0
  0
LINE
  5
B8
330
1E
100
AcDbEntity
  8
0
100
AcDbLine
 10
21.98849999999999
 20
34.672
 30
0.0
 11
23.485
 21
34.001
 31
0.0
  0
LINE
  5
B9
330
1E
100
AcDbEntity
  8
0
100
AcDbLine
 10
22.56369999999999
 20
35.725
 30
0.0
 11
23.96109999999999
 21
35.106
 31
0.0
  0
LINE
  5
BA
330
1E
100
AcDbEntity
  8
0
100
AcDbLine
 10
21.2883
 20
36.566
 30
0.0
 11
22.56369999999999
 21
35.725
 31
0.0
  0
LINE
  5
BB
330
1E
100
AcDbEntity
  8
0
100
AcDbLine
 10
26.5789
 20
36.104
 30
0.0
 11
27.0
 21
36.12019999999999
 31
0.0
  0
LINE
  5
BC
330
1E
100
AcDbEntity
  8
0
100
AcDbLine
 10
26.39979999999999
 20
37.11999999999999
 30
0.0
 11
27.0
 21
37.1254
 31
0.0
  0
LINE
  5
BD
330
1E
100
AcDbEntity
  8
0
100
AcDbLine
 10
25.1635
 20
36.314
 30
0.0
 11
26.5789
 21
36.104
 31
0.0
  0
LINE
  5
BE
330
1E
100
AcDbEntity
  8
0
100
AcDbLine
 10
23.8111
 20
36.779
 30
0.0
 11
25.1635
 21
36.314
 31
0.0
  0
LINE
  5
BF
330
1E
100
AcDbEntity
  8
0
100
AcDbLine
 10
20.6151
 20
35.569
 30
0.0
 11
21.98849999999999
 21
34.672
 31
0.0
  0
LINE
  5
C0
330
1E
100
AcDbEntity
  8
0
100
AcDbLine
 10
19.3987
 20
36.669
 30
0.0
 11
20.6151
 21
35.569
 31
0.0
  0
LINE
  5
C4
330
1E
100
AcDbEntity
  8
0
100
AcDbLine
 10
17.5532
 20
39.368
 30
0.0
 11
18.3704
 21
37.94599999999999
 31
0.0
  0
LINE
  5
C5
330
1E
100
AcDbEntity
  8
0
100
AcDbLine
 10
17.7763
 20
43.11600000000001
 30
0.0
 11
17.78229999999999
 21
44.643
 31
0.0
  0
LINE
  5
C6
330
1E
100
AcDbEntity
  8
0
100
AcDbLine
 10
17.7763
 20
43.11600000000001
 30
0.0
 11
18.0213
 21
41.608
 31
0.0
  0
LINE
  5
C7
330
1E
100
AcDbEntity
  8
0
100
AcDbLine
 10
17.78229999999999
 20
44.643
 30
0.0
 11
18.0393
 21
46.14899999999999
 31
0.0
  0
LINE
  5
C8
330
1E
100
AcDbEntity
  8
0
100
AcDbLine
 10
16.63289999999999
 20
42.506
 30
0.0
 11
16.97
 21
40.90099999999999
 31
0.0
  0
LINE
  5
C9
330
1E
100
AcDbEntity
  8
0
100
AcDbLine
 10
16.55089999999999
 20
44.14399999999999
 30
0.0
 11
16.727
 21
45.77399999999999
 31
0.0
  0
LINE
  5
CA
330
1E
100
AcDbEntity
  8
0
100
AcDbLine
 10
16.55089999999999
 20
44.14399999999999
 30
0.0
 11
16.63289999999999
 21
42.506
 31
0.0
  0
LINE
  5
CB
330
1E
100
AcDbEntity
  8
0
100
AcDbLine
 10
17.15609999999999
 20
47.357
 30
0.0
 11
17.8263
 21
48.853
 31
0.0
  0
LINE
  5
CC
330
1E
100
AcDbEntity
  8
0
100
AcDbLine
 10
16.727
 20
45.77399999999999
 30
0.0
 11
17.15609999999999
 21
47.357
 31
0.0
  0
LINE
  5
CD
330
1E
100
AcDbEntity
  8
0
100
AcDbLine
 10
17.8263
 20
48.853
 30
0.0
 11
18.7235
 21
50.226
 31
0.0
  0
LINE
  5
CE
330
1E
100
AcDbEntity
  8
0
100
AcDbLine
 10
16.97
 20
40.90099999999999
 30
0.0
 11
17.5532
 21
39.368
 31
0.0
  0
LINE
  5
CF
330
1E
100
AcDbEntity
  8
0
100
AcDbLine
 10
20.16799999999999
 20
37.60499999999999
 30
0.0
 11
21.2883
 21
36.566
 31
0.0
  0
LINE
  5
D0
330
1E
100
AcDbEntity
  8
0
100
AcDbLine
 10
19.8829
 20
40.771
 30
0.0
 11
20.56909999999999
 21
39.516
 31
0.0
  0
LINE
  5
D1
330
1E
100
AcDbEntity
  8
0
100
AcDbLine
 10
19.2337
 20
38.814
 30
0.0
 11
20.16799999999999
 21
37.60499999999999
 31
0.0
  0
LINE
  5
D2
330
1E
100
AcDbEntity
  8
0
100
AcDbLine
 10
18.5115
 20
40.161
 30
0.0
 11
19.2337
 21
38.814
 31
0.0
  0
LINE
  5
D3
330
1E
100
AcDbEntity
  8
0
100
AcDbLine
 10
18.3704
 20
37.94599999999999
 30
0.0
 11
19.3987
 21
36.669
 31
0.0
  0
LINE
  5
D4
330
1E
100
AcDbEntity
  8
0
100
AcDbLine
 10
23.87109999999999
 20
37.86099999999999
 30
0.0
 11
25.0994
 21
37.366
 31
0.0
  0
LINE
  5
D5
330
1E
100
AcDbEntity
  8
0
100
AcDbLine
 10
25.0994
 20
37.366
 30
0.0
 11
26.39979999999999
 21
37.11999999999999
 31
0.0
  0
LINE
  5
D6
330
1E
100
AcDbEntity
  8
0
100
AcDbLine
 10
22.5667
 20
37.48499999999999
 30
0.0
 11
23.8111
 21
36.779
 31
0.0
  0
LINE
  5
D7
330
1E
100
AcDbEntity
  8
0
100
AcDbLine
 10
21.0742
 20
40.60699999999999
 30
0.0
 11
21.82049999999999
 21
39.513
 31
0.0
  0
LINE
  5
D8
330
1E
100
AcDbEntity
  8
0
100
AcDbLine
 10
20.56909999999999
 20
39.516
 30
0.0
 11
21.4734
 21
38.408
 31
0.0
  0
LINE
  5
D9
330
1E
100
AcDbEntity
  8
0
100
AcDbLine
 10
22.7647
 20
38.586
 30
0.0
 11
23.87109999999999
 21
37.86099999999999
 31
0.0
  0
LINE
  5
DA
330
1E
100
AcDbEntity
  8
0
100
AcDbLine
 10
21.82049999999999
 20
39.513
 30
0.0
 11
22.7647
 21
38.586
 31
0.0
  0
LINE
  5
DB
330
1E
100
AcDbEntity
  8
0
100
AcDbLine
 10
21.4734
 20
38.408
 30
0.0
 11
22.5667
 21
37.48499999999999
 31
0.0
  0
LINE
  5
DC
330
1E
100
AcDbEntity
  8
0
100
AcDbLine
 10
20.55709999999999
 20
41.825
 30
0.0
 11
21.0742
 21
40.60699999999999
 31
0.0
  0
LINE
  5
DD
330
1E
100
AcDbEntity
  8
0
100
AcDbLine
 10
18.54149999999999
 20
47.59199999999999
 30
0.0
 11
19.2737
 21
48.93299999999999
 31
0.0
  0
LINE
  5
DE
330
1E
100
AcDbEntity
  8
0
100
AcDbLine
 10
18.0393
 20
46.14899999999999
 30
0.0
 11
18.54149999999999
 21
47.59199999999999
 31
0.0
  0
LINE
  5
DF
330
1E
100
AcDbEntity
  8
0
100
AcDbLine
 10
19.2537
 20
43.54899999999999
 30
0.0
 11
19.3307
 21
44.977
 31
0.0
  0
LINE
  5
E0
330
1E
100
AcDbEntity
  8
0
100
AcDbLine
 10
19.2537
 20
43.54899999999999
 30
0.0
 11
19.4398
 21
42.13
 31
0.0
  0
LINE
  5
E1
330
1E
100
AcDbEntity
  8
0
100
AcDbLine
 10
20.287
 20
43.12
 30
0.0
 11
20.55709999999999
 21
41.825
 31
0.0
  0
LINE
  5
E2
330
1E
100
AcDbEntity
  8
0
100
AcDbLine
 10
20.27499999999999
 20
44.44300000000001
 30
0.0
 11
20.5211
 21
45.743
 31
0.0
  0
LINE
  5
E3
330
1E
100
AcDbEntity
  8
0
100
AcDbLine
 10
20.27499999999999
 20
44.44300000000001
 30
0.0
 11
20.287
 21
43.12
 31
0.0
  0
LINE
  5
E4
330
1E
100
AcDbEntity
  8
0
100
AcDbLine
 10
19.3307
 20
44.977
 30
0.0
 11
19.66979999999999
 21
46.366
 31
0.0
  0
LINE
  5
E5
330
1E
100
AcDbEntity
  8
0
100
AcDbLine
 10
20.5211
 20
45.743
 30
0.0
 11
21.0162
 21
46.97
 31
0.0
  0
LINE
  5
E6
330
1E
100
AcDbEntity
  8
0
100
AcDbLine
 10
21.0162
 20
46.97
 30
0.0
 11
21.74139999999999
 21
48.077
 31
0.0
  0
LINE
  5
E7
330
1E
100
AcDbEntity
  8
0
100
AcDbLine
 10
20.25799999999999
 20
47.67
 30
0.0
 11
21.0762
 21
48.843
 31
0.0
  0
LINE
  5
E8
330
1E
100
AcDbEntity
  8
0
100
AcDbLine
 10
19.66979999999999
 20
46.366
 30
0.0
 11
20.25799999999999
 21
47.67
 31
0.0
  0
LINE
  5
E9
330
1E
100
AcDbEntity
  8
0
100
AcDbLine
 10
21.74139999999999
 20
48.077
 30
0.0
 11
22.6687
 21
49.022
 31
0.0
  0
LINE
  5
EA
330
1E
100
AcDbEntity
  8
0
100
AcDbLine
 10
21.0762
 20
48.843
 30
0.0
 11
22.09649999999999
 21
49.846
 31
0.0
  0
LINE
  5
EB
330
1E
100
AcDbEntity
  8
0
100
AcDbLine
 10
19.2737
 20
48.93299999999999
 30
0.0
 11
20.217
 21
50.135
 31
0.0
  0
LINE
  5
EC
330
1E
100
AcDbEntity
  8
0
100
AcDbLine
 10
22.6687
 20
49.022
 30
0.0
 11
23.763
 21
49.767
 31
0.0
  0
LINE
  5
ED
330
1E
100
AcDbEntity
  8
0
100
AcDbLine
 10
23.763
 20
49.767
 30
0.0
 11
24.9814
 21
50.284
 31
0.0
  0
LINE
  5
EE
330
1E
100
AcDbEntity
  8
0
100
AcDbLine
 10
22.09649999999999
 20
49.846
 30
0.0
 11
23.2829
 21
50.644
 31
0.0
  0
LINE
  5
EF
330
1E
100
AcDbEntity
  8
0
100
AcDbLine
 10
24.9814
 20
50.284
 30
0.0
 11
26.2768
 21
50.55399999999999
 31
0.0
  0
LINE
  5
F0
330
1E
100
AcDbEntity
  8
0
100
AcDbLine
 10
26.2768
 20
50.55399999999999
 30
0.0
 11
27.0
 21
50.5606
 31
0.0
  0
LINE
  5
F1
330
1E
100
AcDbEntity
  8
0
100
AcDbLine
 10
20.217
 20
50.135
 30
0.0
 11
21.3463
 21
51.165
 31
0.0
  0
LINE
  5
F2
330
1E
100
AcDbEntity
  8
0
100
AcDbLine
 10
18.7235
 20
50.226
 30
0.0
 11
19.82389999999999
 21
51.442
 31
0.0
  0
LINE
  5
F3
330
1E
100
AcDbEntity
  8
0
100
AcDbLine
 10
19.4398
 20
42.13
 30
0.0
 11
19.8829
 21
40.771
 31
0.0
  0
LINE
  5
F4
330
1E
100
AcDbEntity
  8
0
100
AcDbLine
 10
18.0213
 20
41.608
 30
0.0
 11
18.5115
 21
40.161
 31
0.0
  0
LINE
  5
F5
330
1E
100
AcDbEntity
  8
0
100
AcDbLine
 10
19.82389999999999
 20
51.442
 30
0.0
 11
21.10129999999999
 21
52.46999999999999
 31
0.0
  0
LINE
  5
F6
330
1E
100
AcDbEntity
  8
0
100
AcDbLine
 10
23.2829
 20
50.644
 30
0.0
 11
24.5963
 21
51.21100000000001
 31
0.0
  0
LINE
  5
F7
330
1E
100
AcDbEntity
  8
0
100
AcDbLine
 10
22.62869999999999
 20
51.996
 30
0.0
 11
24.0301
 21
52.604
 31
0.0
  0
LINE
  5
F8
330
1E
100
AcDbEntity
  8
0
100
AcDbLine
 10
24.0301
 20
52.604
 30
0.0
 11
25.5136
 21
52.97299999999999
 31
0.0
  0
LINE
  5
F9
330
1E
100
AcDbEntity
  8
0
100
AcDbLine
 10
21.3463
 20
51.165
 30
0.0
 11
22.62869999999999
 21
51.996
 31
0.0
  0
LINE
  5
FA
330
1E
100
AcDbEntity
  8
0
100
AcDbLine
 10
21.10129999999999
 20
52.46999999999999
 30
0.0
 11
22.5247
 21
53.287
 31
0.0
  0
LINE
  5
FB
330
1E
100
AcDbEntity
  8
0
100
AcDbLine
 10
22.5247
 20
53.287
 30
0.0
 11
24.0571
 21
53.87
 31
0.0
  0
LINE
  5
FC
330
1E
100
AcDbEntity
  8
0
100
AcDbLine
 10
25.9917
 20
51.527
 30
0.0
 11
27.0
 21
51.5658
 31
0.0
  0
LINE
  5
FD
330
1E
100
AcDbEntity
  8
0
100
AcDbLine
 10
25.5136
 20
52.97299999999999
 30
0.0
 11
27.0
 21
53.0901
 31
0.0
  0
LINE
  5
FE
330
1E
100
AcDbEntity
  8
0
100
AcDbLine
 10
24.5963
 20
51.21100000000001
 30
0.0
 11
25.9917
 21
51.527
 31
0.0
  0
LINE
  5
FF
330
1E
100
AcDbEntity
  8
0
100
AcDbLine
 10
24.0571
 20
53.87
 30
0.0
 11
25.6626
 21
54.207
 31
0.0
  0
LINE
  5
102
330
1E
100
AcDbEntity
  8
0
100
AcDbLine
 10
25.6626
 20
54.207
 30
0.0
 11
27.0
 21
54.27389999999999
 31
0.0
  0
LINE
  5
103
330
1E
100
AcDbEntity
  8
0
100
AcDbLine
 10
27.0
 20
53.0901
 30
0.0
 11
28.48639999999999
 21
52.97299999999999
 31
0.0
  0
LINE
  5
104
330
1E
100
AcDbEntity
  8
0
100
AcDbLine
 10
27.0
 20
50.5606
 30
0.0
 11
27.7232
 21
50.55399999999999
 31
0.0
  0
LINE
  5
105
330
1E
100
AcDbEntity
  8
0
100
AcDbLine
 10
27.0
 20
51.5658
 30
0.0
 11
28.00829999999999
 21
51.527
 31
0.0
  0
LINE
  5
106
330
1E
100
AcDbEntity
  8
0
100
AcDbLine
 10
27.0
 20
37.1254
 30
0.0
 11
27.6002
 21
37.11999999999999
 31
0.0
  0
LINE
  5
107
330
1E
100
AcDbEntity
  8
0
100
AcDbLine
 10
27.0
 20
36.12019999999999
 30
0.0
 11
27.4211
 21
36.104
 31
0.0
  0
LINE
  5
109
330
1E
100
AcDbEntity
  8
0
100
AcDbLine
 10
18.45749999999999
 20
57.408
 30
0.0
 11
18.67449999999999
 21
57.084
 31
0.0
  0
LINE
  5
10F
330
1E
100
AcDbEntity
  8
0
100
AcDbLine
 10
18.67449999999999
 20
57.084
 30
0.0
 11
18.7496
 21
56.701
 31
0.0
  0
LINE
  5
110
330
1E
100
AcDbEntity
  8
0
100
AcDbLine
 10
18.7496
 20
56.701
 30
0.0
 11
18.7629913249407
 21
50.26963999557239
 31
0.0
  0
LINE
  5
116
330
1E
100
AcDbEntity
  8
0
100
AcDbLine
 10
16.817
 20
59.05
 30
0.0
 11
18.45749999999999
 21
57.408
 31
0.0
  0
LINE
  5
11E
330
1E
100
AcDbEntity
  8
0
100
AcDbLine
 10
27.0
 20
54.27389999999999
 30
0.0
 11
28.3374
 21
54.207
 31
0.0
  0
LINE
  5
11F
330
1E
100
AcDbEntity
  8
0
100
AcDbLine
 10
27.03699999999999
 20
34.593
 30
0.0
 11
28.55949999999999
 21
34.725
 31
0.0
  0
LINE
  5
120
330
1E
100
AcDbEntity
  8
0
100
AcDbLine
 10
27.4211
 20
36.104
 30
0.0
 11
28.8365
 21
36.314
 31
0.0
  0
LINE
  5
122
330
1E
100
AcDbEntity
  8
0
100
AcDbLine
 10
27.3011
 20
33.397
 30
0.0
 11
28.93159999999999
 21
33.573
 31
0.0
  0
LINE
  5
123
330
1E
100
AcDbEntity
  8
0
100
AcDbLine
 10
27.0
 20
33.4121
 30
0.0
 11
27.3011
 21
33.397
 31
0.0
  0
LINE
  5
125
330
1E
100
AcDbEntity
  8
0
100
AcDbLine
 10
27.6237
 20
0.156999999999999
 30
0.0
 11
28.76279999999999
 21
0.156999999999999
 31
0.0
  0
LINE
  5
126
330
1E
100
AcDbEntity
  8
0
100
AcDbLine
 10
27.9328
 20
26.491
 30
0.0
 11
28.4798
 21
26.383
 31
0.0
  0
LINE
  5
127
330
1E
100
AcDbEntity
  8
0
100
AcDbLine
 10
28.3048
 20
27.157
 30
0.0
 11
29.6568
 21
27.157
 31
0.0
  0
LINE
  5
128
330
1E
100
AcDbEntity
  8
0
100
AcDbLine
 10
27.624
 20
0.6569999999999979
 30
0.0
 11
28.9248
 21
0.6569999999999979
 31
0.0
  0
LINE
  5
129
330
1E
100
AcDbEntity
  8
0
100
AcDbLine
 10
27.6237
 20
0.6569999999999979
 30
0.0
 11
28.8338
 21
0.6569999999999979
 31
0.0
  0
LINE
  5
12A
330
1E
100
AcDbEntity
  8
0
100
AcDbLine
 10
27.6237
 20
0.156999999999997
 30
0.0
 11
28.7618
 21
0.156999999999997
 31
0.0
  0
LINE
  5
12B
330
1E
100
AcDbEntity
  8
0
100
AcDbLine
 10
28.7618
 20
0.156999999999997
 30
0.0
 11
29.8778
 21
0.156999999999997
 31
0.0
  0
LINE
  5
12C
330
1E
100
AcDbEntity
  8
0
100
AcDbLine
 10
29.8778
 20
0.156999999999997
 30
0.0
 11
30.9468
 21
0.156999999999997
 31
0.0
  0
LINE
  5
12D
330
1E
100
AcDbEntity
  8
0
100
AcDbLine
 10
31.94879999999999
 20
0.156999999999997
 30
0.0
 11
32.8628
 21
0.156999999999997
 31
0.0
  0
LINE
  5
12E
330
1E
100
AcDbEntity
  8
0
100
AcDbLine
 10
32.8628
 20
0.156999999999997
 30
0.0
 11
33.6698
 21
0.156999999999997
 31
0.0
  0
LINE
  5
12F
330
1E
100
AcDbEntity
  8
0
100
AcDbLine
 10
33.6698
 20
0.156999999999997
 30
0.0
 11
34.3538
 21
0.156999999999998
 31
0.0
  0
LINE
  5
130
330
1E
100
AcDbEntity
  8
0
100
AcDbLine
 10
30.9468
 20
0.156999999999997
 30
0.0
 11
31.94879999999999
 21
0.156999999999997
 31
0.0
  0
LINE
  5
131
330
1E
100
AcDbEntity
  8
0
100
AcDbLine
 10
28.9248
 20
0.6569999999999979
 30
0.0
 11
30.2028
 21
0.6569999999999979
 31
0.0
  0
LINE
  5
132
330
1E
100
AcDbEntity
  8
0
100
AcDbLine
 10
28.76279999999999
 20
0.156999999999999
 30
0.0
 11
29.8778
 21
0.156999999999999
 31
0.0
  0
LINE
  5
133
330
1E
100
AcDbEntity
  8
0
100
AcDbLine
 10
28.6208
 20
3.611001
 30
0.0
 11
29.0638
 21
3.935
 31
0.0
  0
LINE
  5
134
330
1E
100
AcDbEntity
  8
0
100
AcDbLine
 10
29.0638
 20
3.935
 30
0.0
 11
29.41679999999999
 21
4.286
 31
0.0
  0
LINE
  5
135
330
1E
100
AcDbEntity
  8
0
100
AcDbLine
 10
29.41679999999999
 20
4.286
 30
0.0
 11
29.7868
 21
4.75
 31
0.0
  0
LINE
  5
136
330
1E
100
AcDbEntity
  8
0
100
AcDbLine
 10
28.4798
 20
26.383
 30
0.0
 11
28.91379999999999
 21
26.22199999999999
 31
0.0
  0
LINE
  5
137
330
1E
100
AcDbEntity
  8
0
100
AcDbLine
 10
29.6568
 20
27.157
 30
0.0
 11
30.9768
 21
27.157
 31
0.0
  0
LINE
  5
138
330
1E
100
AcDbEntity
  8
0
100
AcDbLine
 10
28.91379999999999
 20
26.22199999999999
 30
0.0
 11
29.3668
 21
25.98
 31
0.0
  0
LINE
  5
139
330
1E
100
AcDbEntity
  8
0
100
AcDbLine
 10
29.3668
 20
25.98
 30
0.0
 11
29.6578
 21
25.781
 31
0.0
  0
LINE
  5
13A
330
1E
100
AcDbEntity
  8
0
100
AcDbLine
 10
29.7868
 20
4.75
 30
0.0
 11
30.0558
 21
5.157999999999999
 31
0.0
  0
LINE
  5
13B
330
1E
100
AcDbEntity
  8
0
100
AcDbLine
 10
29.6578
 20
25.781
 30
0.0
 11
29.9628
 21
25.531
 31
0.0
  0
LINE
  5
13C
330
1E
100
AcDbEntity
  8
0
100
AcDbLine
 10
28.8338
 20
0.6569999999999979
 30
0.0
 11
30.01879999999999
 21
0.6569999999999979
 31
0.0
  0
LINE
  5
13D
330
1E
100
AcDbEntity
  8
0
100
AcDbLine
 10
35.5428
 20
0.156999999999998
 30
0.0
 11
35.6238
 21
0.156999999999998
 31
0.0
  0
LINE
  5
13E
330
1E
100
AcDbEntity
  8
0
100
AcDbLine
 10
35.6238
 20
0.156999999999998
 30
0.0
 11
36.1238
 21
0.6569999999999979
 31
0.0
  0
LINE
  5
13F
330
1E
100
AcDbEntity
  8
0
100
AcDbLine
 10
35.2998
 20
0.156999999999998
 30
0.0
 11
35.5428
 21
0.156999999999998
 31
0.0
  0
LINE
  5
140
330
1E
100
AcDbEntity
  8
0
100
AcDbLine
 10
34.90079999999999
 20
0.156999999999998
 30
0.0
 11
35.2998
 21
0.156999999999998
 31
0.0
  0
LINE
  5
141
330
1E
100
AcDbEntity
  8
0
100
AcDbLine
 10
34.3538
 20
0.156999999999998
 30
0.0
 11
34.90079999999999
 21
0.156999999999998
 31
0.0
  0
LINE
  5
142
330
1E
100
AcDbEntity
  8
0
100
AcDbLine
 10
33.6698
 20
0.156999999999999
 30
0.0
 11
34.3538
 21
0.156999999999998
 31
0.0
  0
LINE
  5
143
330
1E
100
AcDbEntity
  8
0
100
AcDbLine
 10
32.8628
 20
0.156999999999999
 30
0.0
 11
33.6698
 21
0.156999999999999
 31
0.0
  0
LINE
  5
144
330
1E
100
AcDbEntity
  8
0
100
AcDbLine
 10
31.94879999999999
 20
0.156999999999999
 30
0.0
 11
32.8628
 21
0.156999999999999
 31
0.0
  0
LINE
  5
145
330
1E
100
AcDbEntity
  8
0
100
AcDbLine
 10
29.9628
 20
25.531
 30
0.0
 11
30.3368
 21
25.15699999999999
 31
0.0
  0
LINE
  5
146
330
1E
100
AcDbEntity
  8
0
100
AcDbLine
 10
31.4368
 20
0.6569999999999979
 30
0.0
 11
32.6058
 21
0.6569999999999979
 31
0.0
  0
LINE
  5
147
330
1E
100
AcDbEntity
  8
0
100
AcDbLine
 10
30.2028
 20
0.6569999999999979
 30
0.0
 11
31.4368
 21
0.6569999999999979
 31
0.0
  0
LINE
  5
148
330
1E
100
AcDbEntity
  8
0
100
AcDbLine
 10
35.5278
 20
0.6569999999999979
 30
0.0
 11
36.2518
 21
0.6569999999999979
 31
0.0
  0
LINE
  5
149
330
1E
100
AcDbEntity
  8
0
100
AcDbLine
 10
37.24779999999999
 20
0.6569999999999972
 30
0.0
 11
37.5018
 21
0.6569999999999979
 31
0.0
  0
LINE
  5
14A
330
1E
100
AcDbEntity
  8
0
100
AcDbLine
 10
36.8288
 20
0.6569999999999972
 30
0.0
 11
37.24779999999999
 21
0.6569999999999972
 31
0.0
  0
LINE
  5
14B
330
1E
100
AcDbEntity
  8
0
100
AcDbLine
 10
36.2518
 20
0.6569999999999972
 30
0.0
 11
36.8288
 21
0.6569999999999972
 31
0.0
  0
LINE
  5
14C
330
1E
100
AcDbEntity
  8
0
100
AcDbLine
 10
36.1238
 20
0.6569999999999972
 30
0.0
 11
36.2518
 21
0.6569999999999972
 31
0.0
  0
LINE
  5
14D
330
1E
100
AcDbEntity
  8
0
100
AcDbLine
 10
36.2518
 20
0.6569999999999979
 30
0.0
 11
36.8288
 21
0.6569999999999979
 31
0.0
  0
LINE
  5
14E
330
1E
100
AcDbEntity
  8
0
100
AcDbLine
 10
36.8288
 20
0.6569999999999979
 30
0.0
 11
37.24779999999999
 21
0.6569999999999979
 31
0.0
  0
LINE
  5
14F
330
1E
100
AcDbEntity
  8
0
100
AcDbLine
 10
37.24779999999999
 20
0.6569999999999979
 30
0.0
 11
37.5018
 21
0.6569999999999979
 31
0.0
  0
LINE
  5
150
330
1E
100
AcDbEntity
  8
0
100
AcDbLine
 10
36.0368
 20
0.6569999999999979
 30
0.0
 11
36.1238
 21
0.6569999999999979
 31
0.0
  0
LINE
  5
151
330
1E
100
AcDbEntity
  8
0
100
AcDbLine
 10
35.7798
 20
0.6569999999999979
 30
0.0
 11
36.0368
 21
0.6569999999999979
 31
0.0
  0
LINE
  5
152
330
1E
100
AcDbEntity
  8
0
100
AcDbLine
 10
35.3558
 20
0.6569999999999979
 30
0.0
 11
35.7798
 21
0.6569999999999979
 31
0.0
  0
LINE
  5
153
330
1E
100
AcDbEntity
  8
0
100
AcDbLine
 10
34.77479999999999
 20
0.6569999999999979
 30
0.0
 11
35.3558
 21
0.6569999999999979
 31
0.0
  0
LINE
  5
154
330
1E
100
AcDbEntity
  8
0
100
AcDbLine
 10
34.0478
 20
0.6569999999999979
 30
0.0
 11
34.77479999999999
 21
0.6569999999999979
 31
0.0
  0
LINE
  5
155
330
1E
100
AcDbEntity
  8
0
100
AcDbLine
 10
34.66879999999999
 20
0.6569999999999979
 30
0.0
 11
35.5278
 21
0.6569999999999979
 31
0.0
  0
LINE
  5
156
330
1E
100
AcDbEntity
  8
0
100
AcDbLine
 10
33.6888
 20
0.6569999999999979
 30
0.0
 11
34.66879999999999
 21
0.6569999999999979
 31
0.0
  0
LINE
  5
157
330
1E
100
AcDbEntity
  8
0
100
AcDbLine
 10
32.6058
 20
0.6569999999999979
 30
0.0
 11
33.6888
 21
0.6569999999999979
 31
0.0
  0
LINE
  5
158
330
1E
100
AcDbEntity
  8
0
100
AcDbLine
 10
33.18979999999999
 20
0.6569999999999979
 30
0.0
 11
34.0478
 21
0.6569999999999979
 31
0.0
  0
LINE
  5
159
330
1E
100
AcDbEntity
  8
0
100
AcDbLine
 10
32.2198
 20
0.6569999999999979
 30
0.0
 11
33.18979999999999
 21
0.6569999999999979
 31
0.0
  0
LINE
  5
15A
330
1E
100
AcDbEntity
  8
0
100
AcDbLine
 10
33.1888
 20
4.272
 30
0.0
 11
33.47679999999999
 21
3.797001
 31
0.0
  0
LINE
  5
15B
330
1E
100
AcDbEntity
  8
0
100
AcDbLine
 10
33.47679999999999
 20
3.797001
 30
0.0
 11
33.7948
 21
3.499001
 31
0.0
  0
LINE
  5
15C
330
1E
100
AcDbEntity
  8
0
100
AcDbLine
 10
35.2648
 20
3.611001
 30
0.0
 11
35.7058
 21
3.935
 31
0.0
  0
LINE
  5
15D
330
1E
100
AcDbEntity
  8
0
100
AcDbLine
 10
35.7058
 20
3.935
 30
0.0
 11
36.08379999999999
 21
4.286
 31
0.0
  0
LINE
  5
15E
330
1E
100
AcDbEntity
  8
0
100
AcDbLine
 10
30.0558
 20
5.157999999999999
 30
0.0
 11
30.3368
 21
5.657
 31
0.0
  0
LINE
  5
15F
330
1E
100
AcDbEntity
  8
0
100
AcDbLine
 10
33.0098
 20
4.741999999999999
 30
0.0
 11
33.1888
 21
4.272
 31
0.0
  0
LINE
  5
160
330
1E
100
AcDbEntity
  8
0
100
AcDbLine
 10
36.08379999999999
 20
4.286
 30
0.0
 11
36.5058
 21
4.75
 31
0.0
  0
LINE
  5
161
330
1E
100
AcDbEntity
  8
0
100
AcDbLine
 10
36.5058
 20
4.75
 30
0.0
 11
36.8358
 21
5.157999999999999
 31
0.0
  0
LINE
  5
162
330
1E
100
AcDbEntity
  8
0
100
AcDbLine
 10
30.3368
 20
5.657
 30
0.0
 11
30.3368
 21
25.15699999999999
 31
0.0
  0
LINE
  5
163
330
1E
100
AcDbEntity
  8
0
100
AcDbLine
 10
30.3368
 20
25.15699999999999
 30
0.0
 11
30.3368
 21
5.657
 31
0.0
  0
LINE
  5
164
330
1E
100
AcDbEntity
  8
0
100
AcDbLine
 10
30.3368
 20
25.15699999999999
 30
0.0
 11
31.5948
 21
25.15699999999999
 31
0.0
  0
LINE
  5
165
330
1E
100
AcDbEntity
  8
0
100
AcDbLine
 10
31.5948
 20
25.15699999999999
 30
0.0
 11
32.81179999999999
 21
25.15699999999999
 31
0.0
  0
LINE
  5
166
330
1E
100
AcDbEntity
  8
0
100
AcDbLine
 10
32.81179999999999
 20
25.15699999999999
 30
0.0
 11
32.81179999999999
 21
5.657
 31
0.0
  0
LINE
  5
167
330
1E
100
AcDbEntity
  8
0
100
AcDbLine
 10
32.81179999999999
 20
25.15699999999999
 30
0.0
 11
32.9088
 21
25.46699999999999
 31
0.0
  0
LINE
  5
168
330
1E
100
AcDbEntity
  8
0
100
AcDbLine
 10
32.81179999999999
 20
5.657
 30
0.0
 11
32.8588
 21
5.366
 31
0.0
  0
LINE
  5
169
330
1E
100
AcDbEntity
  8
0
100
AcDbLine
 10
32.81179999999999
 20
5.657
 30
0.0
 11
32.81179999999999
 21
25.15699999999999
 31
0.0
  0
LINE
  5
16A
330
1E
100
AcDbEntity
  8
0
100
AcDbLine
 10
32.9088
 20
25.46699999999999
 30
0.0
 11
33.0248
 21
25.713
 31
0.0
  0
LINE
  5
16B
330
1E
100
AcDbEntity
  8
0
100
AcDbLine
 10
32.8588
 20
5.366
 30
0.0
 11
33.0098
 21
4.741999999999999
 31
0.0
  0
LINE
  5
16C
330
1E
100
AcDbEntity
  8
0
100
AcDbLine
 10
36.8358
 20
5.157999999999999
 30
0.0
 11
37.2008
 21
5.657
 31
0.0
  0
LINE
  5
16D
330
1E
100
AcDbEntity
  8
0
100
AcDbLine
 10
37.2008
 20
5.657
 30
0.0
 11
37.2008
 21
25.15699999999999
 31
0.0
  0
LINE
  5
16E
330
1E
100
AcDbEntity
  8
0
100
AcDbLine
 10
33.0248
 20
25.713
 30
0.0
 11
33.2938
 21
26.074
 31
0.0
  0
LINE
  5
16F
330
1E
100
AcDbEntity
  8
0
100
AcDbLine
 10
33.2938
 20
26.074
 30
0.0
 11
33.53779999999999
 21
26.272
 31
0.0
  0
LINE
  5
170
330
1E
100
AcDbEntity
  8
0
100
AcDbLine
 10
33.53779999999999
 20
26.272
 30
0.0
 11
33.79979999999999
 21
26.405
 31
0.0
  0
LINE
  5
171
330
1E
100
AcDbEntity
  8
0
100
AcDbLine
 10
30.9768
 20
27.157
 30
0.0
 11
32.2438
 21
27.157
 31
0.0
  0
LINE
  5
172
330
1E
100
AcDbEntity
  8
0
100
AcDbLine
 10
32.2438
 20
27.157
 30
0.0
 11
33.4378
 21
27.157
 31
0.0
  0
LINE
  5
173
330
1E
100
AcDbEntity
  8
0
100
AcDbLine
 10
33.4378
 20
27.157
 30
0.0
 11
34.5398
 21
27.157
 31
0.0
  0
LINE
  5
174
330
1E
100
AcDbEntity
  8
0
100
AcDbLine
 10
33.79979999999999
 20
26.405
 30
0.0
 11
34.2008
 21
26.498
 31
0.0
  0
LINE
  5
175
330
1E
100
AcDbEntity
  8
0
100
AcDbLine
 10
34.6408
 20
26.491
 30
0.0
 11
35.1308
 21
26.383
 31
0.0
  0
LINE
  5
176
330
1E
100
AcDbEntity
  8
0
100
AcDbLine
 10
34.5398
 20
27.157
 30
0.0
 11
35.5328
 21
27.157
 31
0.0
  0
LINE
  5
177
330
1E
100
AcDbEntity
  8
0
100
AcDbLine
 10
35.5328
 20
27.157
 30
0.0
 11
36.4018
 21
27.157
 31
0.0
  0
LINE
  5
178
330
1E
100
AcDbEntity
  8
0
100
AcDbLine
 10
34.2008
 20
26.498
 30
0.0
 11
34.6408
 21
26.491
 31
0.0
  0
LINE
  5
179
330
1E
100
AcDbEntity
  8
0
100
AcDbLine
 10
35.1308
 20
26.383
 30
0.0
 11
35.55279999999999
 21
26.223
 31
0.0
  0
LINE
  5
17A
330
1E
100
AcDbEntity
  8
0
100
AcDbLine
 10
35.55279999999999
 20
26.223
 30
0.0
 11
36.0278
 21
25.98
 31
0.0
  0
LINE
  5
17B
330
1E
100
AcDbEntity
  8
0
100
AcDbLine
 10
36.0278
 20
25.98
 30
0.0
 11
36.35479999999999
 21
25.781
 31
0.0
  0
LINE
  5
17C
330
1E
100
AcDbEntity
  8
0
100
AcDbLine
 10
36.4018
 20
27.157
 30
0.0
 11
37.13179999999999
 21
27.157
 31
0.0
  0
LINE
  5
17D
330
1E
100
AcDbEntity
  8
0
100
AcDbLine
 10
37.13179999999999
 20
27.157
 30
0.0
 11
37.71179999999999
 21
27.157
 31
0.0
  0
LINE
  5
17E
330
1E
100
AcDbEntity
  8
0
100
AcDbLine
 10
36.35479999999999
 20
25.781
 30
0.0
 11
36.7198
 21
25.531
 31
0.0
  0
LINE
  5
17F
330
1E
100
AcDbEntity
  8
0
100
AcDbLine
 10
36.7198
 20
25.531
 30
0.0
 11
37.2008
 21
25.15699999999999
 31
0.0
  0
LINE
  5
180
330
1E
100
AcDbEntity
  8
0
100
AcDbLine
 10
37.2008
 20
25.15699999999999
 30
0.0
 11
37.2008
 21
5.657
 31
0.0
  0
LINE
  5
181
330
1E
100
AcDbEntity
  8
0
100
AcDbLine
 10
37.2008
 20
25.15699999999999
 30
0.0
 11
38.0198
 21
25.15699999999999
 31
0.0
  0
LINE
  5
182
330
1E
100
AcDbEntity
  8
0
100
AcDbLine
 10
31.1548
 20
0.6569999999999979
 30
0.0
 11
32.2198
 21
0.6569999999999979
 31
0.0
  0
LINE
  5
183
330
1E
100
AcDbEntity
  8
0
100
AcDbLine
 10
30.01879999999999
 20
0.6569999999999979
 30
0.0
 11
31.1548
 21
0.6569999999999979
 31
0.0
  0
LINE
  5
184
330
1E
100
AcDbEntity
  8
0
100
AcDbLine
 10
30.9468
 20
0.156999999999999
 30
0.0
 11
31.94879999999999
 21
0.156999999999999
 31
0.0
  0
LINE
  5
185
330
1E
100
AcDbEntity
  8
0
100
AcDbLine
 10
29.8778
 20
0.156999999999999
 30
0.0
 11
30.9468
 21
0.156999999999999
 31
0.0
  0
LINE
  5
187
330
1E
100
AcDbEntity
  8
0
100
AcDbLine
 10
27.7232
 20
50.55399999999999
 30
0.0
 11
29.0186
 21
50.284
 31
0.0
  0
LINE
  5
188
330
1E
100
AcDbEntity
  8
0
100
AcDbLine
 10
28.00829999999999
 20
51.527
 30
0.0
 11
29.4037
 21
51.21100000000001
 31
0.0
  0
LINE
  5
189
330
1E
100
AcDbEntity
  8
0
100
AcDbLine
 10
27.6002
 20
37.11999999999999
 30
0.0
 11
28.9006
 21
37.366
 31
0.0
  0
LINE
  5
18B
330
1E
100
AcDbEntity
  8
0
100
AcDbLine
 10
28.55949999999999
 20
34.725
 30
0.0
 11
30.0389
 21
35.106
 31
0.0
  0
LINE
  5
18C
330
1E
100
AcDbEntity
  8
0
100
AcDbLine
 10
28.9006
 20
37.366
 30
0.0
 11
30.1289
 21
37.86099999999999
 31
0.0
  0
LINE
  5
18D
330
1E
100
AcDbEntity
  8
0
100
AcDbLine
 10
28.8365
 20
36.314
 30
0.0
 11
30.1889
 21
36.779
 31
0.0
  0
LINE
  5
18E
330
1E
100
AcDbEntity
  8
0
100
AcDbLine
 10
30.1889
 20
36.779
 30
0.0
 11
31.4333
 21
37.48499999999999
 31
0.0
  0
LINE
  5
18F
330
1E
100
AcDbEntity
  8
0
100
AcDbLine
 10
30.0389
 20
35.106
 30
0.0
 11
31.43629999999999
 21
35.725
 31
0.0
  0
LINE
  5
190
330
1E
100
AcDbEntity
  8
0
100
AcDbLine
 10
28.93159999999999
 20
33.573
 30
0.0
 11
30.515
 21
34.001
 31
0.0
  0
LINE
  5
191
330
1E
100
AcDbEntity
  8
0
100
AcDbLine
 10
32.7117
 20
36.566
 30
0.0
 11
33.832
 21
37.60499999999999
 31
0.0
  0
LINE
  5
192
330
1E
100
AcDbEntity
  8
0
100
AcDbLine
 10
31.43629999999999
 20
35.725
 30
0.0
 11
32.7117
 21
36.566
 31
0.0
  0
LINE
  5
193
330
1E
100
AcDbEntity
  8
0
100
AcDbLine
 10
34.6013
 20
36.669
 30
0.0
 11
35.6296
 21
37.94599999999999
 31
0.0
  0
LINE
  5
194
330
1E
100
AcDbEntity
  8
0
100
AcDbLine
 10
33.3849
 20
35.569
 30
0.0
 11
34.6013
 21
36.669
 31
0.0
  0
LINE
  5
195
330
1E
100
AcDbEntity
  8
0
100
AcDbLine
 10
32.0115
 20
34.672
 30
0.0
 11
33.3849
 21
35.569
 31
0.0
  0
LINE
  5
196
330
1E
100
AcDbEntity
  8
0
100
AcDbLine
 10
30.515
 20
34.001
 30
0.0
 11
32.0115
 21
34.672
 31
0.0
  0
LINE
  5
197
330
1E
100
AcDbEntity
  8
0
100
AcDbLine
 10
30.1289
 20
37.86099999999999
 30
0.0
 11
31.2353
 21
38.586
 31
0.0
  0
LINE
  5
19B
330
1E
100
AcDbEntity
  8
0
100
AcDbLine
 10
28.48639999999999
 20
52.97299999999999
 30
0.0
 11
29.9699
 21
52.604
 31
0.0
  0
LINE
  5
19C
330
1E
100
AcDbEntity
  8
0
100
AcDbLine
 10
28.3374
 20
54.207
 30
0.0
 11
29.9429
 21
53.87
 31
0.0
  0
LINE
  5
19D
330
1E
100
AcDbEntity
  8
0
100
AcDbLine
 10
29.0186
 20
50.284
 30
0.0
 11
30.23699999999999
 21
49.767
 31
0.0
  0
LINE
  5
19E
330
1E
100
AcDbEntity
  8
0
100
AcDbLine
 10
29.9699
 20
52.604
 30
0.0
 11
31.3713
 21
51.996
 31
0.0
  0
LINE
  5
19F
330
1E
100
AcDbEntity
  8
0
100
AcDbLine
 10
29.9429
 20
53.87
 30
0.0
 11
31.4753
 21
53.287
 31
0.0
  0
LINE
  5
1A0
330
1E
100
AcDbEntity
  8
0
100
AcDbLine
 10
29.4037
 20
51.21100000000001
 30
0.0
 11
30.71709999999999
 21
50.644
 31
0.0
  0
LINE
  5
1A1
330
1E
100
AcDbEntity
  8
0
100
AcDbLine
 10
30.23699999999999
 20
49.767
 30
0.0
 11
31.33129999999999
 21
49.022
 31
0.0
  0
LINE
  5
1A2
330
1E
100
AcDbEntity
  8
0
100
AcDbLine
 10
33.832
 20
37.60499999999999
 30
0.0
 11
34.7663
 21
38.814
 31
0.0
  0
LINE
  5
1A3
330
1E
100
AcDbEntity
  8
0
100
AcDbLine
 10
32.1795
 20
39.513
 30
0.0
 11
32.9258
 21
40.60699999999999
 31
0.0
  0
LINE
  5
1A4
330
1E
100
AcDbEntity
  8
0
100
AcDbLine
 10
32.5266
 20
38.408
 30
0.0
 11
33.4309
 21
39.516
 31
0.0
  0
LINE
  5
1A5
330
1E
100
AcDbEntity
  8
0
100
AcDbLine
 10
31.2353
 20
38.586
 30
0.0
 11
32.1795
 21
39.513
 31
0.0
  0
LINE
  5
1A6
330
1E
100
AcDbEntity
  8
0
100
AcDbLine
 10
31.4333
 20
37.48499999999999
 30
0.0
 11
32.5266
 21
38.408
 31
0.0
  0
LINE
  5
1A7
330
1E
100
AcDbEntity
  8
0
100
AcDbLine
 10
35.2344843792302
 20
37.45532349730329
 30
0.0
 11
35.2464496544976
 21
27.157
 31
0.0
  0
LINE
  5
1A8
330
1E
100
AcDbEntity
  8
0
100
AcDbLine
 10
36.4468
 20
39.368
 30
0.0
 11
37.03
 21
40.90099999999999
 31
0.0
  0
LINE
  5
1A9
330
1E
100
AcDbEntity
  8
0
100
AcDbLine
 10
35.6296
 20
37.94599999999999
 30
0.0
 11
36.4468
 21
39.368
 31
0.0
  0
LINE
  5
1AA
330
1E
100
AcDbEntity
  8
0
100
AcDbLine
 10
34.7663
 20
38.814
 30
0.0
 11
35.4885
 21
40.161
 31
0.0
  0
LINE
  5
1AB
330
1E
100
AcDbEntity
  8
0
100
AcDbLine
 10
35.4885
 20
40.161
 30
0.0
 11
35.9787
 21
41.608
 31
0.0
  0
LINE
  5
1AC
330
1E
100
AcDbEntity
  8
0
100
AcDbLine
 10
32.9838
 20
46.97
 30
0.0
 11
33.4789
 21
45.743
 31
0.0
  0
LINE
  5
1AD
330
1E
100
AcDbEntity
  8
0
100
AcDbLine
 10
35.9787
 20
41.608
 30
0.0
 11
36.2237
 21
43.11600000000001
 31
0.0
  0
LINE
  5
1AE
330
1E
100
AcDbEntity
  8
0
100
AcDbLine
 10
33.4789
 20
45.743
 30
0.0
 11
33.725
 21
44.44300000000001
 31
0.0
  0
LINE
  5
1AF
330
1E
100
AcDbEntity
  8
0
100
AcDbLine
 10
36.2177
 20
44.643
 30
0.0
 11
36.2237
 21
43.11600000000001
 31
0.0
  0
LINE
  5
1B0
330
1E
100
AcDbEntity
  8
0
100
AcDbLine
 10
35.9607
 20
46.14899999999999
 30
0.0
 11
36.2177
 21
44.643
 31
0.0
  0
LINE
  5
1B1
330
1E
100
AcDbEntity
  8
0
100
AcDbLine
 10
34.33019999999999
 20
46.366
 30
0.0
 11
34.6693
 21
44.977
 31
0.0
  0
LINE
  5
1B2
330
1E
100
AcDbEntity
  8
0
100
AcDbLine
 10
34.6693
 20
44.977
 30
0.0
 11
34.74629999999999
 21
43.54899999999999
 31
0.0
  0
LINE
  5
1B3
330
1E
100
AcDbEntity
  8
0
100
AcDbLine
 10
33.713
 20
43.12
 30
0.0
 11
33.725
 21
44.44300000000001
 31
0.0
  0
LINE
  5
1B4
330
1E
100
AcDbEntity
  8
0
100
AcDbLine
 10
34.5602
 20
42.13
 30
0.0
 11
34.74629999999999
 21
43.54899999999999
 31
0.0
  0
LINE
  5
1B5
330
1E
100
AcDbEntity
  8
0
100
AcDbLine
 10
33.4429
 20
41.825
 30
0.0
 11
33.713
 21
43.12
 31
0.0
  0
LINE
  5
1B6
330
1E
100
AcDbEntity
  8
0
100
AcDbLine
 10
34.1171
 20
40.771
 30
0.0
 11
34.5602
 21
42.13
 31
0.0
  0
LINE
  5
1B7
330
1E
100
AcDbEntity
  8
0
100
AcDbLine
 10
32.9258
 20
40.60699999999999
 30
0.0
 11
33.4429
 21
41.825
 31
0.0
  0
LINE
  5
1B8
330
1E
100
AcDbEntity
  8
0
100
AcDbLine
 10
31.33129999999999
 20
49.022
 30
0.0
 11
32.2586
 21
48.077
 31
0.0
  0
LINE
  5
1B9
330
1E
100
AcDbEntity
  8
0
100
AcDbLine
 10
31.9035
 20
49.846
 30
0.0
 11
32.9238
 21
48.843
 31
0.0
  0
LINE
  5
1BA
330
1E
100
AcDbEntity
  8
0
100
AcDbLine
 10
32.9238
 20
48.843
 30
0.0
 11
33.742
 21
47.67
 31
0.0
  0
LINE
  5
1BB
330
1E
100
AcDbEntity
  8
0
100
AcDbLine
 10
32.2586
 20
48.077
 30
0.0
 11
32.9838
 21
46.97
 31
0.0
  0
LINE
  5
1BC
330
1E
100
AcDbEntity
  8
0
100
AcDbLine
 10
33.783
 20
50.135
 30
0.0
 11
34.7263
 21
48.93299999999999
 31
0.0
  0
LINE
  5
1BD
330
1E
100
AcDbEntity
  8
0
100
AcDbLine
 10
34.7263
 20
48.93299999999999
 30
0.0
 11
35.4585
 21
47.59199999999999
 31
0.0
  0
LINE
  5
1BE
330
1E
100
AcDbEntity
  8
0
100
AcDbLine
 10
35.4585
 20
47.59199999999999
 30
0.0
 11
35.9607
 21
46.14899999999999
 31
0.0
  0
LINE
  5
1BF
330
1E
100
AcDbEntity
  8
0
100
AcDbLine
 10
33.742
 20
47.67
 30
0.0
 11
34.33019999999999
 21
46.366
 31
0.0
  0
LINE
  5
1C0
330
1E
100
AcDbEntity
  8
0
100
AcDbLine
 10
31.3713
 20
51.996
 30
0.0
 11
32.6537
 21
51.165
 31
0.0
  0
LINE
  5
1C1
330
1E
100
AcDbEntity
  8
0
100
AcDbLine
 10
32.6537
 20
51.165
 30
0.0
 11
33.783
 21
50.135
 31
0.0
  0
LINE
  5
1C2
330
1E
100
AcDbEntity
  8
0
100
AcDbLine
 10
31.4753
 20
53.287
 30
0.0
 11
32.8987
 21
52.46999999999999
 31
0.0
  0
LINE
  5
1C3
330
1E
100
AcDbEntity
  8
0
100
AcDbLine
 10
32.8987
 20
52.46999999999999
 30
0.0
 11
34.17609999999999
 21
51.442
 31
0.0
  0
LINE
  5
1C4
330
1E
100
AcDbEntity
  8
0
100
AcDbLine
 10
35.23700867505929
 20
50.26963999557239
 30
0.0
 11
35.2504
 21
56.701
 31
0.0
  0
LINE
  5
1C5
330
1E
100
AcDbEntity
  8
0
100
AcDbLine
 10
35.2504
 20
56.701
 30
0.0
 11
35.3255
 21
57.084
 31
0.0
  0
LINE
  5
1C6
330
1E
100
AcDbEntity
  8
0
100
AcDbLine
 10
35.3255
 20
57.084
 30
0.0
 11
35.54249999999999
 21
57.408
 31
0.0
  0
LINE
  5
1C7
330
1E
100
AcDbEntity
  8
0
100
AcDbLine
 10
35.54249999999999
 20
57.408
 30
0.0
 11
37.183
 21
59.05
 31
0.0
  0
LINE
  5
1C8
330
1E
100
AcDbEntity
  8
0
100
AcDbLine
 10
34.17609999999999
 20
51.442
 30
0.0
 11
35.27649999999999
 21
50.226
 31
0.0
  0
LINE
  5
1C9
330
1E
100
AcDbEntity
  8
0
100
AcDbLine
 10
35.27649999999999
 20
50.226
 30
0.0
 11
36.17369999999999
 21
48.853
 31
0.0
  0
LINE
  5
1CA
330
1E
100
AcDbEntity
  8
0
100
AcDbLine
 10
36.17369999999999
 20
48.853
 30
0.0
 11
36.8439
 21
47.357
 31
0.0
  0
LINE
  5
1CB
330
1E
100
AcDbEntity
  8
0
100
AcDbLine
 10
36.8439
 20
47.357
 30
0.0
 11
37.273
 21
45.77399999999999
 31
0.0
  0
LINE
  5
1CC
330
1E
100
AcDbEntity
  8
0
100
AcDbLine
 10
37.273
 20
45.77399999999999
 30
0.0
 11
37.4491
 21
44.14399999999999
 31
0.0
  0
LINE
  5
1CD
330
1E
100
AcDbEntity
  8
0
100
AcDbLine
 10
37.3671
 20
42.506
 30
0.0
 11
37.4491
 21
44.14399999999999
 31
0.0
  0
LINE
  5
1CE
330
1E
100
AcDbEntity
  8
0
100
AcDbLine
 10
37.03
 20
40.90099999999999
 30
0.0
 11
37.3671
 21
42.506
 31
0.0
  0
LINE
  5
1CF
330
1E
100
AcDbEntity
  8
0
100
AcDbLine
 10
33.4309
 20
39.516
 30
0.0
 11
34.1171
 21
40.771
 31
0.0
  0
LINE
  5
1D0
330
1E
100
AcDbEntity
  8
0
100
AcDbLine
 10
30.71709999999999
 20
50.644
 30
0.0
 11
31.9035
 21
49.846
 31
0.0
  0
LINE
  5
1D1
330
1E
100
AcDbEntity
  8
0
100
AcDbLine
 10
35.2344843792302
 20
37.45532349730329
 30
0.0
 11
35.2464496544976
 21
27.157
 31
0.0
  0
LINE
  5
1D5
330
1E
100
AcDbEntity
  8
0
100
AcDbLine
 10
16.5239
 20
59.75699999999999
 30
0.0
 11
16.5999
 21
59.375
 31
0.0
  0
LINE
  5
1D6
330
1E
100
AcDbEntity
  8
0
100
AcDbLine
 10
16.5239
 20
59.75699999999999
 30
0.0
 11
16.5239
 21
65.848
 31
0.0
  0
LINE
  5
1D7
330
1E
100
AcDbEntity
  8
0
100
AcDbLine
 10
16.5999
 20
59.375
 30
0.0
 11
16.817
 21
59.05
 31
0.0
  0
LINE
  5
1D8
330
1E
100
AcDbEntity
  8
0
100
AcDbLine
 10
37.183
 20
59.05
 30
0.0
 11
37.4001
 21
59.375
 31
0.0
  0
LINE
  5
1D9
330
1E
100
AcDbEntity
  8
0
100
AcDbLine
 10
37.5868
 20
0.6569999999999972
 30
0.0
 11
40.47379999999999
 21
5.657
 31
0.0
  0
LINE
  5
1DA
330
1E
100
AcDbEntity
  8
0
100
AcDbLine
 10
37.5868
 20
0.6569999999999979
 30
0.0
 11
40.47379999999999
 21
5.657
 31
0.0
  0
LINE
  5
1DB
330
1E
100
AcDbEntity
  8
0
100
AcDbLine
 10
38.7748
 20
3.413001
 30
0.0
 11
38.9888
 21
3.611001
 31
0.0
  0
LINE
  5
1DC
330
1E
100
AcDbEntity
  8
0
100
AcDbLine
 10
37.5018
 20
0.6569999999999979
 30
0.0
 11
37.5868
 21
0.6569999999999979
 31
0.0
  0
LINE
  5
1DD
330
1E
100
AcDbEntity
  8
0
100
AcDbLine
 10
38.9888
 20
3.611001
 30
0.0
 11
39.2608
 21
3.935
 31
0.0
  0
LINE
  5
1DE
330
1E
100
AcDbEntity
  8
0
100
AcDbLine
 10
37.71179999999999
 20
27.157
 30
0.0
 11
38.1328
 21
27.157
 31
0.0
  0
LINE
  5
1DF
330
1E
100
AcDbEntity
  8
0
100
AcDbLine
 10
38.1328
 20
27.157
 30
0.0
 11
38.38779999999999
 21
27.157
 31
0.0
  0
LINE
  5
1E0
330
1E
100
AcDbEntity
  8
0
100
AcDbLine
 10
38.0198
 20
25.15699999999999
 30
0.0
 11
38.7308
 21
25.15699999999999
 31
0.0
  0
LINE
  5
1E1
330
1E
100
AcDbEntity
  8
0
100
AcDbLine
 10
38.4848
 20
25.713
 30
0.0
 11
38.5838
 21
25.46699999999999
 31
0.0
  0
LINE
  5
1E2
330
1E
100
AcDbEntity
  8
0
100
AcDbLine
 10
38.7308
 20
5.657
 30
0.0
 11
38.7308
 21
25.15699999999999
 31
0.0
  0
LINE
  5
1E3
330
1E
100
AcDbEntity
  8
0
100
AcDbLine
 10
38.5838
 20
25.46699999999999
 30
0.0
 11
38.7308
 21
25.15699999999999
 31
0.0
  0
LINE
  5
1E4
330
1E
100
AcDbEntity
  8
0
100
AcDbLine
 10
38.7308
 20
25.15699999999999
 30
0.0
 11
38.7308
 21
5.657
 31
0.0
  0
LINE
  5
1E5
330
1E
100
AcDbEntity
  8
0
100
AcDbLine
 10
38.6488
 20
5.366
 30
0.0
 11
38.7308
 21
5.657
 31
0.0
  0
LINE
  5
1E6
330
1E
100
AcDbEntity
  8
0
100
AcDbLine
 10
38.49479999999999
 20
4.741999999999999
 30
0.0
 11
38.6488
 21
5.366
 31
0.0
  0
LINE
  5
1E7
330
1E
100
AcDbEntity
  8
0
100
AcDbLine
 10
38.47379999999999
 20
27.157
 30
0.0
 11
40.47379999999999
 21
25.15699999999999
 31
0.0
  0
LINE
  5
1E8
330
1E
100
AcDbEntity
  8
0
100
AcDbLine
 10
38.38779999999999
 20
27.157
 30
0.0
 11
38.47379999999999
 21
27.157
 31
0.0
  0
LINE
  5
1E9
330
1E
100
AcDbEntity
  8
0
100
AcDbLine
 10
38.3938
 20
26.405
 30
0.0
 11
38.4958
 21
26.498
 31
0.0
  0
LINE
  5
1EA
330
1E
100
AcDbEntity
  8
0
100
AcDbLine
 10
38.6678
 20
26.491
 30
0.0
 11
38.9138
 21
26.383
 31
0.0
  0
LINE
  5
1EB
330
1E
100
AcDbEntity
  8
0
100
AcDbLine
 10
38.4958
 20
26.498
 30
0.0
 11
38.6678
 21
26.491
 31
0.0
  0
LINE
  5
1EC
330
1E
100
AcDbEntity
  8
0
100
AcDbLine
 10
38.9138
 20
26.383
 30
0.0
 11
39.1628
 21
26.223
 31
0.0
  0
LINE
  5
1ED
330
1E
100
AcDbEntity
  8
0
100
AcDbLine
 10
38.3828
 20
26.074
 30
0.0
 11
38.4848
 21
25.713
 31
0.0
  0
LINE
  5
1EE
330
1E
100
AcDbEntity
  8
0
100
AcDbLine
 10
38.4088
 20
4.272
 30
0.0
 11
38.49479999999999
 21
4.741999999999999
 31
0.0
  0
LINE
  5
1EF
330
1E
100
AcDbEntity
  8
0
100
AcDbLine
 10
38.3658
 20
26.272
 30
0.0
 11
38.3828
 21
26.074
 31
0.0
  0
LINE
  5
1F0
330
1E
100
AcDbEntity
  8
0
100
AcDbLine
 10
38.3658
 20
26.272
 30
0.0
 11
38.3938
 21
26.405
 31
0.0
  0
LINE
  5
1F1
330
1E
100
AcDbEntity
  8
0
100
AcDbLine
 10
38.3658
 20
3.797001
 30
0.0
 11
38.4088
 21
4.272
 31
0.0
  0
LINE
  5
1F2
330
1E
100
AcDbEntity
  8
0
100
AcDbLine
 10
38.3658
 20
3.797001
 30
0.0
 11
38.3928
 21
3.499001
 31
0.0
  0
LINE
  5
1F3
330
1E
100
AcDbEntity
  8
0
100
AcDbLine
 10
37.4001
 20
59.375
 30
0.0
 11
37.4761
 21
59.75699999999999
 31
0.0
  0
LINE
  5
1F4
330
1E
100
AcDbEntity
  8
0
100
AcDbLine
 10
15.4886
 20
65.848
 30
0.0
 11
15.8457
 21
65.848
 31
0.0
  0
LINE
  5
1F5
330
1E
100
AcDbEntity
  8
0
100
AcDbLine
 10
15.41859999999999
 20
65.848
 30
0.0
 11
15.7077
 21
65.848
 31
0.0
  0
LINE
  5
1F6
330
1E
100
AcDbEntity
  8
0
100
AcDbLine
 10
16.41189999999999
 20
65.848
 30
0.0
 11
17.1741
 21
65.848
 31
0.0
  0
LINE
  5
1F7
330
1E
100
AcDbEntity
  8
0
100
AcDbLine
 10
15.8457
 20
65.848
 30
0.0
 11
16.41189999999999
 21
65.848
 31
0.0
  0
LINE
  5
1F8
330
1E
100
AcDbEntity
  8
0
100
AcDbLine
 10
15.7077
 20
65.848
 30
0.0
 11
16.20779999999999
 21
65.848
 31
0.0
  0
LINE
  5
1F9
330
1E
100
AcDbEntity
  8
0
100
AcDbLine
 10
16.20779999999999
 20
65.848
 30
0.0
 11
16.5239
 21
65.848
 31
0.0
  0
LINE
  5
1FA
330
1E
100
AcDbEntity
  8
0
100
AcDbLine
 10
17.1741
 20
65.848
 30
0.0
 11
18.1204
 21
65.848
 31
0.0
  0
LINE
  5
1FB
330
1E
100
AcDbEntity
  8
0
100
AcDbLine
 10
19.2317
 20
65.848
 30
0.0
 11
20.4871
 21
65.848
 31
0.0
  0
LINE
  5
1FC
330
1E
100
AcDbEntity
  8
0
100
AcDbLine
 10
18.1204
 20
65.848
 30
0.0
 11
19.2317
 21
65.848
 31
0.0
  0
LINE
  5
1FD
330
1E
100
AcDbEntity
  8
0
100
AcDbLine
 10
23.3379
 20
65.848
 30
0.0
 11
24.8794
 21
65.848
 31
0.0
  0
LINE
  5
1FE
330
1E
100
AcDbEntity
  8
0
100
AcDbLine
 10
26.4598
 20
65.848
 30
0.0
 11
27.0
 21
65.848
 31
0.0
  0
LINE
  5
1FF
330
1E
100
AcDbEntity
  8
0
100
AcDbLine
 10
24.8794
 20
65.848
 30
0.0
 11
26.4598
 21
65.848
 31
0.0
  0
LINE
  5
200
330
1E
100
AcDbEntity
  8
0
100
AcDbLine
 10
20.4871
 20
65.848
 30
0.0
 11
21.8645
 21
65.848
 31
0.0
  0
LINE
  5
201
330
1E
100
AcDbEntity
  8
0
100
AcDbLine
 10
21.8645
 20
65.848
 30
0.0
 11
23.3379
 21
65.848
 31
0.0
  0
LINE
  5
202
330
1E
100
AcDbEntity
  8
0
100
AcDbLine
 10
16.5239
 20
65.848
 30
0.0
 11
16.5239
 21
59.75699999999999
 31
0.0
  0
LINE
  5
203
330
1E
100
AcDbEntity
  8
0
100
AcDbLine
 10
15.3445
 20
65.848
 30
0.0
 11
15.41859999999999
 21
65.848
 31
0.0
  0
LINE
  5
204
330
1E
100
AcDbEntity
  8
0
100
AcDbLine
 10
15.3445
 20
65.848
 30
0.0
 11
15.4886
 21
65.848
 31
0.0
  0
LINE
  5
205
330
1E
100
AcDbEntity
  8
0
100
AcDbLine
 10
27.0
 20
65.848
 30
0.0
 11
27.5402
 21
65.848
 31
0.0
  0
LINE
  5
206
330
1E
100
AcDbEntity
  8
0
100
AcDbLine
 10
27.5402
 20
65.848
 30
0.0
 11
29.1206
 21
65.848
 31
0.0
  0
LINE
  5
207
330
1E
100
AcDbEntity
  8
0
100
AcDbLine
 10
29.1206
 20
65.848
 30
0.0
 11
30.66209999999999
 21
65.848
 31
0.0
  0
LINE
  5
208
330
1E
100
AcDbEntity
  8
0
100
AcDbLine
 10
14.9774
 20
65.977
 30
0.0
 11
15.3445
 21
65.848
 31
0.0
  0
LINE
  5
209
330
1E
100
AcDbEntity
  8
0
100
AcDbLine
 10
30.66209999999999
 20
65.848
 30
0.0
 11
32.1355
 21
65.848
 31
0.0
  0
LINE
  5
20A
330
1E
100
AcDbEntity
  8
0
100
AcDbLine
 10
32.1355
 20
65.848
 30
0.0
 11
33.5129
 21
65.848
 31
0.0
  0
LINE
  5
20B
330
1E
100
AcDbEntity
  8
0
100
AcDbLine
 10
33.5129
 20
65.848
 30
0.0
 11
34.7683
 21
65.848
 31
0.0
  0
LINE
  5
20C
330
1E
100
AcDbEntity
  8
0
100
AcDbLine
 10
34.7683
 20
65.848
 30
0.0
 11
35.8796
 21
65.848
 31
0.0
  0
LINE
  5
20D
330
1E
100
AcDbEntity
  8
0
100
AcDbLine
 10
35.8796
 20
65.848
 30
0.0
 11
36.82589999999999
 21
65.848
 31
0.0
  0
LINE
  5
20E
330
1E
100
AcDbEntity
  8
0
100
AcDbLine
 10
36.82589999999999
 20
65.848
 30
0.0
 11
37.58809999999999
 21
65.848
 31
0.0
  0
LINE
  5
20F
330
1E
100
AcDbEntity
  8
0
100
AcDbLine
 10
0.9992959999999989
 20
74.03100000000001
 30
0.0
 11
14.9774
 21
65.977
 31
0.0
  0
LINE
  5
210
330
1E
100
AcDbEntity
  8
0
100
AcDbLine
 10
1.000299999999999
 20
74.03100000000001
 30
0.0
 11
1.059309999999999
 21
74.03100000000001
 31
0.0
  0
LINE
  5
211
330
1E
100
AcDbEntity
  8
0
100
AcDbLine
 10
0.0
 20
75.763
 30
0.0
 11
0.120036
 21
75.07899999999999
 31
0.0
  0
LINE
  5
212
330
1E
100
AcDbEntity
  8
0
100
AcDbLine
 10
0.0
 20
75.763
 30
0.0
 11
0.0
 21
78.843
 31
0.0
  0
LINE
  5
213
330
1E
100
AcDbEntity
  8
0
100
AcDbLine
 10
0.4681390000000001
 20
74.47700000000001
 30
0.0
 11
1.000299999999999
 21
74.03100000000001
 31
0.0
  0
LINE
  5
214
330
1E
100
AcDbEntity
  8
0
100
AcDbLine
 10
0.061018
 20
78.843
 30
0.0
 11
0.367109
 21
78.843
 31
0.0
  0
LINE
  5
215
330
1E
100
AcDbEntity
  8
0
100
AcDbLine
 10
1.696499999999999
 20
78.843
 30
0.0
 11
2.7088
 21
78.843
 31
0.0
  0
LINE
  5
216
330
1E
100
AcDbEntity
  8
0
100
AcDbLine
 10
2.7088
 20
78.843
 30
0.0
 11
3.941169999999999
 21
78.843
 31
0.0
  0
LINE
  5
217
330
1E
100
AcDbEntity
  8
0
100
AcDbLine
 10
0.367109
 20
78.843
 30
0.0
 11
0.9132709999999999
 21
78.843
 31
0.0
  0
LINE
  5
218
330
1E
100
AcDbEntity
  8
0
100
AcDbLine
 10
0.9132709999999999
 20
78.843
 30
0.0
 11
1.696499999999999
 21
78.843
 31
0.0
  0
LINE
  5
219
330
1E
100
AcDbEntity
  8
0
100
AcDbLine
 10
7.01908
 20
78.843
 30
0.0
 11
8.836619999999999
 21
78.843
 31
0.0
  0
LINE
  5
21A
330
1E
100
AcDbEntity
  8
0
100
AcDbLine
 10
8.836619999999999
 20
78.843
 30
0.0
 11
10.8182
 21
78.843
 31
0.0
  0
LINE
  5
21B
330
1E
100
AcDbEntity
  8
0
100
AcDbLine
 10
10.8182
 20
78.843
 30
0.0
 11
12.9478
 21
78.843
 31
0.0
  0
LINE
  5
21C
330
1E
100
AcDbEntity
  8
0
100
AcDbLine
 10
3.941169999999999
 20
78.843
 30
0.0
 11
5.381599999999999
 21
78.843
 31
0.0
  0
LINE
  5
21D
330
1E
100
AcDbEntity
  8
0
100
AcDbLine
 10
5.381599999999999
 20
78.843
 30
0.0
 11
7.01908
 21
78.843
 31
0.0
  0
LINE
  5
21E
330
1E
100
AcDbEntity
  8
0
100
AcDbLine
 10
22.5267
 20
78.843
 30
0.0
 11
25.07839999999999
 21
78.843
 31
0.0
  0
LINE
  5
21F
330
1E
100
AcDbEntity
  8
0
100
AcDbLine
 10
25.07839999999999
 20
78.843
 30
0.0
 11
27.0
 21
78.843
 31
0.0
  0
LINE
  5
220
330
1E
100
AcDbEntity
  8
0
100
AcDbLine
 10
17.5672
 20
78.843
 30
0.0
 11
20.01489999999999
 21
78.843
 31
0.0
  0
LINE
  5
221
330
1E
100
AcDbEntity
  8
0
100
AcDbLine
 10
15.2035
 20
78.843
 30
0.0
 11
17.5672
 21
78.843
 31
0.0
  0
LINE
  5
222
330
1E
100
AcDbEntity
  8
0
100
AcDbLine
 10
20.01489999999999
 20
78.843
 30
0.0
 11
22.5267
 21
78.843
 31
0.0
  0
LINE
  5
223
330
1E
100
AcDbEntity
  8
0
100
AcDbLine
 10
12.9478
 20
78.843
 30
0.0
 11
15.2035
 21
78.843
 31
0.0
  0
LINE
  5
224
330
1E
100
AcDbEntity
  8
0
100
AcDbLine
 10
0.120036
 20
75.07899999999999
 30
0.0
 11
0.4681390000000001
 21
74.47700000000001
 31
0.0
  0
LINE
  5
225
330
1E
100
AcDbEntity
  8
0
100
AcDbLine
 10
0.0
 20
78.843
 30
0.0
 11
0.0
 21
75.763
 31
0.0
  0
LINE
  5
226
330
1E
100
AcDbEntity
  8
0
100
AcDbLine
 10
0.0
 20
78.843
 30
0.0
 11
0.061018
 21
78.843
 31
0.0
  0
LINE
  5
227
330
1E
100
AcDbEntity
  8
0
100
AcDbLine
 10
0.999296
 20
74.03100000000001
 30
0.0
 11
1.059309999999999
 21
74.03100000000001
 31
0.0
  0
LINE
  5
228
330
1E
100
AcDbEntity
  8
0
100
AcDbLine
 10
0.999296
 20
74.03100000000001
 30
0.0
 11
14.9774
 21
65.977
 31
0.0
  0
LINE
  5
229
330
1E
100
AcDbEntity
  8
0
100
AcDbLine
 10
27.0
 20
78.843
 30
0.0
 11
28.9216
 21
78.843
 31
0.0
  0
LINE
  5
22A
330
1E
100
AcDbEntity
  8
0
100
AcDbLine
 10
28.9216
 20
78.843
 30
0.0
 11
31.4733
 21
78.843
 31
0.0
  0
LINE
  5
22B
330
1E
100
AcDbEntity
  8
0
100
AcDbLine
 10
31.4733
 20
78.843
 30
0.0
 11
33.9851
 21
78.843
 31
0.0
  0
LINE
  5
22C
330
1E
100
AcDbEntity
  8
0
100
AcDbLine
 10
33.9851
 20
78.843
 30
0.0
 11
36.4328
 21
78.843
 31
0.0
  0
LINE
  5
22D
330
1E
100
AcDbEntity
  8
0
100
AcDbLine
 10
36.4328
 20
78.843
 30
0.0
 11
38.7965
 21
78.843
 31
0.0
  0
LINE
  5
22E
330
1E
100
AcDbEntity
  8
0
100
AcDbLine
 10
37.58809999999999
 20
65.848
 30
0.0
 11
38.1543
 21
65.848
 31
0.0
  0
LINE
  5
22F
330
1E
100
AcDbEntity
  8
0
100
AcDbLine
 10
37.7922
 20
65.848
 30
0.0
 11
38.29229999999999
 21
65.848
 31
0.0
  0
LINE
  5
230
330
1E
100
AcDbEntity
  8
0
100
AcDbLine
 10
38.29229999999999
 20
65.848
 30
0.0
 11
38.5814
 21
65.848
 31
0.0
  0
LINE
  5
231
330
1E
100
AcDbEntity
  8
0
100
AcDbLine
 10
38.6555
 20
65.848
 30
0.0
 11
39.0226
 21
65.977
 31
0.0
  0
LINE
  5
232
330
1E
100
AcDbEntity
  8
0
100
AcDbLine
 10
38.5814
 20
65.848
 30
0.0
 11
38.6555
 21
65.848
 31
0.0
  0
LINE
  5
233
330
1E
100
AcDbEntity
  8
0
100
AcDbLine
 10
38.5114
 20
65.848
 30
0.0
 11
38.6555
 21
65.848
 31
0.0
  0
LINE
  5
234
330
1E
100
AcDbEntity
  8
0
100
AcDbLine
 10
38.7965
 20
78.843
 30
0.0
 11
41.0522
 21
78.843
 31
0.0
  0
LINE
  5
235
330
1E
100
AcDbEntity
  8
0
100
AcDbLine
 10
38.1543
 20
65.848
 30
0.0
 11
38.5114
 21
65.848
 31
0.0
  0
LINE
  5
236
330
1E
100
AcDbEntity
  8
0
100
AcDbLine
 10
37.4761
 20
65.848
 30
0.0
 11
37.4761
 21
59.75699999999999
 31
0.0
  0
LINE
  5
237
330
1E
100
AcDbEntity
  8
0
100
AcDbLine
 10
37.4761
 20
65.848
 30
0.0
 11
37.7922
 21
65.848
 31
0.0
  0
LINE
  5
238
330
1E
100
AcDbEntity
  8
0
100
AcDbLine
 10
37.4761
 20
59.75699999999999
 30
0.0
 11
37.4761
 21
65.848
 31
0.0
  0
LINE
  5
239
330
1E
100
AcDbEntity
  8
0
100
AcDbLine
 10
39.2608
 20
3.935
 30
0.0
 11
39.5188
 21
4.286
 31
0.0
  0
LINE
  5
23A
330
1E
100
AcDbEntity
  8
0
100
AcDbLine
 10
39.5188
 20
4.286
 30
0.0
 11
39.8338
 21
4.75
 31
0.0
  0
LINE
  5
23B
330
1E
100
AcDbEntity
  8
0
100
AcDbLine
 10
39.8338
 20
4.75
 30
0.0
 11
40.0968
 21
5.157999999999999
 31
0.0
  0
LINE
  5
23C
330
1E
100
AcDbEntity
  8
0
100
AcDbLine
 10
40.0968
 20
5.157999999999999
 30
0.0
 11
40.4078
 21
5.657
 31
0.0
  0
LINE
  5
23D
330
1E
100
AcDbEntity
  8
0
100
AcDbLine
 10
40.4078
 20
5.657
 30
0.0
 11
40.4078
 21
25.15699999999999
 31
0.0
  0
LINE
  5
23E
330
1E
100
AcDbEntity
  8
0
100
AcDbLine
 10
39.1628
 20
26.223
 30
0.0
 11
39.47979999999999
 21
25.98
 31
0.0
  0
LINE
  5
23F
330
1E
100
AcDbEntity
  8
0
100
AcDbLine
 10
39.47979999999999
 20
25.98
 30
0.0
 11
39.71779999999999
 21
25.781
 31
0.0
  0
LINE
  5
240
330
1E
100
AcDbEntity
  8
0
100
AcDbLine
 10
39.71779999999999
 20
25.781
 30
0.0
 11
40.0018
 21
25.53
 31
0.0
  0
LINE
  5
241
330
1E
100
AcDbEntity
  8
0
100
AcDbLine
 10
40.0018
 20
25.53
 30
0.0
 11
40.4078
 21
25.15699999999999
 31
0.0
  0
LINE
  5
242
330
1E
100
AcDbEntity
  8
0
100
AcDbLine
 10
40.47379999999999
 20
25.15699999999999
 30
0.0
 11
40.47379999999999
 21
5.657
 31
0.0
  0
LINE
  5
243
330
1E
100
AcDbEntity
  8
0
100
AcDbLine
 10
40.4078
 20
25.15699999999999
 30
0.0
 11
40.4078
 21
5.657
 31
0.0
  0
LINE
  5
244
330
1E
100
AcDbEntity
  8
0
100
AcDbLine
 10
40.4078
 20
25.15699999999999
 30
0.0
 11
40.47379999999999
 21
25.15699999999999
 31
0.0
  0
LINE
  5
245
330
1E
100
AcDbEntity
  8
0
100
AcDbLine
 10
40.47379999999999
 20
5.657
 30
0.0
 11
40.47379999999999
 21
25.15699999999999
 31
0.0
  0
LINE
  5
246
330
1E
100
AcDbEntity
  8
0
100
AcDbLine
 10
52.9997
 20
74.03100000000001
 30
0.0
 11
53.5319
 21
74.47700000000001
 31
0.0
  0
LINE
  5
247
330
1E
100
AcDbEntity
  8
0
100
AcDbLine
 10
41.0522
 20
78.843
 30
0.0
 11
43.1818
 21
78.843
 31
0.0
  0
LINE
  5
248
330
1E
100
AcDbEntity
  8
0
100
AcDbLine
 10
43.1818
 20
78.843
 30
0.0
 11
45.1634
 21
78.843
 31
0.0
  0
LINE
  5
249
330
1E
100
AcDbEntity
  8
0
100
AcDbLine
 10
45.1634
 20
78.843
 30
0.0
 11
46.98089999999999
 21
78.843
 31
0.0
  0
LINE
  5
24A
330
1E
100
AcDbEntity
  8
0
100
AcDbLine
 10
46.98089999999999
 20
78.843
 30
0.0
 11
48.6184
 21
78.843
 31
0.0
  0
LINE
  5
24B
330
1E
100
AcDbEntity
  8
0
100
AcDbLine
 10
48.6184
 20
78.843
 30
0.0
 11
50.0588
 21
78.843
 31
0.0
  0
LINE
  5
24C
330
1E
100
AcDbEntity
  8
0
100
AcDbLine
 10
50.0588
 20
78.843
 30
0.0
 11
51.2912
 21
78.843
 31
0.0
  0
LINE
  5
24D
330
1E
100
AcDbEntity
  8
0
100
AcDbLine
 10
51.2912
 20
78.843
 30
0.0
 11
52.3035
 21
78.843
 31
0.0
  0
LINE
  5
24E
330
1E
100
AcDbEntity
  8
0
100
AcDbLine
 10
52.3035
 20
78.843
 30
0.0
 11
53.0867
 21
78.843
 31
0.0
  0
LINE
  5
24F
330
1E
100
AcDbEntity
  8
0
100
AcDbLine
 10
53.0867
 20
78.843
 30
0.0
 11
53.6329
 21
78.843
 31
0.0
  0
LINE
  5
250
330
1E
100
AcDbEntity
  8
0
100
AcDbLine
 10
53.6329
 20
78.843
 30
0.0
 11
53.93899999999999
 21
78.843
 31
0.0
  0
LINE
  5
251
330
1E
100
AcDbEntity
  8
0
100
AcDbLine
 10
53.5319
 20
74.47700000000001
 30
0.0
 11
53.88
 21
75.07899999999999
 31
0.0
  0
LINE
  5
252
330
1E
100
AcDbEntity
  8
0
100
AcDbLine
 10
53.93899999999999
 20
78.843
 30
0.0
 11
54.0
 21
78.843
 31
0.0
  0
LINE
  5
253
330
1E
100
AcDbEntity
  8
0
100
AcDbLine
 10
54.0
 20
75.763
 30
0.0
 11
54.0
 21
78.843
 31
0.0
  0
LINE
  5
254
330
1E
100
AcDbEntity
  8
0
100
AcDbLine
 10
54.0
 20
78.843
 30
0.0
 11
54.0
 21
75.763
 31
0.0
  0
LINE
  5
255
330
1E
100
AcDbEntity
  8
0
100
AcDbLine
 10
53.88
 20
75.07899999999999
 30
0.0
 11
54.0
 21
75.763
 31
0.0
  0
LINE
  5
256
330
1E
100
AcDbEntity
  8
0
100
AcDbLine
 10
52.9407
 20
74.03100000000001
 30
0.0
 11
52.9997
 21
74.03100000000001
 31
0.0
  0
LINE
  5
257
330
1E
100
AcDbEntity
  8
0
100
AcDbLine
 10
52.9407
 20
74.03100000000001
 30
0.0
 11
53.0007
 21
74.03100000000001
 31
0.0
  0
LINE
  5
258
330
1E
100
AcDbEntity
  8
0
100
AcDbLine
 10
39.0226
 20
65.977
 30
0.0
 11
53.0007
 21
74.03100000000001
 31
0.0
  0
LINE
  5
25D
330
1E
100
AcDbEntity
  8
0
100
AcDbLine
 10
16.3708
 20
3.499001
 30
0.0
 11
16.8748
 21
3.611001
 31
0.0
  0
LINE
  5
25E
330
1E
100
AcDbEntity
  8
0
100
AcDbLine
 10
20.18479999999999
 20
3.499001
 30
0.0
 11
21.5968
 21
3.611001
 31
0.0
  0
LINE
  5
25F
330
1E
100
AcDbEntity
  8
0
100
AcDbLine
 10
26.8398
 20
3.499001
 30
0.0
 11
28.6208
 21
3.611001
 31
0.0
  0
LINE
  5
260
330
1E
100
AcDbEntity
  8
0
100
AcDbLine
 10
33.7948
 20
3.499001
 30
0.0
 11
35.2648
 21
3.611001
 31
0.0
  0
LINE
  5
261
330
1E
100
AcDbEntity
  8
0
100
AcDbLine
 10
38.3928
 20
3.499001
 30
0.0
 11
38.7748
 21
3.413001
 31
0.0
  0
ENDSEC
  0
SECTION
  2
OBJECTS
  0
DICTIONARY
  5
C
330
0
100
AcDbDictionary
281
     1
  3
ACAD_GROUP
350
D
  3
ACAD_LAYOUT
350
19
  3
ACAD_MLINESTYLE
350
16
  3
ACAD_PLOTSETTINGS
350
18
  3
ACAD_PLOTSTYLENAME
350
E
  3
AcDbVariableDictionary
350
263
  0
DICTIONARY
  5
D
102
{ACAD_REACTORS
330
C
102
}
330
C
100
AcDbDictionary
281
     1
  0
DICTIONARY
  5
19
102
{ACAD_REACTORS
330
C
102
}
330
C
100
AcDbDictionary
281
     1
  3
Layout1
350
1D
  3
Model
350
21
  0
DICTIONARY
  5
16
102
{ACAD_REACTORS
330
C
102
}
330
C
100
AcDbDictionary
281
     1
  3
Standard
350
17
  0
DICTIONARY
  5
18
102
{ACAD_REACTORS
330
C
102
}
330
C
100
AcDbDictionary
281
     1
  0
ACDBDICTIONARYWDFLT
  5
E
102
{ACAD_REACTORS
330
C
102
}
330
C
100
AcDbDictionary
281
     1
  3
Normal
350
F
100
AcDbDictionaryWithDefault
340
F
  0
DICTIONARY
  5
263
102
{ACAD_REACTORS
330
C
102
}
330
C
100
AcDbDictionary
281
     1
  3
DIMASSOC
350
264
  0
LAYOUT
  5
1D
102
{ACAD_REACTORS
330
19
102
}
330
19
100
AcDbPlotSettings
  1

  2
C:\Programme\AutoCAD LT 2002 Deu\plotters\DWF ePlot (optimized for plotting).pc3
  4

  6

 40
0.0
 41
0.0
 42
0.0
 43
0.0
 44
0.0
 45
0.0
 46
0.0
 47
0.0
 48
0.0
 49
0.0
140
0.0
141
0.0
142
1.0
143
1.0
 70
   688
 72
     0
 73
     0
 74
     5
  7

 75
    16
147
1.0
148
0.0
149
0.0
100
AcDbLayout
  1
Layout1
 70
     1
 71
     1
 10
0.0
 20
0.0
 11
12.0
 21
9.0
 12
0.0
 22
0.0
 32
0.0
 14
1.000000000000000E+20
 24
1.000000000000000E+20
 34
1.000000000000000E+20
 15
-1.000000000000000E+20
 25
-1.000000000000000E+20
 35
-1.000000000000000E+20
146
0.0
 13
0.0
 23
0.0
 33
0.0
 16
1.0
 26
0.0
 36
0.0
 17
0.0
 27
1.0
 37
0.0
 76
     0
330
1A
  0
LAYOUT
  5
21
102
{ACAD_REACTORS
330
19
102
}
330
19
100
AcDbPlotSettings
  1

  2
C:\Programme\AutoCAD LT 2002 Deu\plotters\DWF ePlot (optimized for plotting).pc3
  4

  6

 40
0.0
 41
0.0
 42
0.0
 43
0.0
 44
0.0
 45
0.0
 46
0.0
 47
0.0
 48
0.0
 49
0.0
140
0.0
141
0.0
142
1.0
143
1.0
 70
  1712
 72
     0
 73
     0
 74
     0
  7

 75
     0
147
1.0
148
0.0
149
0.0
100
AcDbLayout
  1
Model
 70
     1
 71
     0
 10
0.0
 20
0.0
 11
12.0
 21
9.0
 12
0.0
 22
0.0
 32
0.0
 14
0.0
 24
0.0
 34
0.0
 15
0.0
 25
0.0
 35
0.0
146
0.0
 13
0.0
 23
0.0
 33
0.0
 16
1.0
 26
0.0
 36
0.0
 17
0.0
 27
1.0
 37
0.0
 76
     0
330
1E
  0
MLINESTYLE
  5
17
102
{ACAD_REACTORS
330
16
102
}
330
16
100
AcDbMlineStyle
  2
STANDARD
 70
     0
  3

 62
   256
 51
90.0
 52
90.0
 71
     2
 49
0.5
 62
   256
  6
BYLAYER
 49
-0.5
 62
   256
  6
BYLAYER
  0
ACDBPLACEHOLDER
  5
F
102
{ACAD_REACTORS
330
E
102
}
330
E
  0
DICTIONARYVAR
  5
264
102
{ACAD_REACTORS
330
263
102
}
330
263
100
DictionaryVariables
280
     0
  1
1
  0
ENDSEC
  0
EOF
