  0
SECTION
  2
HEADER
  9
$ACADVER
  1
AC1015
  9
$ACADMAINTVER
 70
    13
  9
$DWGCODEPAGE
  3
ANSI_1252
  9
$INSBASE
 10
0.0
 20
0.0
 30
0.0
  9
$EXTMIN
 10
0.156999999999997
 20
0.0075500000000058
 30
0.0
  9
$EXTMAX
 10
78.843
 20
53.99245
 30
0.0
  9
$LIMMIN
 10
0.0
 20
0.0
  9
$LIMMAX
 10
12.0
 20
9.0
  9
$ORTHOMODE
 70
     0
  9
$REGENMODE
 70
     1
  9
$FILLMODE
 70
     1
  9
$QTEXTMODE
 70
     0
  9
$MIRRTEXT
 70
     1
  9
$LTSCALE
 40
1.0
  9
$ATTMODE
 70
     1
  9
$TEXTSIZE
 40
0.2
  9
$TRACEWID
 40
0.05
  9
$TEXTSTYLE
  7
Standard
  9
$CLAYER
  8
0
  9
$CELTYPE
  6
Continuous
  9
$CECOLOR
 62
   256
  9
$CELTSCALE
 40
1.0
  9
$DISPSILH
 70
     0
  9
$DIMSCALE
 40
1.0
  9
$DIMASZ
 40
0.18
  9
$DIMEXO
 40
0.0625
  9
$DIMDLI
 40
0.38
  9
$DIMRND
 40
0.0
  9
$DIMDLE
 40
0.0
  9
$DIMEXE
 40
0.18
  9
$DIMTP
 40
0.0
  9
$DIMTM
 40
0.0
  9
$DIMTXT
 40
0.18
  9
$DIMCEN
 40
0.09
  9
$DIMTSZ
 40
0.0
  9
$DIMTOL
 70
     0
  9
$DIMLIM
 70
     0
  9
$DIMTIH
 70
     1
  9
$DIMTOH
 70
     1
  9
$DIMSE1
 70
     0
  9
$DIMSE2
 70
     0
  9
$DIMTAD
 70
     0
  9
$DIMZIN
 70
     0
  9
$DIMBLK
  1

  9
$DIMASO
 70
     1
  9
$DIMSHO
 70
     1
  9
$DIMPOST
  1

  9
$DIMAPOST
  1

  9
$DIMALT
 70
     0
  9
$DIMALTD
 70
     2
  9
$DIMALTF
 40
25.4
  9
$DIMLFAC
 40
1.0
  9
$DIMTOFL
 70
     0
  9
$DIMTVP
 40
0.0
  9
$DIMTIX
 70
     0
  9
$DIMSOXD
 70
     0
  9
$DIMSAH
 70
     0
  9
$DIMBLK1
  1

  9
$DIMBLK2
  1

  9
$DIMSTYLE
  2
Standard
  9
$DIMCLRD
 70
     0
  9
$DIMCLRE
 70
     0
  9
$DIMCLRT
 70
     0
  9
$DIMTFAC
 40
1.0
  9
$DIMGAP
 40
0.09
  9
$DIMJUST
 70
     0
  9
$DIMSD1
 70
     0
  9
$DIMSD2
 70
     0
  9
$DIMTOLJ
 70
     1
  9
$DIMTZIN
 70
     0
  9
$DIMALTZ
 70
     0
  9
$DIMALTTZ
 70
     0
  9
$DIMUPT
 70
     0
  9
$DIMDEC
 70
     4
  9
$DIMTDEC
 70
     4
  9
$DIMALTU
 70
     2
  9
$DIMALTTD
 70
     2
  9
$DIMTXSTY
  7
Standard
  9
$DIMAUNIT
 70
     0
  9
$DIMADEC
 70
     0
  9
$DIMALTRND
 40
0.0
  9
$DIMAZIN
 70
     0
  9
$DIMDSEP
 70
    46
  9
$DIMATFIT
 70
     3
  9
$DIMFRAC
 70
     0
  9
$DIMLDRBLK
  1

  9
$DIMLUNIT
 70
     2
  9
$DIMLWD
 70
    -2
  9
$DIMLWE
 70
    -2
  9
$DIMTMOVE
 70
     0
  9
$LUNITS
 70
     2
  9
$LUPREC
 70
     4
  9
$SKETCHINC
 40
0.1
  9
$FILLETRAD
 40
0.0
  9
$AUNITS
 70
     0
  9
$AUPREC
 70
     0
  9
$MENU
  1
.
  9
$ELEVATION
 40
0.0
  9
$PELEVATION
 40
0.0
  9
$THICKNESS
 40
0.0
  9
$LIMCHECK
 70
     0
  9
$CHAMFERA
 40
0.0
  9
$CHAMFERB
 40
0.0
  9
$CHAMFERC
 40
0.0
  9
$CHAMFERD
 40
0.0
  9
$SKPOLY
 70
     0
  9
$TDCREATE
 40
2455651.997439594
  9
$TDUCREATE
 40
2455651.914106261
  9
$TDUPDATE
 40
2455652.001768843
  9
$TDUUPDATE
 40
2455651.918435509
  9
$TDINDWG
 40
0.0019849537
  9
$TDUSRTIMER
 40
0.0019849537
  9
$USRTIMER
 70
     1
  9
$ANGBASE
 50
0.0
  9
$ANGDIR
 70
     0
  9
$PDMODE
 70
     0
  9
$PDSIZE
 40
0.0
  9
$PLINEWID
 40
0.0
  9
$SPLFRAME
 70
     0
  9
$SPLINETYPE
 70
     6
  9
$SPLINESEGS
 70
     8
  9
$HANDSEED
  5
2E4
  9
$SURFTAB1
 70
     6
  9
$SURFTAB2
 70
     6
  9
$SURFTYPE
 70
     6
  9
$SURFU
 70
     6
  9
$SURFV
 70
     6
  9
$UCSBASE
  2

  9
$UCSNAME
  2

  9
$UCSORG
 10
0.0
 20
0.0
 30
0.0
  9
$UCSXDIR
 10
1.0
 20
0.0
 30
0.0
  9
$UCSYDIR
 10
0.0
 20
1.0
 30
0.0
  9
$UCSORTHOREF
  2

  9
$UCSORTHOVIEW
 70
     1
  9
$UCSORGTOP
 10
0.0
 20
0.0
 30
0.0
  9
$UCSORGBOTTOM
 10
0.0
 20
0.0
 30
0.0
  9
$UCSORGLEFT
 10
0.0
 20
0.0
 30
0.0
  9
$UCSORGRIGHT
 10
0.0
 20
0.0
 30
0.0
  9
$UCSORGFRONT
 10
0.0
 20
0.0
 30
0.0
  9
$UCSORGBACK
 10
0.0
 20
0.0
 30
0.0
  9
$PUCSBASE
  2

  9
$PUCSNAME
  2

  9
$PUCSORG
 10
0.0
 20
0.0
 30
0.0
  9
$PUCSXDIR
 10
1.0
 20
0.0
 30
0.0
  9
$PUCSYDIR
 10
0.0
 20
1.0
 30
0.0
  9
$PUCSORTHOREF
  2

  9
$PUCSORTHOVIEW
 70
     0
  9
$PUCSORGTOP
 10
0.0
 20
0.0
 30
0.0
  9
$PUCSORGBOTTOM
 10
0.0
 20
0.0
 30
0.0
  9
$PUCSORGLEFT
 10
0.0
 20
0.0
 30
0.0
  9
$PUCSORGRIGHT
 10
0.0
 20
0.0
 30
0.0
  9
$PUCSORGFRONT
 10
0.0
 20
0.0
 30
0.0
  9
$PUCSORGBACK
 10
0.0
 20
0.0
 30
0.0
  9
$USERI1
 70
     0
  9
$USERI2
 70
     0
  9
$USERI3
 70
     0
  9
$USERI4
 70
     0
  9
$USERI5
 70
     0
  9
$USERR1
 40
0.0
  9
$USERR2
 40
0.0
  9
$USERR3
 40
0.0
  9
$USERR4
 40
0.0
  9
$USERR5
 40
0.0
  9
$WORLDVIEW
 70
     1
  9
$SHADEDGE
 70
     3
  9
$SHADEDIF
 70
    70
  9
$TILEMODE
 70
     1
  9
$MAXACTVP
 70
    64
  9
$PINSBASE
 10
0.0
 20
0.0
 30
0.0
  9
$PLIMCHECK
 70
     0
  9
$PEXTMIN
 10
1.000000000000000E+20
 20
1.000000000000000E+20
 30
1.000000000000000E+20
  9
$PEXTMAX
 10
-1.000000000000000E+20
 20
-1.000000000000000E+20
 30
-1.000000000000000E+20
  9
$PLIMMIN
 10
0.0
 20
0.0
  9
$PLIMMAX
 10
12.0
 20
9.0
  9
$UNITMODE
 70
     0
  9
$VISRETAIN
 70
     1
  9
$PLINEGEN
 70
     0
  9
$PSLTSCALE
 70
     1
  9
$TREEDEPTH
 70
  3020
  9
$CMLSTYLE
  2
Standard
  9
$CMLJUST
 70
     0
  9
$CMLSCALE
 40
1.0
  9
$PROXYGRAPHICS
 70
     1
  9
$MEASUREMENT
 70
     0
  9
$CELWEIGHT
370
    -1
  9
$ENDCAPS
280
     0
  9
$JOINSTYLE
280
     0
  9
$LWDISPLAY
290
     0
  9
$INSUNITS
 70
     0
  9
$HYPERLINKBASE
  1

  9
$STYLESHEET
  1

  9
$XEDIT
290
     1
  9
$CEPSNTYPE
380
     0
  9
$PSTYLEMODE
290
     1
  9
$FINGERPRINTGUID
  2
{104274E9-2A82-433A-B02A-468BAE2743B9}
  9
$VERSIONGUID
  2
{DC75968B-6F56-48B2-B23E-53D1D23382AD}
  9
$EXTNAMES
290
     1
  9
$PSVPSCALE
 40
0.0
  9
$OLESTARTUP
290
     0
  0
ENDSEC
  0
SECTION
  2
CLASSES
  0
CLASS
  1
ACDBDICTIONARYWDFLT
  2
AcDbDictionaryWithDefault
  3
AutoCAD 2000
 90
        0
280
     0
281
     0
  0
CLASS
  1
ACDBPLACEHOLDER
  2
AcDbPlaceHolder
  3
AutoCAD 2000
 90
        0
280
     0
281
     0
  0
CLASS
  1
LAYOUT
  2
AcDbLayout
  3
AutoCAD 2000
 90
        0
280
     0
281
     0
  0
CLASS
  1
DICTIONARYVAR
  2
AcDbDictionaryVar
  3
AutoCAD 2000
 90
        0
280
     0
281
     0
  0
ENDSEC
  0
SECTION
  2
TABLES
  0
TABLE
  2
VPORT
  5
8
330
0
100
AcDbSymbolTable
 70
     3
  0
VPORT
  5
2E3
330
8
100
AcDbSymbolTableRecord
100
AcDbViewportTableRecord
  2
*Active
 70
     0
 10
0.0
 20
0.0
 11
1.0
 21
1.0
 12
39.5
 22
27.0
 13
0.0
 23
0.0
 14
1.0
 24
1.0
 15
0.0
 25
0.0
 16
0.0
 26
0.0
 36
1.0
 17
0.0
 27
0.0
 37
0.0
 40
54.35007406989853
 41
2.073363431151241
 42
50.0
 43
0.0
 44
0.0
 50
0.0
 51
0.0
 71
     0
 72
   100
 73
     1
 74
     3
 75
     0
 76
     0
 77
     0
 78
     0
281
     0
 65
     1
110
0.0
120
0.0
130
0.0
111
1.0
121
0.0
131
0.0
112
0.0
122
1.0
132
0.0
 79
     1
146
0.0
  0
ENDTAB
  0
TABLE
  2
LTYPE
  5
5
330
0
100
AcDbSymbolTable
 70
     1
  0
LTYPE
  5
13
330
5
100
AcDbSymbolTableRecord
100
AcDbLinetypeTableRecord
  2
ByBlock
 70
     0
  3

 72
    65
 73
     0
 40
0.0
  0
LTYPE
  5
14
330
5
100
AcDbSymbolTableRecord
100
AcDbLinetypeTableRecord
  2
ByLayer
 70
     0
  3

 72
    65
 73
     0
 40
0.0
  0
LTYPE
  5
15
330
5
100
AcDbSymbolTableRecord
100
AcDbLinetypeTableRecord
  2
Continuous
 70
     0
  3
Solid line
 72
    65
 73
     0
 40
0.0
  0
ENDTAB
  0
TABLE
  2
LAYER
  5
2
330
0
100
AcDbSymbolTable
 70
     1
  0
LAYER
  5
10
330
2
100
AcDbSymbolTableRecord
100
AcDbLayerTableRecord
  2
0
 70
     0
 62
     7
  6
Continuous
370
    -3
390
F
  0
ENDTAB
  0
TABLE
  2
STYLE
  5
3
330
0
100
AcDbSymbolTable
 70
     1
  0
STYLE
  5
11
330
3
100
AcDbSymbolTableRecord
100
AcDbTextStyleTableRecord
  2
Standard
 70
     0
 40
0.0
 41
1.0
 50
0.0
 71
     0
 42
0.2
  3
txt
  4

  0
ENDTAB
  0
TABLE
  2
VIEW
  5
6
330
0
100
AcDbSymbolTable
 70
     0
  0
ENDTAB
  0
TABLE
  2
UCS
  5
7
330
0
100
AcDbSymbolTable
 70
     0
  0
ENDTAB
  0
TABLE
  2
APPID
  5
9
330
0
100
AcDbSymbolTable
 70
     1
  0
APPID
  5
12
330
9
100
AcDbSymbolTableRecord
100
AcDbRegAppTableRecord
  2
ACAD
 70
     0
  0
ENDTAB
  0
TABLE
  2
DIMSTYLE
  5
A
330
0
100
AcDbSymbolTable
 70
     1
100
AcDbDimStyleTable
 71
     0
  0
DIMSTYLE
105
2C0
330
A
100
AcDbSymbolTableRecord
100
AcDbDimStyleTableRecord
  2
Standard
 70
     0
340
11
  0
ENDTAB
  0
TABLE
  2
BLOCK_RECORD
  5
1
330
0
100
AcDbSymbolTable
 70
     0
  0
BLOCK_RECORD
  5
1E
330
1
100
AcDbSymbolTableRecord
100
AcDbBlockTableRecord
  2
*Model_Space
340
21
  0
BLOCK_RECORD
  5
1A
330
1
100
AcDbSymbolTableRecord
100
AcDbBlockTableRecord
  2
*Paper_Space
340
1D
  0
ENDTAB
  0
ENDSEC
  0
SECTION
  2
BLOCKS
  0
BLOCK
  5
1F
330
1E
100
AcDbEntity
  8
0
100
AcDbBlockBegin
  2
*Model_Space
 70
     0
 10
0.0
 20
0.0
 30
0.0
  3
*Model_Space
  1

  0
ENDBLK
  5
20
330
1E
100
AcDbEntity
  8
0
100
AcDbBlockEnd
  0
BLOCK
  5
1B
330
1A
100
AcDbEntity
 67
     1
  8
0
100
AcDbBlockBegin
  2
*Paper_Space
 70
     0
 10
0.0
 20
0.0
 30
0.0
  3
*Paper_Space
  1

  0
ENDBLK
  5
1C
330
1A
100
AcDbEntity
 67
     1
  8
0
100
AcDbBlockEnd
  0
ENDSEC
  0
SECTION
  2
ENTITIES
  0
LINE
  5
24
330
1E
100
AcDbEntity
  8
0
100
AcDbLine
 10
25.15699999999999
 20
14.44395
 30
0.0
 11
25.15699999999999
 21
14.78295
 31
0.0
  0
LINE
  5
2A
330
1E
100
AcDbEntity
  8
0
100
AcDbLine
 10
5.309521167883129
 20
14.6082886861314
 30
0.0
 11
5.657
 21
14.44395
 31
0.0
  0
LINE
  5
2B
330
1E
100
AcDbEntity
  8
0
100
AcDbLine
 10
25.15699999999999
 20
14.78295
 30
0.0
 11
25.15699999999999
 21
15.24795
 31
0.0
  0
LINE
  5
2C
330
1E
100
AcDbEntity
  8
0
100
AcDbLine
 10
25.15699999999999
 20
14.78295
 30
0.0
 11
25.15699999999999
 21
14.44395
 31
0.0
  0
LINE
  5
2D
330
1E
100
AcDbEntity
  8
0
100
AcDbLine
 10
5.30952116788312
 20
14.6082886861314
 30
0.0
 11
5.657
 21
14.44395
 31
0.0
  0
LINE
  5
2E
330
1E
100
AcDbEntity
  8
0
100
AcDbLine
 10
5.366
 20
14.58195
 30
0.0
 11
5.657
 21
14.44395
 31
0.0
  0
LINE
  5
30
330
1E
100
AcDbEntity
  8
0
100
AcDbLine
 10
25.15699999999999
 20
15.24795
 30
0.0
 11
25.531
 21
15.71395
 31
0.0
  0
LINE
  5
31
330
1E
100
AcDbEntity
  8
0
100
AcDbLine
 10
25.15699999999999
 20
15.24795
 30
0.0
 11
25.15699999999999
 21
14.78295
 31
0.0
  0
LINE
  5
32
330
1E
100
AcDbEntity
  8
0
100
AcDbLine
 10
5.657
 20
15.24795
 30
0.0
 11
25.15699999999999
 21
15.24795
 31
0.0
  0
LINE
  5
3A
330
1E
100
AcDbEntity
  8
0
100
AcDbLine
 10
5.157999999999999
 20
15.60394999999999
 30
0.0
 11
5.657
 21
15.24795
 31
0.0
  0
LINE
  5
3D
330
1E
100
AcDbEntity
  8
0
100
AcDbLine
 10
5.657
 20
14.44395
 30
0.0
 11
25.15699999999999
 21
14.44395
 31
0.0
  0
LINE
  5
45
330
1E
100
AcDbEntity
  8
0
100
AcDbLine
 10
25.531
 20
15.71395
 30
0.0
 11
25.781
 21
16.05495
 31
0.0
  0
LINE
  5
48
330
1E
100
AcDbEntity
  8
0
100
AcDbLine
 10
4.286
 20
16.30295
 30
0.0
 11
4.75
 21
15.91495
 31
0.0
  0
LINE
  5
49
330
1E
100
AcDbEntity
  8
0
100
AcDbLine
 10
27.157
 20
16.17494999999999
 30
0.0
 11
27.157
 21
16.34595
 31
0.0
  0
LINE
  5
4A
330
1E
100
AcDbEntity
  8
0
100
AcDbLine
 10
25.98
 20
16.35194999999999
 30
0.0
 11
26.22199999999999
 21
16.76895
 31
0.0
  0
LINE
  5
4B
330
1E
100
AcDbEntity
  8
0
100
AcDbLine
 10
25.781
 20
16.05495
 30
0.0
 11
25.98
 21
16.35194999999999
 31
0.0
  0
LINE
  5
4C
330
1E
100
AcDbEntity
  8
0
100
AcDbLine
 10
4.75
 20
15.91495
 30
0.0
 11
5.157999999999999
 21
15.60394999999999
 31
0.0
  0
LINE
  5
4D
330
1E
100
AcDbEntity
  8
0
100
AcDbLine
 10
27.157
 20
16.34595
 30
0.0
 11
27.157
 21
16.17494999999999
 31
0.0
  0
LINE
  5
4E
330
1E
100
AcDbEntity
  8
0
100
AcDbLine
 10
27.157
 20
16.34595
 30
0.0
 11
27.157
 21
16.68495
 31
0.0
  0
LINE
  5
4F
330
1E
100
AcDbEntity
  8
0
100
AcDbLine
 10
0.6569999999999972
 20
17.04094999999999
 30
0.0
 11
5.366
 21
14.58195
 31
0.0
  0
LINE
  5
50
330
1E
100
AcDbEntity
  8
0
100
AcDbLine
 10
3.935
 20
16.63694999999999
 30
0.0
 11
4.286
 21
16.30295
 31
0.0
  0
LINE
  5
51
330
1E
100
AcDbEntity
  8
0
100
AcDbLine
 10
26.22199999999999
 20
16.76895
 30
0.0
 11
26.383
 21
17.12194999999999
 31
0.0
  0
LINE
  5
52
330
1E
100
AcDbEntity
  8
0
100
AcDbLine
 10
3.611001
 20
17.01195
 30
0.0
 11
3.935
 21
16.63694999999999
 31
0.0
  0
LINE
  5
53
330
1E
100
AcDbEntity
  8
0
100
AcDbLine
 10
26.383
 20
17.12194999999999
 30
0.0
 11
26.491
 21
17.50894999999999
 31
0.0
  0
LINE
  5
54
330
1E
100
AcDbEntity
  8
0
100
AcDbLine
 10
27.157
 20
16.68495
 30
0.0
 11
27.157
 21
16.34595
 31
0.0
  0
LINE
  5
55
330
1E
100
AcDbEntity
  8
0
100
AcDbLine
 10
27.157
 20
16.68495
 30
0.0
 11
27.157
 21
17.18695
 31
0.0
  0
LINE
  5
56
330
1E
100
AcDbEntity
  8
0
100
AcDbLine
 10
0.6569999999999972
 20
17.04094999999999
 30
0.0
 11
0.6569999999999972
 21
17.12595
 31
0.0
  0
LINE
  5
57
330
1E
100
AcDbEntity
  8
0
100
AcDbLine
 10
0.6569999999999972
 20
17.04094999999999
 30
0.0
 11
5.366
 21
14.58195
 31
0.0
  0
LINE
  5
58
330
1E
100
AcDbEntity
  8
0
100
AcDbLine
 10
27.157
 20
17.18695
 30
0.0
 11
27.157
 21
16.68495
 31
0.0
  0
LINE
  5
59
330
1E
100
AcDbEntity
  8
0
100
AcDbLine
 10
27.157
 20
17.18695
 30
0.0
 11
27.157
 21
17.84295
 31
0.0
  0
LINE
  5
5A
330
1E
100
AcDbEntity
  8
0
100
AcDbLine
 10
0.6569999999999972
 20
17.12595
 30
0.0
 11
0.6569999999999972
 21
17.04094999999999
 31
0.0
  0
LINE
  5
5B
330
1E
100
AcDbEntity
  8
0
100
AcDbLine
 10
0.6569999999999972
 20
17.12595
 30
0.0
 11
0.6569999999999972
 21
17.37995
 31
0.0
  0
LINE
  5
5E
330
1E
100
AcDbEntity
  8
0
100
AcDbLine
 10
0.6569999999999972
 20
18.37595
 30
0.0
 11
0.6569999999999972
 21
18.50394999999999
 31
0.0
  0
LINE
  5
5F
330
1E
100
AcDbEntity
  8
0
100
AcDbLine
 10
0.6569999999999972
 20
18.37595
 30
0.0
 11
0.6569999999999972
 21
19.09995
 31
0.0
  0
LINE
  5
60
330
1E
100
AcDbEntity
  8
0
100
AcDbLine
 10
0.6569999999999972
 20
18.37595
 30
0.0
 11
0.6569999999999972
 21
17.79895
 31
0.0
  0
LINE
  5
61
330
1E
100
AcDbEntity
  8
0
100
AcDbLine
 10
0.6569999999999972
 20
17.79895
 30
0.0
 11
0.6569999999999972
 21
17.37995
 31
0.0
  0
LINE
  5
62
330
1E
100
AcDbEntity
  8
0
100
AcDbLine
 10
0.6569999999999972
 20
17.79895
 30
0.0
 11
0.6569999999999972
 21
18.37595
 31
0.0
  0
LINE
  5
63
330
1E
100
AcDbEntity
  8
0
100
AcDbLine
 10
0.6569999999999972
 20
17.37995
 30
0.0
 11
0.6569999999999972
 21
17.12595
 31
0.0
  0
LINE
  5
64
330
1E
100
AcDbEntity
  8
0
100
AcDbLine
 10
0.6569999999999972
 20
17.37995
 30
0.0
 11
0.6569999999999972
 21
17.79895
 31
0.0
  0
LINE
  5
65
330
1E
100
AcDbEntity
  8
0
100
AcDbLine
 10
0.6569999999999972
 20
18.50394999999999
 30
0.0
 11
0.6569999999999972
 21
18.58995
 31
0.0
  0
LINE
  5
66
330
1E
100
AcDbEntity
  8
0
100
AcDbLine
 10
0.6569999999999972
 20
18.50394999999999
 30
0.0
 11
0.6569999999999972
 21
18.37595
 31
0.0
  0
LINE
  5
67
330
1E
100
AcDbEntity
  8
0
100
AcDbLine
 10
26.491
 20
17.50894999999999
 30
0.0
 11
26.498
 21
17.82995
 31
0.0
  0
LINE
  5
68
330
1E
100
AcDbEntity
  8
0
100
AcDbLine
 10
4.270999999999999
 20
18.40794999999999
 30
0.0
 11
4.741999999999999
 21
18.45695
 31
0.0
  0
LINE
  5
69
330
1E
100
AcDbEntity
  8
0
100
AcDbLine
 10
26.074
 20
18.36694999999999
 30
0.0
 11
26.272
 21
18.24794999999999
 31
0.0
  0
LINE
  5
6A
330
1E
100
AcDbEntity
  8
0
100
AcDbLine
 10
3.797001
 20
18.27994999999999
 30
0.0
 11
4.270999999999999
 21
18.40794999999999
 31
0.0
  0
LINE
  5
6B
330
1E
100
AcDbEntity
  8
0
100
AcDbLine
 10
3.499001
 20
18.09795
 30
0.0
 11
3.797001
 21
18.27994999999999
 31
0.0
  0
LINE
  5
6C
330
1E
100
AcDbEntity
  8
0
100
AcDbLine
 10
5.366
 20
18.45595
 30
0.0
 11
5.657
 21
18.43695
 31
0.0
  0
LINE
  5
6D
330
1E
100
AcDbEntity
  8
0
100
AcDbLine
 10
4.741999999999999
 20
18.45695
 30
0.0
 11
5.366
 21
18.45595
 31
0.0
  0
LINE
  5
6E
330
1E
100
AcDbEntity
  8
0
100
AcDbLine
 10
25.713
 20
18.45495
 30
0.0
 11
26.074
 21
18.36694999999999
 31
0.0
  0
LINE
  5
6F
330
1E
100
AcDbEntity
  8
0
100
AcDbLine
 10
25.15699999999999
 20
18.43695
 30
0.0
 11
25.15699999999999
 21
19.45095
 31
0.0
  0
LINE
  5
70
330
1E
100
AcDbEntity
  8
0
100
AcDbLine
 10
25.15699999999999
 20
18.43695
 30
0.0
 11
25.46699999999999
 21
18.46395
 31
0.0
  0
LINE
  5
71
330
1E
100
AcDbEntity
  8
0
100
AcDbLine
 10
5.657
 20
18.43695
 30
0.0
 11
25.15699999999999
 21
18.43695
 31
0.0
  0
LINE
  5
72
330
1E
100
AcDbEntity
  8
0
100
AcDbLine
 10
26.272
 20
18.24794999999999
 30
0.0
 11
26.405
 21
18.09495
 31
0.0
  0
LINE
  5
73
330
1E
100
AcDbEntity
  8
0
100
AcDbLine
 10
26.405
 20
18.09495
 30
0.0
 11
26.498
 21
17.82995
 31
0.0
  0
LINE
  5
74
330
1E
100
AcDbEntity
  8
0
100
AcDbLine
 10
25.46699999999999
 20
18.46395
 30
0.0
 11
25.713
 21
18.45495
 31
0.0
  0
LINE
  5
75
330
1E
100
AcDbEntity
  8
0
100
AcDbLine
 10
27.157
 20
18.64395
 30
0.0
 11
27.157
 21
17.84295
 31
0.0
  0
LINE
  5
76
330
1E
100
AcDbEntity
  8
0
100
AcDbLine
 10
27.157
 20
18.64395
 30
0.0
 11
27.157
 21
19.57695
 31
0.0
  0
LINE
  5
77
330
1E
100
AcDbEntity
  8
0
100
AcDbLine
 10
27.157
 20
17.84295
 30
0.0
 11
27.157
 21
17.18695
 31
0.0
  0
LINE
  5
78
330
1E
100
AcDbEntity
  8
0
100
AcDbLine
 10
27.157
 20
17.84295
 30
0.0
 11
27.157
 21
18.64395
 31
0.0
  0
LINE
  5
79
330
1E
100
AcDbEntity
  8
0
100
AcDbLine
 10
0.6569999999999972
 20
18.58995
 30
0.0
 11
0.6569999999999972
 21
18.84795
 31
0.0
  0
LINE
  5
7A
330
1E
100
AcDbEntity
  8
0
100
AcDbLine
 10
0.6569999999999972
 20
18.58995
 30
0.0
 11
0.6569999999999972
 21
18.50394999999999
 31
0.0
  0
LINE
  5
7B
330
1E
100
AcDbEntity
  8
0
100
AcDbLine
 10
0.156999999999997
 20
19.00394999999999
 30
0.0
 11
0.156999999999997
 21
19.08495
 31
0.0
  0
LINE
  5
7C
330
1E
100
AcDbEntity
  8
0
100
AcDbLine
 10
0.156999999999997
 20
19.00394999999999
 30
0.0
 11
0.6569999999999972
 21
18.50394999999999
 31
0.0
  0
LINE
  5
7D
330
1E
100
AcDbEntity
  8
0
100
AcDbLine
 10
0.156999999999997
 20
20.27394999999999
 30
0.0
 11
0.156999999999997
 21
19.72694999999999
 31
0.0
  0
LINE
  5
7E
330
1E
100
AcDbEntity
  8
0
100
AcDbLine
 10
0.156999999999997
 20
20.27394999999999
 30
0.0
 11
0.156999999999997
 21
20.95795
 31
0.0
  0
LINE
  5
7F
330
1E
100
AcDbEntity
  8
0
100
AcDbLine
 10
0.156999999999997
 20
20.95795
 30
0.0
 11
0.156999999999997
 21
20.27394999999999
 31
0.0
  0
LINE
  5
80
330
1E
100
AcDbEntity
  8
0
100
AcDbLine
 10
0.156999999999997
 20
20.95795
 30
0.0
 11
0.156999999999997
 21
21.76495
 31
0.0
  0
LINE
  5
81
330
1E
100
AcDbEntity
  8
0
100
AcDbLine
 10
0.156999999999997
 20
19.72694999999999
 30
0.0
 11
0.156999999999997
 21
19.32795
 31
0.0
  0
LINE
  5
82
330
1E
100
AcDbEntity
  8
0
100
AcDbLine
 10
0.156999999999997
 20
19.72694999999999
 30
0.0
 11
0.156999999999997
 21
20.27394999999999
 31
0.0
  0
LINE
  5
83
330
1E
100
AcDbEntity
  8
0
100
AcDbLine
 10
0.156999999999997
 20
19.32795
 30
0.0
 11
0.156999999999997
 21
19.08495
 31
0.0
  0
LINE
  5
84
330
1E
100
AcDbEntity
  8
0
100
AcDbLine
 10
0.156999999999997
 20
19.32795
 30
0.0
 11
0.156999999999997
 21
19.72694999999999
 31
0.0
  0
LINE
  5
85
330
1E
100
AcDbEntity
  8
0
100
AcDbLine
 10
0.156999999999997
 20
19.08495
 30
0.0
 11
0.156999999999997
 21
19.00394999999999
 31
0.0
  0
LINE
  5
86
330
1E
100
AcDbEntity
  8
0
100
AcDbLine
 10
0.156999999999997
 20
19.08495
 30
0.0
 11
0.156999999999997
 21
19.32795
 31
0.0
  0
LINE
  5
87
330
1E
100
AcDbEntity
  8
0
100
AcDbLine
 10
0.6569999999999972
 20
19.09995
 30
0.0
 11
0.6569999999999972
 21
18.37595
 31
0.0
  0
LINE
  5
88
330
1E
100
AcDbEntity
  8
0
100
AcDbLine
 10
0.6569999999999972
 20
19.09995
 30
0.0
 11
0.6569999999999972
 21
19.95895
 31
0.0
  0
LINE
  5
89
330
1E
100
AcDbEntity
  8
0
100
AcDbLine
 10
0.6569999999999972
 20
18.84795
 30
0.0
 11
0.6569999999999972
 21
19.27195
 31
0.0
  0
LINE
  5
8A
330
1E
100
AcDbEntity
  8
0
100
AcDbLine
 10
0.6569999999999972
 20
18.84795
 30
0.0
 11
0.6569999999999972
 21
18.58995
 31
0.0
  0
LINE
  5
8B
330
1E
100
AcDbEntity
  8
0
100
AcDbLine
 10
0.6569999999999972
 20
19.95895
 30
0.0
 11
0.6569999999999972
 21
20.93894999999999
 31
0.0
  0
LINE
  5
8C
330
1E
100
AcDbEntity
  8
0
100
AcDbLine
 10
0.6569999999999972
 20
19.95895
 30
0.0
 11
0.6569999999999972
 21
19.09995
 31
0.0
  0
LINE
  5
8D
330
1E
100
AcDbEntity
  8
0
100
AcDbLine
 10
0.6569999999999972
 20
19.27195
 30
0.0
 11
0.6569999999999972
 21
19.85294999999999
 31
0.0
  0
LINE
  5
8E
330
1E
100
AcDbEntity
  8
0
100
AcDbLine
 10
0.6569999999999972
 20
19.27195
 30
0.0
 11
0.6569999999999972
 21
18.84795
 31
0.0
  0
LINE
  5
8F
330
1E
100
AcDbEntity
  8
0
100
AcDbLine
 10
25.15699999999999
 20
19.45095
 30
0.0
 11
25.15699999999999
 21
20.54295
 31
0.0
  0
LINE
  5
90
330
1E
100
AcDbEntity
  8
0
100
AcDbLine
 10
25.15699999999999
 20
19.45095
 30
0.0
 11
25.15699999999999
 21
18.43695
 31
0.0
  0
LINE
  5
91
330
1E
100
AcDbEntity
  8
0
100
AcDbLine
 10
27.157
 20
19.57695
 30
0.0
 11
27.157
 21
18.64395
 31
0.0
  0
LINE
  5
92
330
1E
100
AcDbEntity
  8
0
100
AcDbLine
 10
27.157
 20
19.57695
 30
0.0
 11
27.157
 21
20.62695
 31
0.0
  0
LINE
  5
93
330
1E
100
AcDbEntity
  8
0
100
AcDbLine
 10
5.657
 20
20.54295
 30
0.0
 11
25.15699999999999
 21
20.54295
 31
0.0
  0
LINE
  5
94
330
1E
100
AcDbEntity
  8
0
100
AcDbLine
 10
25.15699999999999
 20
20.54295
 30
0.0
 11
25.531
 21
20.99194999999999
 31
0.0
  0
LINE
  5
95
330
1E
100
AcDbEntity
  8
0
100
AcDbLine
 10
25.15699999999999
 20
20.54295
 30
0.0
 11
25.15699999999999
 21
19.45095
 31
0.0
  0
LINE
  5
96
330
1E
100
AcDbEntity
  8
0
100
AcDbLine
 10
0.6569999999999972
 20
19.85294999999999
 30
0.0
 11
0.6569999999999972
 21
20.57995
 31
0.0
  0
LINE
  5
97
330
1E
100
AcDbEntity
  8
0
100
AcDbLine
 10
0.6569999999999972
 20
19.85294999999999
 30
0.0
 11
0.6569999999999972
 21
19.27195
 31
0.0
  0
LINE
  5
98
330
1E
100
AcDbEntity
  8
0
100
AcDbLine
 10
0.6569999999999972
 20
20.93894999999999
 30
0.0
 11
0.6569999999999972
 21
22.02195
 31
0.0
  0
LINE
  5
99
330
1E
100
AcDbEntity
  8
0
100
AcDbLine
 10
4.75
 20
21.19695
 30
0.0
 11
5.157999999999999
 21
20.88295
 31
0.0
  0
LINE
  5
9A
330
1E
100
AcDbEntity
  8
0
100
AcDbLine
 10
27.157
 20
20.62695
 30
0.0
 11
27.157
 21
19.57695
 31
0.0
  0
LINE
  5
9B
330
1E
100
AcDbEntity
  8
0
100
AcDbLine
 10
27.157
 20
20.62695
 30
0.0
 11
27.157
 21
21.77694999999999
 31
0.0
  0
LINE
  5
9C
330
1E
100
AcDbEntity
  8
0
100
AcDbLine
 10
25.531
 20
20.99194999999999
 30
0.0
 11
25.781
 21
21.34395
 31
0.0
  0
LINE
  5
9D
330
1E
100
AcDbEntity
  8
0
100
AcDbLine
 10
5.157999999999999
 20
20.88295
 30
0.0
 11
5.657
 21
20.54295
 31
0.0
  0
LINE
  5
9E
330
1E
100
AcDbEntity
  8
0
100
AcDbLine
 10
0.6569999999999972
 20
20.57995
 30
0.0
 11
0.6569999999999972
 21
21.43795
 31
0.0
  0
LINE
  5
9F
330
1E
100
AcDbEntity
  8
0
100
AcDbLine
 10
27.157
 20
18.75714999999999
 30
0.0
 11
56.701
 21
18.75714999999999
 31
0.0
  0
LINE
  5
A0
330
1E
100
AcDbEntity
  8
0
100
AcDbLine
 10
41.71
 20
21.08175
 30
0.0
 11
42.093
 21
21.00575
 31
0.0
  0
LINE
  5
A2
330
1E
100
AcDbEntity
  8
0
100
AcDbLine
 10
0.156999999999998
 20
21.76495
 30
0.0
 11
0.156999999999998
 21
27.00395
 31
0.0
  0
LINE
  5
A3
330
1E
100
AcDbEntity
  8
0
100
AcDbLine
 10
0.156999999999997
 20
21.76495
 30
0.0
 11
0.156999999999998
 21
22.67895
 31
0.0
  0
LINE
  5
A4
330
1E
100
AcDbEntity
  8
0
100
AcDbLine
 10
0.156999999999997
 20
21.76495
 30
0.0
 11
0.156999999999997
 21
20.95795
 31
0.0
  0
LINE
  5
A5
330
1E
100
AcDbEntity
  8
0
100
AcDbLine
 10
25.781
 20
21.34395
 30
0.0
 11
25.98
 21
21.66894999999999
 31
0.0
  0
LINE
  5
A6
330
1E
100
AcDbEntity
  8
0
100
AcDbLine
 10
27.157
 20
21.77694999999999
 30
0.0
 11
27.157
 21
20.62695
 31
0.0
  0
LINE
  5
A7
330
1E
100
AcDbEntity
  8
0
100
AcDbLine
 10
27.157
 20
21.77694999999999
 30
0.0
 11
27.157
 21
23.00994999999999
 31
0.0
  0
LINE
  5
A8
330
1E
100
AcDbEntity
  8
0
100
AcDbLine
 10
25.98
 20
21.66894999999999
 30
0.0
 11
26.223
 21
22.15694999999999
 31
0.0
  0
LINE
  5
A9
330
1E
100
AcDbEntity
  8
0
100
AcDbLine
 10
3.935
 20
21.99794999999999
 30
0.0
 11
4.286
 21
21.61395
 31
0.0
  0
LINE
  5
AA
330
1E
100
AcDbEntity
  8
0
100
AcDbLine
 10
4.286
 20
21.61395
 30
0.0
 11
4.75
 21
21.19695
 31
0.0
  0
LINE
  5
AB
330
1E
100
AcDbEntity
  8
0
100
AcDbLine
 10
0.6569999999999972
 20
21.43795
 30
0.0
 11
0.6569999999999972
 21
22.40895
 31
0.0
  0
LINE
  5
AC
330
1E
100
AcDbEntity
  8
0
100
AcDbLine
 10
0.6569999999999972
 20
21.43795
 30
0.0
 11
0.6569999999999972
 21
20.57995
 31
0.0
  0
LINE
  5
AD
330
1E
100
AcDbEntity
  8
0
100
AcDbLine
 10
0.156999999999998
 20
22.67895
 30
0.0
 11
0.156999999999998
 21
23.68094999999999
 31
0.0
  0
LINE
  5
AE
330
1E
100
AcDbEntity
  8
0
100
AcDbLine
 10
0.6569999999999972
 20
23.19095
 30
0.0
 11
0.6569999999999972
 21
22.02195
 31
0.0
  0
LINE
  5
AF
330
1E
100
AcDbEntity
  8
0
100
AcDbLine
 10
0.6569999999999972
 20
23.19095
 30
0.0
 11
0.6569999999999972
 21
24.42495
 31
0.0
  0
LINE
  5
B0
330
1E
100
AcDbEntity
  8
0
100
AcDbLine
 10
0.6569999999999972
 20
22.02195
 30
0.0
 11
0.6569999999999972
 21
20.93894999999999
 31
0.0
  0
LINE
  5
B1
330
1E
100
AcDbEntity
  8
0
100
AcDbLine
 10
0.6569999999999972
 20
22.02195
 30
0.0
 11
0.6569999999999972
 21
23.19095
 31
0.0
  0
LINE
  5
B2
330
1E
100
AcDbEntity
  8
0
100
AcDbLine
 10
26.383
 20
22.60695
 30
0.0
 11
26.491
 21
23.15295
 31
0.0
  0
LINE
  5
B3
330
1E
100
AcDbEntity
  8
0
100
AcDbLine
 10
27.157
 20
23.00994999999999
 30
0.0
 11
27.157
 21
21.77694999999999
 31
0.0
  0
LINE
  5
B4
330
1E
100
AcDbEntity
  8
0
100
AcDbLine
 10
27.157
 20
23.00994999999999
 30
0.0
 11
27.157
 21
24.30595
 31
0.0
  0
LINE
  5
B5
330
1E
100
AcDbEntity
  8
0
100
AcDbLine
 10
26.223
 20
22.15694999999999
 30
0.0
 11
26.383
 21
22.60695
 31
0.0
  0
LINE
  5
B6
330
1E
100
AcDbEntity
  8
0
100
AcDbLine
 10
3.611001
 20
22.46294999999999
 30
0.0
 11
3.935
 21
21.99794999999999
 31
0.0
  0
LINE
  5
B7
330
1E
100
AcDbEntity
  8
0
100
AcDbLine
 10
26.491
 20
23.15295
 30
0.0
 11
26.498
 21
23.66795
 31
0.0
  0
LINE
  5
B8
330
1E
100
AcDbEntity
  8
0
100
AcDbLine
 10
0.6569999999999972
 20
22.40895
 30
0.0
 11
0.6569999999999972
 21
23.47295
 31
0.0
  0
LINE
  5
B9
330
1E
100
AcDbEntity
  8
0
100
AcDbLine
 10
0.6569999999999972
 20
22.40895
 30
0.0
 11
0.6569999999999972
 21
21.43795
 31
0.0
  0
LINE
  5
BA
330
1E
100
AcDbEntity
  8
0
100
AcDbLine
 10
0.6569999999999972
 20
24.42495
 30
0.0
 11
0.6569999999999972
 21
23.19095
 31
0.0
  0
LINE
  5
BB
330
1E
100
AcDbEntity
  8
0
100
AcDbLine
 10
0.6569999999999972
 20
24.42495
 30
0.0
 11
0.6569999999999979
 21
25.70295
 31
0.0
  0
LINE
  5
BC
330
1E
100
AcDbEntity
  8
0
100
AcDbLine
 10
0.156999999999998
 20
23.68094999999999
 30
0.0
 11
0.156999999999998
 21
22.67895
 31
0.0
  0
LINE
  5
BD
330
1E
100
AcDbEntity
  8
0
100
AcDbLine
 10
0.156999999999998
 20
23.68094999999999
 30
0.0
 11
0.156999999999998
 21
24.74994999999999
 31
0.0
  0
LINE
  5
BE
330
1E
100
AcDbEntity
  8
0
100
AcDbLine
 10
0.6569999999999972
 20
23.47295
 30
0.0
 11
0.6569999999999972
 21
24.60895
 31
0.0
  0
LINE
  5
BF
330
1E
100
AcDbEntity
  8
0
100
AcDbLine
 10
0.6569999999999972
 20
23.47295
 30
0.0
 11
0.6569999999999972
 21
22.40895
 31
0.0
  0
LINE
  5
C0
330
1E
100
AcDbEntity
  8
0
100
AcDbLine
 10
0.156999999999998
 20
24.74994999999999
 30
0.0
 11
0.156999999999998
 21
23.68094999999999
 31
0.0
  0
LINE
  5
C1
330
1E
100
AcDbEntity
  8
0
100
AcDbLine
 10
0.156999999999998
 20
24.74994999999999
 30
0.0
 11
0.156999999999998
 21
25.86495
 31
0.0
  0
LINE
  5
C2
330
1E
100
AcDbEntity
  8
0
100
AcDbLine
 10
0.6569999999999979
 20
25.70295
 30
0.0
 11
0.6569999999999979
 21
27.00385
 31
0.0
  0
LINE
  5
C3
330
1E
100
AcDbEntity
  8
0
100
AcDbLine
 10
0.156999999999998
 20
25.86495
 30
0.0
 11
0.156999999999998
 21
24.74994999999999
 31
0.0
  0
LINE
  5
C4
330
1E
100
AcDbEntity
  8
0
100
AcDbLine
 10
0.156999999999998
 20
25.86495
 30
0.0
 11
0.156999999999998
 21
27.00395
 31
0.0
  0
LINE
  5
C5
330
1E
100
AcDbEntity
  8
0
100
AcDbLine
 10
0.6569999999999972
 20
24.60895
 30
0.0
 11
0.6569999999999979
 21
25.79394999999999
 31
0.0
  0
LINE
  5
C6
330
1E
100
AcDbEntity
  8
0
100
AcDbLine
 10
0.6569999999999972
 20
24.60895
 30
0.0
 11
0.6569999999999972
 21
23.47295
 31
0.0
  0
LINE
  5
C7
330
1E
100
AcDbEntity
  8
0
100
AcDbLine
 10
27.157
 20
24.30595
 30
0.0
 11
27.157
 21
23.00994999999999
 31
0.0
  0
LINE
  5
C8
330
1E
100
AcDbEntity
  8
0
100
AcDbLine
 10
27.157
 20
24.30595
 30
0.0
 11
27.157
 21
25.64395
 31
0.0
  0
LINE
  5
C9
330
1E
100
AcDbEntity
  8
0
100
AcDbLine
 10
27.157
 20
25.64395
 30
0.0
 11
27.157
 21
24.30595
 31
0.0
  0
LINE
  5
CA
330
1E
100
AcDbEntity
  8
0
100
AcDbLine
 10
27.157
 20
25.64395
 30
0.0
 11
27.157
 21
27.00385
 31
0.0
  0
LINE
  5
CB
330
1E
100
AcDbEntity
  8
0
100
AcDbLine
 10
25.15699999999999
 20
25.70295
 30
0.0
 11
25.46699999999999
 21
25.49195
 31
0.0
  0
LINE
  5
CC
330
1E
100
AcDbEntity
  8
0
100
AcDbLine
 10
25.15699999999999
 20
25.70295
 30
0.0
 11
25.15699999999999
 21
27.00395
 31
0.0
  0
LINE
  5
CD
330
1E
100
AcDbEntity
  8
0
100
AcDbLine
 10
5.657
 20
25.70295
 30
0.0
 11
25.15699999999999
 21
25.70295
 31
0.0
  0
LINE
  5
CE
330
1E
100
AcDbEntity
  8
0
100
AcDbLine
 10
5.366
 20
25.59495
 30
0.0
 11
5.657
 21
25.70295
 31
0.0
  0
LINE
  5
CF
330
1E
100
AcDbEntity
  8
0
100
AcDbLine
 10
25.46699999999999
 20
25.49195
 30
0.0
 11
25.713
 21
25.28095
 31
0.0
  0
LINE
  5
D0
330
1E
100
AcDbEntity
  8
0
100
AcDbLine
 10
4.741999999999999
 20
25.30594999999999
 30
0.0
 11
5.366
 21
25.59495
 31
0.0
  0
LINE
  5
D1
330
1E
100
AcDbEntity
  8
0
100
AcDbLine
 10
25.713
 20
25.28095
 30
0.0
 11
26.074
 21
24.85695
 31
0.0
  0
LINE
  5
D2
330
1E
100
AcDbEntity
  8
0
100
AcDbLine
 10
4.272
 20
25.01395
 30
0.0
 11
4.741999999999999
 21
25.30594999999999
 31
0.0
  0
LINE
  5
D3
330
1E
100
AcDbEntity
  8
0
100
AcDbLine
 10
26.074
 20
24.85695
 30
0.0
 11
26.272
 21
24.51195
 31
0.0
  0
LINE
  5
D4
330
1E
100
AcDbEntity
  8
0
100
AcDbLine
 10
3.797001
 20
24.59495
 30
0.0
 11
4.272
 21
25.01395
 31
0.0
  0
LINE
  5
D5
330
1E
100
AcDbEntity
  8
0
100
AcDbLine
 10
26.272
 20
24.51195
 30
0.0
 11
26.405
 21
24.16495
 31
0.0
  0
LINE
  5
D6
330
1E
100
AcDbEntity
  8
0
100
AcDbLine
 10
3.499001
 20
24.17194999999999
 30
0.0
 11
3.797001
 21
24.59495
 31
0.0
  0
LINE
  5
D7
330
1E
100
AcDbEntity
  8
0
100
AcDbLine
 10
26.405
 20
24.16495
 30
0.0
 11
26.498
 21
23.66795
 31
0.0
  0
LINE
  5
D8
330
1E
100
AcDbEntity
  8
0
100
AcDbLine
 10
0.6569999999999979
 20
25.79394999999999
 30
0.0
 11
0.6569999999999979
 21
27.00385
 31
0.0
  0
LINE
  5
D9
330
1E
100
AcDbEntity
  8
0
100
AcDbLine
 10
41.093
 20
23.38645
 30
0.0
 11
41.093
 21
22.00604999999999
 31
0.0
  0
LINE
  5
DA
330
1E
100
AcDbEntity
  8
0
100
AcDbLine
 10
41.093
 20
23.38645
 30
0.0
 11
41.093
 21
24.87095
 31
0.0
  0
LINE
  5
DB
330
1E
100
AcDbEntity
  8
0
100
AcDbLine
 10
41.093
 20
24.87095
 30
0.0
 11
41.093
 21
23.38645
 31
0.0
  0
LINE
  5
DC
330
1E
100
AcDbEntity
  8
0
100
AcDbLine
 10
41.093
 20
24.87095
 30
0.0
 11
41.093
 21
22.00604999999999
 31
0.0
  0
LINE
  5
DD
330
1E
100
AcDbEntity
  8
0
100
AcDbLine
 10
41.093
 20
22.00604999999999
 30
0.0
 11
41.093
 21
24.87095
 31
0.0
  0
LINE
  5
DE
330
1E
100
AcDbEntity
  8
0
100
AcDbLine
 10
41.093
 20
22.00604999999999
 30
0.0
 11
41.093
 21
23.38645
 31
0.0
  0
LINE
  5
DF
330
1E
100
AcDbEntity
  8
0
100
AcDbLine
 10
41.291
 20
21.40885
 30
0.0
 11
41.386
 21
21.29885
 31
0.0
  0
LINE
  5
E0
330
1E
100
AcDbEntity
  8
0
100
AcDbLine
 10
41.169
 20
21.62294999999999
 30
0.0
 11
41.291
 21
21.40885
 31
0.0
  0
LINE
  5
E1
330
1E
100
AcDbEntity
  8
0
100
AcDbLine
 10
41.143
 20
21.69494999999999
 30
0.0
 11
41.169
 21
21.62294999999999
 31
0.0
  0
LINE
  5
E2
330
1E
100
AcDbEntity
  8
0
100
AcDbLine
 10
41.386
 20
21.29885
 30
0.0
 11
41.71
 21
21.08175
 31
0.0
  0
LINE
  5
F2
330
1E
100
AcDbEntity
  8
0
100
AcDbLine
 10
46.593
 20
22.00604999999999
 30
0.0
 11
46.593
 21
24.87095
 31
0.0
  0
LINE
  5
F3
330
1E
100
AcDbEntity
  8
0
100
AcDbLine
 10
46.593
 20
24.87095
 30
0.0
 11
46.593
 21
22.00604999999999
 31
0.0
  0
LINE
  5
F4
330
1E
100
AcDbEntity
  8
0
100
AcDbLine
 10
46.29999999999999
 20
21.29885
 30
0.0
 11
46.51699999999999
 21
21.62294999999999
 31
0.0
  0
LINE
  5
F5
330
1E
100
AcDbEntity
  8
0
100
AcDbLine
 10
45.593
 20
21.00575
 30
0.0
 11
45.976
 21
21.08175
 31
0.0
  0
LINE
  5
F7
330
1E
100
AcDbEntity
  8
0
100
AcDbLine
 10
42.093
 20
21.00575
 30
0.0
 11
45.593
 21
21.00575
 31
0.0
  0
LINE
  5
FC
330
1E
100
AcDbEntity
  8
0
100
AcDbLine
 10
59.375
 20
16.62235
 30
0.0
 11
59.75699999999999
 21
16.54645
 31
0.0
  0
LINE
  5
FD
330
1E
100
AcDbEntity
  8
0
100
AcDbLine
 10
65.848
 20
16.54645
 30
0.0
 11
65.848
 21
16.11035
 31
0.0
  0
LINE
  5
FE
330
1E
100
AcDbEntity
  8
0
100
AcDbLine
 10
65.848
 20
16.11035
 30
0.0
 11
65.848
 21
16.77655
 31
0.0
  0
LINE
  5
FF
330
1E
100
AcDbEntity
  8
0
100
AcDbLine
 10
65.848
 20
16.11035
 30
0.0
 11
65.848
 21
15.64815
 31
0.0
  0
LINE
  5
100
330
1E
100
AcDbEntity
  8
0
100
AcDbLine
 10
65.848
 20
16.11035
 30
0.0
 11
65.848
 21
16.54645
 31
0.0
  0
LINE
  5
101
330
1E
100
AcDbEntity
  8
0
100
AcDbLine
 10
65.848
 20
15.64815
 30
0.0
 11
65.848
 21
16.11035
 31
0.0
  0
LINE
  5
102
330
1E
100
AcDbEntity
  8
0
100
AcDbLine
 10
65.848
 20
15.64815
 30
0.0
 11
65.848
 21
15.39715
 31
0.0
  0
LINE
  5
103
330
1E
100
AcDbEntity
  8
0
100
AcDbLine
 10
65.848
 20
15.39715
 30
0.0
 11
65.848
 21
15.64815
 31
0.0
  0
LINE
  5
104
330
1E
100
AcDbEntity
  8
0
100
AcDbLine
 10
74.03100000000001
 20
1.006846000000009
 30
0.0
 11
74.47700000000001
 21
0.4756890000000061
 31
0.0
  0
LINE
  5
105
330
1E
100
AcDbEntity
  8
0
100
AcDbLine
 10
65.977
 20
14.98445
 30
0.0
 11
66.2387654706189
 21
14.53064344773769
 31
0.0
  0
LINE
  5
106
330
1E
100
AcDbEntity
  8
0
100
AcDbLine
 10
65.977
 20
14.98445
 30
0.0
 11
66.2387654706189
 21
14.53064344773769
 31
0.0
  0
LINE
  5
107
330
1E
100
AcDbEntity
  8
0
100
AcDbLine
 10
65.977
 20
14.98495
 30
0.0
 11
74.03100000000001
 21
1.006846000000009
 31
0.0
  0
LINE
  5
108
330
1E
100
AcDbEntity
  8
0
100
AcDbLine
 10
65.977
 20
14.98495
 30
0.0
 11
74.03100000000001
 21
1.006846000000009
 31
0.0
  0
LINE
  5
109
330
1E
100
AcDbEntity
  8
0
100
AcDbLine
 10
65.848
 20
15.37395
 30
0.0
 11
65.977
 21
14.98445
 31
0.0
  0
LINE
  5
10A
330
1E
100
AcDbEntity
  8
0
100
AcDbLine
 10
65.848
 20
17.63275
 30
0.0
 11
65.848
 21
18.66405
 31
0.0
  0
LINE
  5
10B
330
1E
100
AcDbEntity
  8
0
100
AcDbLine
 10
65.848
 20
17.63275
 30
0.0
 11
65.848
 21
16.77655
 31
0.0
  0
LINE
  5
10C
330
1E
100
AcDbEntity
  8
0
100
AcDbLine
 10
65.848
 20
19.85044999999999
 30
0.0
 11
65.848
 21
21.16985
 31
0.0
  0
LINE
  5
10D
330
1E
100
AcDbEntity
  8
0
100
AcDbLine
 10
65.848
 20
19.85044999999999
 30
0.0
 11
65.848
 21
18.66405
 31
0.0
  0
LINE
  5
10E
330
1E
100
AcDbEntity
  8
0
100
AcDbLine
 10
65.848
 20
18.66405
 30
0.0
 11
65.848
 21
19.85044999999999
 31
0.0
  0
LINE
  5
10F
330
1E
100
AcDbEntity
  8
0
100
AcDbLine
 10
65.848
 20
18.66405
 30
0.0
 11
65.848
 21
17.63275
 31
0.0
  0
LINE
  5
110
330
1E
100
AcDbEntity
  8
0
100
AcDbLine
 10
65.848
 20
21.16985
 30
0.0
 11
65.848
 21
22.59825
 31
0.0
  0
LINE
  5
111
330
1E
100
AcDbEntity
  8
0
100
AcDbLine
 10
65.848
 20
21.16985
 30
0.0
 11
65.848
 21
19.85044999999999
 31
0.0
  0
LINE
  5
112
330
1E
100
AcDbEntity
  8
0
100
AcDbLine
 10
65.848
 20
25.67415
 30
0.0
 11
65.848
 21
27.26364999999999
 31
0.0
  0
LINE
  5
113
330
1E
100
AcDbEntity
  8
0
100
AcDbLine
 10
65.848
 20
25.67415
 30
0.0
 11
65.848
 21
24.10865
 31
0.0
  0
LINE
  5
114
330
1E
100
AcDbEntity
  8
0
100
AcDbLine
 10
65.848
 20
22.59825
 30
0.0
 11
65.848
 21
24.10865
 31
0.0
  0
LINE
  5
115
330
1E
100
AcDbEntity
  8
0
100
AcDbLine
 10
65.848
 20
22.59825
 30
0.0
 11
65.848
 21
21.16985
 31
0.0
  0
LINE
  5
117
330
1E
100
AcDbEntity
  8
0
100
AcDbLine
 10
65.848
 20
24.10865
 30
0.0
 11
65.848
 21
25.67415
 31
0.0
  0
LINE
  5
118
330
1E
100
AcDbEntity
  8
0
100
AcDbLine
 10
65.848
 20
24.10865
 30
0.0
 11
65.848
 21
22.59825
 31
0.0
  0
LINE
  5
119
330
1E
100
AcDbEntity
  8
0
100
AcDbLine
 10
65.848
 20
16.77655
 30
0.0
 11
65.848
 21
16.11035
 31
0.0
  0
LINE
  5
11A
330
1E
100
AcDbEntity
  8
0
100
AcDbLine
 10
65.848
 20
16.77655
 30
0.0
 11
65.848
 21
17.63275
 31
0.0
  0
LINE
  5
11B
330
1E
100
AcDbEntity
  8
0
100
AcDbLine
 10
59.75699999999999
 20
16.54645
 30
0.0
 11
65.848
 21
16.54645
 31
0.0
  0
LINE
  5
11C
330
1E
100
AcDbEntity
  8
0
100
AcDbLine
 10
0.156999999999998
 20
28.14195
 30
0.0
 11
0.156999999999998
 21
27.00395
 31
0.0
  0
LINE
  5
11D
330
1E
100
AcDbEntity
  8
0
100
AcDbLine
 10
0.156999999999998
 20
28.14195
 30
0.0
 11
0.156999999999998
 21
29.25795
 31
0.0
  0
LINE
  5
11E
330
1E
100
AcDbEntity
  8
0
100
AcDbLine
 10
0.156999999999998
 20
31.32894999999999
 30
0.0
 11
0.156999999999999
 21
32.24295
 31
0.0
  0
LINE
  5
11F
330
1E
100
AcDbEntity
  8
0
100
AcDbLine
 10
0.156999999999998
 20
31.32894999999999
 30
0.0
 11
0.156999999999998
 21
30.32695
 31
0.0
  0
LINE
  5
120
330
1E
100
AcDbEntity
  8
0
100
AcDbLine
 10
0.156999999999998
 20
30.32695
 30
0.0
 11
0.156999999999998
 21
31.32894999999999
 31
0.0
  0
LINE
  5
121
330
1E
100
AcDbEntity
  8
0
100
AcDbLine
 10
0.156999999999998
 20
30.32695
 30
0.0
 11
0.156999999999998
 21
29.25795
 31
0.0
  0
LINE
  5
122
330
1E
100
AcDbEntity
  8
0
100
AcDbLine
 10
0.156999999999998
 20
29.25795
 30
0.0
 11
0.156999999999998
 21
30.32695
 31
0.0
  0
LINE
  5
123
330
1E
100
AcDbEntity
  8
0
100
AcDbLine
 10
0.156999999999998
 20
29.25795
 30
0.0
 11
0.156999999999998
 21
28.14195
 31
0.0
  0
LINE
  5
124
330
1E
100
AcDbEntity
  8
0
100
AcDbLine
 10
0.156999999999998
 20
29.25795
 30
0.0
 11
0.156999999999998
 21
28.14294999999999
 31
0.0
  0
LINE
  5
125
330
1E
100
AcDbEntity
  8
0
100
AcDbLine
 10
0.156999999999998
 20
28.14294999999999
 30
0.0
 11
0.156999999999998
 21
29.25795
 31
0.0
  0
LINE
  5
126
330
1E
100
AcDbEntity
  8
0
100
AcDbLine
 10
0.156999999999998
 20
28.14294999999999
 30
0.0
 11
0.156999999999998
 21
27.00395
 31
0.0
  0
LINE
  5
127
330
1E
100
AcDbEntity
  8
0
100
AcDbLine
 10
0.6569999999999979
 20
28.30395
 30
0.0
 11
0.6569999999999979
 21
29.58295
 31
0.0
  0
LINE
  5
128
330
1E
100
AcDbEntity
  8
0
100
AcDbLine
 10
0.6569999999999979
 20
28.30395
 30
0.0
 11
0.6569999999999979
 21
27.00385
 31
0.0
  0
LINE
  5
129
330
1E
100
AcDbEntity
  8
0
100
AcDbLine
 10
0.6569999999999979
 20
27.00385
 30
0.0
 11
0.6569999999999979
 21
28.21395
 31
0.0
  0
LINE
  5
12A
330
1E
100
AcDbEntity
  8
0
100
AcDbLine
 10
0.6569999999999979
 20
27.00385
 30
0.0
 11
0.6569999999999979
 21
25.79394999999999
 31
0.0
  0
LINE
  5
12B
330
1E
100
AcDbEntity
  8
0
100
AcDbLine
 10
0.6569999999999979
 20
27.00385
 30
0.0
 11
0.6569999999999979
 21
28.30395
 31
0.0
  0
LINE
  5
12C
330
1E
100
AcDbEntity
  8
0
100
AcDbLine
 10
0.6569999999999979
 20
27.00385
 30
0.0
 11
0.6569999999999979
 21
25.70295
 31
0.0
  0
LINE
  5
12D
330
1E
100
AcDbEntity
  8
0
100
AcDbLine
 10
0.6569999999999979
 20
28.21395
 30
0.0
 11
0.6569999999999979
 21
29.39894999999999
 31
0.0
  0
LINE
  5
12E
330
1E
100
AcDbEntity
  8
0
100
AcDbLine
 10
0.6569999999999979
 20
28.21395
 30
0.0
 11
0.6569999999999979
 21
27.00385
 31
0.0
  0
LINE
  5
12F
330
1E
100
AcDbEntity
  8
0
100
AcDbLine
 10
0.6569999999999979
 20
30.81694999999999
 30
0.0
 11
0.6569999999999979
 21
31.98595
 31
0.0
  0
LINE
  5
130
330
1E
100
AcDbEntity
  8
0
100
AcDbLine
 10
0.6569999999999979
 20
30.81694999999999
 30
0.0
 11
0.6569999999999979
 21
29.58295
 31
0.0
  0
LINE
  5
131
330
1E
100
AcDbEntity
  8
0
100
AcDbLine
 10
0.6569999999999979
 20
29.58295
 30
0.0
 11
0.6569999999999979
 21
30.81694999999999
 31
0.0
  0
LINE
  5
132
330
1E
100
AcDbEntity
  8
0
100
AcDbLine
 10
0.156999999999998
 20
31.32894999999999
 30
0.0
 11
0.156999999999999
 21
33.61795
 31
0.0
  0
LINE
  5
133
330
1E
100
AcDbEntity
  8
0
100
AcDbLine
 10
0.6569999999999979
 20
29.39894999999999
 30
0.0
 11
0.6569999999999979
 21
30.53494999999999
 31
0.0
  0
LINE
  5
134
330
1E
100
AcDbEntity
  8
0
100
AcDbLine
 10
25.15699999999999
 20
28.30495
 30
0.0
 11
25.53
 21
28.56595
 31
0.0
  0
LINE
  5
135
330
1E
100
AcDbEntity
  8
0
100
AcDbLine
 10
25.15699999999999
 20
28.30495
 30
0.0
 11
25.15699999999999
 21
27.00395
 31
0.0
  0
LINE
  5
136
330
1E
100
AcDbEntity
  8
0
100
AcDbLine
 10
27.157
 20
27.00385
 30
0.0
 11
27.157
 21
25.64395
 31
0.0
  0
LINE
  5
137
330
1E
100
AcDbEntity
  8
0
100
AcDbLine
 10
27.157
 20
27.00385
 30
0.0
 11
27.157
 21
28.36394999999999
 31
0.0
  0
LINE
  5
138
330
1E
100
AcDbEntity
  8
0
100
AcDbLine
 10
25.15699999999999
 20
27.00395
 30
0.0
 11
25.15699999999999
 21
28.30495
 31
0.0
  0
LINE
  5
139
330
1E
100
AcDbEntity
  8
0
100
AcDbLine
 10
25.15699999999999
 20
27.00395
 30
0.0
 11
25.15699999999999
 21
25.70295
 31
0.0
  0
LINE
  5
13A
330
1E
100
AcDbEntity
  8
0
100
AcDbLine
 10
4.286
 20
28.98295
 30
0.0
 11
4.75
 21
28.69695
 31
0.0
  0
LINE
  5
13B
330
1E
100
AcDbEntity
  8
0
100
AcDbLine
 10
4.75
 20
28.69695
 30
0.0
 11
5.157999999999999
 21
28.49895
 31
0.0
  0
LINE
  5
13C
330
1E
100
AcDbEntity
  8
0
100
AcDbLine
 10
27.157
 20
28.36394999999999
 30
0.0
 11
27.157
 21
27.00385
 31
0.0
  0
LINE
  5
13D
330
1E
100
AcDbEntity
  8
0
100
AcDbLine
 10
27.157
 20
28.36394999999999
 30
0.0
 11
27.157
 21
29.70195
 31
0.0
  0
LINE
  5
13E
330
1E
100
AcDbEntity
  8
0
100
AcDbLine
 10
25.781
 20
28.79495
 30
0.0
 11
25.98
 21
29.02395
 31
0.0
  0
LINE
  5
13F
330
1E
100
AcDbEntity
  8
0
100
AcDbLine
 10
25.53
 20
28.56595
 30
0.0
 11
25.781
 21
28.79495
 31
0.0
  0
LINE
  5
140
330
1E
100
AcDbEntity
  8
0
100
AcDbLine
 10
5.157999999999999
 20
28.49895
 30
0.0
 11
5.657
 21
28.30495
 31
0.0
  0
LINE
  5
141
330
1E
100
AcDbEntity
  8
0
100
AcDbLine
 10
5.657
 20
28.30495
 30
0.0
 11
25.15699999999999
 21
28.30495
 31
0.0
  0
LINE
  5
142
330
1E
100
AcDbEntity
  8
0
100
AcDbLine
 10
3.413001
 20
30.02995
 30
0.0
 11
3.611001
 21
29.64795
 31
0.0
  0
LINE
  5
143
330
1E
100
AcDbEntity
  8
0
100
AcDbLine
 10
3.499001
 20
31.32695
 30
0.0
 11
3.797001
 21
31.83095
 31
0.0
  0
LINE
  5
144
330
1E
100
AcDbEntity
  8
0
100
AcDbLine
 10
3.611001
 20
29.64795
 30
0.0
 11
3.935
 21
29.27094999999999
 31
0.0
  0
LINE
  5
145
330
1E
100
AcDbEntity
  8
0
100
AcDbLine
 10
25.98
 20
29.02395
 30
0.0
 11
26.223
 21
29.39695
 31
0.0
  0
LINE
  5
146
330
1E
100
AcDbEntity
  8
0
100
AcDbLine
 10
26.383
 20
29.77195
 30
0.0
 11
26.491
 21
30.26695
 31
0.0
  0
LINE
  5
147
330
1E
100
AcDbEntity
  8
0
100
AcDbLine
 10
27.157
 20
29.70195
 30
0.0
 11
27.157
 21
28.36394999999999
 31
0.0
  0
LINE
  5
148
330
1E
100
AcDbEntity
  8
0
100
AcDbLine
 10
27.157
 20
29.70195
 30
0.0
 11
27.157
 21
30.99795
 31
0.0
  0
LINE
  5
149
330
1E
100
AcDbEntity
  8
0
100
AcDbLine
 10
27.157
 20
30.99795
 30
0.0
 11
27.157
 21
29.70195
 31
0.0
  0
LINE
  5
14A
330
1E
100
AcDbEntity
  8
0
100
AcDbLine
 10
27.157
 20
30.99795
 30
0.0
 11
27.157
 21
32.23095
 31
0.0
  0
LINE
  5
14B
330
1E
100
AcDbEntity
  8
0
100
AcDbLine
 10
26.405
 20
31.31895
 30
0.0
 11
26.498
 21
30.77894999999999
 31
0.0
  0
LINE
  5
14C
330
1E
100
AcDbEntity
  8
0
100
AcDbLine
 10
26.491
 20
30.26695
 30
0.0
 11
26.498
 21
30.77894999999999
 31
0.0
  0
LINE
  5
14D
330
1E
100
AcDbEntity
  8
0
100
AcDbLine
 10
26.223
 20
29.39695
 30
0.0
 11
26.383
 21
29.77195
 31
0.0
  0
LINE
  5
14E
330
1E
100
AcDbEntity
  8
0
100
AcDbLine
 10
3.935
 20
29.27094999999999
 30
0.0
 11
4.286
 21
28.98295
 31
0.0
  0
LINE
  5
14F
330
1E
100
AcDbEntity
  8
0
100
AcDbLine
 10
0.6569999999999979
 20
30.53494999999999
 30
0.0
 11
0.6569999999999979
 21
31.59895
 31
0.0
  0
LINE
  5
150
330
1E
100
AcDbEntity
  8
0
100
AcDbLine
 10
0.6569999999999979
 20
30.53494999999999
 30
0.0
 11
0.6569999999999979
 21
29.39894999999999
 31
0.0
  0
LINE
  5
151
330
1E
100
AcDbEntity
  8
0
100
AcDbLine
 10
26.272
 20
31.72795
 30
0.0
 11
26.405
 21
31.31895
 31
0.0
  0
LINE
  5
152
330
1E
100
AcDbEntity
  8
0
100
AcDbLine
 10
0.6569999999999979
 20
31.59895
 30
0.0
 11
0.6569999999999979
 21
32.56994999999999
 31
0.0
  0
LINE
  5
153
330
1E
100
AcDbEntity
  8
0
100
AcDbLine
 10
0.6569999999999979
 20
31.59895
 30
0.0
 11
0.6569999999999979
 21
30.53494999999999
 31
0.0
  0
LINE
  5
154
330
1E
100
AcDbEntity
  8
0
100
AcDbLine
 10
0.156999999999998
 20
27.00395
 30
0.0
 11
0.156999999999998
 21
28.14294999999999
 31
0.0
  0
LINE
  5
155
330
1E
100
AcDbEntity
  8
0
100
AcDbLine
 10
0.156999999999998
 20
27.00395
 30
0.0
 11
0.156999999999998
 21
25.86495
 31
0.0
  0
LINE
  5
156
330
1E
100
AcDbEntity
  8
0
100
AcDbLine
 10
0.156999999999998
 20
27.00395
 30
0.0
 11
0.156999999999998
 21
28.14195
 31
0.0
  0
LINE
  5
157
330
1E
100
AcDbEntity
  8
0
100
AcDbLine
 10
0.6569999999999979
 20
31.98595
 30
0.0
 11
0.6569999999999979
 21
33.06895
 31
0.0
  0
LINE
  5
158
330
1E
100
AcDbEntity
  8
0
100
AcDbLine
 10
0.6569999999999979
 20
31.98595
 30
0.0
 11
0.6569999999999979
 21
30.81694999999999
 31
0.0
  0
LINE
  5
159
330
1E
100
AcDbEntity
  8
0
100
AcDbLine
 10
0.156999999999999
 20
32.24295
 30
0.0
 11
0.156999999999999
 21
33.04995
 31
0.0
  0
LINE
  5
15A
330
1E
100
AcDbEntity
  8
0
100
AcDbLine
 10
26.074
 20
32.16595
 30
0.0
 11
26.272
 21
31.72795
 31
0.0
  0
LINE
  5
15B
330
1E
100
AcDbEntity
  8
0
100
AcDbLine
 10
0.6569999999999979
 20
32.56994999999999
 30
0.0
 11
0.6569999999999979
 21
33.42795
 31
0.0
  0
LINE
  5
15C
330
1E
100
AcDbEntity
  8
0
100
AcDbLine
 10
0.6569999999999979
 20
32.56994999999999
 30
0.0
 11
0.6569999999999979
 21
31.59895
 31
0.0
  0
LINE
  5
15D
330
1E
100
AcDbEntity
  8
0
100
AcDbLine
 10
0.6569999999999979
 20
33.06895
 30
0.0
 11
0.6569999999999979
 21
31.98595
 31
0.0
  0
LINE
  5
15E
330
1E
100
AcDbEntity
  8
0
100
AcDbLine
 10
0.6569999999999979
 20
33.06895
 30
0.0
 11
0.6569999999999979
 21
34.04894999999999
 31
0.0
  0
LINE
  5
15F
330
1E
100
AcDbEntity
  8
0
100
AcDbLine
 10
0.156999999999999
 20
33.04995
 30
0.0
 11
0.156999999999999
 21
32.24295
 31
0.0
  0
LINE
  5
160
330
1E
100
AcDbEntity
  8
0
100
AcDbLine
 10
0.156999999999999
 20
33.04995
 30
0.0
 11
0.156999999999999
 21
33.73395
 31
0.0
  0
LINE
  5
161
330
1E
100
AcDbEntity
  8
0
100
AcDbLine
 10
5.657
 20
33.46495
 30
0.0
 11
25.15699999999999
 21
33.46495
 31
0.0
  0
LINE
  5
162
330
1E
100
AcDbEntity
  8
0
100
AcDbLine
 10
25.15699999999999
 20
33.46495
 30
0.0
 11
25.46699999999999
 21
33.09794999999999
 31
0.0
  0
LINE
  5
163
330
1E
100
AcDbEntity
  8
0
100
AcDbLine
 10
25.15699999999999
 20
33.46495
 30
0.0
 11
25.15699999999999
 21
34.55695
 31
0.0
  0
LINE
  5
164
330
1E
100
AcDbEntity
  8
0
100
AcDbLine
 10
5.657
 20
33.46495
 30
0.0
 11
25.15699999999999
 21
33.46495
 31
0.0
  0
LINE
  5
165
330
1E
100
AcDbEntity
  8
0
100
AcDbLine
 10
5.366
 20
33.27194999999999
 30
0.0
 11
5.657
 21
33.46495
 31
0.0
  0
LINE
  5
166
330
1E
100
AcDbEntity
  8
0
100
AcDbLine
 10
25.46699999999999
 20
33.09794999999999
 30
0.0
 11
25.713
 21
32.76495
 31
0.0
  0
LINE
  5
167
330
1E
100
AcDbEntity
  8
0
100
AcDbLine
 10
4.741999999999999
 20
32.80395
 30
0.0
 11
5.366
 21
33.27194999999999
 31
0.0
  0
LINE
  5
168
330
1E
100
AcDbEntity
  8
0
100
AcDbLine
 10
0.6569999999999979
 20
33.42795
 30
0.0
 11
0.6569999999999979
 21
34.15494999999999
 31
0.0
  0
LINE
  5
169
330
1E
100
AcDbEntity
  8
0
100
AcDbLine
 10
0.6569999999999979
 20
33.42795
 30
0.0
 11
0.6569999999999979
 21
32.56994999999999
 31
0.0
  0
LINE
  5
16A
330
1E
100
AcDbEntity
  8
0
100
AcDbLine
 10
0.156999999999999
 20
34.92195
 30
0.0
 11
0.156999999999999
 21
34.67995
 31
0.0
  0
LINE
  5
16B
330
1E
100
AcDbEntity
  8
0
100
AcDbLine
 10
0.156999999999999
 20
34.92195
 30
0.0
 11
0.156999999999999
 21
35.00395
 31
0.0
  0
LINE
  5
16C
330
1E
100
AcDbEntity
  8
0
100
AcDbLine
 10
0.156999999999999
 20
34.92295
 30
0.0
 11
0.156999999999999
 21
35.00395
 31
0.0
  0
LINE
  5
16D
330
1E
100
AcDbEntity
  8
0
100
AcDbLine
 10
0.156999999999999
 20
34.92295
 30
0.0
 11
0.156999999999999
 21
34.67995
 31
0.0
  0
LINE
  5
16E
330
1E
100
AcDbEntity
  8
0
100
AcDbLine
 10
0.156999999999999
 20
34.67995
 30
0.0
 11
0.156999999999999
 21
34.92295
 31
0.0
  0
LINE
  5
16F
330
1E
100
AcDbEntity
  8
0
100
AcDbLine
 10
0.156999999999999
 20
34.67995
 30
0.0
 11
0.156999999999999
 21
34.28094999999999
 31
0.0
  0
LINE
  5
170
330
1E
100
AcDbEntity
  8
0
100
AcDbLine
 10
0.156999999999999
 20
34.67995
 30
0.0
 11
0.156999999999999
 21
34.92195
 31
0.0
  0
LINE
  5
171
330
1E
100
AcDbEntity
  8
0
100
AcDbLine
 10
0.156999999999999
 20
35.00395
 30
0.0
 11
0.156999999999999
 21
34.92295
 31
0.0
  0
LINE
  5
172
330
1E
100
AcDbEntity
  8
0
100
AcDbLine
 10
0.156999999999999
 20
35.00395
 30
0.0
 11
0.6569999999999979
 21
35.50395
 31
0.0
  0
LINE
  5
173
330
1E
100
AcDbEntity
  8
0
100
AcDbLine
 10
0.156999999999999
 20
35.00395
 30
0.0
 11
0.156999999999999
 21
34.92195
 31
0.0
  0
LINE
  5
174
330
1E
100
AcDbEntity
  8
0
100
AcDbLine
 10
0.156999999999999
 20
33.73395
 30
0.0
 11
0.156999999999999
 21
34.28094999999999
 31
0.0
  0
LINE
  5
175
330
1E
100
AcDbEntity
  8
0
100
AcDbLine
 10
0.156999999999999
 20
33.73395
 30
0.0
 11
0.156999999999999
 21
33.04995
 31
0.0
  0
LINE
  5
176
330
1E
100
AcDbEntity
  8
0
100
AcDbLine
 10
0.156999999999999
 20
33.73395
 30
0.0
 11
0.156999999999999
 21
33.61795
 31
0.0
  0
LINE
  5
177
330
1E
100
AcDbEntity
  8
0
100
AcDbLine
 10
0.6569999999999979
 20
34.04894999999999
 30
0.0
 11
0.6569999999999979
 21
34.90795
 31
0.0
  0
LINE
  5
178
330
1E
100
AcDbEntity
  8
0
100
AcDbLine
 10
0.6569999999999979
 20
34.90795
 30
0.0
 11
0.6569999999999979
 21
34.04894999999999
 31
0.0
  0
LINE
  5
179
330
1E
100
AcDbEntity
  8
0
100
AcDbLine
 10
0.6569999999999979
 20
34.90795
 30
0.0
 11
0.6569999999999979
 21
35.63295
 31
0.0
  0
LINE
  5
17A
330
1E
100
AcDbEntity
  8
0
100
AcDbLine
 10
0.6569999999999979
 20
34.15494999999999
 30
0.0
 11
0.6569999999999979
 21
34.73595
 31
0.0
  0
LINE
  5
17B
330
1E
100
AcDbEntity
  8
0
100
AcDbLine
 10
25.15699999999999
 20
34.55695
 30
0.0
 11
25.15699999999999
 21
35.57095
 31
0.0
  0
LINE
  5
17C
330
1E
100
AcDbEntity
  8
0
100
AcDbLine
 10
25.15699999999999
 20
34.55695
 30
0.0
 11
25.15699999999999
 21
33.46495
 31
0.0
  0
LINE
  5
17D
330
1E
100
AcDbEntity
  8
0
100
AcDbLine
 10
0.6569999999999979
 20
34.73595
 30
0.0
 11
0.6569999999999979
 21
35.15995
 31
0.0
  0
LINE
  5
17E
330
1E
100
AcDbEntity
  8
0
100
AcDbLine
 10
0.6569999999999979
 20
34.73595
 30
0.0
 11
0.6569999999999979
 21
34.15494999999999
 31
0.0
  0
LINE
  5
17F
330
1E
100
AcDbEntity
  8
0
100
AcDbLine
 10
0.6569999999999979
 20
35.15995
 30
0.0
 11
0.6569999999999979
 21
35.41695
 31
0.0
  0
LINE
  5
180
330
1E
100
AcDbEntity
  8
0
100
AcDbLine
 10
0.6569999999999979
 20
35.15995
 30
0.0
 11
0.6569999999999979
 21
34.73595
 31
0.0
  0
LINE
  5
181
330
1E
100
AcDbEntity
  8
0
100
AcDbLine
 10
0.156999999999999
 20
34.28094999999999
 30
0.0
 11
0.156999999999999
 21
34.67995
 31
0.0
  0
LINE
  5
182
330
1E
100
AcDbEntity
  8
0
100
AcDbLine
 10
0.156999999999999
 20
34.28094999999999
 30
0.0
 11
0.156999999999999
 21
33.73395
 31
0.0
  0
LINE
  5
183
330
1E
100
AcDbEntity
  8
0
100
AcDbLine
 10
0.156999999999999
 20
33.61795
 30
0.0
 11
0.156999999999999
 21
33.73395
 31
0.0
  0
LINE
  5
184
330
1E
100
AcDbEntity
  8
0
100
AcDbLine
 10
25.713
 20
32.76495
 30
0.0
 11
26.074
 21
32.16695
 31
0.0
  0
LINE
  5
185
330
1E
100
AcDbEntity
  8
0
100
AcDbLine
 10
25.713
 20
32.76495
 30
0.0
 11
26.074
 21
32.16595
 31
0.0
  0
LINE
  5
186
330
1E
100
AcDbEntity
  8
0
100
AcDbLine
 10
4.272
 20
32.37995
 30
0.0
 11
4.741999999999999
 21
32.80395
 31
0.0
  0
LINE
  5
187
330
1E
100
AcDbEntity
  8
0
100
AcDbLine
 10
27.157
 20
34.43095
 30
0.0
 11
27.157
 21
33.38095
 31
0.0
  0
LINE
  5
188
330
1E
100
AcDbEntity
  8
0
100
AcDbLine
 10
27.157
 20
34.43095
 30
0.0
 11
27.157
 21
35.36395
 31
0.0
  0
LINE
  5
189
330
1E
100
AcDbEntity
  8
0
100
AcDbLine
 10
27.157
 20
33.38095
 30
0.0
 11
27.157
 21
32.23095
 31
0.0
  0
LINE
  5
18A
330
1E
100
AcDbEntity
  8
0
100
AcDbLine
 10
27.157
 20
33.38095
 30
0.0
 11
27.157
 21
34.43095
 31
0.0
  0
LINE
  5
18B
330
1E
100
AcDbEntity
  8
0
100
AcDbLine
 10
27.157
 20
32.23095
 30
0.0
 11
27.157
 21
30.99795
 31
0.0
  0
LINE
  5
18C
330
1E
100
AcDbEntity
  8
0
100
AcDbLine
 10
27.157
 20
32.23095
 30
0.0
 11
27.157
 21
33.38095
 31
0.0
  0
LINE
  5
18D
330
1E
100
AcDbEntity
  8
0
100
AcDbLine
 10
26.074
 20
32.16695
 30
0.0
 11
26.272
 21
31.72795
 31
0.0
  0
LINE
  5
18E
330
1E
100
AcDbEntity
  8
0
100
AcDbLine
 10
3.797001
 20
31.83095
 30
0.0
 11
4.272
 21
32.37995
 31
0.0
  0
LINE
  5
191
330
1E
100
AcDbEntity
  8
0
100
AcDbLine
 10
41.093
 20
32.00905
 30
0.0
 11
41.093
 21
29.14414999999999
 31
0.0
  0
LINE
  5
192
330
1E
100
AcDbEntity
  8
0
100
AcDbLine
 10
41.093
 20
32.00905
 30
0.0
 11
41.093
 21
30.07045
 31
0.0
  0
LINE
  5
194
330
1E
100
AcDbEntity
  8
0
100
AcDbLine
 10
41.093
 20
30.07045
 30
0.0
 11
41.093
 21
32.00905
 31
0.0
  0
LINE
  5
195
330
1E
100
AcDbEntity
  8
0
100
AcDbLine
 10
41.093
 20
30.07045
 30
0.0
 11
41.093
 21
29.14414999999999
 31
0.0
  0
LINE
  5
197
330
1E
100
AcDbEntity
  8
0
100
AcDbLine
 10
34.359
 20
35.24495
 30
0.0
 11
34.74
 21
35.32204999999999
 31
0.0
  0
LINE
  5
198
330
1E
100
AcDbEntity
  8
0
100
AcDbLine
 10
27.157
 20
35.1912848424826
 30
0.0
 11
34.359
 21
35.24495
 31
0.0
  0
LINE
  5
199
330
1E
100
AcDbEntity
  8
0
100
AcDbLine
 10
27.157
 20
35.36395
 30
0.0
 11
27.157
 21
34.43095
 31
0.0
  0
LINE
  5
19A
330
1E
100
AcDbEntity
  8
0
100
AcDbLine
 10
27.157
 20
35.36395
 30
0.0
 11
27.157
 21
36.16495
 31
0.0
  0
LINE
  5
19B
330
1E
100
AcDbEntity
  8
0
100
AcDbLine
 10
0.6569999999999979
 20
35.50395
 30
0.0
 11
0.6569999999999979
 21
35.63295
 31
0.0
  0
LINE
  5
19C
330
1E
100
AcDbEntity
  8
0
100
AcDbLine
 10
0.6569999999999979
 20
35.50395
 30
0.0
 11
0.6569999999999979
 21
35.41695
 31
0.0
  0
LINE
  5
19D
330
1E
100
AcDbEntity
  8
0
100
AcDbLine
 10
0.6569999999999979
 20
35.63295
 30
0.0
 11
0.6569999999999979
 21
34.90795
 31
0.0
  0
LINE
  5
19E
330
1E
100
AcDbEntity
  8
0
100
AcDbLine
 10
0.6569999999999979
 20
35.63295
 30
0.0
 11
0.6569999999999979
 21
35.50395
 31
0.0
  0
LINE
  5
19F
330
1E
100
AcDbEntity
  8
0
100
AcDbLine
 10
0.6569999999999979
 20
35.63295
 30
0.0
 11
0.6569999999999979
 21
36.20895
 31
0.0
  0
LINE
  5
1A0
330
1E
100
AcDbEntity
  8
0
100
AcDbLine
 10
0.6569999999999979
 20
36.20895
 30
0.0
 11
0.6569999999999979
 21
36.62795
 31
0.0
  0
LINE
  5
1A1
330
1E
100
AcDbEntity
  8
0
100
AcDbLine
 10
0.6569999999999979
 20
36.20895
 30
0.0
 11
0.6569999999999979
 21
35.63295
 31
0.0
  0
LINE
  5
1A2
330
1E
100
AcDbEntity
  8
0
100
AcDbLine
 10
0.6569999999999979
 20
36.88195
 30
0.0
 11
0.6569999999999979
 21
36.96695
 31
0.0
  0
LINE
  5
1A3
330
1E
100
AcDbEntity
  8
0
100
AcDbLine
 10
0.6569999999999979
 20
36.88195
 30
0.0
 11
0.6569999999999979
 21
36.62795
 31
0.0
  0
LINE
  5
1A5
330
1E
100
AcDbEntity
  8
0
100
AcDbLine
 10
0.6569999999999979
 20
36.96695
 30
0.0
 11
0.6569999999999979
 21
36.88195
 31
0.0
  0
LINE
  5
1A7
330
1E
100
AcDbEntity
  8
0
100
AcDbLine
 10
0.6569999999999979
 20
36.62795
 30
0.0
 11
0.6569999999999979
 21
36.20895
 31
0.0
  0
LINE
  5
1A8
330
1E
100
AcDbEntity
  8
0
100
AcDbLine
 10
0.6569999999999979
 20
36.62795
 30
0.0
 11
0.6569999999999979
 21
36.88195
 31
0.0
  0
LINE
  5
1A9
330
1E
100
AcDbEntity
  8
0
100
AcDbLine
 10
3.499001
 20
36.83095
 30
0.0
 11
3.797001
 21
37.22294999999999
 31
0.0
  0
LINE
  5
1AA
330
1E
100
AcDbEntity
  8
0
100
AcDbLine
 10
3.611001
 20
35.82395
 30
0.0
 11
3.935
 21
35.67795
 31
0.0
  0
LINE
  5
1AB
330
1E
100
AcDbEntity
  8
0
100
AcDbLine
 10
3.935
 20
35.67795
 30
0.0
 11
4.286
 21
35.59695
 31
0.0
  0
LINE
  5
1AC
330
1E
100
AcDbEntity
  8
0
100
AcDbLine
 10
4.286
 20
35.59695
 30
0.0
 11
4.75
 21
35.54995
 31
0.0
  0
LINE
  5
1AD
330
1E
100
AcDbEntity
  8
0
100
AcDbLine
 10
4.75
 20
35.54995
 30
0.0
 11
5.157999999999999
 21
35.54495
 31
0.0
  0
LINE
  5
1AE
330
1E
100
AcDbEntity
  8
0
100
AcDbLine
 10
5.157999999999999
 20
35.54495
 30
0.0
 11
5.657
 21
35.57095
 31
0.0
  0
LINE
  5
1AF
330
1E
100
AcDbEntity
  8
0
100
AcDbLine
 10
25.781
 20
35.56195
 30
0.0
 11
25.98
 21
35.60595
 31
0.0
  0
LINE
  5
1B0
330
1E
100
AcDbEntity
  8
0
100
AcDbLine
 10
25.531
 20
35.54395
 30
0.0
 11
25.781
 21
35.56195
 31
0.0
  0
LINE
  5
1B1
330
1E
100
AcDbEntity
  8
0
100
AcDbLine
 10
5.657
 20
35.57095
 30
0.0
 11
25.15699999999999
 21
35.57095
 31
0.0
  0
LINE
  5
1B2
330
1E
100
AcDbEntity
  8
0
100
AcDbLine
 10
26.383
 20
35.87895
 30
0.0
 11
26.491
 21
36.13595
 31
0.0
  0
LINE
  5
1B3
330
1E
100
AcDbEntity
  8
0
100
AcDbLine
 10
26.272
 20
37.13995
 30
0.0
 11
26.405
 21
36.82495
 31
0.0
  0
LINE
  5
1B4
330
1E
100
AcDbEntity
  8
0
100
AcDbLine
 10
26.405
 20
36.82495
 30
0.0
 11
26.498
 21
36.44895
 31
0.0
  0
LINE
  5
1B5
330
1E
100
AcDbEntity
  8
0
100
AcDbLine
 10
27.157
 20
36.16495
 30
0.0
 11
27.157
 21
36.82095
 31
0.0
  0
LINE
  5
1B6
330
1E
100
AcDbEntity
  8
0
100
AcDbLine
 10
27.157
 20
36.82095
 30
0.0
 11
27.157
 21
36.16495
 31
0.0
  0
LINE
  5
1B7
330
1E
100
AcDbEntity
  8
0
100
AcDbLine
 10
27.157
 20
36.82095
 30
0.0
 11
27.157
 21
37.32295
 31
0.0
  0
LINE
  5
1B8
330
1E
100
AcDbEntity
  8
0
100
AcDbLine
 10
26.491
 20
36.13595
 30
0.0
 11
26.498
 21
36.44895
 31
0.0
  0
LINE
  5
1B9
330
1E
100
AcDbEntity
  8
0
100
AcDbLine
 10
26.223
 20
35.72195
 30
0.0
 11
26.383
 21
35.87895
 31
0.0
  0
LINE
  5
1BA
330
1E
100
AcDbEntity
  8
0
100
AcDbLine
 10
25.98
 20
35.60595
 30
0.0
 11
26.223
 21
35.72195
 31
0.0
  0
LINE
  5
1BB
330
1E
100
AcDbEntity
  8
0
100
AcDbLine
 10
25.15699999999999
 20
35.57095
 30
0.0
 11
25.531
 21
35.54395
 31
0.0
  0
LINE
  5
1BC
330
1E
100
AcDbEntity
  8
0
100
AcDbLine
 10
25.15699999999999
 20
35.57095
 30
0.0
 11
25.15699999999999
 21
34.55695
 31
0.0
  0
LINE
  5
1BD
330
1E
100
AcDbEntity
  8
0
100
AcDbLine
 10
5.657
 20
35.57095
 30
0.0
 11
25.15699999999999
 21
35.57095
 31
0.0
  0
LINE
  5
1BE
330
1E
100
AcDbEntity
  8
0
100
AcDbLine
 10
0.6569999999999979
 20
35.41695
 30
0.0
 11
0.6569999999999979
 21
35.50395
 31
0.0
  0
LINE
  5
1BF
330
1E
100
AcDbEntity
  8
0
100
AcDbLine
 10
0.6569999999999979
 20
35.41695
 30
0.0
 11
0.6569999999999979
 21
35.15995
 31
0.0
  0
LINE
  5
1C1
330
1E
100
AcDbEntity
  8
0
100
AcDbLine
 10
35.28
 20
35.86215
 30
0.0
 11
35.357
 21
36.24425
 31
0.0
  0
LINE
  5
1C2
330
1E
100
AcDbEntity
  8
0
100
AcDbLine
 10
35.064
 20
35.53905
 30
0.0
 11
35.28
 21
35.86215
 31
0.0
  0
LINE
  5
1C3
330
1E
100
AcDbEntity
  8
0
100
AcDbLine
 10
34.74
 20
35.32204999999999
 30
0.0
 11
35.064
 21
35.53905
 31
0.0
  0
LINE
  5
1C5
330
1E
100
AcDbEntity
  8
0
100
AcDbLine
 10
46.593
 20
32.00905
 30
0.0
 11
46.593
 21
29.14414999999999
 31
0.0
  0
LINE
  5
1C6
330
1E
100
AcDbEntity
  8
0
100
AcDbLine
 10
46.541
 20
32.32815
 30
0.0
 11
46.593
 21
32.00905
 31
0.0
  0
LINE
  5
1C7
330
1E
100
AcDbEntity
  8
0
100
AcDbLine
 10
46.51699999999999
 20
32.39534512977002
 30
0.0
 11
46.541
 21
32.32815
 31
0.0
  0
LINE
  5
1CB
330
1E
100
AcDbEntity
  8
0
100
AcDbLine
 10
46.593
 20
29.14414999999999
 30
0.0
 11
46.593
 21
32.00905
 31
0.0
  0
LINE
  5
1CD
330
1E
100
AcDbEntity
  8
0
100
AcDbLine
 10
52.32800000000001
 20
36.24325
 30
0.0
 11
52.405
 21
35.86115
 31
0.0
  0
LINE
  5
1CE
330
1E
100
AcDbEntity
  8
0
100
AcDbLine
 10
52.32800000000001
 20
36.24325
 30
0.0
 11
52.341
 21
41.06175
 31
0.0
  0
LINE
  5
1CF
330
1E
100
AcDbEntity
  8
0
100
AcDbLine
 10
52.405
 20
35.86115
 30
0.0
 11
52.621
 21
35.53805
 31
0.0
  0
LINE
  5
1D0
330
1E
100
AcDbEntity
  8
0
100
AcDbLine
 10
52.621
 20
35.53805
 30
0.0
 11
52.945
 21
35.32105
 31
0.0
  0
LINE
  5
1D1
330
1E
100
AcDbEntity
  8
0
100
AcDbLine
 10
52.945
 20
35.32105
 30
0.0
 11
53.326
 21
35.24395
 31
0.0
  0
LINE
  5
1D5
330
1E
100
AcDbEntity
  8
0
100
AcDbLine
 10
53.326
 20
35.24395
 30
0.0
 11
55.7635
 21
35.25415
 31
0.0
  0
LINE
  5
1D7
330
1E
100
AcDbEntity
  8
0
100
AcDbLine
 10
55.7635
 20
35.25415
 30
0.0
 11
56.701
 21
35.24544999999999
 31
0.0
  0
LINE
  5
1E4
330
1E
100
AcDbEntity
  8
0
100
AcDbLine
 10
56.8731
 20
35.29175
 30
0.0
 11
57.084
 21
35.33305
 31
0.0
  0
LINE
  5
1E5
330
1E
100
AcDbEntity
  8
0
100
AcDbLine
 10
56.8731
 20
35.29175
 30
0.0
 11
56.9503581389063
 21
35.3024833497864
 31
0.0
  0
LINE
  5
1E6
330
1E
100
AcDbEntity
  8
0
100
AcDbLine
 10
56.701
 20
35.24544999999999
 30
0.0
 11
56.8731
 21
35.29175
 31
0.0
  0
LINE
  5
1EA
330
1E
100
AcDbEntity
  8
0
100
AcDbLine
 10
41.093
 20
29.14414999999999
 30
0.0
 11
41.093
 21
30.07045
 31
0.0
  0
LINE
  5
1EB
330
1E
100
AcDbEntity
  8
0
100
AcDbLine
 10
41.093
 20
29.14414999999999
 30
0.0
 11
41.093
 21
32.00905
 31
0.0
  0
LINE
  5
1EC
330
1E
100
AcDbEntity
  8
0
100
AcDbLine
 10
27.157
 20
37.32295
 30
0.0
 11
27.157
 21
36.82095
 31
0.0
  0
LINE
  5
1ED
330
1E
100
AcDbEntity
  8
0
100
AcDbLine
 10
27.157
 20
37.32295
 30
0.0
 11
27.157
 21
37.66194999999999
 31
0.0
  0
LINE
  5
1EE
330
1E
100
AcDbEntity
  8
0
100
AcDbLine
 10
3.797001
 20
37.22294999999999
 30
0.0
 11
4.272
 21
37.69194999999999
 31
0.0
  0
LINE
  5
1EF
330
1E
100
AcDbEntity
  8
0
100
AcDbLine
 10
57.084
 20
35.33305
 30
0.0
 11
59.375
 21
37.40764999999999
 31
0.0
  0
LINE
  5
1F0
330
1E
100
AcDbEntity
  8
0
100
AcDbLine
 10
65.848
 20
27.26364999999999
 30
0.0
 11
65.848
 21
28.84805
 31
0.0
  0
LINE
  5
1F1
330
1E
100
AcDbEntity
  8
0
100
AcDbLine
 10
65.848
 20
27.26364999999999
 30
0.0
 11
65.848
 21
25.67415
 31
0.0
  0
LINE
  5
1F2
330
1E
100
AcDbEntity
  8
0
100
AcDbLine
 10
65.848
 20
30.39855
 30
0.0
 11
65.848
 21
31.88595
 31
0.0
  0
LINE
  5
1F3
330
1E
100
AcDbEntity
  8
0
100
AcDbLine
 10
65.848
 20
30.39855
 30
0.0
 11
65.848
 21
28.84805
 31
0.0
  0
LINE
  5
1F4
330
1E
100
AcDbEntity
  8
0
100
AcDbLine
 10
65.848
 20
37.48364999999999
 30
0.0
 11
65.848
 21
38.07484999999999
 31
0.0
  0
LINE
  5
1F5
330
1E
100
AcDbEntity
  8
0
100
AcDbLine
 10
65.848
 20
37.47365
 30
0.0
 11
65.848
 21
38.07484999999999
 31
0.0
  0
LINE
  5
1F6
330
1E
100
AcDbEntity
  8
0
100
AcDbLine
 10
65.848
 20
37.47365
 30
0.0
 11
65.848
 21
36.67645
 31
0.0
  0
LINE
  5
1F7
330
1E
100
AcDbEntity
  8
0
100
AcDbLine
 10
65.848
 20
36.67645
 30
0.0
 11
65.848
 21
37.47365
 31
0.0
  0
LINE
  5
1F8
330
1E
100
AcDbEntity
  8
0
100
AcDbLine
 10
65.848
 20
36.67645
 30
0.0
 11
65.848
 21
35.70015
 31
0.0
  0
LINE
  5
1F9
330
1E
100
AcDbEntity
  8
0
100
AcDbLine
 10
65.848
 20
35.70015
 30
0.0
 11
65.848
 21
36.67645
 31
0.0
  0
LINE
  5
1FA
330
1E
100
AcDbEntity
  8
0
100
AcDbLine
 10
65.848
 20
35.70015
 30
0.0
 11
65.848
 21
34.56175
 31
0.0
  0
LINE
  5
1FB
330
1E
100
AcDbEntity
  8
0
100
AcDbLine
 10
65.848
 20
34.56175
 30
0.0
 11
65.848
 21
35.70015
 31
0.0
  0
LINE
  5
1FC
330
1E
100
AcDbEntity
  8
0
100
AcDbLine
 10
65.848
 20
34.56175
 30
0.0
 11
65.848
 21
33.28244999999999
 31
0.0
  0
LINE
  5
1FD
330
1E
100
AcDbEntity
  8
0
100
AcDbLine
 10
65.848
 20
33.28244999999999
 30
0.0
 11
65.848
 21
34.56175
 31
0.0
  0
LINE
  5
1FE
330
1E
100
AcDbEntity
  8
0
100
AcDbLine
 10
65.848
 20
33.28244999999999
 30
0.0
 11
65.848
 21
31.88595
 31
0.0
  0
LINE
  5
1FF
330
1E
100
AcDbEntity
  8
0
100
AcDbLine
 10
65.848
 20
31.88595
 30
0.0
 11
65.848
 21
33.28244999999999
 31
0.0
  0
LINE
  5
200
330
1E
100
AcDbEntity
  8
0
100
AcDbLine
 10
65.848
 20
31.88595
 30
0.0
 11
65.848
 21
30.39855
 31
0.0
  0
LINE
  5
201
330
1E
100
AcDbEntity
  8
0
100
AcDbLine
 10
65.848
 20
28.84805
 30
0.0
 11
65.848
 21
30.39855
 31
0.0
  0
LINE
  5
202
330
1E
100
AcDbEntity
  8
0
100
AcDbLine
 10
65.848
 20
28.84805
 30
0.0
 11
65.848
 21
27.26364999999999
 31
0.0
  0
LINE
  5
203
330
1E
100
AcDbEntity
  8
0
100
AcDbLine
 10
59.375
 20
37.40764999999999
 30
0.0
 11
59.75699999999999
 21
37.48364999999999
 31
0.0
  0
LINE
  5
20F
330
1E
100
AcDbEntity
  8
0
100
AcDbLine
 10
5.657
 20
39.56395
 30
0.0
 11
25.15699999999999
 21
39.56395
 31
0.0
  0
LINE
  5
210
330
1E
100
AcDbEntity
  8
0
100
AcDbLine
 10
5.657
 20
38.75995
 30
0.0
 11
25.15699999999999
 21
38.75995
 31
0.0
  0
LINE
  5
211
330
1E
100
AcDbEntity
  8
0
100
AcDbLine
 10
5.657
 20
39.56395
 30
0.0
 11
25.15699999999999
 21
39.56395
 31
0.0
  0
LINE
  5
212
330
1E
100
AcDbEntity
  8
0
100
AcDbLine
 10
25.15699999999999
 20
39.56395
 30
0.0
 11
25.531
 21
39.25895
 31
0.0
  0
LINE
  5
213
330
1E
100
AcDbEntity
  8
0
100
AcDbLine
 10
25.15699999999999
 20
39.56395
 30
0.0
 11
25.15699999999999
 21
39.22494999999999
 31
0.0
  0
LINE
  5
214
330
1E
100
AcDbEntity
  8
0
100
AcDbLine
 10
25.15699999999999
 20
39.22494999999999
 30
0.0
 11
25.15699999999999
 21
39.56395
 31
0.0
  0
LINE
  5
215
330
1E
100
AcDbEntity
  8
0
100
AcDbLine
 10
25.15699999999999
 20
39.22494999999999
 30
0.0
 11
25.15699999999999
 21
38.75995
 31
0.0
  0
LINE
  5
216
330
1E
100
AcDbEntity
  8
0
100
AcDbLine
 10
25.15699999999999
 20
38.75995
 30
0.0
 11
25.46699999999999
 21
38.37595
 31
0.0
  0
LINE
  5
217
330
1E
100
AcDbEntity
  8
0
100
AcDbLine
 10
25.15699999999999
 20
38.75995
 30
0.0
 11
25.15699999999999
 21
39.22494999999999
 31
0.0
  0
LINE
  5
218
330
1E
100
AcDbEntity
  8
0
100
AcDbLine
 10
5.657
 20
38.75995
 30
0.0
 11
25.15699999999999
 21
38.75995
 31
0.0
  0
LINE
  5
219
330
1E
100
AcDbEntity
  8
0
100
AcDbLine
 10
5.366
 20
38.55494999999999
 30
0.0
 11
5.657
 21
38.75995
 31
0.0
  0
LINE
  5
21A
330
1E
100
AcDbEntity
  8
0
100
AcDbLine
 10
25.531
 20
39.25895
 30
0.0
 11
25.781
 21
39.05995
 31
0.0
  0
LINE
  5
21B
330
1E
100
AcDbEntity
  8
0
100
AcDbLine
 10
25.46699999999999
 20
38.37595
 30
0.0
 11
25.713
 21
38.04795
 31
0.0
  0
LINE
  5
21C
330
1E
100
AcDbEntity
  8
0
100
AcDbLine
 10
4.741999999999999
 20
38.08595
 30
0.0
 11
5.366
 21
38.55494999999999
 31
0.0
  0
LINE
  5
21D
330
1E
100
AcDbEntity
  8
0
100
AcDbLine
 10
25.8242171717172
 20
39.0260712121212
 30
0.0
 11
26.01416211293249
 21
38.877693169399
 31
0.0
  0
LINE
  5
21E
330
1E
100
AcDbEntity
  8
0
100
AcDbLine
 10
25.8242171717172
 20
39.0260712121212
 30
0.0
 11
26.01416211293249
 21
38.877693169399
 31
0.0
  0
LINE
  5
21F
330
1E
100
AcDbEntity
  8
0
100
AcDbLine
 10
25.98
 20
38.90395
 30
0.0
 11
26.22199999999999
 21
38.71795
 31
0.0
  0
LINE
  5
220
330
1E
100
AcDbEntity
  8
0
100
AcDbLine
 10
25.781
 20
39.05995
 30
0.0
 11
25.98
 21
38.90395
 31
0.0
  0
LINE
  5
221
330
1E
100
AcDbEntity
  8
0
100
AcDbLine
 10
25.713
 20
38.04795
 30
0.0
 11
26.074
 21
37.50395
 31
0.0
  0
LINE
  5
222
330
1E
100
AcDbEntity
  8
0
100
AcDbLine
 10
4.272
 20
37.69194999999999
 30
0.0
 11
4.741999999999999
 21
38.08595
 31
0.0
  0
LINE
  5
223
330
1E
100
AcDbEntity
  8
0
100
AcDbLine
 10
26.383
 20
38.59695
 30
0.0
 11
26.491
 21
38.51594999999999
 31
0.0
  0
LINE
  5
224
330
1E
100
AcDbEntity
  8
0
100
AcDbLine
 10
26.498
 20
38.51095
 30
0.0
 11
27.157
 21
37.83294999999999
 31
0.0
  0
LINE
  5
225
330
1E
100
AcDbEntity
  8
0
100
AcDbLine
 10
27.157
 20
37.83294999999999
 30
0.0
 11
27.157
 21
37.66194999999999
 31
0.0
  0
LINE
  5
226
330
1E
100
AcDbEntity
  8
0
100
AcDbLine
 10
27.157
 20
37.66194999999999
 30
0.0
 11
27.157
 21
37.32295
 31
0.0
  0
LINE
  5
227
330
1E
100
AcDbEntity
  8
0
100
AcDbLine
 10
27.157
 20
37.66194999999999
 30
0.0
 11
27.157
 21
37.83294999999999
 31
0.0
  0
LINE
  5
228
330
1E
100
AcDbEntity
  8
0
100
AcDbLine
 10
26.22199999999999
 20
38.71795
 30
0.0
 11
26.383
 21
38.59695
 31
0.0
  0
LINE
  5
229
330
1E
100
AcDbEntity
  8
0
100
AcDbLine
 10
26.074
 20
37.50395
 30
0.0
 11
26.272
 21
37.13995
 31
0.0
  0
LINE
  5
22A
330
1E
100
AcDbEntity
  8
0
100
AcDbLine
 10
33.573
 20
43.01225
 30
0.0
 11
34.001
 21
43.01225
 31
0.0
  0
LINE
  5
22C
330
1E
100
AcDbEntity
  8
0
100
AcDbLine
 10
34.001
 20
49.31415
 30
0.0
 11
34.672
 21
49.31415
 31
0.0
  0
LINE
  5
22D
330
1E
100
AcDbEntity
  8
0
100
AcDbLine
 10
33.573
 20
49.31415
 30
0.0
 11
34.001
 21
49.31415
 31
0.0
  0
LINE
  5
22E
330
1E
100
AcDbEntity
  8
0
100
AcDbLine
 10
33.397
 20
49.31415
 30
0.0
 11
33.397
 21
43.01225
 31
0.0
  0
LINE
  5
22F
330
1E
100
AcDbEntity
  8
0
100
AcDbLine
 10
33.397
 20
49.31415
 30
0.0
 11
33.573
 21
49.31415
 31
0.0
  0
LINE
  5
230
330
1E
100
AcDbEntity
  8
0
100
AcDbLine
 10
33.397
 20
49.31415
 30
0.0
 11
34.593
 21
50.51455
 31
0.0
  0
LINE
  5
231
330
1E
100
AcDbEntity
  8
0
100
AcDbLine
 10
33.397
 20
43.01225
 30
0.0
 11
33.397
 21
49.31415
 31
0.0
  0
LINE
  5
232
330
1E
100
AcDbEntity
  8
0
100
AcDbLine
 10
33.397
 20
43.01225
 30
0.0
 11
33.573
 21
43.01225
 31
0.0
  0
LINE
  5
233
330
1E
100
AcDbEntity
  8
0
100
AcDbLine
 10
33.397
 20
43.01225
 30
0.0
 11
34.565
 21
41.84275
 31
0.0
  0
LINE
  5
235
330
1E
100
AcDbEntity
  8
0
100
AcDbLine
 10
34.565
 20
41.84275
 30
0.0
 11
35.3579
 21
41.06175
 31
0.0
  0
LINE
  5
236
330
1E
100
AcDbEntity
  8
0
100
AcDbLine
 10
34.593
 20
50.51455
 30
0.0
 11
34.725
 21
50.51455
 31
0.0
  0
LINE
  5
237
330
1E
100
AcDbEntity
  8
0
100
AcDbLine
 10
34.725
 20
50.51455
 30
0.0
 11
35.106
 21
50.51455
 31
0.0
  0
LINE
  5
238
330
1E
100
AcDbEntity
  8
0
100
AcDbLine
 10
35.106
 20
50.51455
 30
0.0
 11
35.725
 21
50.51455
 31
0.0
  0
LINE
  5
239
330
1E
100
AcDbEntity
  8
0
100
AcDbLine
 10
34.672
 20
49.31415
 30
0.0
 11
35.569
 21
49.31415
 31
0.0
  0
LINE
  5
23A
330
1E
100
AcDbEntity
  8
0
100
AcDbLine
 10
34.672
 20
43.01225
 30
0.0
 11
35.569
 21
43.01225
 31
0.0
  0
LINE
  5
23B
330
1E
100
AcDbEntity
  8
0
100
AcDbLine
 10
34.001
 20
43.01225
 30
0.0
 11
34.672
 21
43.01225
 31
0.0
  0
LINE
  5
23C
330
1E
100
AcDbEntity
  8
0
100
AcDbLine
 10
35.3485
 20
39.66845
 30
0.0
 11
35.3579
 21
41.06175
 31
0.0
  0
LINE
  5
23E
330
1E
100
AcDbEntity
  8
0
100
AcDbLine
 10
35.3485
 20
39.66845
 30
0.0
 11
35.357
 21
36.24425
 31
0.0
  0
LINE
  5
23F
330
1E
100
AcDbEntity
  8
0
100
AcDbLine
 10
52.341
 20
41.06175
 30
0.0
 11
53.121
 21
41.84275
 31
0.0
  0
LINE
  5
241
330
1E
100
AcDbEntity
  8
0
100
AcDbLine
 10
65.848
 20
38.65305
 30
0.0
 11
65.977
 21
39.03014999999999
 31
0.0
  0
LINE
  5
242
330
1E
100
AcDbEntity
  8
0
100
AcDbLine
 10
65.848
 20
38.65305
 30
0.0
 11
65.848
 21
38.47095
 31
0.0
  0
LINE
  5
243
330
1E
100
AcDbEntity
  8
0
100
AcDbLine
 10
65.977
 20
39.03014999999999
 30
0.0
 11
74.03100000000001
 21
52.99335
 31
0.0
  0
LINE
  5
244
330
1E
100
AcDbEntity
  8
0
100
AcDbLine
 10
65.848
 20
38.47095
 30
0.0
 11
65.848
 21
38.65305
 31
0.0
  0
LINE
  5
245
330
1E
100
AcDbEntity
  8
0
100
AcDbLine
 10
65.848
 20
38.47095
 30
0.0
 11
65.848
 21
38.07484999999999
 31
0.0
  0
LINE
  5
246
330
1E
100
AcDbEntity
  8
0
100
AcDbLine
 10
65.848
 20
38.07484999999999
 30
0.0
 11
65.848
 21
38.47095
 31
0.0
  0
LINE
  5
247
330
1E
100
AcDbEntity
  8
0
100
AcDbLine
 10
65.848
 20
38.07484999999999
 30
0.0
 11
65.848
 21
37.47365
 31
0.0
  0
LINE
  5
248
330
1E
100
AcDbEntity
  8
0
100
AcDbLine
 10
65.848
 20
38.07484999999999
 30
0.0
 11
65.848
 21
37.48364999999999
 31
0.0
  0
LINE
  5
249
330
1E
100
AcDbEntity
  8
0
100
AcDbLine
 10
35.44
 20
41.06175
 30
0.0
 11
35.789
 21
41.06175
 31
0.0
  0
LINE
  5
24A
330
1E
100
AcDbEntity
  8
0
100
AcDbLine
 10
37.20499999999999
 20
41.06175
 30
0.0
 11
38.22699999999999
 21
41.06175
 31
0.0
  0
LINE
  5
24B
330
1E
100
AcDbEntity
  8
0
100
AcDbLine
 10
38.22699999999999
 20
41.06175
 30
0.0
 11
39.42099999999999
 21
41.06175
 31
0.0
  0
LINE
  5
24C
330
1E
100
AcDbEntity
  8
0
100
AcDbLine
 10
43.643
 20
41.06175
 30
0.0
 11
45.121
 21
41.06175
 31
0.0
  0
LINE
  5
24D
330
1E
100
AcDbEntity
  8
0
100
AcDbLine
 10
39.42099999999999
 20
41.06175
 30
0.0
 11
40.748
 21
41.06175
 31
0.0
  0
LINE
  5
24E
330
1E
100
AcDbEntity
  8
0
100
AcDbLine
 10
36.384
 20
41.06175
 30
0.0
 11
37.20499999999999
 21
41.06175
 31
0.0
  0
LINE
  5
24F
330
1E
100
AcDbEntity
  8
0
100
AcDbLine
 10
35.789
 20
41.06175
 30
0.0
 11
36.384
 21
41.06175
 31
0.0
  0
LINE
  5
250
330
1E
100
AcDbEntity
  8
0
100
AcDbLine
 10
42.17
 20
41.06175
 30
0.0
 11
43.643
 21
41.06175
 31
0.0
  0
LINE
  5
251
330
1E
100
AcDbEntity
  8
0
100
AcDbLine
 10
49.152
 20
41.06175
 30
0.0
 11
50.224
 21
41.06175
 31
0.0
  0
LINE
  5
252
330
1E
100
AcDbEntity
  8
0
100
AcDbLine
 10
50.224
 20
41.06175
 30
0.0
 11
51.10199999999999
 21
41.06175
 31
0.0
  0
LINE
  5
253
330
1E
100
AcDbEntity
  8
0
100
AcDbLine
 10
47.918
 20
41.06175
 30
0.0
 11
49.152
 21
41.06175
 31
0.0
  0
LINE
  5
254
330
1E
100
AcDbEntity
  8
0
100
AcDbLine
 10
46.56100000000001
 20
41.06175
 30
0.0
 11
47.918
 21
41.06175
 31
0.0
  0
LINE
  5
255
330
1E
100
AcDbEntity
  8
0
100
AcDbLine
 10
45.121
 20
41.06175
 30
0.0
 11
46.56100000000001
 21
41.06175
 31
0.0
  0
LINE
  5
256
330
1E
100
AcDbEntity
  8
0
100
AcDbLine
 10
35.569
 20
49.31415
 30
0.0
 11
36.669
 21
49.31415
 31
0.0
  0
LINE
  5
257
330
1E
100
AcDbEntity
  8
0
100
AcDbLine
 10
45.77399999999999
 20
43.01225
 30
0.0
 11
47.357
 21
43.01225
 31
0.0
  0
LINE
  5
258
330
1E
100
AcDbEntity
  8
0
100
AcDbLine
 10
44.14399999999999
 20
43.01225
 30
0.0
 11
45.77399999999999
 21
43.01225
 31
0.0
  0
LINE
  5
259
330
1E
100
AcDbEntity
  8
0
100
AcDbLine
 10
42.506
 20
43.01225
 30
0.0
 11
44.14399999999999
 21
43.01225
 31
0.0
  0
LINE
  5
25A
330
1E
100
AcDbEntity
  8
0
100
AcDbLine
 10
40.90099999999999
 20
43.01225
 30
0.0
 11
42.506
 21
43.01225
 31
0.0
  0
LINE
  5
25B
330
1E
100
AcDbEntity
  8
0
100
AcDbLine
 10
39.368
 20
43.01225
 30
0.0
 11
40.90099999999999
 21
43.01225
 31
0.0
  0
LINE
  5
25C
330
1E
100
AcDbEntity
  8
0
100
AcDbLine
 10
37.94599999999999
 20
43.01225
 30
0.0
 11
39.368
 21
43.01225
 31
0.0
  0
LINE
  5
25D
330
1E
100
AcDbEntity
  8
0
100
AcDbLine
 10
36.566
 20
50.51455
 30
0.0
 11
37.60499999999999
 21
50.51455
 31
0.0
  0
LINE
  5
25E
330
1E
100
AcDbEntity
  8
0
100
AcDbLine
 10
35.725
 20
50.51455
 30
0.0
 11
36.566
 21
50.51455
 31
0.0
  0
LINE
  5
25F
330
1E
100
AcDbEntity
  8
0
100
AcDbLine
 10
47.357
 20
49.31415
 30
0.0
 11
48.853
 21
49.31415
 31
0.0
  0
LINE
  5
260
330
1E
100
AcDbEntity
  8
0
100
AcDbLine
 10
45.77399999999999
 20
49.31415
 30
0.0
 11
47.357
 21
49.31415
 31
0.0
  0
LINE
  5
261
330
1E
100
AcDbEntity
  8
0
100
AcDbLine
 10
44.14399999999999
 20
49.31415
 30
0.0
 11
45.77399999999999
 21
49.31415
 31
0.0
  0
LINE
  5
262
330
1E
100
AcDbEntity
  8
0
100
AcDbLine
 10
42.506
 20
49.31415
 30
0.0
 11
44.14399999999999
 21
49.31415
 31
0.0
  0
LINE
  5
263
330
1E
100
AcDbEntity
  8
0
100
AcDbLine
 10
40.90099999999999
 20
49.31415
 30
0.0
 11
42.506
 21
49.31415
 31
0.0
  0
LINE
  5
264
330
1E
100
AcDbEntity
  8
0
100
AcDbLine
 10
39.368
 20
49.31415
 30
0.0
 11
40.90099999999999
 21
49.31415
 31
0.0
  0
LINE
  5
265
330
1E
100
AcDbEntity
  8
0
100
AcDbLine
 10
46.14899999999999
 20
50.51455
 30
0.0
 11
47.59199999999999
 21
50.51455
 31
0.0
  0
LINE
  5
266
330
1E
100
AcDbEntity
  8
0
100
AcDbLine
 10
44.643
 20
50.51455
 30
0.0
 11
46.14899999999999
 21
50.51455
 31
0.0
  0
LINE
  5
267
330
1E
100
AcDbEntity
  8
0
100
AcDbLine
 10
43.11600000000001
 20
50.51455
 30
0.0
 11
44.643
 21
50.51455
 31
0.0
  0
LINE
  5
268
330
1E
100
AcDbEntity
  8
0
100
AcDbLine
 10
41.608
 20
50.51455
 30
0.0
 11
43.11600000000001
 21
50.51455
 31
0.0
  0
LINE
  5
269
330
1E
100
AcDbEntity
  8
0
100
AcDbLine
 10
40.161
 20
50.51455
 30
0.0
 11
41.608
 21
50.51455
 31
0.0
  0
LINE
  5
26A
330
1E
100
AcDbEntity
  8
0
100
AcDbLine
 10
37.60499999999999
 20
50.51455
 30
0.0
 11
38.814
 21
50.51455
 31
0.0
  0
LINE
  5
26B
330
1E
100
AcDbEntity
  8
0
100
AcDbLine
 10
37.94599999999999
 20
49.31415
 30
0.0
 11
39.368
 21
49.31415
 31
0.0
  0
LINE
  5
26C
330
1E
100
AcDbEntity
  8
0
100
AcDbLine
 10
36.669
 20
49.31415
 30
0.0
 11
37.94599999999999
 21
49.31415
 31
0.0
  0
LINE
  5
26D
330
1E
100
AcDbEntity
  8
0
100
AcDbLine
 10
36.669
 20
43.01225
 30
0.0
 11
37.94599999999999
 21
43.01225
 31
0.0
  0
LINE
  5
26E
330
1E
100
AcDbEntity
  8
0
100
AcDbLine
 10
35.569
 20
43.01225
 30
0.0
 11
36.669
 21
43.01225
 31
0.0
  0
LINE
  5
26F
330
1E
100
AcDbEntity
  8
0
100
AcDbLine
 10
38.814
 20
50.51455
 30
0.0
 11
40.161
 21
50.51455
 31
0.0
  0
LINE
  5
270
330
1E
100
AcDbEntity
  8
0
100
AcDbLine
 10
50.226
 20
43.01225
 30
0.0
 11
51.442
 21
43.01225
 31
0.0
  0
LINE
  5
271
330
1E
100
AcDbEntity
  8
0
100
AcDbLine
 10
47.59199999999999
 20
50.51455
 30
0.0
 11
48.93299999999999
 21
50.51455
 31
0.0
  0
LINE
  5
272
330
1E
100
AcDbEntity
  8
0
100
AcDbLine
 10
50.135
 20
50.51455
 30
0.0
 11
51.165
 21
50.51455
 31
0.0
  0
LINE
  5
273
330
1E
100
AcDbEntity
  8
0
100
AcDbLine
 10
48.93299999999999
 20
50.51455
 30
0.0
 11
50.135
 21
50.51455
 31
0.0
  0
LINE
  5
274
330
1E
100
AcDbEntity
  8
0
100
AcDbLine
 10
50.226
 20
49.31415
 30
0.0
 11
51.442
 21
49.31415
 31
0.0
  0
LINE
  5
275
330
1E
100
AcDbEntity
  8
0
100
AcDbLine
 10
48.853
 20
49.31415
 30
0.0
 11
50.226
 21
49.31415
 31
0.0
  0
LINE
  5
276
330
1E
100
AcDbEntity
  8
0
100
AcDbLine
 10
48.853
 20
43.01225
 30
0.0
 11
50.226
 21
43.01225
 31
0.0
  0
LINE
  5
277
330
1E
100
AcDbEntity
  8
0
100
AcDbLine
 10
47.357
 20
43.01225
 30
0.0
 11
48.853
 21
43.01225
 31
0.0
  0
LINE
  5
278
330
1E
100
AcDbEntity
  8
0
100
AcDbLine
 10
40.748
 20
41.06175
 30
0.0
 11
42.17
 21
41.06175
 31
0.0
  0
LINE
  5
279
330
1E
100
AcDbEntity
  8
0
100
AcDbLine
 10
51.21100000000001
 20
50.51455
 30
0.0
 11
51.527
 21
50.51455
 31
0.0
  0
LINE
  5
27A
330
1E
100
AcDbEntity
  8
0
100
AcDbLine
 10
51.442
 20
49.31415
 30
0.0
 11
52.46999999999999
 21
49.31415
 31
0.0
  0
LINE
  5
27B
330
1E
100
AcDbEntity
  8
0
100
AcDbLine
 10
53.121
 20
41.84275
 30
0.0
 11
54.27389999999999
 21
43.01225
 31
0.0
  0
LINE
  5
27D
330
1E
100
AcDbEntity
  8
0
100
AcDbLine
 10
51.76
 20
41.06175
 30
0.0
 11
52.177
 21
41.06175
 31
0.0
  0
LINE
  5
27E
330
1E
100
AcDbEntity
  8
0
100
AcDbLine
 10
54.207
 20
43.01225
 30
0.0
 11
54.27389999999999
 21
43.01225
 31
0.0
  0
LINE
  5
27F
330
1E
100
AcDbEntity
  8
0
100
AcDbLine
 10
54.27389999999999
 20
43.01225
 30
0.0
 11
54.27389999999999
 21
49.31415
 31
0.0
  0
LINE
  5
280
330
1E
100
AcDbEntity
  8
0
100
AcDbLine
 10
53.87
 20
43.01225
 30
0.0
 11
54.207
 21
43.01225
 31
0.0
  0
LINE
  5
281
330
1E
100
AcDbEntity
  8
0
100
AcDbLine
 10
53.287
 20
43.01225
 30
0.0
 11
53.87
 21
43.01225
 31
0.0
  0
LINE
  5
282
330
1E
100
AcDbEntity
  8
0
100
AcDbLine
 10
51.996
 20
50.51455
 30
0.0
 11
52.604
 21
50.51455
 31
0.0
  0
LINE
  5
283
330
1E
100
AcDbEntity
  8
0
100
AcDbLine
 10
54.27389999999999
 20
49.31415
 30
0.0
 11
54.27389999999999
 21
43.01225
 31
0.0
  0
LINE
  5
284
330
1E
100
AcDbEntity
  8
0
100
AcDbLine
 10
54.207
 20
49.31415
 30
0.0
 11
54.27389999999999
 21
49.31415
 31
0.0
  0
LINE
  5
285
330
1E
100
AcDbEntity
  8
0
100
AcDbLine
 10
53.87
 20
49.31415
 30
0.0
 11
54.207
 21
49.31415
 31
0.0
  0
LINE
  5
286
330
1E
100
AcDbEntity
  8
0
100
AcDbLine
 10
52.604
 20
50.51455
 30
0.0
 11
52.97299999999999
 21
50.51455
 31
0.0
  0
LINE
  5
287
330
1E
100
AcDbEntity
  8
0
100
AcDbLine
 10
53.0901
 20
50.51455
 30
0.0
 11
54.27389999999999
 21
49.31415
 31
0.0
  0
LINE
  5
288
330
1E
100
AcDbEntity
  8
0
100
AcDbLine
 10
52.97299999999999
 20
50.51455
 30
0.0
 11
53.0901
 21
50.51455
 31
0.0
  0
LINE
  5
289
330
1E
100
AcDbEntity
  8
0
100
AcDbLine
 10
53.287
 20
49.31415
 30
0.0
 11
53.87
 21
49.31415
 31
0.0
  0
LINE
  5
28A
330
1E
100
AcDbEntity
  8
0
100
AcDbLine
 10
52.46999999999999
 20
49.31415
 30
0.0
 11
53.287
 21
49.31415
 31
0.0
  0
LINE
  5
28B
330
1E
100
AcDbEntity
  8
0
100
AcDbLine
 10
52.46999999999999
 20
43.01225
 30
0.0
 11
53.287
 21
43.01225
 31
0.0
  0
LINE
  5
28C
330
1E
100
AcDbEntity
  8
0
100
AcDbLine
 10
51.442
 20
43.01225
 30
0.0
 11
52.46999999999999
 21
43.01225
 31
0.0
  0
LINE
  5
28D
330
1E
100
AcDbEntity
  8
0
100
AcDbLine
 10
74.03100000000001
 20
52.99335
 30
0.0
 11
74.47700000000001
 21
53.52454999999999
 31
0.0
  0
LINE
  5
28E
330
1E
100
AcDbEntity
  8
0
100
AcDbLine
 10
51.165
 20
50.51455
 30
0.0
 11
51.996
 21
50.51455
 31
0.0
  0
LINE
  5
28F
330
1E
100
AcDbEntity
  8
0
100
AcDbLine
 10
51.10199999999999
 20
41.06175
 30
0.0
 11
51.76
 21
41.06175
 31
0.0
  0
LINE
  5
290
330
1E
100
AcDbEntity
  8
0
100
AcDbLine
 10
52.177
 20
41.06175
 30
0.0
 11
52.341
 21
41.06175
 31
0.0
  0
LINE
  5
293
330
1E
100
AcDbEntity
  8
0
100
AcDbLine
 10
35.3579
 20
41.06175
 30
0.0
 11
35.44
 21
41.06175
 31
0.0
  0
LINE
  5
294
330
1E
100
AcDbEntity
  8
0
100
AcDbLine
 10
59.75699999999999
 20
37.48364999999999
 30
0.0
 11
65.848
 21
37.48364999999999
 31
0.0
  0
LINE
  5
297
330
1E
100
AcDbEntity
  8
0
100
AcDbLine
 10
78.843
 20
0.0075500000000058
 30
0.0
 11
78.843
 21
0.191605000000006
 31
0.0
  0
LINE
  5
298
330
1E
100
AcDbEntity
  8
0
100
AcDbLine
 10
75.763
 20
0.007550000000006
 30
0.0
 11
78.843
 21
0.0075500000000058
 31
0.0
  0
LINE
  5
299
330
1E
100
AcDbEntity
  8
0
100
AcDbLine
 10
74.47700000000001
 20
53.52454999999999
 30
0.0
 11
75.07899999999999
 21
53.87215
 31
0.0
  0
LINE
  5
29A
330
1E
100
AcDbEntity
  8
0
100
AcDbLine
 10
78.843
 20
53.64245
 30
0.0
 11
78.843
 21
53.94754999999999
 31
0.0
  0
LINE
  5
29B
330
1E
100
AcDbEntity
  8
0
100
AcDbLine
 10
78.843
 20
53.09625
 30
0.0
 11
78.843
 21
53.64245
 31
0.0
  0
LINE
  5
29C
330
1E
100
AcDbEntity
  8
0
100
AcDbLine
 10
78.843
 20
52.31405
 30
0.0
 11
78.843
 21
53.09625
 31
0.0
  0
LINE
  5
29D
330
1E
100
AcDbEntity
  8
0
100
AcDbLine
 10
78.843
 20
51.30375
 30
0.0
 11
78.843
 21
52.31405
 31
0.0
  0
LINE
  5
29E
330
1E
100
AcDbEntity
  8
0
100
AcDbLine
 10
78.843
 20
50.07235
 30
0.0
 11
78.843
 21
51.30375
 31
0.0
  0
LINE
  5
29F
330
1E
100
AcDbEntity
  8
0
100
AcDbLine
 10
78.843
 20
48.63195000000001
 30
0.0
 11
78.843
 21
50.07235
 31
0.0
  0
LINE
  5
2A0
330
1E
100
AcDbEntity
  8
0
100
AcDbLine
 10
78.843
 20
46.99645
 30
0.0
 11
78.843
 21
48.63195000000001
 31
0.0
  0
LINE
  5
2A1
330
1E
100
AcDbEntity
  8
0
100
AcDbLine
 10
78.843
 20
45.17895
 30
0.0
 11
78.843
 21
46.99645
 31
0.0
  0
LINE
  5
2A2
330
1E
100
AcDbEntity
  8
0
100
AcDbLine
 10
78.843
 20
43.19735
 30
0.0
 11
78.843
 21
45.17895
 31
0.0
  0
LINE
  5
2A3
330
1E
100
AcDbEntity
  8
0
100
AcDbLine
 10
78.843
 20
41.06875
 30
0.0
 11
78.843
 21
43.19735
 31
0.0
  0
LINE
  5
2A4
330
1E
100
AcDbEntity
  8
0
100
AcDbLine
 10
78.843
 20
38.81405
 30
0.0
 11
78.843
 21
41.06875
 31
0.0
  0
LINE
  5
2A5
330
1E
100
AcDbEntity
  8
0
100
AcDbLine
 10
78.843
 20
36.45134999999999
 30
0.0
 11
78.843
 21
38.81405
 31
0.0
  0
LINE
  5
2A6
330
1E
100
AcDbEntity
  8
0
100
AcDbLine
 10
78.843
 20
34.00265
 30
0.0
 11
78.843
 21
36.45134999999999
 31
0.0
  0
LINE
  5
2A7
330
1E
100
AcDbEntity
  8
0
100
AcDbLine
 10
78.843
 20
31.49185
 30
0.0
 11
78.843
 21
34.00265
 31
0.0
  0
LINE
  5
2A8
330
1E
100
AcDbEntity
  8
0
100
AcDbLine
 10
78.843
 20
28.93915
 30
0.0
 11
78.843
 21
31.49185
 31
0.0
  0
LINE
  5
2A9
330
1E
100
AcDbEntity
  8
0
100
AcDbLine
 10
78.843
 20
26.37035
 30
0.0
 11
78.843
 21
28.93915
 31
0.0
  0
LINE
  5
2AA
330
1E
100
AcDbEntity
  8
0
100
AcDbLine
 10
78.843
 20
23.80665
 30
0.0
 11
78.843
 21
26.37035
 31
0.0
  0
LINE
  5
2AB
330
1E
100
AcDbEntity
  8
0
100
AcDbLine
 10
78.843
 20
21.27185
 30
0.0
 11
78.843
 21
23.80665
 31
0.0
  0
LINE
  5
2AC
330
1E
100
AcDbEntity
  8
0
100
AcDbLine
 10
78.843
 20
18.78915
 30
0.0
 11
78.843
 21
21.27185
 31
0.0
  0
LINE
  5
2AD
330
1E
100
AcDbEntity
  8
0
100
AcDbLine
 10
78.843
 20
16.38044999999999
 30
0.0
 11
78.843
 21
18.78915
 31
0.0
  0
LINE
  5
2AE
330
1E
100
AcDbEntity
  8
0
100
AcDbLine
 10
78.843
 20
14.06875
 30
0.0
 11
78.843
 21
16.38044999999999
 31
0.0
  0
LINE
  5
2AF
330
1E
100
AcDbEntity
  8
0
100
AcDbLine
 10
78.843
 20
11.87405
 30
0.0
 11
78.843
 21
14.06875
 31
0.0
  0
LINE
  5
2B0
330
1E
100
AcDbEntity
  8
0
100
AcDbLine
 10
78.843
 20
9.816460000000009
 30
0.0
 11
78.843
 21
11.87405
 31
0.0
  0
LINE
  5
2B1
330
1E
100
AcDbEntity
  8
0
100
AcDbLine
 10
78.843
 20
7.913890000000009
 30
0.0
 11
78.843
 21
9.816460000000009
 31
0.0
  0
LINE
  5
2B2
330
1E
100
AcDbEntity
  8
0
100
AcDbLine
 10
78.843
 20
6.184380000000009
 30
0.0
 11
78.843
 21
7.913890000000009
 31
0.0
  0
LINE
  5
2B3
330
1E
100
AcDbEntity
  8
0
100
AcDbLine
 10
78.843
 20
4.643920000000009
 30
0.0
 11
78.843
 21
6.184380000000009
 31
0.0
  0
LINE
  5
2B4
330
1E
100
AcDbEntity
  8
0
100
AcDbLine
 10
78.843
 20
3.305530000000009
 30
0.0
 11
78.843
 21
4.643920000000009
 31
0.0
  0
LINE
  5
2B5
330
1E
100
AcDbEntity
  8
0
100
AcDbLine
 10
78.843
 20
2.18219000000001
 30
0.0
 11
78.843
 21
3.305530000000009
 31
0.0
  0
LINE
  5
2B6
330
1E
100
AcDbEntity
  8
0
100
AcDbLine
 10
78.843
 20
1.28393000000001
 30
0.0
 11
78.843
 21
2.18219000000001
 31
0.0
  0
LINE
  5
2B7
330
1E
100
AcDbEntity
  8
0
100
AcDbLine
 10
78.843
 20
0.6177310000000059
 30
0.0
 11
78.843
 21
1.28393000000001
 31
0.0
  0
LINE
  5
2B8
330
1E
100
AcDbEntity
  8
0
100
AcDbLine
 10
78.843
 20
0.191605000000006
 30
0.0
 11
78.843
 21
0.6177310000000059
 31
0.0
  0
LINE
  5
2B9
330
1E
100
AcDbEntity
  8
0
100
AcDbLine
 10
75.763
 20
53.99245
 30
0.0
 11
78.843
 21
53.99245
 31
0.0
  0
LINE
  5
2BA
330
1E
100
AcDbEntity
  8
0
100
AcDbLine
 10
75.07899999999999
 20
53.87215
 30
0.0
 11
75.763
 21
53.99245
 31
0.0
  0
LINE
  5
2BB
330
1E
100
AcDbEntity
  8
0
100
AcDbLine
 10
74.47700000000001
 20
0.4756890000000061
 30
0.0
 11
75.07899999999999
 21
0.127586000000006
 31
0.0
  0
LINE
  5
2BC
330
1E
100
AcDbEntity
  8
0
100
AcDbLine
 10
74.47700000000001
 20
0.4756890000000061
 30
0.0
 11
75.07899999999999
 21
0.127586000000006
 31
0.0
  0
LINE
  5
2BD
330
1E
100
AcDbEntity
  8
0
100
AcDbLine
 10
75.07899999999999
 20
0.127586000000006
 30
0.0
 11
75.763
 21
0.007550000000006
 31
0.0
  0
LINE
  5
2BE
330
1E
100
AcDbEntity
  8
0
100
AcDbLine
 10
75.07899999999999
 20
0.127586000000006
 30
0.0
 11
75.763
 21
0.007550000000006
 31
0.0
  0
LINE
  5
2C4
330
1E
100
AcDbEntity
  8
0
100
AcDbLine
 10
41.093
 20
29.14414999999999
 30
0.0
 11
41.093
 21
24.87095
 31
0.0
  0
LINE
  5
2C5
330
1E
100
AcDbEntity
  8
0
100
AcDbLine
 10
46.593
 20
29.14414999999999
 30
0.0
 11
46.593
 21
24.87095
 31
0.0
  0
LINE
  5
2C6
330
1E
100
AcDbEntity
  8
0
100
AcDbLine
 10
41.143
 20
21.69494999999999
 30
0.0
 11
41.093
 21
22.00604999999999
 31
0.0
  0
LINE
  5
2C7
330
1E
100
AcDbEntity
  8
0
100
AcDbLine
 10
45.976
 20
21.08175
 30
0.0
 11
46.29999999999999
 21
21.29885
 31
0.0
  0
LINE
  5
2C8
330
1E
100
AcDbEntity
  8
0
100
AcDbLine
 10
46.51699999999999
 20
21.62294999999999
 30
0.0
 11
46.593
 21
22.00604999999999
 31
0.0
  0
LINE
  5
2CA
330
1E
100
AcDbEntity
  8
0
100
AcDbLine
 10
42.093
 20
33.01254512977001
 30
0.0
 11
45.593
 21
33.01254512977001
 31
0.0
  0
LINE
  5
2CB
330
1E
100
AcDbEntity
  8
0
100
AcDbLine
 10
41.143
 20
32.32334512977002
 30
0.0
 11
41.093
 21
32.01224512977002
 31
0.0
  0
LINE
  5
2CC
330
1E
100
AcDbEntity
  8
0
100
AcDbLine
 10
41.71
 20
32.93654512977001
 30
0.0
 11
42.093
 21
33.01254512977001
 31
0.0
  0
LINE
  5
2CD
330
1E
100
AcDbEntity
  8
0
100
AcDbLine
 10
41.386
 20
32.71944512977001
 30
0.0
 11
41.71
 21
32.93654512977001
 31
0.0
  0
LINE
  5
2CE
330
1E
100
AcDbEntity
  8
0
100
AcDbLine
 10
41.143
 20
32.32334512977002
 30
0.0
 11
41.169
 21
32.39534512977002
 31
0.0
  0
LINE
  5
2CF
330
1E
100
AcDbEntity
  8
0
100
AcDbLine
 10
41.169
 20
32.39534512977002
 30
0.0
 11
41.291
 21
32.60944512977001
 31
0.0
  0
LINE
  5
2D0
330
1E
100
AcDbEntity
  8
0
100
AcDbLine
 10
41.291
 20
32.60944512977001
 30
0.0
 11
41.386
 21
32.71944512977001
 31
0.0
  0
LINE
  5
2D2
330
1E
100
AcDbEntity
  8
0
100
AcDbLine
 10
46.29999999999999
 20
32.71944512977001
 30
0.0
 11
46.51699999999999
 21
32.39534512977002
 31
0.0
  0
LINE
  5
2D3
330
1E
100
AcDbEntity
  8
0
100
AcDbLine
 10
45.976
 20
32.93654512977001
 30
0.0
 11
46.29999999999999
 21
32.71944512977001
 31
0.0
  0
LINE
  5
2D4
330
1E
100
AcDbEntity
  8
0
100
AcDbLine
 10
45.593
 20
33.01254512977001
 30
0.0
 11
45.976
 21
32.93654512977001
 31
0.0
  0
LINE
  5
2D5
330
1E
100
AcDbEntity
  8
0
100
AcDbLine
 10
25.15699999999999
 20
14.44395
 30
0.0
 11
27.157
 21
16.17494999999999
 31
0.0
  0
LINE
  5
2D6
330
1E
100
AcDbEntity
  8
0
100
AcDbLine
 10
3.611001
 20
17.01195
 30
0.0
 11
3.499001
 21
18.09795
 31
0.0
  0
LINE
  5
2D7
330
1E
100
AcDbEntity
  8
0
100
AcDbLine
 10
3.499001
 20
24.17194999999999
 30
0.0
 11
3.611001
 21
22.46294999999999
 31
0.0
  0
LINE
  5
2D8
330
1E
100
AcDbEntity
  8
0
100
AcDbLine
 10
3.499001
 20
31.32695
 30
0.0
 11
3.413001
 21
30.02995
 31
0.0
  0
LINE
  5
2D9
330
1E
100
AcDbEntity
  8
0
100
AcDbLine
 10
3.499001
 20
36.83095
 30
0.0
 11
3.611001
 21
35.82395
 31
0.0
  0
LINE
  5
2DA
330
1E
100
AcDbEntity
  8
0
100
AcDbLine
 10
0.6569999999999979
 20
36.96695
 30
0.0
 11
5.657
 21
39.56395
 31
0.0
  0
LINE
  5
2DB
330
1E
100
AcDbEntity
  8
0
100
AcDbLine
 10
56.701
 20
18.75714999999999
 30
0.0
 11
59.375
 21
16.62235
 31
0.0
  0
ENDSEC
  0
SECTION
  2
OBJECTS
  0
DICTIONARY
  5
C
330
0
100
AcDbDictionary
281
     1
  3
ACAD_GROUP
350
D
  3
ACAD_LAYOUT
350
19
  3
ACAD_MLINESTYLE
350
16
  3
ACAD_PLOTSETTINGS
350
18
  3
ACAD_PLOTSTYLENAME
350
E
  3
AcDbVariableDictionary
350
2DD
  0
DICTIONARY
  5
D
102
{ACAD_REACTORS
330
C
102
}
330
C
100
AcDbDictionary
281
     1
  0
DICTIONARY
  5
19
102
{ACAD_REACTORS
330
C
102
}
330
C
100
AcDbDictionary
281
     1
  3
Layout1
350
1D
  3
Model
350
21
  0
DICTIONARY
  5
16
102
{ACAD_REACTORS
330
C
102
}
330
C
100
AcDbDictionary
281
     1
  3
Standard
350
17
  0
DICTIONARY
  5
18
102
{ACAD_REACTORS
330
C
102
}
330
C
100
AcDbDictionary
281
     1
  0
ACDBDICTIONARYWDFLT
  5
E
102
{ACAD_REACTORS
330
C
102
}
330
C
100
AcDbDictionary
281
     1
  3
Normal
350
F
100
AcDbDictionaryWithDefault
340
F
  0
DICTIONARY
  5
2DD
102
{ACAD_REACTORS
330
C
102
}
330
C
100
AcDbDictionary
281
     1
  3
DIMASSOC
350
2DE
  0
LAYOUT
  5
1D
102
{ACAD_REACTORS
330
19
102
}
330
19
100
AcDbPlotSettings
  1

  2
C:\Programme\AutoCAD LT 2002 Deu\plotters\DWF ePlot (optimized for plotting).pc3
  4

  6

 40
0.0
 41
0.0
 42
0.0
 43
0.0
 44
0.0
 45
0.0
 46
0.0
 47
0.0
 48
0.0
 49
0.0
140
0.0
141
0.0
142
1.0
143
1.0
 70
   688
 72
     0
 73
     0
 74
     5
  7

 75
    16
147
1.0
148
0.0
149
0.0
100
AcDbLayout
  1
Layout1
 70
     1
 71
     1
 10
0.0
 20
0.0
 11
12.0
 21
9.0
 12
0.0
 22
0.0
 32
0.0
 14
1.000000000000000E+20
 24
1.000000000000000E+20
 34
1.000000000000000E+20
 15
-1.000000000000000E+20
 25
-1.000000000000000E+20
 35
-1.000000000000000E+20
146
0.0
 13
0.0
 23
0.0
 33
0.0
 16
1.0
 26
0.0
 36
0.0
 17
0.0
 27
1.0
 37
0.0
 76
     0
330
1A
  0
LAYOUT
  5
21
102
{ACAD_REACTORS
330
19
102
}
330
19
100
AcDbPlotSettings
  1

  2
C:\Programme\AutoCAD LT 2002 Deu\plotters\DWF ePlot (optimized for plotting).pc3
  4

  6

 40
0.0
 41
0.0
 42
0.0
 43
0.0
 44
0.0
 45
0.0
 46
0.0
 47
0.0
 48
0.0
 49
0.0
140
0.0
141
0.0
142
1.0
143
1.0
 70
  1712
 72
     0
 73
     0
 74
     0
  7

 75
     0
147
1.0
148
0.0
149
0.0
100
AcDbLayout
  1
Model
 70
     1
 71
     0
 10
0.0
 20
0.0
 11
12.0
 21
9.0
 12
0.0
 22
0.0
 32
0.0
 14
0.0
 24
0.0
 34
0.0
 15
0.0
 25
0.0
 35
0.0
146
0.0
 13
0.0
 23
0.0
 33
0.0
 16
1.0
 26
0.0
 36
0.0
 17
0.0
 27
1.0
 37
0.0
 76
     0
330
1E
  0
MLINESTYLE
  5
17
102
{ACAD_REACTORS
330
16
102
}
330
16
100
AcDbMlineStyle
  2
STANDARD
 70
     0
  3

 62
   256
 51
90.0
 52
90.0
 71
     2
 49
0.5
 62
   256
  6
BYLAYER
 49
-0.5
 62
   256
  6
BYLAYER
  0
ACDBPLACEHOLDER
  5
F
102
{ACAD_REACTORS
330
E
102
}
330
E
  0
DICTIONARYVAR
  5
2DE
102
{ACAD_REACTORS
330
2DD
102
}
330
2DD
100
DictionaryVariables
280
     0
  1
1
  0
ENDSEC
  0
EOF
