  0
SECTION
  2
HEADER
  9
$ACADVER
  1
AC1015
  9
$ACADMAINTVER
 70
    13
  9
$DWGCODEPAGE
  3
ANSI_1252
  9
$INSBASE
 10
0.0
 20
0.0
 30
0.0
  9
$EXTMIN
 10
0.138945000000007
 20
-0.000000000000004
 30
0.0
  9
$EXTMAX
 10
261.8610549999999
 20
215.0
 30
0.0
  9
$LIMMIN
 10
0.0
 20
0.0
  9
$LIMMAX
 10
12.0
 20
9.0
  9
$ORTHOMODE
 70
     0
  9
$REGENMODE
 70
     1
  9
$FILLMODE
 70
     1
  9
$QTEXTMODE
 70
     0
  9
$MIRRTEXT
 70
     1
  9
$LTSCALE
 40
1.0
  9
$ATTMODE
 70
     1
  9
$TEXTSIZE
 40
0.2
  9
$TRACEWID
 40
0.05
  9
$TEXTSTYLE
  7
Standard
  9
$CLAYER
  8
0
  9
$CELTYPE
  6
Continuous
  9
$CECOLOR
 62
   256
  9
$CELTSCALE
 40
1.0
  9
$DISPSILH
 70
     0
  9
$DIMSCALE
 40
1.0
  9
$DIMASZ
 40
0.18
  9
$DIMEXO
 40
0.0625
  9
$DIMDLI
 40
0.38
  9
$DIMRND
 40
0.0
  9
$DIMDLE
 40
0.0
  9
$DIMEXE
 40
0.18
  9
$DIMTP
 40
0.0
  9
$DIMTM
 40
0.0
  9
$DIMTXT
 40
0.18
  9
$DIMCEN
 40
0.09
  9
$DIMTSZ
 40
0.0
  9
$DIMTOL
 70
     0
  9
$DIMLIM
 70
     0
  9
$DIMTIH
 70
     1
  9
$DIMTOH
 70
     1
  9
$DIMSE1
 70
     0
  9
$DIMSE2
 70
     0
  9
$DIMTAD
 70
     0
  9
$DIMZIN
 70
     0
  9
$DIMBLK
  1

  9
$DIMASO
 70
     1
  9
$DIMSHO
 70
     1
  9
$DIMPOST
  1

  9
$DIMAPOST
  1

  9
$DIMALT
 70
     0
  9
$DIMALTD
 70
     2
  9
$DIMALTF
 40
25.4
  9
$DIMLFAC
 40
1.0
  9
$DIMTOFL
 70
     0
  9
$DIMTVP
 40
0.0
  9
$DIMTIX
 70
     0
  9
$DIMSOXD
 70
     0
  9
$DIMSAH
 70
     0
  9
$DIMBLK1
  1

  9
$DIMBLK2
  1

  9
$DIMSTYLE
  2
Standard
  9
$DIMCLRD
 70
     0
  9
$DIMCLRE
 70
     0
  9
$DIMCLRT
 70
     0
  9
$DIMTFAC
 40
1.0
  9
$DIMGAP
 40
0.09
  9
$DIMJUST
 70
     0
  9
$DIMSD1
 70
     0
  9
$DIMSD2
 70
     0
  9
$DIMTOLJ
 70
     1
  9
$DIMTZIN
 70
     0
  9
$DIMALTZ
 70
     0
  9
$DIMALTTZ
 70
     0
  9
$DIMUPT
 70
     0
  9
$DIMDEC
 70
     4
  9
$DIMTDEC
 70
     4
  9
$DIMALTU
 70
     2
  9
$DIMALTTD
 70
     2
  9
$DIMTXSTY
  7
Standard
  9
$DIMAUNIT
 70
     0
  9
$DIMADEC
 70
     0
  9
$DIMALTRND
 40
0.0
  9
$DIMAZIN
 70
     0
  9
$DIMDSEP
 70
    46
  9
$DIMATFIT
 70
     3
  9
$DIMFRAC
 70
     0
  9
$DIMLDRBLK
  1

  9
$DIMLUNIT
 70
     2
  9
$DIMLWD
 70
    -2
  9
$DIMLWE
 70
    -2
  9
$DIMTMOVE
 70
     0
  9
$LUNITS
 70
     2
  9
$LUPREC
 70
     4
  9
$SKETCHINC
 40
0.1
  9
$FILLETRAD
 40
0.0
  9
$AUNITS
 70
     0
  9
$AUPREC
 70
     0
  9
$MENU
  1
.
  9
$ELEVATION
 40
0.0
  9
$PELEVATION
 40
0.0
  9
$THICKNESS
 40
0.0
  9
$LIMCHECK
 70
     0
  9
$CHAMFERA
 40
0.0
  9
$CHAMFERB
 40
0.0
  9
$CHAMFERC
 40
0.0
  9
$CHAMFERD
 40
0.0
  9
$SKPOLY
 70
     0
  9
$TDCREATE
 40
2455646.465161307
  9
$TDUCREATE
 40
2455646.423494641
  9
$TDUPDATE
 40
2455646.466318900
  9
$TDUUPDATE
 40
2455646.424652234
  9
$TDINDWG
 40
0.0011577662
  9
$TDUSRTIMER
 40
0.0011577662
  9
$USRTIMER
 70
     1
  9
$ANGBASE
 50
0.0
  9
$ANGDIR
 70
     0
  9
$PDMODE
 70
     0
  9
$PDSIZE
 40
0.0
  9
$PLINEWID
 40
0.0
  9
$SPLFRAME
 70
     0
  9
$SPLINETYPE
 70
     6
  9
$SPLINESEGS
 70
     8
  9
$HANDSEED
  5
11E
  9
$SURFTAB1
 70
     6
  9
$SURFTAB2
 70
     6
  9
$SURFTYPE
 70
     6
  9
$SURFU
 70
     6
  9
$SURFV
 70
     6
  9
$UCSBASE
  2

  9
$UCSNAME
  2

  9
$UCSORG
 10
0.0
 20
0.0
 30
0.0
  9
$UCSXDIR
 10
1.0
 20
0.0
 30
0.0
  9
$UCSYDIR
 10
0.0
 20
1.0
 30
0.0
  9
$UCSORTHOREF
  2

  9
$UCSORTHOVIEW
 70
     1
  9
$UCSORGTOP
 10
0.0
 20
0.0
 30
0.0
  9
$UCSORGBOTTOM
 10
0.0
 20
0.0
 30
0.0
  9
$UCSORGLEFT
 10
0.0
 20
0.0
 30
0.0
  9
$UCSORGRIGHT
 10
0.0
 20
0.0
 30
0.0
  9
$UCSORGFRONT
 10
0.0
 20
0.0
 30
0.0
  9
$UCSORGBACK
 10
0.0
 20
0.0
 30
0.0
  9
$PUCSBASE
  2

  9
$PUCSNAME
  2

  9
$PUCSORG
 10
0.0
 20
0.0
 30
0.0
  9
$PUCSXDIR
 10
1.0
 20
0.0
 30
0.0
  9
$PUCSYDIR
 10
0.0
 20
1.0
 30
0.0
  9
$PUCSORTHOREF
  2

  9
$PUCSORTHOVIEW
 70
     0
  9
$PUCSORGTOP
 10
0.0
 20
0.0
 30
0.0
  9
$PUCSORGBOTTOM
 10
0.0
 20
0.0
 30
0.0
  9
$PUCSORGLEFT
 10
0.0
 20
0.0
 30
0.0
  9
$PUCSORGRIGHT
 10
0.0
 20
0.0
 30
0.0
  9
$PUCSORGFRONT
 10
0.0
 20
0.0
 30
0.0
  9
$PUCSORGBACK
 10
0.0
 20
0.0
 30
0.0
  9
$USERI1
 70
     0
  9
$USERI2
 70
     0
  9
$USERI3
 70
     0
  9
$USERI4
 70
     0
  9
$USERI5
 70
     0
  9
$USERR1
 40
0.0
  9
$USERR2
 40
0.0
  9
$USERR3
 40
0.0
  9
$USERR4
 40
0.0
  9
$USERR5
 40
0.0
  9
$WORLDVIEW
 70
     1
  9
$SHADEDGE
 70
     3
  9
$SHADEDIF
 70
    70
  9
$TILEMODE
 70
     1
  9
$MAXACTVP
 70
    64
  9
$PINSBASE
 10
0.0
 20
0.0
 30
0.0
  9
$PLIMCHECK
 70
     0
  9
$PEXTMIN
 10
1.000000000000000E+20
 20
1.000000000000000E+20
 30
1.000000000000000E+20
  9
$PEXTMAX
 10
-1.000000000000000E+20
 20
-1.000000000000000E+20
 30
-1.000000000000000E+20
  9
$PLIMMIN
 10
0.0
 20
0.0
  9
$PLIMMAX
 10
12.0
 20
9.0
  9
$UNITMODE
 70
     0
  9
$VISRETAIN
 70
     1
  9
$PLINEGEN
 70
     0
  9
$PSLTSCALE
 70
     1
  9
$TREEDEPTH
 70
  3020
  9
$CMLSTYLE
  2
Standard
  9
$CMLJUST
 70
     0
  9
$CMLSCALE
 40
1.0
  9
$PROXYGRAPHICS
 70
     1
  9
$MEASUREMENT
 70
     0
  9
$CELWEIGHT
370
    -1
  9
$ENDCAPS
280
     0
  9
$JOINSTYLE
280
     0
  9
$LWDISPLAY
290
     0
  9
$INSUNITS
 70
     0
  9
$HYPERLINKBASE
  1

  9
$STYLESHEET
  1

  9
$XEDIT
290
     1
  9
$CEPSNTYPE
380
     0
  9
$PSTYLEMODE
290
     1
  9
$FINGERPRINTGUID
  2
{FEC24302-BD18-40FA-BD0C-1637F7540291}
  9
$VERSIONGUID
  2
{FCB86763-91B7-40DE-B8C4-10ECA83A65C3}
  9
$EXTNAMES
290
     1
  9
$PSVPSCALE
 40
0.0
  9
$OLESTARTUP
290
     0
  0
ENDSEC
  0
SECTION
  2
CLASSES
  0
CLASS
  1
ACDBDICTIONARYWDFLT
  2
AcDbDictionaryWithDefault
  3
AutoCAD 2000
 90
        0
280
     0
281
     0
  0
CLASS
  1
ACDBPLACEHOLDER
  2
AcDbPlaceHolder
  3
AutoCAD 2000
 90
        0
280
     0
281
     0
  0
CLASS
  1
LAYOUT
  2
AcDbLayout
  3
AutoCAD 2000
 90
        0
280
     0
281
     0
  0
CLASS
  1
DICTIONARYVAR
  2
AcDbDictionaryVar
  3
AutoCAD 2000
 90
        0
280
     0
281
     0
  0
ENDSEC
  0
SECTION
  2
TABLES
  0
TABLE
  2
VPORT
  5
8
330
0
100
AcDbSymbolTable
 70
     3
  0
VPORT
  5
11D
330
8
100
AcDbSymbolTableRecord
100
AcDbViewportTableRecord
  2
*Active
 70
     0
 10
0.0
 20
0.0
 11
1.0
 21
1.0
 12
130.9999999999999
 22
107.4999999999999
 13
0.0
 23
0.0
 14
1.0
 24
1.0
 15
0.0
 25
0.0
 16
0.0
 26
0.0
 36
1.0
 17
0.0
 27
0.0
 37
0.0
 40
216.4543404735062
 41
2.073363431151241
 42
50.0
 43
0.0
 44
0.0
 50
0.0
 51
0.0
 71
     0
 72
   100
 73
     1
 74
     3
 75
     0
 76
     0
 77
     0
 78
     0
281
     0
 65
     1
110
0.0
120
0.0
130
0.0
111
1.0
121
0.0
131
0.0
112
0.0
122
1.0
132
0.0
 79
     1
146
0.0
  0
ENDTAB
  0
TABLE
  2
LTYPE
  5
5
330
0
100
AcDbSymbolTable
 70
     1
  0
LTYPE
  5
13
330
5
100
AcDbSymbolTableRecord
100
AcDbLinetypeTableRecord
  2
ByBlock
 70
     0
  3

 72
    65
 73
     0
 40
0.0
  0
LTYPE
  5
14
330
5
100
AcDbSymbolTableRecord
100
AcDbLinetypeTableRecord
  2
ByLayer
 70
     0
  3

 72
    65
 73
     0
 40
0.0
  0
LTYPE
  5
15
330
5
100
AcDbSymbolTableRecord
100
AcDbLinetypeTableRecord
  2
Continuous
 70
     0
  3
Solid line
 72
    65
 73
     0
 40
0.0
  0
ENDTAB
  0
TABLE
  2
LAYER
  5
2
330
0
100
AcDbSymbolTable
 70
     1
  0
LAYER
  5
10
330
2
100
AcDbSymbolTableRecord
100
AcDbLayerTableRecord
  2
0
 70
     0
 62
     7
  6
Continuous
370
    -3
390
F
  0
ENDTAB
  0
TABLE
  2
STYLE
  5
3
330
0
100
AcDbSymbolTable
 70
     1
  0
STYLE
  5
11
330
3
100
AcDbSymbolTableRecord
100
AcDbTextStyleTableRecord
  2
Standard
 70
     0
 40
0.0
 41
1.0
 50
0.0
 71
     0
 42
0.2
  3
txt
  4

  0
ENDTAB
  0
TABLE
  2
VIEW
  5
6
330
0
100
AcDbSymbolTable
 70
     0
  0
ENDTAB
  0
TABLE
  2
UCS
  5
7
330
0
100
AcDbSymbolTable
 70
     0
  0
ENDTAB
  0
TABLE
  2
APPID
  5
9
330
0
100
AcDbSymbolTable
 70
     1
  0
APPID
  5
12
330
9
100
AcDbSymbolTableRecord
100
AcDbRegAppTableRecord
  2
ACAD
 70
     0
  0
ENDTAB
  0
TABLE
  2
DIMSTYLE
  5
A
330
0
100
AcDbSymbolTable
 70
     1
100
AcDbDimStyleTable
 71
     0
  0
DIMSTYLE
105
111
330
A
100
AcDbSymbolTableRecord
100
AcDbDimStyleTableRecord
  2
Standard
 70
     0
340
11
  0
ENDTAB
  0
TABLE
  2
BLOCK_RECORD
  5
1
330
0
100
AcDbSymbolTable
 70
     0
  0
BLOCK_RECORD
  5
1E
330
1
100
AcDbSymbolTableRecord
100
AcDbBlockTableRecord
  2
*Model_Space
340
21
  0
BLOCK_RECORD
  5
1A
330
1
100
AcDbSymbolTableRecord
100
AcDbBlockTableRecord
  2
*Paper_Space
340
1D
  0
ENDTAB
  0
ENDSEC
  0
SECTION
  2
BLOCKS
  0
BLOCK
  5
1F
330
1E
100
AcDbEntity
  8
0
100
AcDbBlockBegin
  2
*Model_Space
 70
     0
 10
0.0
 20
0.0
 30
0.0
  3
*Model_Space
  1

  0
ENDBLK
  5
20
330
1E
100
AcDbEntity
  8
0
100
AcDbBlockEnd
  0
BLOCK
  5
1B
330
1A
100
AcDbEntity
 67
     1
  8
0
100
AcDbBlockBegin
  2
*Paper_Space
 70
     0
 10
0.0
 20
0.0
 30
0.0
  3
*Paper_Space
  1

  0
ENDBLK
  5
1C
330
1A
100
AcDbEntity
 67
     1
  8
0
100
AcDbBlockEnd
  0
ENDSEC
  0
SECTION
  2
ENTITIES
  0
LINE
  5
22
330
1E
100
AcDbEntity
  8
0
100
AcDbLine
 10
2.218202000000009
 20
154.9799999999999
 30
0.0
 11
2.649945000000009
 21
154.9649999999999
 31
0.0
  0
LINE
  5
23
330
1E
100
AcDbEntity
  8
0
100
AcDbLine
 10
2.649945000000009
 20
154.9649999999999
 30
0.0
 11
3.801255000000009
 21
154.925
 31
0.0
  0
LINE
  5
24
330
1E
100
AcDbEntity
  8
0
100
AcDbLine
 10
3.801255000000009
 20
154.925
 30
0.0
 11
5.672135000000009
 21
154.86
 31
0.0
  0
LINE
  5
25
330
1E
100
AcDbEntity
  8
0
100
AcDbLine
 10
5.672135000000009
 20
154.86
 30
0.0
 11
8.11867500000001
 21
154.776
 31
0.0
  0
LINE
  5
26
330
1E
100
AcDbEntity
  8
0
100
AcDbLine
 10
8.11867500000001
 20
154.776
 30
0.0
 11
10.901015
 21
154.679
 31
0.0
  0
LINE
  5
27
330
1E
100
AcDbEntity
  8
0
100
AcDbLine
 10
191.922055
 20
117.561
 30
0.0
 11
210.8610549999999
 21
109.2788913881459
 31
0.0
  0
LINE
  5
28
330
1E
100
AcDbEntity
  8
0
100
AcDbLine
 10
164.423055
 20
128.2889999999999
 30
0.0
 11
191.922055
 21
117.561
 31
0.0
  0
LINE
  5
29
330
1E
100
AcDbEntity
  8
0
100
AcDbLine
 10
132.649055
 20
138.336
 30
0.0
 11
164.423055
 21
128.2889999999999
 31
0.0
  0
LINE
  5
2A
330
1E
100
AcDbEntity
  8
0
100
AcDbLine
 10
103.5450549999999
 20
146.2189999999999
 30
0.0
 11
132.649055
 21
138.336
 31
0.0
  0
LINE
  5
2B
330
1E
100
AcDbEntity
  8
0
100
AcDbLine
 10
79.098555
 20
152.38
 30
0.0
 11
103.5450549999999
 21
146.2189999999999
 31
0.0
  0
LINE
  5
2C
330
1E
100
AcDbEntity
  8
0
100
AcDbLine
 10
25.628255
 20
154.1699999999999
 30
0.0
 11
25.93675499999999
 21
154.7599999999999
 31
0.0
  0
LINE
  5
2D
330
1E
100
AcDbEntity
  8
0
100
AcDbLine
 10
25.196455
 20
154.185
 30
0.0
 11
25.628255
 21
154.1699999999999
 31
0.0
  0
LINE
  5
2E
330
1E
100
AcDbEntity
  8
0
100
AcDbLine
 10
24.045155
 20
154.2249999999999
 30
0.0
 11
25.196455
 21
154.185
 31
0.0
  0
LINE
  5
2F
330
1E
100
AcDbEntity
  8
0
100
AcDbLine
 10
22.174255
 20
154.2889999999999
 30
0.0
 11
24.045155
 21
154.2249999999999
 31
0.0
  0
LINE
  5
30
330
1E
100
AcDbEntity
  8
0
100
AcDbLine
 10
19.727755
 20
154.3739999999999
 30
0.0
 11
22.174255
 21
154.2889999999999
 31
0.0
  0
LINE
  5
31
330
1E
100
AcDbEntity
  8
0
100
AcDbLine
 10
16.94535499999999
 20
154.4699999999999
 30
0.0
 11
19.727755
 21
154.3739999999999
 31
0.0
  0
LINE
  5
32
330
1E
100
AcDbEntity
  8
0
100
AcDbLine
 10
13.923255
 20
154.5749999999999
 30
0.0
 11
16.94535499999999
 21
154.4699999999999
 31
0.0
  0
LINE
  5
33
330
1E
100
AcDbEntity
  8
0
100
AcDbLine
 10
25.93675499999999
 20
154.7599999999999
 30
0.0
 11
26.0888321275803
 21
159.157083830375
 31
0.0
  0
LINE
  5
34
330
1E
100
AcDbEntity
  8
0
100
AcDbLine
 10
10.901015
 20
154.679
 30
0.0
 11
13.923255
 21
154.5749999999999
 31
0.0
  0
LINE
  5
35
330
1E
100
AcDbEntity
  8
0
100
AcDbLine
 10
54.506355
 20
156.6899999999999
 30
0.0
 11
79.098555
 21
152.38
 31
0.0
  0
LINE
  5
36
330
1E
100
AcDbEntity
  8
0
100
AcDbLine
 10
1.951111000000009
 20
155.5889999999999
 30
0.0
 11
2.10317838206738
 21
159.986500190909
 31
0.0
  0
LINE
  5
37
330
1E
100
AcDbEntity
  8
0
100
AcDbLine
 10
1.951111000000009
 20
155.5889999999999
 30
0.0
 11
2.218202000000009
 21
154.9799999999999
 31
0.0
  0
LINE
  5
38
330
1E
100
AcDbEntity
  8
0
100
AcDbLine
 10
210.8610549999999
 20
109.2788913881459
 30
0.0
 11
210.8610549999999
 21
0.0
 31
0.0
  0
LINE
  5
39
330
1E
100
AcDbEntity
  8
0
100
AcDbLine
 10
0.6386430000000071
 20
161.0379999999999
 30
0.0
 11
2.037806000000009
 21
160.989
 31
0.0
  0
LINE
  5
3A
330
1E
100
AcDbEntity
  8
0
100
AcDbLine
 10
0.6386430000000071
 20
161.0379999999999
 30
0.0
 11
2.037806000000009
 21
160.989
 31
0.0
  0
LINE
  5
3B
330
1E
100
AcDbEntity
  8
0
100
AcDbLine
 10
0.7264950000000079
 20
178.0449999999999
 30
0.0
 11
1.260759000000009
 21
179.027
 31
0.0
  0
LINE
  5
3C
330
1E
100
AcDbEntity
  8
0
100
AcDbLine
 10
0.6919330000000072
 20
177.0459999999999
 30
0.0
 11
0.7264950000000079
 21
178.0449999999999
 31
0.0
  0
LINE
  5
3D
330
1E
100
AcDbEntity
  8
0
100
AcDbLine
 10
0.138945000000007
 20
161.055
 30
0.0
 11
1.10378200000001
 21
160.021
 31
0.0
  0
LINE
  5
3E
330
1E
100
AcDbEntity
  8
0
100
AcDbLine
 10
0.138945000000007
 20
161.055
 30
0.0
 11
0.6919330000000072
 21
177.0459999999999
 31
0.0
  0
LINE
  5
3F
330
1E
100
AcDbEntity
  8
0
100
AcDbLine
 10
0.138945000000007
 20
161.055
 30
0.0
 11
0.6386430000000071
 21
161.0379999999999
 31
0.0
  0
LINE
  5
40
330
1E
100
AcDbEntity
  8
0
100
AcDbLine
 10
2.802765000000009
 20
159.962
 30
0.0
 11
4.901515000000009
 21
159.8899999999999
 31
0.0
  0
LINE
  5
41
330
1E
100
AcDbEntity
  8
0
100
AcDbLine
 10
4.901515000000009
 20
159.8899999999999
 30
0.0
 11
7.599895000000009
 21
159.796
 31
0.0
  0
LINE
  5
42
330
1E
100
AcDbEntity
  8
0
100
AcDbLine
 10
7.599895000000009
 20
159.796
 30
0.0
 11
10.797985
 21
159.686
 31
0.0
  0
LINE
  5
43
330
1E
100
AcDbEntity
  8
0
100
AcDbLine
 10
23.29055499999999
 20
159.2539999999999
 30
0.0
 11
25.38925499999999
 21
159.181
 31
0.0
  0
LINE
  5
44
330
1E
100
AcDbEntity
  8
0
100
AcDbLine
 10
25.38925499999999
 20
159.181
 30
0.0
 11
26.588555
 21
159.1399999999999
 31
0.0
  0
LINE
  5
45
330
1E
100
AcDbEntity
  8
0
100
AcDbLine
 10
20.592155
 20
159.347
 30
0.0
 11
23.29055499999999
 21
159.2539999999999
 31
0.0
  0
LINE
  5
46
330
1E
100
AcDbEntity
  8
0
100
AcDbLine
 10
17.39405499999999
 20
159.458
 30
0.0
 11
20.592155
 21
159.347
 31
0.0
  0
LINE
  5
47
330
1E
100
AcDbEntity
  8
0
100
AcDbLine
 10
14.09605499999999
 20
159.572
 30
0.0
 11
17.39405499999999
 21
159.458
 31
0.0
  0
LINE
  5
48
330
1E
100
AcDbEntity
  8
0
100
AcDbLine
 10
10.797985
 20
159.686
 30
0.0
 11
14.09605499999999
 21
159.572
 31
0.0
  0
LINE
  5
49
330
1E
100
AcDbEntity
  8
0
100
AcDbLine
 10
26.0888321275803
 20
159.157083830375
 30
0.0
 11
26.588555
 21
159.1399999999999
 31
0.0
  0
LINE
  5
4A
330
1E
100
AcDbEntity
  8
0
100
AcDbLine
 10
32.076655
 20
159.6009999999999
 30
0.0
 11
54.506355
 21
156.6899999999999
 31
0.0
  0
LINE
  5
4B
330
1E
100
AcDbEntity
  8
0
100
AcDbLine
 10
27.088255
 20
159.122
 30
0.0
 11
28.07329808051449
 21
160.041310031621
 31
0.0
  0
LINE
  5
4C
330
1E
100
AcDbEntity
  8
0
100
AcDbLine
 10
26.588555
 20
159.1399999999999
 30
0.0
 11
27.088255
 21
159.122
 31
0.0
  0
LINE
  5
4D
330
1E
100
AcDbEntity
  8
0
100
AcDbLine
 10
24.02465499999999
 20
160.2289999999999
 30
0.0
 11
26.223355
 21
160.1529999999999
 31
0.0
  0
LINE
  5
4E
330
1E
100
AcDbEntity
  8
0
100
AcDbLine
 10
26.223355
 20
160.1529999999999
 30
0.0
 11
27.622555
 21
160.1049999999999
 31
0.0
  0
LINE
  5
4F
330
1E
100
AcDbEntity
  8
0
100
AcDbLine
 10
27.622555
 20
160.1049999999999
 30
0.0
 11
28.122255
 21
160.087
 31
0.0
  0
LINE
  5
50
330
1E
100
AcDbEntity
  8
0
100
AcDbLine
 10
21.126355
 20
160.329
 30
0.0
 11
24.02465499999999
 21
160.2289999999999
 31
0.0
  0
LINE
  5
51
330
1E
100
AcDbEntity
  8
0
100
AcDbLine
 10
17.728455
 20
160.447
 30
0.0
 11
21.126355
 21
160.329
 31
0.0
  0
LINE
  5
52
330
1E
100
AcDbEntity
  8
0
100
AcDbLine
 10
14.130555
 20
160.571
 30
0.0
 11
17.728455
 21
160.447
 31
0.0
  0
LINE
  5
53
330
1E
100
AcDbEntity
  8
0
100
AcDbLine
 10
2.037806000000009
 20
160.989
 30
0.0
 11
4.236495000000009
 21
160.9129999999999
 31
0.0
  0
LINE
  5
54
330
1E
100
AcDbEntity
  8
0
100
AcDbLine
 10
4.236495000000009
 20
160.9129999999999
 30
0.0
 11
7.134755000000009
 21
160.8129999999999
 31
0.0
  0
LINE
  5
58
330
1E
100
AcDbEntity
  8
0
100
AcDbLine
 10
7.134755000000009
 20
160.8129999999999
 30
0.0
 11
10.532725
 21
160.6959999999999
 31
0.0
  0
LINE
  5
59
330
1E
100
AcDbEntity
  8
0
100
AcDbLine
 10
10.532725
 20
160.6959999999999
 30
0.0
 11
14.130555
 21
160.571
 31
0.0
  0
LINE
  5
5A
330
1E
100
AcDbEntity
  8
0
100
AcDbLine
 10
210.1830549999999
 20
166.3409999999999
 30
0.0
 11
210.4370675896969
 21
166.366133340116
 31
0.0
  0
LINE
  5
5B
330
1E
100
AcDbEntity
  8
0
100
AcDbLine
 10
209.920163352145
 20
168.998923250556
 30
0.0
 11
209.9860549999999
 21
168.3309999999999
 31
0.0
  0
LINE
  5
5C
330
1E
100
AcDbEntity
  8
0
100
AcDbLine
 10
209.920163352145
 20
168.998923250556
 30
0.0
 11
209.9860549999999
 21
168.3309999999999
 31
0.0
  0
LINE
  5
5D
330
1E
100
AcDbEntity
  8
0
100
AcDbLine
 10
209.7890549999999
 20
170.321
 30
0.0
 11
209.7960549999999
 21
170.25
 31
0.0
  0
LINE
  5
5E
330
1E
100
AcDbEntity
  8
0
100
AcDbLine
 10
209.7890549999999
 20
170.321
 30
0.0
 11
209.9931209631869
 21
170.3412015048979
 31
0.0
  0
LINE
  5
5F
330
1E
100
AcDbEntity
  8
0
100
AcDbLine
 10
209.7960549999999
 20
170.25
 30
0.0
 11
209.8150549999999
 21
170.059
 31
0.0
  0
LINE
  5
60
330
1E
100
AcDbEntity
  8
0
100
AcDbLine
 10
209.8150549999999
 20
170.059
 30
0.0
 11
209.847055
 21
169.74
 31
0.0
  0
LINE
  5
61
330
1E
100
AcDbEntity
  8
0
100
AcDbLine
 10
209.847055
 20
169.74
 30
0.0
 11
209.8880549999999
 21
169.3179999999999
 31
0.0
  0
LINE
  5
62
330
1E
100
AcDbEntity
  8
0
100
AcDbLine
 10
209.8880549999999
 20
169.3179999999999
 30
0.0
 11
209.9860549999999
 21
168.3309999999999
 31
0.0
  0
LINE
  5
63
330
1E
100
AcDbEntity
  8
0
100
AcDbLine
 10
209.8880549999999
 20
169.3179999999999
 30
0.0
 11
209.9360549999999
 21
168.8409999999999
 31
0.0
  0
LINE
  5
64
330
1E
100
AcDbEntity
  8
0
100
AcDbLine
 10
210.1760549999999
 20
166.412
 30
0.0
 11
210.1830549999999
 21
166.3409999999999
 31
0.0
  0
LINE
  5
65
330
1E
100
AcDbEntity
  8
0
100
AcDbLine
 10
210.1570549999999
 20
166.604
 30
0.0
 11
210.1760549999999
 21
166.412
 31
0.0
  0
LINE
  5
66
330
1E
100
AcDbEntity
  8
0
100
AcDbLine
 10
210.1260549999999
 20
166.9219999999999
 30
0.0
 11
210.1570549999999
 21
166.604
 31
0.0
  0
LINE
  5
67
330
1E
100
AcDbEntity
  8
0
100
AcDbLine
 10
210.084055
 20
167.344
 30
0.0
 11
210.1260549999999
 21
166.9219999999999
 31
0.0
  0
LINE
  5
68
330
1E
100
AcDbEntity
  8
0
100
AcDbLine
 10
210.037055
 20
167.822
 30
0.0
 11
210.084055
 21
167.344
 31
0.0
  0
LINE
  5
69
330
1E
100
AcDbEntity
  8
0
100
AcDbLine
 10
209.9860549999999
 20
168.3309999999999
 30
0.0
 11
210.037055
 21
167.822
 31
0.0
  0
LINE
  5
6A
330
1E
100
AcDbEntity
  8
0
100
AcDbLine
 10
209.9360549999999
 20
168.8409999999999
 30
0.0
 11
209.9860549999999
 21
168.3309999999999
 31
0.0
  0
LINE
  5
6B
330
1E
100
AcDbEntity
  8
0
100
AcDbLine
 10
210.418467274574
 20
166.364292927218
 30
0.0
 11
211.1480549999999
 21
160.0
 31
0.0
  0
LINE
  5
6C
330
1E
100
AcDbEntity
  8
0
100
AcDbLine
 10
107.697055
 20
165.7829999999999
 30
0.0
 11
137.651055
 21
157.701
 31
0.0
  0
LINE
  5
6D
330
1E
100
AcDbEntity
  8
0
100
AcDbLine
 10
28.0520443068806
 20
160.0436476322719
 30
0.0
 11
32.076655
 21
159.6009999999999
 31
0.0
  0
LINE
  5
6E
330
1E
100
AcDbEntity
  8
0
100
AcDbLine
 10
13.15735499999999
 20
181.617
 30
0.0
 11
13.45725499999999
 21
181.607
 31
0.0
  0
LINE
  5
6F
330
1E
100
AcDbEntity
  8
0
100
AcDbLine
 10
13.85695499999999
 20
181.5929999999999
 30
0.0
 11
14.35665499999999
 21
181.576
 31
0.0
  0
LINE
  5
70
330
1E
100
AcDbEntity
  8
0
100
AcDbLine
 10
121.861055
 20
214.155
 30
0.0
 11
122.062055
 21
214.8979999999999
 31
0.0
  0
LINE
  5
71
330
1E
100
AcDbEntity
  8
0
100
AcDbLine
 10
121.861055
 20
214.155
 30
0.0
 11
122.395055
 21
213.194
 31
0.0
  0
LINE
  5
77
330
1E
100
AcDbEntity
  8
0
100
AcDbLine
 10
133.966055
 20
209.958
 30
0.0
 11
141.382055
 21
208.711
 31
0.0
  0
LINE
  5
79
330
1E
100
AcDbEntity
  8
0
100
AcDbLine
 10
127.3180549999999
 20
211.2809999999999
 30
0.0
 11
133.966055
 21
209.958
 31
0.0
  0
LINE
  5
7A
330
1E
100
AcDbEntity
  8
0
100
AcDbLine
 10
124.043055
 20
212.304
 30
0.0
 11
127.3180549999999
 21
211.2809999999999
 31
0.0
  0
LINE
  5
85
330
1E
100
AcDbEntity
  8
0
100
AcDbLine
 10
123.207055
 20
214.982
 30
0.0
 11
123.431055
 21
214.961
 31
0.0
  0
LINE
  5
86
330
1E
100
AcDbEntity
  8
0
100
AcDbLine
 10
123.431055
 20
214.961
 30
0.0
 11
123.991055
 21
214.908
 31
0.0
  0
LINE
  5
87
330
1E
100
AcDbEntity
  8
0
100
AcDbLine
 10
123.991055
 20
214.908
 30
0.0
 11
124.775055
 21
214.833
 31
0.0
  0
LINE
  5
88
330
1E
100
AcDbEntity
  8
0
100
AcDbLine
 10
124.775055
 20
214.833
 30
0.0
 11
125.895055
 21
214.727
 31
0.0
  0
LINE
  5
89
330
1E
100
AcDbEntity
  8
0
100
AcDbLine
 10
125.895055
 20
214.727
 30
0.0
 11
127.463055
 21
214.579
 31
0.0
  0
LINE
  5
8F
330
1E
100
AcDbEntity
  8
0
100
AcDbLine
 10
129.144055
 20
214.419
 30
0.0
 11
131.160055
 21
214.2279999999999
 31
0.0
  0
LINE
  5
91
330
1E
100
AcDbEntity
  8
0
100
AcDbLine
 10
131.160055
 20
214.2279999999999
 30
0.0
 11
140.793055
 21
213.315
 31
0.0
  0
LINE
  5
92
330
1E
100
AcDbEntity
  8
0
100
AcDbLine
 10
140.793055
 20
213.315
 30
0.0
 11
143.3670549999999
 21
213.072
 31
0.0
  0
LINE
  5
93
330
1E
100
AcDbEntity
  8
0
100
AcDbLine
 10
127.463055
 20
214.579
 30
0.0
 11
129.144055
 21
214.419
 31
0.0
  0
LINE
  5
94
330
1E
100
AcDbEntity
  8
0
100
AcDbLine
 10
122.395055
 20
213.194
 30
0.0
 11
124.043055
 21
212.304
 31
0.0
  0
LINE
  5
95
330
1E
100
AcDbEntity
  8
0
100
AcDbLine
 10
206.2120549999999
 20
194.374
 30
0.0
 11
206.988055
 21
193.178
 31
0.0
  0
LINE
  5
96
330
1E
100
AcDbEntity
  8
0
100
AcDbLine
 10
143.3670549999999
 20
213.072
 30
0.0
 11
236.2020549999999
 21
198.8979999999999
 31
0.0
  0
LINE
  5
98
330
1E
100
AcDbEntity
  8
0
100
AcDbLine
 10
204.080055
 20
196.192
 30
0.0
 11
205.184055
 21
195.377
 31
0.0
  0
LINE
  5
99
330
1E
100
AcDbEntity
  8
0
100
AcDbLine
 10
202.7680549999999
 20
196.9379999999999
 30
0.0
 11
204.080055
 21
196.192
 31
0.0
  0
LINE
  5
9A
330
1E
100
AcDbEntity
  8
0
100
AcDbLine
 10
201.034055
 20
197.7829999999999
 30
0.0
 11
202.7680549999999
 21
196.9379999999999
 31
0.0
  0
LINE
  5
9B
330
1E
100
AcDbEntity
  8
0
100
AcDbLine
 10
198.967055
 20
198.442
 30
0.0
 11
201.034055
 21
197.7829999999999
 31
0.0
  0
LINE
  5
9C
330
1E
100
AcDbEntity
  8
0
100
AcDbLine
 10
196.217055
 20
199.0679999999999
 30
0.0
 11
198.967055
 21
198.442
 31
0.0
  0
LINE
  5
9D
330
1E
100
AcDbEntity
  8
0
100
AcDbLine
 10
193.535055
 20
199.6279999999999
 30
0.0
 11
196.217055
 21
199.0679999999999
 31
0.0
  0
LINE
  5
9E
330
1E
100
AcDbEntity
  8
0
100
AcDbLine
 10
205.184055
 20
195.377
 30
0.0
 11
206.2120549999999
 21
194.374
 31
0.0
  0
LINE
  5
9F
330
1E
100
AcDbEntity
  8
0
100
AcDbLine
 10
141.382055
 20
208.711
 30
0.0
 11
193.535055
 21
199.6279999999999
 31
0.0
  0
LINE
  5
A0
330
1E
100
AcDbEntity
  8
0
100
AcDbLine
 10
206.988055
 20
193.178
 30
0.0
 11
207.5000549999999
 21
191.8219999999999
 31
0.0
  0
LINE
  5
A2
330
1E
100
AcDbEntity
  8
0
100
AcDbLine
 10
207.5000549999999
 20
191.8219999999999
 30
0.0
 11
209.9636169759989
 21
170.332013925376
 31
0.0
  0
LINE
  5
A3
330
1E
100
AcDbEntity
  8
0
100
AcDbLine
 10
122.415055
 20
215.0
 30
0.0
 11
123.207055
 21
214.982
 31
0.0
  0
LINE
  5
A4
330
1E
100
AcDbEntity
  8
0
100
AcDbLine
 10
122.062055
 20
214.8979999999999
 30
0.0
 11
122.415055
 21
215.0
 31
0.0
  0
LINE
  5
A6
330
1E
100
AcDbEntity
  8
0
100
AcDbLine
 10
12.857555
 20
181.6279999999999
 30
0.0
 11
14.85635499999999
 21
181.559
 31
0.0
  0
LINE
  5
A7
330
1E
100
AcDbEntity
  8
0
100
AcDbLine
 10
7.843275000000009
 20
181.301
 30
0.0
 11
12.857555
 21
181.6279999999999
 31
0.0
  0
LINE
  5
A8
330
1E
100
AcDbEntity
  8
0
100
AcDbLine
 10
2.794425000000009
 20
179.9749999999999
 30
0.0
 11
7.843275000000009
 21
181.301
 31
0.0
  0
LINE
  5
A9
330
1E
100
AcDbEntity
  8
0
100
AcDbLine
 10
1.260759000000009
 20
179.027
 30
0.0
 11
2.794425000000009
 21
179.9749999999999
 31
0.0
  0
LINE
  5
AA
330
1E
100
AcDbEntity
  8
0
100
AcDbLine
 10
1.60348300000001
 20
160.0039999999999
 30
0.0
 11
2.10317838206738
 21
159.986500190909
 31
0.0
  0
LINE
  5
AB
330
1E
100
AcDbEntity
  8
0
100
AcDbLine
 10
1.60348300000001
 20
160.0039999999999
 30
0.0
 11
2.802765000000009
 21
159.962
 31
0.0
  0
LINE
  5
AC
330
1E
100
AcDbEntity
  8
0
100
AcDbLine
 10
1.10378200000001
 20
160.021
 30
0.0
 11
1.60348300000001
 21
160.0039999999999
 31
0.0
  0
LINE
  5
AD
330
1E
100
AcDbEntity
  8
0
100
AcDbLine
 10
210.8610549999999
 20
157.4
 30
0.0
 11
211.4730549999999
 21
158.0
 31
0.0
  0
LINE
  5
AE
330
1E
100
AcDbEntity
  8
0
100
AcDbLine
 10
210.8610549999999
 20
157.4
 30
0.0
 11
210.8610549999999
 21
130.830482925944
 31
0.0
  0
LINE
  5
AF
330
1E
100
AcDbEntity
  8
0
100
AcDbLine
 10
210.8610549999999
 20
157.4
 30
0.0
 11
211.7790549999999
 21
157.4
 31
0.0
  0
LINE
  5
B0
330
1E
100
AcDbEntity
  8
0
100
AcDbLine
 10
211.1480549999999
 20
160.0
 30
0.0
 11
211.454055
 21
160.0
 31
0.0
  0
LINE
  5
B1
330
1E
100
AcDbEntity
  8
0
100
AcDbLine
 10
211.454055
 20
160.0
 30
0.0
 11
211.861055
 21
160.0
 31
0.0
  0
LINE
  5
B2
330
1E
100
AcDbEntity
  8
0
100
AcDbLine
 10
211.454055
 20
160.0
 30
0.0
 11
212.0660549999999
 21
160.0
 31
0.0
  0
LINE
  5
B3
330
1E
100
AcDbEntity
  8
0
100
AcDbLine
 10
211.4730549999999
 20
158.0
 30
0.0
 11
212.391055
 21
158.0
 31
0.0
  0
LINE
  5
B4
330
1E
100
AcDbEntity
  8
0
100
AcDbLine
 10
211.7790549999999
 20
157.4
 30
0.0
 11
214.2270549999999
 21
157.4
 31
0.0
  0
LINE
  5
B5
330
1E
100
AcDbEntity
  8
0
100
AcDbLine
 10
210.8610549999999
 20
130.830482925944
 30
0.0
 11
210.8610549999999
 21
157.4
 31
0.0
  0
LINE
  5
B6
330
1E
100
AcDbEntity
  8
0
100
AcDbLine
 10
210.8610549999999
 20
-0.0000000000000009
 30
0.0
 11
211.7790549999999
 21
-0.0000000000000009
 31
0.0
  0
LINE
  5
B7
330
1E
100
AcDbEntity
  8
0
100
AcDbLine
 10
210.8610549999999
 20
-0.0000000000000009
 30
0.0
 11
210.8610549999999
 21
109.2788913881459
 31
0.0
  0
LINE
  5
B8
330
1E
100
AcDbEntity
  8
0
100
AcDbLine
 10
218.307055
 20
157.4
 30
0.0
 11
223.7130549999999
 21
157.4
 31
0.0
  0
LINE
  5
B9
330
1E
100
AcDbEntity
  8
0
100
AcDbLine
 10
211.861055
 20
158.0
 30
0.0
 11
211.861055
 21
160.0
 31
0.0
  0
LINE
  5
BA
330
1E
100
AcDbEntity
  8
0
100
AcDbLine
 10
211.861055
 20
160.0
 30
0.0
 11
211.861055
 21
158.0
 31
0.0
  0
LINE
  5
BB
330
1E
100
AcDbEntity
  8
0
100
AcDbLine
 10
213.1880549999999
 20
160.0
 30
0.0
 11
214.5140549999999
 21
160.0
 31
0.0
  0
LINE
  5
BC
330
1E
100
AcDbEntity
  8
0
100
AcDbLine
 10
212.0660549999999
 20
160.0
 30
0.0
 11
213.1880549999999
 21
160.0
 31
0.0
  0
LINE
  5
BE
330
1E
100
AcDbEntity
  8
0
100
AcDbLine
 10
214.5140549999999
 20
160.0
 30
0.0
 11
216.4520549999999
 21
160.0
 31
0.0
  0
LINE
  5
BF
330
1E
100
AcDbEntity
  8
0
100
AcDbLine
 10
212.391055
 20
158.0
 30
0.0
 11
214.8390549999999
 21
158.0
 31
0.0
  0
LINE
  5
C0
330
1E
100
AcDbEntity
  8
0
100
AcDbLine
 10
216.4520549999999
 20
160.0
 30
0.0
 11
218.6960549999999
 21
160.0
 31
0.0
  0
LINE
  5
C1
330
1E
100
AcDbEntity
  8
0
100
AcDbLine
 10
214.8390549999999
 20
158.0
 30
0.0
 11
218.8170549999999
 21
158.0
 31
0.0
  0
LINE
  5
C2
330
1E
100
AcDbEntity
  8
0
100
AcDbLine
 10
214.2270549999999
 20
157.4
 30
0.0
 11
218.307055
 21
157.4
 31
0.0
  0
LINE
  5
C3
330
1E
100
AcDbEntity
  8
0
100
AcDbLine
 10
211.7790549999999
 20
-0.0000000000000009
 30
0.0
 11
214.2270549999999
 21
-0.0000000000000011
 31
0.0
  0
LINE
  5
C4
330
1E
100
AcDbEntity
  8
0
100
AcDbLine
 10
214.2270549999999
 20
-0.0000000000000011
 30
0.0
 11
218.307055
 21
-0.0000000000000013
 31
0.0
  0
LINE
  5
C5
330
1E
100
AcDbEntity
  8
0
100
AcDbLine
 10
229.8330549999999
 20
157.4
 30
0.0
 11
236.361055
 21
157.4
 31
0.0
  0
LINE
  5
C6
330
1E
100
AcDbEntity
  8
0
100
AcDbLine
 10
218.6960549999999
 20
160.0
 30
0.0
 11
221.1440549999999
 21
160.0
 31
0.0
  0
LINE
  5
C7
330
1E
100
AcDbEntity
  8
0
100
AcDbLine
 10
221.1440549999999
 20
160.0
 30
0.0
 11
224.0000549999999
 21
160.0
 31
0.0
  0
LINE
  5
C8
330
1E
100
AcDbEntity
  8
0
100
AcDbLine
 10
226.9580549999999
 20
160.0
 30
0.0
 11
230.1190549999999
 21
160.0
 31
0.0
  0
LINE
  5
C9
330
1E
100
AcDbEntity
  8
0
100
AcDbLine
 10
224.0000549999999
 20
160.0
 30
0.0
 11
226.9580549999999
 21
160.0
 31
0.0
  0
LINE
  5
CA
330
1E
100
AcDbEntity
  8
0
100
AcDbLine
 10
224.0190549999999
 20
158.0
 30
0.0
 11
229.9350549999999
 21
158.0
 31
0.0
  0
LINE
  5
CB
330
1E
100
AcDbEntity
  8
0
100
AcDbLine
 10
218.8170549999999
 20
158.0
 30
0.0
 11
224.0190549999999
 21
158.0
 31
0.0
  0
LINE
  5
CC
330
1E
100
AcDbEntity
  8
0
100
AcDbLine
 10
223.7130549999999
 20
157.4
 30
0.0
 11
229.8330549999999
 21
157.4
 31
0.0
  0
LINE
  5
CD
330
1E
100
AcDbEntity
  8
0
100
AcDbLine
 10
218.307055
 20
-0.0000000000000013
 30
0.0
 11
223.7130549999999
 21
-0.0000000000000017
 31
0.0
  0
LINE
  5
CE
330
1E
100
AcDbEntity
  8
0
100
AcDbLine
 10
223.7130549999999
 20
-0.0000000000000017
 30
0.0
 11
229.8330549999999
 21
-0.0000000000000021
 31
0.0
  0
LINE
  5
CF
330
1E
100
AcDbEntity
  8
0
100
AcDbLine
 10
261.8610549999999
 20
-0.000000000000004
 30
0.0
 11
261.8610549999999
 21
157.4
 31
0.0
  0
LINE
  5
D0
330
1E
100
AcDbEntity
  8
0
100
AcDbLine
 10
260.9220549999999
 20
-0.000000000000004
 30
0.0
 11
261.8610549999999
 21
-0.000000000000004
 31
0.0
  0
LINE
  5
D1
330
1E
100
AcDbEntity
  8
0
100
AcDbLine
 10
258.4260549999999
 20
-0.0000000000000038
 30
0.0
 11
260.9220549999999
 21
-0.000000000000004
 31
0.0
  0
LINE
  5
D2
330
1E
100
AcDbEntity
  8
0
100
AcDbLine
 10
254.3940549999999
 20
-0.0000000000000036
 30
0.0
 11
258.4260549999999
 21
-0.0000000000000038
 31
0.0
  0
LINE
  5
D3
330
1E
100
AcDbEntity
  8
0
100
AcDbLine
 10
248.9780549999999
 20
-0.0000000000000032
 30
0.0
 11
254.3940549999999
 21
-0.0000000000000036
 31
0.0
  0
LINE
  5
D4
330
1E
100
AcDbEntity
  8
0
100
AcDbLine
 10
242.8650549999999
 20
-0.0000000000000029
 30
0.0
 11
248.9780549999999
 21
-0.0000000000000032
 31
0.0
  0
LINE
  5
D5
330
1E
100
AcDbEntity
  8
0
100
AcDbLine
 10
236.361055
 20
157.4
 30
0.0
 11
242.8890549999999
 21
157.4
 31
0.0
  0
LINE
  5
D6
330
1E
100
AcDbEntity
  8
0
100
AcDbLine
 10
242.8890549999999
 20
157.4
 30
0.0
 11
249.009055
 21
157.4
 31
0.0
  0
LINE
  5
D7
330
1E
100
AcDbEntity
  8
0
100
AcDbLine
 10
249.009055
 20
157.4
 30
0.0
 11
254.4150549999999
 21
157.4
 31
0.0
  0
LINE
  5
D8
330
1E
100
AcDbEntity
  8
0
100
AcDbLine
 10
254.4150549999999
 20
157.4
 30
0.0
 11
258.4950549999999
 21
157.4
 31
0.0
  0
LINE
  5
D9
330
1E
100
AcDbEntity
  8
0
100
AcDbLine
 10
229.9350549999999
 20
158.0
 30
0.0
 11
236.361055
 21
158.0
 31
0.0
  0
LINE
  5
DA
330
1E
100
AcDbEntity
  8
0
100
AcDbLine
 10
236.361055
 20
158.0
 30
0.0
 11
242.7870549999999
 21
158.0
 31
0.0
  0
LINE
  5
DB
330
1E
100
AcDbEntity
  8
0
100
AcDbLine
 10
242.7870549999999
 20
158.0
 30
0.0
 11
248.7030549999999
 21
158.0
 31
0.0
  0
LINE
  5
DC
330
1E
100
AcDbEntity
  8
0
100
AcDbLine
 10
248.7030549999999
 20
158.0
 30
0.0
 11
253.9050549999999
 21
158.0
 31
0.0
  0
LINE
  5
DD
330
1E
100
AcDbEntity
  8
0
100
AcDbLine
 10
253.9050549999999
 20
158.0
 30
0.0
 11
257.8830549999999
 21
158.0
 31
0.0
  0
LINE
  5
DE
330
1E
100
AcDbEntity
  8
0
100
AcDbLine
 10
257.8830549999999
 20
158.0
 30
0.0
 11
260.3310549999999
 21
158.0
 31
0.0
  0
LINE
  5
DF
330
1E
100
AcDbEntity
  8
0
100
AcDbLine
 10
260.8610549999999
 20
158.0
 30
0.0
 11
260.8610549999999
 21
163.1999999999999
 31
0.0
  0
LINE
  5
E0
330
1E
100
AcDbEntity
  8
0
100
AcDbLine
 10
260.3310549999999
 20
158.0
 30
0.0
 11
261.2490549999999
 21
158.0
 31
0.0
  0
LINE
  5
E1
330
1E
100
AcDbEntity
  8
0
100
AcDbLine
 10
258.4950549999999
 20
157.4
 30
0.0
 11
260.9430549999999
 21
157.4
 31
0.0
  0
LINE
  5
E2
330
1E
100
AcDbEntity
  8
0
100
AcDbLine
 10
260.9430549999999
 20
157.4
 30
0.0
 11
261.8610549999999
 21
157.4
 31
0.0
  0
LINE
  5
E3
330
1E
100
AcDbEntity
  8
0
100
AcDbLine
 10
236.6470549999999
 20
160.0
 30
0.0
 11
240.0030549999999
 21
160.897
 31
0.0
  0
LINE
  5
E4
330
1E
100
AcDbEntity
  8
0
100
AcDbLine
 10
233.281055
 20
160.0
 30
0.0
 11
236.6470549999999
 21
160.0
 31
0.0
  0
LINE
  5
E5
330
1E
100
AcDbEntity
  8
0
100
AcDbLine
 10
240.0030549999999
 20
160.897
 30
0.0
 11
243.151055
 21
161.687
 31
0.0
  0
LINE
  5
E6
330
1E
100
AcDbEntity
  8
0
100
AcDbLine
 10
230.1190549999999
 20
160.0
 30
0.0
 11
233.281055
 21
160.0
 31
0.0
  0
LINE
  5
E7
330
1E
100
AcDbEntity
  8
0
100
AcDbLine
 10
243.151055
 20
161.687
 30
0.0
 11
246.2630549999999
 21
162.407
 31
0.0
  0
LINE
  5
E8
330
1E
100
AcDbEntity
  8
0
100
AcDbLine
 10
249.1840549999999
 20
163.139
 30
0.0
 11
252.024055
 21
163.826
 31
0.0
  0
LINE
  5
E9
330
1E
100
AcDbEntity
  8
0
100
AcDbLine
 10
254.4340549999999
 20
164.392
 30
0.0
 11
256.6900549999999
 21
164.9449999999999
 31
0.0
  0
LINE
  5
EA
330
1E
100
AcDbEntity
  8
0
100
AcDbLine
 10
258.5550549999999
 20
165.389
 30
0.0
 11
259.8510549999999
 21
165.6949999999999
 31
0.0
  0
LINE
  5
EB
330
1E
100
AcDbEntity
  8
0
100
AcDbLine
 10
259.8510549999999
 20
165.6949999999999
 30
0.0
 11
260.9480549999999
 21
165.976
 31
0.0
  0
LINE
  5
EC
330
1E
100
AcDbEntity
  8
0
100
AcDbLine
 10
256.6900549999999
 20
164.9449999999999
 30
0.0
 11
258.5550549999999
 21
165.389
 31
0.0
  0
LINE
  5
ED
330
1E
100
AcDbEntity
  8
0
100
AcDbLine
 10
252.024055
 20
163.826
 30
0.0
 11
254.4340549999999
 21
164.392
 31
0.0
  0
LINE
  5
EE
330
1E
100
AcDbEntity
  8
0
100
AcDbLine
 10
246.2630549999999
 20
162.407
 30
0.0
 11
249.1840549999999
 21
163.139
 31
0.0
  0
LINE
  5
F6
330
1E
100
AcDbEntity
  8
0
100
AcDbLine
 10
236.2020549999999
 20
198.8979999999999
 30
0.0
 11
239.1660549999999
 21
198.262
 31
0.0
  0
LINE
  5
F7
330
1E
100
AcDbEntity
  8
0
100
AcDbLine
 10
239.1660549999999
 20
198.262
 30
0.0
 11
242.1110549999999
 21
197.642
 31
0.0
  0
LINE
  5
F9
330
1E
100
AcDbEntity
  8
0
100
AcDbLine
 10
242.1110549999999
 20
197.642
 30
0.0
 11
244.9580549999999
 21
196.8849999999999
 31
0.0
  0
LINE
  5
FA
330
1E
100
AcDbEntity
  8
0
100
AcDbLine
 10
244.9580549999999
 20
196.8849999999999
 30
0.0
 11
247.6920549999999
 21
196.06
 31
0.0
  0
LINE
  5
FC
330
1E
100
AcDbEntity
  8
0
100
AcDbLine
 10
247.6920549999999
 20
196.06
 30
0.0
 11
250.1300549999999
 21
195.309
 31
0.0
  0
LINE
  5
FD
330
1E
100
AcDbEntity
  8
0
100
AcDbLine
 10
250.1300549999999
 20
195.309
 30
0.0
 11
252.2580549999999
 21
194.647
 31
0.0
  0
LINE
  5
FF
330
1E
100
AcDbEntity
  8
0
100
AcDbLine
 10
252.2580549999999
 20
194.647
 30
0.0
 11
254.1980549999999
 21
193.988
 31
0.0
  0
LINE
  5
100
330
1E
100
AcDbEntity
  8
0
100
AcDbLine
 10
254.1980549999999
 20
193.988
 30
0.0
 11
255.9230549999999
 21
193.4099999999999
 31
0.0
  0
LINE
  5
101
330
1E
100
AcDbEntity
  8
0
100
AcDbLine
 10
255.9230549999999
 20
193.4099999999999
 30
0.0
 11
257.2010549999999
 21
192.99
 31
0.0
  0
LINE
  5
102
330
1E
100
AcDbEntity
  8
0
100
AcDbLine
 10
257.2010549999999
 20
192.99
 30
0.0
 11
258.0560549999999
 21
192.649
 31
0.0
  0
LINE
  5
103
330
1E
100
AcDbEntity
  8
0
100
AcDbLine
 10
258.0560549999999
 20
192.649
 30
0.0
 11
258.6950549999999
 21
192.415
 31
0.0
  0
LINE
  5
104
330
1E
100
AcDbEntity
  8
0
100
AcDbLine
 10
258.6950549999999
 20
192.415
 30
0.0
 11
258.886055
 21
192.337
 31
0.0
  0
LINE
  5
105
330
1E
100
AcDbEntity
  8
0
100
AcDbLine
 10
258.886055
 20
192.337
 30
0.0
 11
259.6210549999999
 21
191.974
 31
0.0
  0
LINE
  5
107
330
1E
100
AcDbEntity
  8
0
100
AcDbLine
 10
259.9140549999999
 20
191.6619999999999
 30
0.0
 11
261.8610549999999
 21
166.21
 31
0.0
  0
LINE
  5
108
330
1E
100
AcDbEntity
  8
0
100
AcDbLine
 10
259.6210549999999
 20
191.974
 30
0.0
 11
259.9140549999999
 21
191.6619999999999
 31
0.0
  0
LINE
  5
109
330
1E
100
AcDbEntity
  8
0
100
AcDbLine
 10
260.488599610155
 20
165.858309056931
 30
0.0
 11
260.8610549999999
 21
163.1999999999999
 31
0.0
  0
LINE
  5
10A
330
1E
100
AcDbEntity
  8
0
100
AcDbLine
 10
261.5880549999999
 20
166.1399999999999
 30
0.0
 11
261.8610549999999
 21
166.21
 31
0.0
  0
LINE
  5
10B
330
1E
100
AcDbEntity
  8
0
100
AcDbLine
 10
260.9480549999999
 20
165.976
 30
0.0
 11
261.5880549999999
 21
166.1399999999999
 31
0.0
  0
LINE
  5
10C
330
1E
100
AcDbEntity
  8
0
100
AcDbLine
 10
260.8610549999999
 20
163.1999999999999
 30
0.0
 11
260.8610549999999
 21
158.0
 31
0.0
  0
LINE
  5
10D
330
1E
100
AcDbEntity
  8
0
100
AcDbLine
 10
261.2490549999999
 20
158.0
 30
0.0
 11
261.8610549999999
 21
157.4
 31
0.0
  0
LINE
  5
10E
330
1E
100
AcDbEntity
  8
0
100
AcDbLine
 10
261.8610549999999
 20
157.4
 30
0.0
 11
261.8610549999999
 21
0.0
 31
0.0
  0
LINE
  5
10F
330
1E
100
AcDbEntity
  8
0
100
AcDbLine
 10
236.361055
 20
-0.0000000000000025
 30
0.0
 11
242.8650549999999
 21
-0.0000000000000029
 31
0.0
  0
LINE
  5
110
330
1E
100
AcDbEntity
  8
0
100
AcDbLine
 10
229.8330549999999
 20
-0.0000000000000021
 30
0.0
 11
236.361055
 21
-0.0000000000000025
 31
0.0
  0
LINE
  5
115
330
1E
100
AcDbEntity
  8
0
  6
Continuous
100
AcDbLine
 10
14.85635499999999
 20
181.559
 30
0.0
 11
51.09255005009493
 21
179.1218493742451
 31
0.0
  0
LINE
  5
116
330
1E
100
AcDbEntity
  8
0
  6
Continuous
100
AcDbLine
 10
51.09255005009493
 20
179.1218493742451
 30
0.0
 11
79.15971324531994
 21
173.7937683252641
 31
0.0
  0
LINE
  5
117
330
1E
100
AcDbEntity
  8
0
  6
Continuous
100
AcDbLine
 10
79.15971324531994
 20
173.7937683252641
 30
0.0
 11
107.697055
 21
165.7829999999999
 31
0.0
  0
LINE
  5
118
330
1E
100
AcDbEntity
  8
0
  6
Continuous
100
AcDbLine
 10
137.651055
 20
157.701
 30
0.0
 11
186.881169601456
 21
140.7283218856558
 31
0.0
  0
LINE
  5
119
330
1E
100
AcDbEntity
  8
0
  6
Continuous
100
AcDbLine
 10
186.881169601456
 20
140.7283218856558
 30
0.0
 11
210.8610549999999
 21
130.830482925944
 31
0.0
  0
ENDSEC
  0
SECTION
  2
OBJECTS
  0
DICTIONARY
  5
C
330
0
100
AcDbDictionary
281
     1
  3
ACAD_GROUP
350
D
  3
ACAD_LAYOUT
350
19
  3
ACAD_MLINESTYLE
350
16
  3
ACAD_PLOTSETTINGS
350
18
  3
ACAD_PLOTSTYLENAME
350
E
  3
AcDbVariableDictionary
350
11B
  0
DICTIONARY
  5
D
102
{ACAD_REACTORS
330
C
102
}
330
C
100
AcDbDictionary
281
     1
  0
DICTIONARY
  5
19
102
{ACAD_REACTORS
330
C
102
}
330
C
100
AcDbDictionary
281
     1
  3
Layout1
350
1D
  3
Model
350
21
  0
DICTIONARY
  5
16
102
{ACAD_REACTORS
330
C
102
}
330
C
100
AcDbDictionary
281
     1
  3
Standard
350
17
  0
DICTIONARY
  5
18
102
{ACAD_REACTORS
330
C
102
}
330
C
100
AcDbDictionary
281
     1
  0
ACDBDICTIONARYWDFLT
  5
E
102
{ACAD_REACTORS
330
C
102
}
330
C
100
AcDbDictionary
281
     1
  3
Normal
350
F
100
AcDbDictionaryWithDefault
340
F
  0
DICTIONARY
  5
11B
102
{ACAD_REACTORS
330
C
102
}
330
C
100
AcDbDictionary
281
     1
  3
DIMASSOC
350
11C
  0
LAYOUT
  5
1D
102
{ACAD_REACTORS
330
19
102
}
330
19
100
AcDbPlotSettings
  1

  2
C:\Programme\AutoCAD LT 2002 Deu\plotters\DWF ePlot (optimized for plotting).pc3
  4

  6

 40
0.0
 41
0.0
 42
0.0
 43
0.0
 44
0.0
 45
0.0
 46
0.0
 47
0.0
 48
0.0
 49
0.0
140
0.0
141
0.0
142
1.0
143
1.0
 70
   688
 72
     0
 73
     0
 74
     5
  7

 75
    16
147
1.0
148
0.0
149
0.0
100
AcDbLayout
  1
Layout1
 70
     1
 71
     1
 10
0.0
 20
0.0
 11
12.0
 21
9.0
 12
0.0
 22
0.0
 32
0.0
 14
1.000000000000000E+20
 24
1.000000000000000E+20
 34
1.000000000000000E+20
 15
-1.000000000000000E+20
 25
-1.000000000000000E+20
 35
-1.000000000000000E+20
146
0.0
 13
0.0
 23
0.0
 33
0.0
 16
1.0
 26
0.0
 36
0.0
 17
0.0
 27
1.0
 37
0.0
 76
     0
330
1A
  0
LAYOUT
  5
21
102
{ACAD_REACTORS
330
19
102
}
330
19
100
AcDbPlotSettings
  1

  2
C:\Programme\AutoCAD LT 2002 Deu\plotters\DWF ePlot (optimized for plotting).pc3
  4

  6

 40
0.0
 41
0.0
 42
0.0
 43
0.0
 44
0.0
 45
0.0
 46
0.0
 47
0.0
 48
0.0
 49
0.0
140
0.0
141
0.0
142
1.0
143
1.0
 70
  1712
 72
     0
 73
     0
 74
     0
  7

 75
     0
147
1.0
148
0.0
149
0.0
100
AcDbLayout
  1
Model
 70
     1
 71
     0
 10
0.0
 20
0.0
 11
12.0
 21
9.0
 12
0.0
 22
0.0
 32
0.0
 14
0.0
 24
0.0
 34
0.0
 15
0.0
 25
0.0
 35
0.0
146
0.0
 13
0.0
 23
0.0
 33
0.0
 16
1.0
 26
0.0
 36
0.0
 17
0.0
 27
1.0
 37
0.0
 76
     0
330
1E
  0
MLINESTYLE
  5
17
102
{ACAD_REACTORS
330
16
102
}
330
16
100
AcDbMlineStyle
  2
STANDARD
 70
     0
  3

 62
   256
 51
90.0
 52
90.0
 71
     2
 49
0.5
 62
   256
  6
BYLAYER
 49
-0.5
 62
   256
  6
BYLAYER
  0
ACDBPLACEHOLDER
  5
F
102
{ACAD_REACTORS
330
E
102
}
330
E
  0
DICTIONARYVAR
  5
11C
102
{ACAD_REACTORS
330
11B
102
}
330
11B
100
DictionaryVariables
280
     0
  1
1
  0
ENDSEC
  0
EOF
