  0
SECTION
  2
HEADER
  9
$ACADVER
  1
AC1015
  9
$ACADMAINTVER
 70
    13
  9
$DWGCODEPAGE
  3
ANSI_1252
  9
$INSBASE
 10
0.0
 20
0.0
 30
0.0
  9
$EXTMIN
 10
-0.227454999999995
 20
-0.0000000000000228
 30
0.0
  9
$EXTMAX
 10
255.2274549999999
 20
411.0
 30
0.0
  9
$LIMMIN
 10
0.0
 20
0.0
  9
$LIMMAX
 10
12.0
 20
9.0
  9
$ORTHOMODE
 70
     0
  9
$REGENMODE
 70
     1
  9
$FILLMODE
 70
     1
  9
$QTEXTMODE
 70
     0
  9
$MIRRTEXT
 70
     1
  9
$LTSCALE
 40
1.0
  9
$ATTMODE
 70
     1
  9
$TEXTSIZE
 40
0.2
  9
$TRACEWID
 40
0.05
  9
$TEXTSTYLE
  7
Standard
  9
$CLAYER
  8
0
  9
$CELTYPE
  6
Continuous
  9
$CECOLOR
 62
   256
  9
$CELTSCALE
 40
1.0
  9
$DISPSILH
 70
     0
  9
$DIMSCALE
 40
1.0
  9
$DIMASZ
 40
0.18
  9
$DIMEXO
 40
0.0625
  9
$DIMDLI
 40
0.38
  9
$DIMRND
 40
0.0
  9
$DIMDLE
 40
0.0
  9
$DIMEXE
 40
0.18
  9
$DIMTP
 40
0.0
  9
$DIMTM
 40
0.0
  9
$DIMTXT
 40
0.18
  9
$DIMCEN
 40
0.09
  9
$DIMTSZ
 40
0.0
  9
$DIMTOL
 70
     0
  9
$DIMLIM
 70
     0
  9
$DIMTIH
 70
     1
  9
$DIMTOH
 70
     1
  9
$DIMSE1
 70
     0
  9
$DIMSE2
 70
     0
  9
$DIMTAD
 70
     0
  9
$DIMZIN
 70
     0
  9
$DIMBLK
  1

  9
$DIMASO
 70
     1
  9
$DIMSHO
 70
     1
  9
$DIMPOST
  1

  9
$DIMAPOST
  1

  9
$DIMALT
 70
     0
  9
$DIMALTD
 70
     2
  9
$DIMALTF
 40
25.4
  9
$DIMLFAC
 40
1.0
  9
$DIMTOFL
 70
     0
  9
$DIMTVP
 40
0.0
  9
$DIMTIX
 70
     0
  9
$DIMSOXD
 70
     0
  9
$DIMSAH
 70
     0
  9
$DIMBLK1
  1

  9
$DIMBLK2
  1

  9
$DIMSTYLE
  2
Standard
  9
$DIMCLRD
 70
     0
  9
$DIMCLRE
 70
     0
  9
$DIMCLRT
 70
     0
  9
$DIMTFAC
 40
1.0
  9
$DIMGAP
 40
0.09
  9
$DIMJUST
 70
     0
  9
$DIMSD1
 70
     0
  9
$DIMSD2
 70
     0
  9
$DIMTOLJ
 70
     1
  9
$DIMTZIN
 70
     0
  9
$DIMALTZ
 70
     0
  9
$DIMALTTZ
 70
     0
  9
$DIMUPT
 70
     0
  9
$DIMDEC
 70
     4
  9
$DIMTDEC
 70
     4
  9
$DIMALTU
 70
     2
  9
$DIMALTTD
 70
     2
  9
$DIMTXSTY
  7
Standard
  9
$DIMAUNIT
 70
     0
  9
$DIMADEC
 70
     0
  9
$DIMALTRND
 40
0.0
  9
$DIMAZIN
 70
     0
  9
$DIMDSEP
 70
    46
  9
$DIMATFIT
 70
     3
  9
$DIMFRAC
 70
     0
  9
$DIMLDRBLK
  1

  9
$DIMLUNIT
 70
     2
  9
$DIMLWD
 70
    -2
  9
$DIMLWE
 70
    -2
  9
$DIMTMOVE
 70
     0
  9
$LUNITS
 70
     2
  9
$LUPREC
 70
     4
  9
$SKETCHINC
 40
0.1
  9
$FILLETRAD
 40
0.0
  9
$AUNITS
 70
     0
  9
$AUPREC
 70
     0
  9
$MENU
  1
.
  9
$ELEVATION
 40
0.0
  9
$PELEVATION
 40
0.0
  9
$THICKNESS
 40
0.0
  9
$LIMCHECK
 70
     0
  9
$CHAMFERA
 40
0.0
  9
$CHAMFERB
 40
0.0
  9
$CHAMFERC
 40
0.0
  9
$CHAMFERD
 40
0.0
  9
$SKPOLY
 70
     0
  9
$TDCREATE
 40
2455000.927757696
  9
$TDUCREATE
 40
2455000.844424363
  9
$TDUPDATE
 40
2455000.929025602
  9
$TDUUPDATE
 40
2455000.845692268
  9
$TDINDWG
 40
0.0012680787
  9
$TDUSRTIMER
 40
0.0012680787
  9
$USRTIMER
 70
     1
  9
$ANGBASE
 50
0.0
  9
$ANGDIR
 70
     0
  9
$PDMODE
 70
     0
  9
$PDSIZE
 40
0.0
  9
$PLINEWID
 40
0.0
  9
$SPLFRAME
 70
     0
  9
$SPLINETYPE
 70
     6
  9
$SPLINESEGS
 70
     8
  9
$HANDSEED
  5
19E
  9
$SURFTAB1
 70
     6
  9
$SURFTAB2
 70
     6
  9
$SURFTYPE
 70
     6
  9
$SURFU
 70
     6
  9
$SURFV
 70
     6
  9
$UCSBASE
  2

  9
$UCSNAME
  2

  9
$UCSORG
 10
0.0
 20
0.0
 30
0.0
  9
$UCSXDIR
 10
1.0
 20
0.0
 30
0.0
  9
$UCSYDIR
 10
0.0
 20
1.0
 30
0.0
  9
$UCSORTHOREF
  2

  9
$UCSORTHOVIEW
 70
     1
  9
$UCSORGTOP
 10
0.0
 20
0.0
 30
0.0
  9
$UCSORGBOTTOM
 10
0.0
 20
0.0
 30
0.0
  9
$UCSORGLEFT
 10
0.0
 20
0.0
 30
0.0
  9
$UCSORGRIGHT
 10
0.0
 20
0.0
 30
0.0
  9
$UCSORGFRONT
 10
0.0
 20
0.0
 30
0.0
  9
$UCSORGBACK
 10
0.0
 20
0.0
 30
0.0
  9
$PUCSBASE
  2

  9
$PUCSNAME
  2

  9
$PUCSORG
 10
0.0
 20
0.0
 30
0.0
  9
$PUCSXDIR
 10
1.0
 20
0.0
 30
0.0
  9
$PUCSYDIR
 10
0.0
 20
1.0
 30
0.0
  9
$PUCSORTHOREF
  2

  9
$PUCSORTHOVIEW
 70
     0
  9
$PUCSORGTOP
 10
0.0
 20
0.0
 30
0.0
  9
$PUCSORGBOTTOM
 10
0.0
 20
0.0
 30
0.0
  9
$PUCSORGLEFT
 10
0.0
 20
0.0
 30
0.0
  9
$PUCSORGRIGHT
 10
0.0
 20
0.0
 30
0.0
  9
$PUCSORGFRONT
 10
0.0
 20
0.0
 30
0.0
  9
$PUCSORGBACK
 10
0.0
 20
0.0
 30
0.0
  9
$USERI1
 70
     0
  9
$USERI2
 70
     0
  9
$USERI3
 70
     0
  9
$USERI4
 70
     0
  9
$USERI5
 70
     0
  9
$USERR1
 40
0.0
  9
$USERR2
 40
0.0
  9
$USERR3
 40
0.0
  9
$USERR4
 40
0.0
  9
$USERR5
 40
0.0
  9
$WORLDVIEW
 70
     1
  9
$SHADEDGE
 70
     3
  9
$SHADEDIF
 70
    70
  9
$TILEMODE
 70
     1
  9
$MAXACTVP
 70
    64
  9
$PINSBASE
 10
0.0
 20
0.0
 30
0.0
  9
$PLIMCHECK
 70
     0
  9
$PEXTMIN
 10
1.000000000000000E+20
 20
1.000000000000000E+20
 30
1.000000000000000E+20
  9
$PEXTMAX
 10
-1.000000000000000E+20
 20
-1.000000000000000E+20
 30
-1.000000000000000E+20
  9
$PLIMMIN
 10
0.0
 20
0.0
  9
$PLIMMAX
 10
12.0
 20
9.0
  9
$UNITMODE
 70
     0
  9
$VISRETAIN
 70
     1
  9
$PLINEGEN
 70
     0
  9
$PSLTSCALE
 70
     1
  9
$TREEDEPTH
 70
  3020
  9
$CMLSTYLE
  2
Standard
  9
$CMLJUST
 70
     0
  9
$CMLSCALE
 40
1.0
  9
$PROXYGRAPHICS
 70
     1
  9
$MEASUREMENT
 70
     0
  9
$CELWEIGHT
370
    -1
  9
$ENDCAPS
280
     0
  9
$JOINSTYLE
280
     0
  9
$LWDISPLAY
290
     0
  9
$INSUNITS
 70
     0
  9
$HYPERLINKBASE
  1

  9
$STYLESHEET
  1

  9
$XEDIT
290
     1
  9
$CEPSNTYPE
380
     0
  9
$PSTYLEMODE
290
     1
  9
$FINGERPRINTGUID
  2
{472EBD6E-F25F-440F-A70C-5B262AED3152}
  9
$VERSIONGUID
  2
{7DF5DE51-9D07-4CFD-8E0F-35B77834E143}
  9
$EXTNAMES
290
     1
  9
$PSVPSCALE
 40
0.0
  9
$OLESTARTUP
290
     0
  0
ENDSEC
  0
SECTION
  2
CLASSES
  0
CLASS
  1
ACDBDICTIONARYWDFLT
  2
AcDbDictionaryWithDefault
  3
AutoCAD 2000
 90
        0
280
     0
281
     0
  0
CLASS
  1
ACDBPLACEHOLDER
  2
AcDbPlaceHolder
  3
AutoCAD 2000
 90
        0
280
     0
281
     0
  0
CLASS
  1
LAYOUT
  2
AcDbLayout
  3
AutoCAD 2000
 90
        0
280
     0
281
     0
  0
CLASS
  1
DICTIONARYVAR
  2
AcDbDictionaryVar
  3
AutoCAD 2000
 90
        0
280
     0
281
     0
  0
ENDSEC
  0
SECTION
  2
TABLES
  0
TABLE
  2
VPORT
  5
8
330
0
100
AcDbSymbolTable
 70
     3
  0
VPORT
  5
19D
330
8
100
AcDbSymbolTableRecord
100
AcDbViewportTableRecord
  2
*Active
 70
     0
 10
0.0
 20
0.0
 11
1.0
 21
1.0
 12
127.5
 22
205.4999999999999
 13
0.0
 23
0.0
 14
1.0
 24
1.0
 15
0.0
 25
0.0
 16
0.0
 26
0.0
 36
1.0
 17
0.0
 27
0.0
 37
0.0
 40
414.7938461538461
 41
2.385208012326656
 42
50.0
 43
0.0
 44
0.0
 50
0.0
 51
0.0
 71
     0
 72
   100
 73
     1
 74
     3
 75
     0
 76
     0
 77
     0
 78
     0
281
     0
 65
     1
110
0.0
120
0.0
130
0.0
111
1.0
121
0.0
131
0.0
112
0.0
122
1.0
132
0.0
 79
     1
146
0.0
  0
ENDTAB
  0
TABLE
  2
LTYPE
  5
5
330
0
100
AcDbSymbolTable
 70
     1
  0
LTYPE
  5
13
330
5
100
AcDbSymbolTableRecord
100
AcDbLinetypeTableRecord
  2
ByBlock
 70
     0
  3

 72
    65
 73
     0
 40
0.0
  0
LTYPE
  5
14
330
5
100
AcDbSymbolTableRecord
100
AcDbLinetypeTableRecord
  2
ByLayer
 70
     0
  3

 72
    65
 73
     0
 40
0.0
  0
LTYPE
  5
15
330
5
100
AcDbSymbolTableRecord
100
AcDbLinetypeTableRecord
  2
Continuous
 70
     0
  3
Solid line
 72
    65
 73
     0
 40
0.0
  0
ENDTAB
  0
TABLE
  2
LAYER
  5
2
330
0
100
AcDbSymbolTable
 70
     1
  0
LAYER
  5
10
330
2
100
AcDbSymbolTableRecord
100
AcDbLayerTableRecord
  2
0
 70
     0
 62
     7
  6
Continuous
370
    -3
390
F
  0
ENDTAB
  0
TABLE
  2
STYLE
  5
3
330
0
100
AcDbSymbolTable
 70
     1
  0
STYLE
  5
11
330
3
100
AcDbSymbolTableRecord
100
AcDbTextStyleTableRecord
  2
Standard
 70
     0
 40
0.0
 41
1.0
 50
0.0
 71
     0
 42
0.2
  3
txt
  4

  0
ENDTAB
  0
TABLE
  2
VIEW
  5
6
330
0
100
AcDbSymbolTable
 70
     0
  0
ENDTAB
  0
TABLE
  2
UCS
  5
7
330
0
100
AcDbSymbolTable
 70
     0
  0
ENDTAB
  0
TABLE
  2
APPID
  5
9
330
0
100
AcDbSymbolTable
 70
     1
  0
APPID
  5
12
330
9
100
AcDbSymbolTableRecord
100
AcDbRegAppTableRecord
  2
ACAD
 70
     0
  0
ENDTAB
  0
TABLE
  2
DIMSTYLE
  5
A
330
0
100
AcDbSymbolTable
 70
     1
100
AcDbDimStyleTable
 71
     0
  0
DIMSTYLE
105
193
330
A
100
AcDbSymbolTableRecord
100
AcDbDimStyleTableRecord
  2
Standard
 70
     0
340
11
  0
ENDTAB
  0
TABLE
  2
BLOCK_RECORD
  5
1
330
0
100
AcDbSymbolTable
 70
     0
  0
BLOCK_RECORD
  5
1E
330
1
100
AcDbSymbolTableRecord
100
AcDbBlockTableRecord
  2
*Model_Space
340
21
  0
BLOCK_RECORD
  5
1A
330
1
100
AcDbSymbolTableRecord
100
AcDbBlockTableRecord
  2
*Paper_Space
340
1D
  0
ENDTAB
  0
ENDSEC
  0
SECTION
  2
BLOCKS
  0
BLOCK
  5
1F
330
1E
100
AcDbEntity
  8
0
100
AcDbBlockBegin
  2
*Model_Space
 70
     0
 10
0.0
 20
0.0
 30
0.0
  3
*Model_Space
  1

  0
ENDBLK
  5
20
330
1E
100
AcDbEntity
  8
0
100
AcDbBlockEnd
  0
BLOCK
  5
1B
330
1A
100
AcDbEntity
 67
     1
  8
0
100
AcDbBlockBegin
  2
*Paper_Space
 70
     0
 10
0.0
 20
0.0
 30
0.0
  3
*Paper_Space
  1

  0
ENDBLK
  5
1C
330
1A
100
AcDbEntity
 67
     1
  8
0
100
AcDbBlockEnd
  0
ENDSEC
  0
SECTION
  2
ENTITIES
  0
LINE
  5
22
330
1E
100
AcDbEntity
  8
0
100
AcDbLine
 10
1.42928500000001
 20
247.933
 30
0.0
 11
1.951324999999999
 21
247.689
 31
0.0
  0
LINE
  5
23
330
1E
100
AcDbEntity
  8
0
100
AcDbLine
 10
1.16253500000001
 20
248.269
 30
0.0
 11
1.684574999999999
 21
248.0259999999999
 31
0.0
  0
LINE
  5
24
330
1E
100
AcDbEntity
  8
0
100
AcDbLine
 10
1.16253500000001
 20
248.269
 30
0.0
 11
1.503893157215029
 21
249.001340300896
 31
0.0
  0
LINE
  5
25
330
1E
100
AcDbEntity
  8
0
100
AcDbLine
 10
1.16253500000001
 20
248.269
 30
0.0
 11
1.42928500000001
 21
247.933
 31
0.0
  0
LINE
  5
26
330
1E
100
AcDbEntity
  8
0
100
AcDbLine
 10
1.16253500000001
 20
248.269
 30
0.0
 11
1.503893157215029
 21
249.001340300896
 31
0.0
  0
LINE
  5
27
330
1E
100
AcDbEntity
  8
0
100
AcDbLine
 10
1.684574999999999
 20
248.0259999999999
 30
0.0
 11
3.076665
 21
247.377
 31
0.0
  0
LINE
  5
28
330
1E
100
AcDbEntity
  8
0
100
AcDbLine
 10
0.0827950000000064
 20
249.664
 30
0.0
 11
0.6700850000000051
 21
249.39
 31
0.0
  0
LINE
  5
29
330
1E
100
AcDbEntity
  8
0
100
AcDbLine
 10
-0.227454999999995
 20
250.021
 30
0.0
 11
0.359835000000005
 21
249.747
 31
0.0
  0
LINE
  5
2A
330
1E
100
AcDbEntity
  8
0
100
AcDbLine
 10
-0.227454999999995
 20
250.021
 30
0.0
 11
1.72308500000001
 21
254.204
 31
0.0
  0
LINE
  5
2B
330
1E
100
AcDbEntity
  8
0
100
AcDbLine
 10
-0.227454999999995
 20
250.021
 30
0.0
 11
0.0827950000000064
 21
249.664
 31
0.0
  0
LINE
  5
2C
330
1E
100
AcDbEntity
  8
0
100
AcDbLine
 10
0.359835000000005
 20
249.747
 30
0.0
 11
1.925934999999999
 21
249.0169999999999
 31
0.0
  0
LINE
  5
2D
330
1E
100
AcDbEntity
  8
0
100
AcDbLine
 10
3.343415000000009
 20
247.04
 30
0.0
 11
5.605555
 21
245.985
 31
0.0
  0
LINE
  5
2E
330
1E
100
AcDbEntity
  8
0
100
AcDbLine
 10
1.951324999999999
 20
247.689
 30
0.0
 11
5.605555
 21
245.985
 31
0.0
  0
LINE
  5
2F
330
1E
100
AcDbEntity
  8
0
100
AcDbLine
 10
3.076665
 20
247.377
 30
0.0
 11
5.396805000000009
 21
246.2949999999999
 31
0.0
  0
LINE
  5
31
330
1E
100
AcDbEntity
  8
0
100
AcDbLine
 10
0.6700850000000052
 20
249.39
 30
0.0
 11
4.781094999999999
 21
247.473
 31
0.0
  0
LINE
  5
32
330
1E
100
AcDbEntity
  8
0
100
AcDbLine
 10
1.925934999999999
 20
249.0169999999999
 30
0.0
 11
4.536094999999999
 21
247.799
 31
0.0
  0
LINE
  5
33
330
1E
100
AcDbEntity
  8
0
100
AcDbLine
 10
2.71154829050087
 20
253.9552954616859
 30
0.0
 11
5.487935000000009
 21
254.884
 31
0.0
  0
LINE
  5
34
330
1E
100
AcDbEntity
  8
0
100
AcDbLine
 10
2.310375000000009
 20
253.93
 30
0.0
 11
3.876475000000009
 21
253.2
 31
0.0
  0
LINE
  5
35
330
1E
100
AcDbEntity
  8
0
100
AcDbLine
 10
5.396805000000009
 20
246.2949999999999
 30
0.0
 11
8.471005999999999
 21
244.8609999999999
 31
0.0
  0
LINE
  5
37
330
1E
100
AcDbEntity
  8
0
100
AcDbLine
 10
4.781094999999999
 20
247.473
 30
0.0
 11
8.109055999999998
 21
245.921
 31
0.0
  0
LINE
  5
38
330
1E
100
AcDbEntity
  8
0
100
AcDbLine
 10
4.536094999999999
 20
247.799
 30
0.0
 11
7.994566999999999
 21
246.187
 31
0.0
  0
LINE
  5
3C
330
1E
100
AcDbEntity
  8
0
100
AcDbLine
 10
3.876475000000009
 20
253.2
 30
0.0
 11
6.486644999999999
 21
251.982
 31
0.0
  0
LINE
  5
3D
330
1E
100
AcDbEntity
  8
0
100
AcDbLine
 10
2.19588500000001
 20
254.1949999999999
 30
0.0
 11
2.783174999999999
 21
253.9219999999999
 31
0.0
  0
LINE
  5
3E
330
1E
100
AcDbEntity
  8
0
100
AcDbLine
 10
1.72308500000001
 20
254.204
 30
0.0
 11
2.310375000000009
 21
253.93
 31
0.0
  0
LINE
  5
3F
330
1E
100
AcDbEntity
  8
0
100
AcDbLine
 10
1.72308500000001
 20
254.204
 30
0.0
 11
2.19588500000001
 21
254.1949999999999
 31
0.0
  0
LINE
  5
40
330
1E
100
AcDbEntity
  8
0
100
AcDbLine
 10
2.71154829050087
 20
253.9552954616859
 30
0.0
 11
5.487935000000009
 21
254.884
 31
0.0
  0
LINE
  5
41
330
1E
100
AcDbEntity
  8
0
100
AcDbLine
 10
9.547715
 20
243.044
 30
0.0
 11
11.21169499999999
 21
242.268
 31
0.0
  0
LINE
  5
42
330
1E
100
AcDbEntity
  8
0
100
AcDbLine
 10
7.198564999999999
 20
244.139
 30
0.0
 11
7.492208999999999
 21
244.002
 31
0.0
  0
LINE
  5
43
330
1E
100
AcDbEntity
  8
0
100
AcDbLine
 10
7.492208999999999
 20
244.002
 30
0.0
 11
8.275259
 21
243.637
 31
0.0
  0
LINE
  5
44
330
1E
100
AcDbEntity
  8
0
100
AcDbLine
 10
7.084075
 20
244.405
 30
0.0
 11
7.37772
 21
244.268
 31
0.0
  0
LINE
  5
45
330
1E
100
AcDbEntity
  8
0
100
AcDbLine
 10
7.084075
 20
244.405
 30
0.0
 11
7.42533385520616
 21
245.1366853583969
 31
0.0
  0
LINE
  5
46
330
1E
100
AcDbEntity
  8
0
100
AcDbLine
 10
7.084075
 20
244.405
 30
0.0
 11
7.198564999999999
 21
244.139
 31
0.0
  0
LINE
  5
47
330
1E
100
AcDbEntity
  8
0
100
AcDbLine
 10
7.37772
 20
244.268
 30
0.0
 11
8.160769999999999
 21
243.9029999999999
 31
0.0
  0
LINE
  5
48
330
1E
100
AcDbEntity
  8
0
100
AcDbLine
 10
5.605555
 20
245.985
 30
0.0
 11
11.927955
 21
243.0369999999999
 31
0.0
  0
LINE
  5
49
330
1E
100
AcDbEntity
  8
0
100
AcDbLine
 10
8.471005999999999
 20
244.8609999999999
 30
0.0
 11
11.951225
 21
243.238
 31
0.0
  0
LINE
  5
4A
330
1E
100
AcDbEntity
  8
0
100
AcDbLine
 10
8.275259
 20
243.637
 30
0.0
 11
9.547715
 21
243.044
 31
0.0
  0
LINE
  5
4B
330
1E
100
AcDbEntity
  8
0
100
AcDbLine
 10
8.160769999999999
 20
243.9029999999999
 30
0.0
 11
9.465854999999999
 21
243.294
 31
0.0
  0
LINE
  5
4C
330
1E
100
AcDbEntity
  8
0
100
AcDbLine
 10
9.465854999999999
 20
243.294
 30
0.0
 11
11.195085
 21
242.4879999999999
 31
0.0
  0
LINE
  5
4D
330
1E
100
AcDbEntity
  8
0
100
AcDbLine
 10
11.21169499999999
 20
242.268
 30
0.0
 11
13.104065
 21
241.385
 31
0.0
  0
LINE
  5
4E
330
1E
100
AcDbEntity
  8
0
100
AcDbLine
 10
11.195085
 20
242.4879999999999
 30
0.0
 11
13.15271499999999
 21
241.575
 31
0.0
  0
LINE
  5
4F
330
1E
100
AcDbEntity
  8
0
100
AcDbLine
 10
8.109055999999998
 20
245.921
 30
0.0
 11
11.893795
 21
244.1559999999999
 31
0.0
  0
LINE
  5
50
330
1E
100
AcDbEntity
  8
0
100
AcDbLine
 10
11.893795
 20
244.1559999999999
 30
0.0
 11
16.004815
 21
242.239
 31
0.0
  0
LINE
  5
51
330
1E
100
AcDbEntity
  8
0
100
AcDbLine
 10
7.994566999999999
 20
246.187
 30
0.0
 11
11.909815
 21
244.361
 31
0.0
  0
LINE
  5
52
330
1E
100
AcDbEntity
  8
0
100
AcDbLine
 10
17.21507499999999
 20
239.468
 30
0.0
 11
19.10745499999999
 21
238.586
 31
0.0
  0
LINE
  5
53
330
1E
100
AcDbEntity
  8
0
100
AcDbLine
 10
15.159575
 20
240.427
 30
0.0
 11
17.21507499999999
 21
239.468
 31
0.0
  0
LINE
  5
54
330
1E
100
AcDbEntity
  8
0
100
AcDbLine
 10
19.10745499999999
 20
238.586
 30
0.0
 11
20.77145499999999
 21
237.8099999999999
 31
0.0
  0
LINE
  5
55
330
1E
100
AcDbEntity
  8
0
100
AcDbLine
 10
19.37565499999999
 20
239.7759999999999
 30
0.0
 11
22.85595499999999
 21
238.153
 31
0.0
  0
LINE
  5
56
330
1E
100
AcDbEntity
  8
0
100
AcDbLine
 10
19.28655499999999
 20
238.714
 30
0.0
 11
21.015855
 21
237.908
 31
0.0
  0
LINE
  5
57
330
1E
100
AcDbEntity
  8
0
100
AcDbLine
 10
17.32897499999999
 20
239.627
 30
0.0
 11
19.28655499999999
 21
238.714
 31
0.0
  0
LINE
  5
58
330
1E
100
AcDbEntity
  8
0
100
AcDbLine
 10
15.582195
 20
241.333
 30
0.0
 11
19.236455
 21
239.629
 31
0.0
  0
LINE
  5
59
330
1E
100
AcDbEntity
  8
0
100
AcDbLine
 10
15.66346499999999
 20
241.507
 30
0.0
 11
19.37565499999999
 21
239.7759999999999
 31
0.0
  0
LINE
  5
5A
330
1E
100
AcDbEntity
  8
0
100
AcDbLine
 10
15.240845
 20
240.601
 30
0.0
 11
17.32897499999999
 21
239.627
 31
0.0
  0
LINE
  5
5B
330
1E
100
AcDbEntity
  8
0
100
AcDbLine
 10
13.104065
 20
241.385
 30
0.0
 11
15.159575
 21
240.427
 31
0.0
  0
LINE
  5
5C
330
1E
100
AcDbEntity
  8
0
100
AcDbLine
 10
13.15271499999999
 20
241.575
 30
0.0
 11
15.240845
 21
240.601
 31
0.0
  0
LINE
  5
5D
330
1E
100
AcDbEntity
  8
0
100
AcDbLine
 10
20.115855
 20
240.322
 30
0.0
 11
23.90055499999999
 21
238.558
 31
0.0
  0
LINE
  5
5E
330
1E
100
AcDbEntity
  8
0
100
AcDbLine
 10
16.004815
 20
242.239
 30
0.0
 11
20.115855
 21
240.322
 31
0.0
  0
LINE
  5
5F
330
1E
100
AcDbEntity
  8
0
100
AcDbLine
 10
22.04385499999999
 20
237.217
 30
0.0
 11
22.82695499999999
 21
236.851
 31
0.0
  0
LINE
  5
60
330
1E
100
AcDbEntity
  8
0
100
AcDbLine
 10
20.77145499999999
 20
237.8099999999999
 30
0.0
 11
22.04385499999999
 21
237.217
 31
0.0
  0
LINE
  5
61
330
1E
100
AcDbEntity
  8
0
100
AcDbLine
 10
21.015855
 20
237.908
 30
0.0
 11
22.32095499999999
 21
237.3
 31
0.0
  0
LINE
  5
62
330
1E
100
AcDbEntity
  8
0
100
AcDbLine
 10
20.26235499999999
 20
240.4659999999999
 30
0.0
 11
24.177555
 21
238.641
 31
0.0
  0
LINE
  5
63
330
1E
100
AcDbEntity
  8
0
100
AcDbLine
 10
11.927955
 20
243.0369999999999
 30
0.0
 11
15.582195
 21
241.333
 31
0.0
  0
LINE
  5
64
330
1E
100
AcDbEntity
  8
0
100
AcDbLine
 10
11.951225
 20
243.238
 30
0.0
 11
15.66346499999999
 21
241.507
 31
0.0
  0
LINE
  5
65
330
1E
100
AcDbEntity
  8
0
100
AcDbLine
 10
16.086085
 20
242.414
 30
0.0
 11
20.26235499999999
 21
240.4659999999999
 31
0.0
  0
LINE
  5
66
330
1E
100
AcDbEntity
  8
0
100
AcDbLine
 10
11.909815
 20
244.361
 30
0.0
 11
16.086085
 21
242.414
 31
0.0
  0
LINE
  5
68
330
1E
100
AcDbEntity
  8
0
100
AcDbLine
 10
18.036625
 20
246.5969999999999
 30
0.0
 11
22.212855
 21
244.649
 31
0.0
  0
LINE
  5
69
330
1E
100
AcDbEntity
  8
0
100
AcDbLine
 10
22.82695499999999
 20
236.851
 30
0.0
 11
23.120555
 21
236.714
 31
0.0
  0
LINE
  5
6A
330
1E
100
AcDbEntity
  8
0
100
AcDbLine
 10
23.120555
 20
236.714
 30
0.0
 11
23.39765499999999
 21
236.797
 31
0.0
  0
LINE
  5
6B
330
1E
100
AcDbEntity
  8
0
100
AcDbLine
 10
23.10395499999999
 20
236.934
 30
0.0
 11
23.39765499999999
 21
236.797
 31
0.0
  0
LINE
  5
6C
330
1E
100
AcDbEntity
  8
0
100
AcDbLine
 10
23.39765499999999
 20
236.797
 30
0.0
 11
23.7389876724465
 21
237.5293527295979
 31
0.0
  0
LINE
  5
6D
330
1E
100
AcDbEntity
  8
0
100
AcDbLine
 10
19.236455
 20
239.629
 30
0.0
 11
27.820955
 21
235.6259999999999
 31
0.0
  0
LINE
  5
6E
330
1E
100
AcDbEntity
  8
0
100
AcDbLine
 10
23.8201731404069
 20
237.7035417359949
 30
0.0
 11
25.93015499999999
 21
236.7199999999999
 31
0.0
  0
LINE
  5
6F
330
1E
100
AcDbEntity
  8
0
100
AcDbLine
 10
23.7389876724465
 20
237.5293527295979
 30
0.0
 11
25.558855
 21
236.681
 31
0.0
  0
LINE
  5
70
330
1E
100
AcDbEntity
  8
0
100
AcDbLine
 10
22.85595499999999
 20
238.153
 30
0.0
 11
25.93015499999999
 21
236.7199999999999
 31
0.0
  0
LINE
  5
71
330
1E
100
AcDbEntity
  8
0
100
AcDbLine
 10
22.32095499999999
 20
237.3
 30
0.0
 11
23.10395499999999
 21
236.934
 31
0.0
  0
LINE
  5
72
330
1E
100
AcDbEntity
  8
0
100
AcDbLine
 10
27.820955
 20
235.6259999999999
 30
0.0
 11
29.73505499999999
 21
234.7329999999999
 31
0.0
  0
LINE
  5
73
330
1E
100
AcDbEntity
  8
0
100
AcDbLine
 10
28.250255
 20
235.638
 30
0.0
 11
29.642355
 21
234.989
 31
0.0
  0
LINE
  5
74
330
1E
100
AcDbEntity
  8
0
100
AcDbLine
 10
25.93015499999999
 20
236.7199999999999
 30
0.0
 11
28.250255
 21
235.638
 31
0.0
  0
LINE
  5
75
330
1E
100
AcDbEntity
  8
0
100
AcDbLine
 10
27.636055
 20
237.028
 30
0.0
 11
30.24625499999999
 21
235.8109999999999
 31
0.0
  0
LINE
  5
76
330
1E
100
AcDbEntity
  8
0
100
AcDbLine
 10
24.177555
 20
238.641
 30
0.0
 11
27.636055
 21
237.028
 31
0.0
  0
LINE
  5
78
330
1E
100
AcDbEntity
  8
0
100
AcDbLine
 10
26.12815499999999
 20
242.8229999999999
 30
0.0
 11
29.586655
 21
241.2109999999999
 31
0.0
  0
LINE
  5
79
330
1E
100
AcDbEntity
  8
0
100
AcDbLine
 10
29.73505499999999
 20
234.7329999999999
 30
0.0
 11
30.164355
 21
234.745
 31
0.0
  0
LINE
  5
7A
330
1E
100
AcDbEntity
  8
0
100
AcDbLine
 10
29.642355
 20
234.989
 30
0.0
 11
30.164355
 21
234.745
 31
0.0
  0
LINE
  5
7B
330
1E
100
AcDbEntity
  8
0
100
AcDbLine
 10
30.164355
 20
234.745
 30
0.0
 11
30.505852490445
 21
235.477610453978
 31
0.0
  0
LINE
  5
7C
330
1E
100
AcDbEntity
  8
0
100
AcDbLine
 10
30.505852490445
 20
235.477610453978
 30
0.0
 11
31.33955499999999
 21
235.089
 31
0.0
  0
LINE
  5
7D
330
1E
100
AcDbEntity
  8
0
100
AcDbLine
 10
31.926855
 20
234.8149999999999
 30
0.0
 11
32.39965499999999
 21
234.807
 31
0.0
  0
LINE
  5
7E
330
1E
100
AcDbEntity
  8
0
100
AcDbLine
 10
31.812355
 20
235.08
 30
0.0
 11
32.39965499999999
 21
234.807
 31
0.0
  0
LINE
  5
7F
330
1E
100
AcDbEntity
  8
0
100
AcDbLine
 10
23.90055499999999
 20
238.558
 30
0.0
 11
31.926855
 21
234.8149999999999
 31
0.0
  0
LINE
  5
80
330
1E
100
AcDbEntity
  8
0
100
AcDbLine
 10
30.24625499999999
 20
235.8109999999999
 30
0.0
 11
31.812355
 21
235.08
 31
0.0
  0
LINE
  5
81
330
1E
100
AcDbEntity
  8
0
100
AcDbLine
 10
32.39965499999999
 20
234.807
 30
0.0
 11
34.350155
 21
238.989
 31
0.0
  0
LINE
  5
82
330
1E
100
AcDbEntity
  8
0
100
AcDbLine
 10
32.19675499999999
 20
239.994
 30
0.0
 11
33.762855
 21
239.263
 31
0.0
  0
LINE
  5
84
330
1E
100
AcDbEntity
  8
0
100
AcDbLine
 10
29.586655
 20
241.2109999999999
 30
0.0
 11
32.19675499999999
 21
239.994
 31
0.0
  0
LINE
  5
88
330
1E
100
AcDbEntity
  8
0
100
AcDbLine
 10
22.212855
 20
244.649
 30
0.0
 11
26.12815499999999
 21
242.8229999999999
 31
0.0
  0
LINE
  5
8B
330
1E
100
AcDbEntity
  8
0
100
AcDbLine
 10
13.860365
 20
248.544
 30
0.0
 11
18.036625
 21
246.5969999999999
 31
0.0
  0
LINE
  5
8D
330
1E
100
AcDbEntity
  8
0
100
AcDbLine
 10
33.452655
 20
239.6199999999999
 30
0.0
 11
34.039955
 21
239.3459999999999
 31
0.0
  0
LINE
  5
8E
330
1E
100
AcDbEntity
  8
0
100
AcDbLine
 10
34.039955
 20
239.3459999999999
 30
0.0
 11
34.350155
 21
238.989
 31
0.0
  0
LINE
  5
8F
330
1E
100
AcDbEntity
  8
0
100
AcDbLine
 10
33.762855
 20
239.263
 30
0.0
 11
34.350155
 21
238.989
 31
0.0
  0
LINE
  5
90
330
1E
100
AcDbEntity
  8
0
100
AcDbLine
 10
32.764355
 20
245.497
 30
0.0
 11
60.429155
 21
304.824
 31
0.0
  0
LINE
  5
92
330
1E
100
AcDbEntity
  8
0
100
AcDbLine
 10
32.45065499999999
 20
242.3109999999999
 30
0.0
 11
32.764355
 21
245.497
 31
0.0
  0
LINE
  5
93
330
1E
100
AcDbEntity
  8
0
100
AcDbLine
 10
32.45065499999999
 20
242.3109999999999
 30
0.0
 11
33.525255
 21
239.587
 31
0.0
  0
LINE
  5
96
330
1E
100
AcDbEntity
  8
0
100
AcDbLine
 10
7.727743000000009
 20
257.173
 30
0.0
 11
15.8179271887056
 21
274.522407337526
 31
0.0
  0
LINE
  5
97
330
1E
100
AcDbEntity
  8
0
100
AcDbLine
 10
6.486644999999999
 20
251.982
 30
0.0
 11
9.945114999999999
 21
250.37
 31
0.0
  0
LINE
  5
98
330
1E
100
AcDbEntity
  8
0
100
AcDbLine
 10
9.945114999999999
 20
250.37
 30
0.0
 11
13.860365
 21
248.544
 31
0.0
  0
LINE
  5
9B
330
1E
100
AcDbEntity
  8
0
100
AcDbLine
 10
5.487935000000009
 20
254.884
 30
0.0
 11
7.727742999999999
 21
257.173
 31
0.0
  0
LINE
  5
9C
330
1E
100
AcDbEntity
  8
0
100
AcDbLine
 10
14.006965
 20
275.3349999999999
 30
0.0
 11
15.80572955450409
 21
274.4962494999069
 31
0.0
  0
LINE
  5
9D
330
1E
100
AcDbEntity
  8
0
100
AcDbLine
 10
14.006965
 20
275.3349999999999
 30
0.0
 11
14.037395
 21
275.401
 31
0.0
  0
LINE
  5
9E
330
1E
100
AcDbEntity
  8
0
100
AcDbLine
 10
14.006965
 20
275.3349999999999
 30
0.0
 11
15.80572955450409
 21
274.4962494999069
 31
0.0
  0
LINE
  5
9F
330
1E
100
AcDbEntity
  8
0
100
AcDbLine
 10
14.118535
 20
275.5749999999999
 30
0.0
 11
14.25377499999999
 21
275.865
 31
0.0
  0
LINE
  5
A0
330
1E
100
AcDbEntity
  8
0
100
AcDbLine
 10
14.037395
 20
275.401
 30
0.0
 11
14.118535
 21
275.5749999999999
 31
0.0
  0
LINE
  5
A1
330
1E
100
AcDbEntity
  8
0
100
AcDbLine
 10
14.25377499999999
 20
275.865
 30
0.0
 11
14.43296499999999
 21
276.249
 31
0.0
  0
LINE
  5
A2
330
1E
100
AcDbEntity
  8
0
100
AcDbLine
 10
14.43296499999999
 20
276.249
 30
0.0
 11
14.635825
 21
276.684
 31
0.0
  0
LINE
  5
A3
330
1E
100
AcDbEntity
  8
0
100
AcDbLine
 10
14.852205
 20
277.1479999999999
 30
0.0
 11
30.06645499999999
 21
309.775
 31
0.0
  0
LINE
  5
A4
330
1E
100
AcDbEntity
  8
0
100
AcDbLine
 10
14.635825
 20
276.684
 30
0.0
 11
14.852205
 21
277.1479999999999
 31
0.0
  0
LINE
  5
A5
330
1E
100
AcDbEntity
  8
0
100
AcDbLine
 10
59.94775500000001
 20
305.049
 30
0.0
 11
60.429155
 21
304.824
 31
0.0
  0
LINE
  5
A6
330
1E
100
AcDbEntity
  8
0
100
AcDbLine
 10
7.727742999999999
 20
257.173
 30
0.0
 11
15.8179271887056
 21
274.522407337526
 31
0.0
  0
LINE
  5
A7
330
1E
100
AcDbEntity
  8
0
100
AcDbLine
 10
60.40995500000001
 20
305.245
 30
0.0
 11
60.974555
 21
305.661
 31
0.0
  0
LINE
  5
A8
330
1E
100
AcDbEntity
  8
0
100
AcDbLine
 10
30.28285499999999
 20
310.239
 30
0.0
 11
30.485655
 21
310.674
 31
0.0
  0
LINE
  5
A9
330
1E
100
AcDbEntity
  8
0
100
AcDbLine
 10
30.485655
 20
310.674
 30
0.0
 11
30.664855
 21
311.058
 31
0.0
  0
LINE
  5
AA
330
1E
100
AcDbEntity
  8
0
100
AcDbLine
 10
30.06645499999999
 20
309.775
 30
0.0
 11
30.28285499999999
 21
310.239
 31
0.0
  0
LINE
  5
AB
330
1E
100
AcDbEntity
  8
0
100
AcDbLine
 10
30.800155
 20
311.348
 30
0.0
 11
30.881255
 21
311.5219999999999
 31
0.0
  0
LINE
  5
AC
330
1E
100
AcDbEntity
  8
0
100
AcDbLine
 10
30.911655
 20
311.5879999999999
 30
0.0
 11
32.7107632475007
 21
310.749109602134
 31
0.0
  0
LINE
  5
AD
330
1E
100
AcDbEntity
  8
0
100
AcDbLine
 10
30.881255
 20
311.5219999999999
 30
0.0
 11
30.911655
 21
311.5879999999999
 31
0.0
  0
LINE
  5
AE
330
1E
100
AcDbEntity
  8
0
100
AcDbLine
 10
30.664855
 20
311.058
 30
0.0
 11
30.800155
 21
311.348
 31
0.0
  0
LINE
  5
AF
330
1E
100
AcDbEntity
  8
0
100
AcDbLine
 10
32.6922447825377
 20
310.709396737209
 30
0.0
 11
35.39245499999999
 21
316.5
 31
0.0
  0
LINE
  5
B0
330
1E
100
AcDbEntity
  8
0
100
AcDbLine
 10
32.6922447825377
 20
310.709396737209
 30
0.0
 11
35.39245499999999
 21
316.5
 31
0.0
  0
LINE
  5
B1
330
1E
100
AcDbEntity
  8
0
100
AcDbLine
 10
35.39245499999999
 20
316.5
 30
0.0
 11
36.2638807610735
 21
316.505188381668
 31
0.0
  0
LINE
  5
B2
330
1E
100
AcDbEntity
  8
0
100
AcDbLine
 10
35.39245499999999
 20
316.5
 30
0.0
 11
35.87385499999999
 21
316.2749999999999
 31
0.0
  0
LINE
  5
B3
330
1E
100
AcDbEntity
  8
0
100
AcDbLine
 10
37.31725499999999
 20
316.014
 30
0.0
 11
39.29655499999999
 21
315.091
 31
0.0
  0
LINE
  5
B4
330
1E
100
AcDbEntity
  8
0
100
AcDbLine
 10
35.87385499999999
 20
316.2749999999999
 30
0.0
 11
37.029455
 21
315.736
 31
0.0
  0
LINE
  5
B5
330
1E
100
AcDbEntity
  8
0
100
AcDbLine
 10
37.029455
 20
315.736
 30
0.0
 11
39.051555
 21
314.793
 31
0.0
  0
LINE
  5
B6
330
1E
100
AcDbEntity
  8
0
100
AcDbLine
 10
54.167255
 20
308.156
 30
0.0
 11
56.75565500000001
 21
306.949
 31
0.0
  0
LINE
  5
B7
330
1E
100
AcDbEntity
  8
0
100
AcDbLine
 10
58.735055
 20
306.0259999999999
 30
0.0
 11
59.953155
 21
305.4579999999999
 31
0.0
  0
LINE
  5
B8
330
1E
100
AcDbEntity
  8
0
100
AcDbLine
 10
58.792155
 20
305.5879999999999
 30
0.0
 11
59.94775500000001
 21
305.049
 31
0.0
  0
LINE
  5
B9
330
1E
100
AcDbEntity
  8
0
100
AcDbLine
 10
56.75565500000001
 20
306.949
 30
0.0
 11
58.735055
 21
306.0259999999999
 31
0.0
  0
LINE
  5
BA
330
1E
100
AcDbEntity
  8
0
100
AcDbLine
 10
56.770055
 20
306.531
 30
0.0
 11
58.792155
 21
305.5879999999999
 31
0.0
  0
LINE
  5
BB
330
1E
100
AcDbEntity
  8
0
100
AcDbLine
 10
54.170155
 20
307.744
 30
0.0
 11
56.770055
 21
306.531
 31
0.0
  0
LINE
  5
BC
330
1E
100
AcDbEntity
  8
0
100
AcDbLine
 10
48.02615499999999
 20
311.0199999999999
 30
0.0
 11
51.223555
 21
309.5289999999999
 31
0.0
  0
LINE
  5
BD
330
1E
100
AcDbEntity
  8
0
100
AcDbLine
 10
51.223555
 20
309.5289999999999
 30
0.0
 11
54.167255
 21
308.156
 31
0.0
  0
LINE
  5
BE
330
1E
100
AcDbEntity
  8
0
100
AcDbLine
 10
51.088555
 20
309.18
 30
0.0
 11
54.170155
 21
307.744
 31
0.0
  0
LINE
  5
BF
330
1E
100
AcDbEntity
  8
0
100
AcDbLine
 10
47.910755
 20
310.662
 30
0.0
 11
51.088555
 21
309.18
 31
0.0
  0
LINE
  5
C0
330
1E
100
AcDbEntity
  8
0
100
AcDbLine
 10
39.29655499999999
 20
315.091
 30
0.0
 11
41.884955
 21
313.884
 31
0.0
  0
LINE
  5
C1
330
1E
100
AcDbEntity
  8
0
100
AcDbLine
 10
44.82865499999999
 20
312.5109999999999
 30
0.0
 11
48.02615499999999
 21
311.0199999999999
 31
0.0
  0
LINE
  5
C2
330
1E
100
AcDbEntity
  8
0
100
AcDbLine
 10
41.884955
 20
313.884
 30
0.0
 11
44.82865499999999
 21
312.5109999999999
 31
0.0
  0
LINE
  5
C3
330
1E
100
AcDbEntity
  8
0
100
AcDbLine
 10
41.651555
 20
313.5799999999999
 30
0.0
 11
44.733055
 21
312.144
 31
0.0
  0
LINE
  5
C4
330
1E
100
AcDbEntity
  8
0
100
AcDbLine
 10
44.733055
 20
312.144
 30
0.0
 11
47.910755
 21
310.662
 31
0.0
  0
LINE
  5
C5
330
1E
100
AcDbEntity
  8
0
100
AcDbLine
 10
39.051555
 20
314.793
 30
0.0
 11
41.651555
 21
313.5799999999999
 31
0.0
  0
LINE
  5
C6
330
1E
100
AcDbEntity
  8
0
100
AcDbLine
 10
36.09915499999999
 20
316.582
 30
0.0
 11
36.2638807610735
 21
316.505188381668
 31
0.0
  0
LINE
  5
C7
330
1E
100
AcDbEntity
  8
0
100
AcDbLine
 10
36.09915499999999
 20
316.582
 30
0.0
 11
37.31725499999999
 21
316.014
 31
0.0
  0
LINE
  5
C8
330
1E
100
AcDbEntity
  8
0
100
AcDbLine
 10
35.642355
 20
316.795
 30
0.0
 11
36.09915499999999
 21
316.582
 31
0.0
  0
LINE
  5
C9
330
1E
100
AcDbEntity
  8
0
100
AcDbLine
 10
55.758855
 20
360.4999999999999
 30
0.0
 11
63.098755
 21
371.485
 31
0.0
  0
LINE
  5
CA
330
1E
100
AcDbEntity
  8
0
100
AcDbLine
 10
51.795055
 20
352.1999999999999
 30
0.0
 11
55.758855
 21
360.4999999999999
 31
0.0
  0
LINE
  5
CB
330
1E
100
AcDbEntity
  8
0
100
AcDbLine
 10
35.59785499999999
 20
317.494
 30
0.0
 11
51.795055
 21
352.1999999999999
 31
0.0
  0
LINE
  5
CC
330
1E
100
AcDbEntity
  8
0
100
AcDbLine
 10
35.59785499999999
 20
317.494
 30
0.0
 11
35.642355
 21
316.795
 31
0.0
  0
LINE
  5
CD
330
1E
100
AcDbEntity
  8
0
100
AcDbLine
 10
59.8734981523486
 20
305.4951439860979
 30
0.0
 11
59.953155
 21
305.4579999999999
 31
0.0
  0
LINE
  5
CE
330
1E
100
AcDbEntity
  8
0
100
AcDbLine
 10
59.8734981523486
 20
305.4951439860979
 30
0.0
 11
60.429155
 21
304.824
 31
0.0
  0
LINE
  5
CF
330
1E
100
AcDbEntity
  8
0
100
AcDbLine
 10
59.953155
 20
305.4579999999999
 30
0.0
 11
60.40995500000001
 21
305.245
 31
0.0
  0
LINE
  5
D0
330
1E
100
AcDbEntity
  8
0
100
AcDbLine
 10
63.098755
 20
371.485
 30
0.0
 11
71.80965500000001
 21
381.418
 31
0.0
  0
LINE
  5
D1
330
1E
100
AcDbEntity
  8
0
100
AcDbLine
 10
85.31265500000001
 20
354.4399999999999
 30
0.0
 11
91.60865499999999
 21
361.619
 31
0.0
  0
LINE
  5
D2
330
1E
100
AcDbEntity
  8
0
100
AcDbLine
 10
80.00755500000002
 20
346.4999999999999
 30
0.0
 11
85.31265500000001
 21
354.4399999999999
 31
0.0
  0
LINE
  5
D3
330
1E
100
AcDbEntity
  8
0
100
AcDbLine
 10
98.78785500000001
 20
367.915
 30
0.0
 11
106.727455
 21
373.22
 31
0.0
  0
LINE
  5
D4
330
1E
100
AcDbEntity
  8
0
100
AcDbLine
 10
115.2914549999999
 20
377.443
 30
0.0
 11
124.3334549999999
 21
380.513
 31
0.0
  0
LINE
  5
D5
330
1E
100
AcDbEntity
  8
0
100
AcDbLine
 10
106.727455
 20
373.22
 30
0.0
 11
115.2914549999999
 21
377.443
 31
0.0
  0
LINE
  5
D6
330
1E
100
AcDbEntity
  8
0
100
AcDbLine
 10
91.60865499999999
 20
361.619
 30
0.0
 11
98.78785500000001
 21
367.915
 31
0.0
  0
LINE
  5
D7
330
1E
100
AcDbEntity
  8
0
100
AcDbLine
 10
77.171655
 20
340.3659999999999
 30
0.0
 11
80.00755500000002
 21
346.4999999999999
 31
0.0
  0
LINE
  5
D8
330
1E
100
AcDbEntity
  8
0
100
AcDbLine
 10
124.3334549999999
 20
380.513
 30
0.0
 11
133.699455
 21
382.375
 31
0.0
  0
LINE
  5
D9
330
1E
100
AcDbEntity
  8
0
100
AcDbLine
 10
171.163455
 20
377.443
 30
0.0
 11
179.727455
 21
373.22
 31
0.0
  0
LINE
  5
DA
330
1E
100
AcDbEntity
  8
0
100
AcDbLine
 10
187.667455
 20
367.915
 30
0.0
 11
194.8464549999999
 21
361.619
 31
0.0
  0
LINE
  5
DB
330
1E
100
AcDbEntity
  8
0
100
AcDbLine
 10
179.727455
 20
373.22
 30
0.0
 11
187.667455
 21
367.915
 31
0.0
  0
LINE
  5
DC
330
1E
100
AcDbEntity
  8
0
100
AcDbLine
 10
71.80965500000001
 20
381.418
 30
0.0
 11
81.74255500000001
 21
390.129
 31
0.0
  0
LINE
  5
DD
330
1E
100
AcDbEntity
  8
0
100
AcDbLine
 10
162.1214549999999
 20
380.513
 30
0.0
 11
171.163455
 21
377.443
 31
0.0
  0
LINE
  5
DE
330
1E
100
AcDbEntity
  8
0
100
AcDbLine
 10
206.1094549999999
 20
-0.0000000000000121
 30
0.0
 11
208.6094549999999
 21
-0.0000000000000123
 31
0.0
  0
LINE
  5
DF
330
1E
100
AcDbEntity
  8
0
100
AcDbLine
 10
205.2274549999999
 20
-0.0000000000000121
 30
0.0
 11
206.1094549999999
 21
-0.0000000000000121
 31
0.0
  0
LINE
  5
E0
330
1E
100
AcDbEntity
  8
0
100
AcDbLine
 10
205.2274549999999
 20
-0.0000000000000121
 30
0.0
 11
205.2274549999999
 21
119.4229999999999
 31
0.0
  0
LINE
  5
E1
330
1E
100
AcDbEntity
  8
0
100
AcDbLine
 10
206.227455
 20
69.2663
 30
0.0
 11
206.227455
 21
80.3795
 31
0.0
  0
LINE
  5
E2
330
1E
100
AcDbEntity
  8
0
100
AcDbLine
 10
206.227455
 20
80.3795
 30
0.0
 11
206.227455
 21
69.2663
 31
0.0
  0
LINE
  5
E3
330
1E
100
AcDbEntity
  8
0
100
AcDbLine
 10
206.227455
 20
80.3795
 30
0.0
 11
206.300687411832
 21
80.8923862656308
 31
0.0
  0
LINE
  5
E4
330
1E
100
AcDbEntity
  8
0
100
AcDbLine
 10
206.1094549999999
 20
119.4229999999999
 30
0.0
 11
208.6094549999999
 21
119.4229999999999
 31
0.0
  0
LINE
  5
E5
330
1E
100
AcDbEntity
  8
0
100
AcDbLine
 10
205.595455
 20
119.808
 30
0.0
 11
206.330455
 21
120.0
 31
0.0
  0
LINE
  5
E6
330
1E
100
AcDbEntity
  8
0
100
AcDbLine
 10
205.2274549999999
 20
119.4229999999999
 30
0.0
 11
205.595455
 21
119.808
 31
0.0
  0
LINE
  5
E7
330
1E
100
AcDbEntity
  8
0
100
AcDbLine
 10
205.2274549999999
 20
119.4229999999999
 30
0.0
 11
205.2274549999999
 21
-0.0000000000000228
 31
0.0
  0
LINE
  5
E8
330
1E
100
AcDbEntity
  8
0
100
AcDbLine
 10
205.2274549999999
 20
119.4229999999999
 30
0.0
 11
206.1094549999999
 21
119.4229999999999
 31
0.0
  0
LINE
  5
E9
330
1E
100
AcDbEntity
  8
0
100
AcDbLine
 10
206.227455
 20
90.21469999999998
 30
0.0
 11
206.227455
 21
81.37999999999999
 31
0.0
  0
LINE
  5
EA
330
1E
100
AcDbEntity
  8
0
100
AcDbLine
 10
206.227455
 20
90.21469999999998
 30
0.0
 11
207.074455
 21
96.1466
 31
0.0
  0
LINE
  5
EB
330
1E
100
AcDbEntity
  8
0
100
AcDbLine
 10
206.330455
 20
120.0
 30
0.0
 11
207.212455
 21
120.0
 31
0.0
  0
LINE
  5
EC
330
1E
100
AcDbEntity
  8
0
100
AcDbLine
 10
206.227455
 20
81.37999999999999
 30
0.0
 11
207.074455
 21
75.7403
 31
0.0
  0
LINE
  5
ED
330
1E
100
AcDbEntity
  8
0
100
AcDbLine
 10
206.227455
 20
81.37999999999999
 30
0.0
 11
206.227455
 21
90.21469999999998
 31
0.0
  0
LINE
  5
EE
330
1E
100
AcDbEntity
  8
0
100
AcDbLine
 10
201.142455
 20
354.4399999999999
 30
0.0
 11
206.4474549999999
 21
346.4999999999999
 31
0.0
  0
LINE
  5
EF
330
1E
100
AcDbEntity
  8
0
100
AcDbLine
 10
208.6094549999999
 20
-0.0000000000000123
 30
0.0
 11
212.5804549999999
 21
-0.0000000000000125
 31
0.0
  0
LINE
  5
F0
330
1E
100
AcDbEntity
  8
0
100
AcDbLine
 10
207.427455
 20
74.66509999999999
 30
0.0
 11
209.7564549999999
 21
69.1423
 31
0.0
  0
LINE
  5
F1
330
1E
100
AcDbEntity
  8
0
100
AcDbLine
 10
207.366405046936
 20
75.0877429867579
 30
0.0
 11
207.427455
 21
74.66509999999999
 31
0.0
  0
LINE
  5
F2
330
1E
100
AcDbEntity
  8
0
100
AcDbLine
 10
212.5804549999999
 20
-0.0000000000000125
 30
0.0
 11
217.8014549999999
 21
-0.0000000000000128
 31
0.0
  0
LINE
  5
F3
330
1E
100
AcDbEntity
  8
0
100
AcDbLine
 10
213.4984549999999
 20
64.3695
 30
0.0
 11
218.4394549999999
 21
60.7558
 31
0.0
  0
LINE
  5
F4
330
1E
100
AcDbEntity
  8
0
100
AcDbLine
 10
209.7564549999999
 20
69.1423
 30
0.0
 11
213.4984549999999
 21
64.3695
 31
0.0
  0
LINE
  5
F5
330
1E
100
AcDbEntity
  8
0
100
AcDbLine
 10
213.4984549999999
 20
74.2046
 30
0.0
 11
218.4394549999999
 21
70.59090000000001
 31
0.0
  0
LINE
  5
F6
330
1E
100
AcDbEntity
  8
0
100
AcDbLine
 10
213.2864549999999
 20
65.8027
 30
0.0
 11
218.298455
 21
62.28419999999999
 31
0.0
  0
LINE
  5
F7
330
1E
100
AcDbEntity
  8
0
100
AcDbLine
 10
209.474455
 20
70.3759
 30
0.0
 11
213.2864549999999
 21
65.8027
 31
0.0
  0
LINE
  5
F8
330
1E
100
AcDbEntity
  8
0
100
AcDbLine
 10
209.7564549999999
 20
78.9774
 30
0.0
 11
213.4984549999999
 21
74.2046
 31
0.0
  0
LINE
  5
FA
330
1E
100
AcDbEntity
  8
0
100
AcDbLine
 10
207.212455
 20
120.0
 30
0.0
 11
209.565455
 21
120.0
 31
0.0
  0
LINE
  5
FB
330
1E
100
AcDbEntity
  8
0
100
AcDbLine
 10
209.565455
 20
120.0
 30
0.0
 11
213.3154549999999
 21
120.0
 31
0.0
  0
LINE
  5
FD
330
1E
100
AcDbEntity
  8
0
100
AcDbLine
 10
208.6094549999999
 20
119.4229999999999
 30
0.0
 11
212.5804549999999
 21
119.4229999999999
 31
0.0
  0
LINE
  5
FF
330
1E
100
AcDbEntity
  8
0
100
AcDbLine
 10
213.3154549999999
 20
120.0
 30
0.0
 11
218.3154549999999
 21
120.0
 31
0.0
  0
LINE
  5
101
330
1E
100
AcDbEntity
  8
0
100
AcDbLine
 10
212.5804549999999
 20
119.4229999999999
 30
0.0
 11
217.8014549999999
 21
119.4229999999999
 31
0.0
  0
LINE
  5
102
330
1E
100
AcDbEntity
  8
0
100
AcDbLine
 10
213.2864549999999
 20
106.579
 30
0.0
 11
218.298455
 21
110.26
 31
0.0
  0
LINE
  5
104
330
1E
100
AcDbEntity
  8
0
100
AcDbLine
 10
209.474455
 20
101.7379999999999
 30
0.0
 11
213.2864549999999
 21
106.579
 31
0.0
  0
LINE
  5
105
330
1E
100
AcDbEntity
  8
0
100
AcDbLine
 10
207.074455
 20
96.1466
 30
0.0
 11
209.474455
 21
101.7379999999999
 31
0.0
  0
LINE
  5
106
330
1E
100
AcDbEntity
  8
0
100
AcDbLine
 10
207.427455
 20
84.5002
 30
0.0
 11
209.7564549999999
 21
78.9774
 31
0.0
  0
LINE
  5
107
330
1E
100
AcDbEntity
  8
0
100
AcDbLine
 10
206.580455
 20
90.36399999999998
 30
0.0
 11
207.427455
 21
84.5002
 31
0.0
  0
LINE
  5
109
330
1E
100
AcDbEntity
  8
0
100
AcDbLine
 10
207.074455
 20
75.7403
 30
0.0
 11
209.474455
 21
70.3759
 31
0.0
  0
LINE
  5
10A
330
1E
100
AcDbEntity
  8
0
100
AcDbLine
 10
217.8014549999999
 20
-0.0000000000000128
 30
0.0
 11
223.8304549999999
 21
-0.0000000000000132
 31
0.0
  0
LINE
  5
10B
330
1E
100
AcDbEntity
  8
0
100
AcDbLine
 10
223.8304549999999
 20
-0.0000000000000132
 30
0.0
 11
230.2274549999999
 21
-0.0000000000000136
 31
0.0
  0
LINE
  5
10C
330
1E
100
AcDbEntity
  8
0
100
AcDbLine
 10
218.4394549999999
 20
60.7558
 30
0.0
 11
224.156455
 21
58.5057
 31
0.0
  0
LINE
  5
10D
330
1E
100
AcDbEntity
  8
0
100
AcDbLine
 10
218.298455
 20
62.28419999999999
 30
0.0
 11
224.0864549999999
 21
60.06899999999999
 31
0.0
  0
LINE
  5
10E
330
1E
100
AcDbEntity
  8
0
100
AcDbLine
 10
230.2274549999999
 20
-0.0000000000000136
 30
0.0
 11
236.6244549999999
 21
-0.000000000000014
 31
0.0
  0
LINE
  5
10F
330
1E
100
AcDbEntity
  8
0
100
AcDbLine
 10
224.156455
 20
58.5057
 30
0.0
 11
230.2274549999999
 21
57.6875
 31
0.0
  0
LINE
  5
110
330
1E
100
AcDbEntity
  8
0
100
AcDbLine
 10
230.2274549999999
 20
57.6875
 30
0.0
 11
236.2984549999999
 21
58.5057
 31
0.0
  0
LINE
  5
111
330
1E
100
AcDbEntity
  8
0
100
AcDbLine
 10
224.0864549999999
 20
60.06899999999999
 30
0.0
 11
230.2274549999999
 21
59.23300000000001
 31
0.0
  0
LINE
  5
113
330
1E
100
AcDbEntity
  8
0
100
AcDbLine
 10
216.2274549999999
 20
120.0
 30
0.0
 11
216.2274549999999
 21
310.0
 31
0.0
  0
LINE
  5
114
330
1E
100
AcDbEntity
  8
0
100
AcDbLine
 10
218.3154549999999
 20
120.0
 30
0.0
 11
224.0514549999999
 21
120.0
 31
0.0
  0
LINE
  5
115
330
1E
100
AcDbEntity
  8
0
100
AcDbLine
 10
217.8014549999999
 20
119.4229999999999
 30
0.0
 11
223.8304549999999
 21
119.4229999999999
 31
0.0
  0
LINE
  5
116
330
1E
100
AcDbEntity
  8
0
100
AcDbLine
 10
224.0514549999999
 20
120.0
 30
0.0
 11
226.2274549999999
 21
120.0
 31
0.0
  0
LINE
  5
117
330
1E
100
AcDbEntity
  8
0
100
AcDbLine
 10
223.8304549999999
 20
119.4229999999999
 30
0.0
 11
226.2274549999999
 21
119.4229999999999
 31
0.0
  0
LINE
  5
118
330
1E
100
AcDbEntity
  8
0
100
AcDbLine
 10
218.298455
 20
110.26
 30
0.0
 11
224.0864549999999
 21
112.579
 31
0.0
  0
LINE
  5
11A
330
1E
100
AcDbEntity
  8
0
100
AcDbLine
 10
224.0864549999999
 20
112.579
 30
0.0
 11
227.587317447436
 21
113.0453255955059
 31
0.0
  0
LINE
  5
11B
330
1E
100
AcDbEntity
  8
0
100
AcDbLine
 10
218.4394549999999
 20
70.59090000000001
 30
0.0
 11
224.156455
 21
68.3409
 31
0.0
  0
LINE
  5
11C
330
1E
100
AcDbEntity
  8
0
100
AcDbLine
 10
226.2274549999999
 20
112.864187754437
 30
0.0
 11
226.2274549999999
 21
175.2579999999999
 31
0.0
  0
LINE
  5
11D
330
1E
100
AcDbEntity
  8
0
100
AcDbLine
 10
224.156455
 20
68.3409
 30
0.0
 11
230.2274549999999
 21
67.5227
 31
0.0
  0
LINE
  5
11E
330
1E
100
AcDbEntity
  8
0
100
AcDbLine
 10
230.2274549999999
 20
67.5227
 30
0.0
 11
236.2984549999999
 21
68.3409
 31
0.0
  0
LINE
  5
11F
330
1E
100
AcDbEntity
  8
0
100
AcDbLine
 10
255.2274549999999
 20
-0.0000000000000151
 30
0.0
 11
255.2274549999999
 21
119.4229999999999
 31
0.0
  0
LINE
  5
120
330
1E
100
AcDbEntity
  8
0
100
AcDbLine
 10
247.874455
 20
-0.0000000000000147
 30
0.0
 11
251.8454549999999
 21
-0.0000000000000149
 31
0.0
  0
LINE
  5
121
330
1E
100
AcDbEntity
  8
0
100
AcDbLine
 10
251.8454549999999
 20
-0.0000000000000149
 30
0.0
 11
254.3454549999999
 21
-0.0000000000000151
 31
0.0
  0
LINE
  5
122
330
1E
100
AcDbEntity
  8
0
100
AcDbLine
 10
242.6534549999999
 20
-0.0000000000000144
 30
0.0
 11
247.874455
 21
-0.0000000000000147
 31
0.0
  0
LINE
  5
123
330
1E
100
AcDbEntity
  8
0
100
AcDbLine
 10
236.6244549999999
 20
-0.000000000000014
 30
0.0
 11
242.6534549999999
 21
-0.0000000000000144
 31
0.0
  0
LINE
  5
124
330
1E
100
AcDbEntity
  8
0
100
AcDbLine
 10
254.3454549999999
 20
-0.0000000000000151
 30
0.0
 11
255.2274549999999
 21
-0.0000000000000151
 31
0.0
  0
LINE
  5
125
330
1E
100
AcDbEntity
  8
0
100
AcDbLine
 10
236.2984549999999
 20
58.5057
 30
0.0
 11
242.0154549999999
 21
60.7558
 31
0.0
  0
LINE
  5
126
330
1E
100
AcDbEntity
  8
0
100
AcDbLine
 10
242.0154549999999
 20
60.7558
 30
0.0
 11
246.9564549999999
 21
64.3695
 31
0.0
  0
LINE
  5
127
330
1E
100
AcDbEntity
  8
0
100
AcDbLine
 10
234.2274549999999
 20
112.864187754437
 30
0.0
 11
234.2274549999999
 21
175.2579999999999
 31
0.0
  0
LINE
  5
12B
330
1E
100
AcDbEntity
  8
0
100
AcDbLine
 10
236.3684549999999
 20
112.579
 30
0.0
 11
242.1564549999999
 21
110.26
 31
0.0
  0
LINE
  5
12C
330
1E
100
AcDbEntity
  8
0
100
AcDbLine
 10
234.2274549999999
 20
120.0
 30
0.0
 11
236.4034549999999
 21
120.0
 31
0.0
  0
LINE
  5
12D
330
1E
100
AcDbEntity
  8
0
100
AcDbLine
 10
236.4034549999999
 20
120.0
 30
0.0
 11
242.1394549999999
 21
120.0
 31
0.0
  0
LINE
  5
12E
330
1E
100
AcDbEntity
  8
0
100
AcDbLine
 10
236.6244549999999
 20
119.4229999999999
 30
0.0
 11
242.6534549999999
 21
119.4229999999999
 31
0.0
  0
LINE
  5
12F
330
1E
100
AcDbEntity
  8
0
100
AcDbLine
 10
234.2274549999999
 20
119.4229999999999
 30
0.0
 11
236.6244549999999
 21
119.4229999999999
 31
0.0
  0
LINE
  5
130
330
1E
100
AcDbEntity
  8
0
100
AcDbLine
 10
233.0514549999999
 20
113.020834554633
 30
0.0
 11
236.3684549999999
 21
112.579
 31
0.0
  0
LINE
  5
131
330
1E
100
AcDbEntity
  8
0
100
AcDbLine
 10
242.1394549999999
 20
120.0
 30
0.0
 11
247.1394549999999
 21
120.0
 31
0.0
  0
LINE
  5
132
330
1E
100
AcDbEntity
  8
0
100
AcDbLine
 10
242.1564549999999
 20
110.26
 30
0.0
 11
247.1684549999999
 21
106.579
 31
0.0
  0
LINE
  5
133
330
1E
100
AcDbEntity
  8
0
100
AcDbLine
 10
242.0154549999999
 20
70.59090000000001
 30
0.0
 11
246.9564549999999
 21
74.2046
 31
0.0
  0
LINE
  5
134
330
1E
100
AcDbEntity
  8
0
100
AcDbLine
 10
236.2984549999999
 20
68.3409
 30
0.0
 11
242.0154549999999
 21
70.59090000000001
 31
0.0
  0
LINE
  5
135
330
1E
100
AcDbEntity
  8
0
100
AcDbLine
 10
246.9564549999999
 20
64.3695
 30
0.0
 11
250.6984549999999
 21
69.1423
 31
0.0
  0
LINE
  5
136
330
1E
100
AcDbEntity
  8
0
100
AcDbLine
 10
250.6984549999999
 20
69.1423
 30
0.0
 11
253.0274549999999
 21
74.66509999999999
 31
0.0
  0
LINE
  5
137
330
1E
100
AcDbEntity
  8
0
100
AcDbLine
 10
246.9564549999999
 20
74.2046
 30
0.0
 11
250.6984549999999
 21
78.9774
 31
0.0
  0
LINE
  5
138
330
1E
100
AcDbEntity
  8
0
100
AcDbLine
 10
247.1684549999999
 20
65.7028
 30
0.0
 11
250.9804549999999
 21
70.27600000000001
 31
0.0
  0
LINE
  5
139
330
1E
100
AcDbEntity
  8
0
100
AcDbLine
 10
253.0274549999999
 20
74.66509999999999
 30
0.0
 11
253.0680475838629
 21
74.94611857615119
 31
0.0
  0
LINE
  5
13A
330
1E
100
AcDbEntity
  8
0
100
AcDbLine
 10
254.227455
 20
69.03319999999999
 30
0.0
 11
254.227455
 21
80.3795
 31
0.0
  0
LINE
  5
13B
330
1E
100
AcDbEntity
  8
0
100
AcDbLine
 10
250.9804549999999
 20
70.27600000000001
 30
0.0
 11
253.3804549999999
 21
75.64499999999999
 31
0.0
  0
LINE
  5
13C
330
1E
100
AcDbEntity
  8
0
100
AcDbLine
 10
254.154820775264
 20
80.8881968372332
 30
0.0
 11
254.227455
 21
80.3795
 31
0.0
  0
LINE
  5
13D
330
1E
100
AcDbEntity
  8
0
100
AcDbLine
 10
254.227455
 20
80.3795
 30
0.0
 11
254.227455
 21
69.03319999999999
 31
0.0
  0
LINE
  5
13E
330
1E
100
AcDbEntity
  8
0
100
AcDbLine
 10
250.6984549999999
 20
78.9774
 30
0.0
 11
253.0274549999999
 21
84.5002
 31
0.0
  0
LINE
  5
142
330
1E
100
AcDbEntity
  8
0
100
AcDbLine
 10
247.1394549999999
 20
120.0
 30
0.0
 11
250.8894549999999
 21
120.0
 31
0.0
  0
LINE
  5
143
330
1E
100
AcDbEntity
  8
0
100
AcDbLine
 10
250.8894549999999
 20
120.0
 30
0.0
 11
253.2424549999999
 21
120.0
 31
0.0
  0
LINE
  5
145
330
1E
100
AcDbEntity
  8
0
100
AcDbLine
 10
247.874455
 20
119.4229999999999
 30
0.0
 11
251.8454549999999
 21
119.4229999999999
 31
0.0
  0
LINE
  5
146
330
1E
100
AcDbEntity
  8
0
100
AcDbLine
 10
242.6534549999999
 20
119.4229999999999
 30
0.0
 11
247.874455
 21
119.4229999999999
 31
0.0
  0
LINE
  5
147
330
1E
100
AcDbEntity
  8
0
100
AcDbLine
 10
247.1684549999999
 20
106.579
 30
0.0
 11
250.9804549999999
 21
101.7379999999999
 31
0.0
  0
LINE
  5
148
330
1E
100
AcDbEntity
  8
0
100
AcDbLine
 10
253.2424549999999
 20
120.0
 30
0.0
 11
254.124455
 21
120.0
 31
0.0
  0
LINE
  5
149
330
1E
100
AcDbEntity
  8
0
100
AcDbLine
 10
251.8454549999999
 20
119.4229999999999
 30
0.0
 11
254.3454549999999
 21
119.4229999999999
 31
0.0
  0
LINE
  5
14A
330
1E
100
AcDbEntity
  8
0
100
AcDbLine
 10
254.124455
 20
120.0
 30
0.0
 11
254.8594549999999
 21
119.808
 31
0.0
  0
LINE
  5
14C
330
1E
100
AcDbEntity
  8
0
100
AcDbLine
 10
250.9804549999999
 20
101.7379999999999
 30
0.0
 11
253.3804549999999
 21
96.1466
 31
0.0
  0
LINE
  5
14D
330
1E
100
AcDbEntity
  8
0
100
AcDbLine
 10
253.3804549999999
 20
96.1466
 30
0.0
 11
254.227455
 21
90.21469999999998
 31
0.0
  0
LINE
  5
14E
330
1E
100
AcDbEntity
  8
0
100
AcDbLine
 10
254.227455
 20
90.21469999999998
 30
0.0
 11
254.227455
 21
81.37999999999999
 31
0.0
  0
LINE
  5
14F
330
1E
100
AcDbEntity
  8
0
100
AcDbLine
 10
253.0274549999999
 20
84.5002
 30
0.0
 11
253.874455
 21
90.36399999999998
 31
0.0
  0
LINE
  5
150
330
1E
100
AcDbEntity
  8
0
100
AcDbLine
 10
254.3454549999999
 20
119.4229999999999
 30
0.0
 11
255.2274549999999
 21
119.4229999999999
 31
0.0
  0
LINE
  5
151
330
1E
100
AcDbEntity
  8
0
100
AcDbLine
 10
254.8594549999999
 20
119.808
 30
0.0
 11
255.2274549999999
 21
119.4229999999999
 31
0.0
  0
LINE
  5
152
330
1E
100
AcDbEntity
  8
0
100
AcDbLine
 10
255.2274549999999
 20
119.4229999999999
 30
0.0
 11
255.2274549999999
 21
-0.0000000000000228
 31
0.0
  0
LINE
  5
153
330
1E
100
AcDbEntity
  8
0
100
AcDbLine
 10
254.227455
 20
81.37999999999999
 30
0.0
 11
254.227455
 21
90.21469999999998
 31
0.0
  0
LINE
  5
154
330
1E
100
AcDbEntity
  8
0
100
AcDbLine
 10
253.3804549999999
 20
75.64499999999999
 30
0.0
 11
254.227455
 21
81.37999999999999
 31
0.0
  0
LINE
  5
155
330
1E
100
AcDbEntity
  8
0
100
AcDbLine
 10
242.1564549999999
 20
62.18899999999999
 30
0.0
 11
247.1684549999999
 21
65.7028
 31
0.0
  0
LINE
  5
156
330
1E
100
AcDbEntity
  8
0
100
AcDbLine
 10
236.3684549999999
 20
59.99929999999999
 30
0.0
 11
242.1564549999999
 21
62.18899999999999
 31
0.0
  0
LINE
  5
157
330
1E
100
AcDbEntity
  8
0
100
AcDbLine
 10
230.2274549999999
 20
59.23300000000001
 30
0.0
 11
236.3684549999999
 21
59.99929999999999
 31
0.0
  0
LINE
  5
158
330
1E
100
AcDbEntity
  8
0
100
AcDbLine
 10
227.4394549999999
 20
175.4229999999999
 30
0.0
 11
228.2624549999999
 21
175.4229999999999
 31
0.0
  0
LINE
  5
159
330
1E
100
AcDbEntity
  8
0
100
AcDbLine
 10
228.2624549999999
 20
175.4229999999999
 30
0.0
 11
229.2154549999999
 21
175.4229999999999
 31
0.0
  0
LINE
  5
15A
330
1E
100
AcDbEntity
  8
0
100
AcDbLine
 10
229.2154549999999
 20
175.4229999999999
 30
0.0
 11
230.2274549999999
 21
175.4229999999999
 31
0.0
  0
LINE
  5
15B
330
1E
100
AcDbEntity
  8
0
100
AcDbLine
 10
226.8154549999999
 20
175.4229999999999
 30
0.0
 11
227.4394549999999
 21
175.4229999999999
 31
0.0
  0
LINE
  5
15C
330
1E
100
AcDbEntity
  8
0
100
AcDbLine
 10
226.4274549999999
 20
175.4229999999999
 30
0.0
 11
226.8154549999999
 21
175.4229999999999
 31
0.0
  0
LINE
  5
15D
330
1E
100
AcDbEntity
  8
0
100
AcDbLine
 10
226.2864549999999
 20
175.4229999999999
 30
0.0
 11
226.4274549999999
 21
175.4229999999999
 31
0.0
  0
LINE
  5
15E
330
1E
100
AcDbEntity
  8
0
100
AcDbLine
 10
226.2864549999999
 20
175.4229999999999
 30
0.0
 11
226.4034549999999
 21
175.5049999999999
 31
0.0
  0
LINE
  5
15F
330
1E
100
AcDbEntity
  8
0
100
AcDbLine
 10
226.2274549999999
 20
175.2579999999999
 30
0.0
 11
226.2274549999999
 21
112.864187754437
 31
0.0
  0
LINE
  5
160
330
1E
100
AcDbEntity
  8
0
100
AcDbLine
 10
226.2274549999999
 20
175.2579999999999
 30
0.0
 11
226.2864549999999
 21
175.4229999999999
 31
0.0
  0
LINE
  5
161
330
1E
100
AcDbEntity
  8
0
100
AcDbLine
 10
233.0154549999999
 20
175.4229999999999
 30
0.0
 11
233.6394549999999
 21
175.4229999999999
 31
0.0
  0
LINE
  5
162
330
1E
100
AcDbEntity
  8
0
100
AcDbLine
 10
233.6394549999999
 20
175.4229999999999
 30
0.0
 11
234.0274549999999
 21
175.4229999999999
 31
0.0
  0
LINE
  5
163
330
1E
100
AcDbEntity
  8
0
100
AcDbLine
 10
234.0274549999999
 20
175.4229999999999
 30
0.0
 11
234.168455
 21
175.4229999999999
 31
0.0
  0
LINE
  5
164
330
1E
100
AcDbEntity
  8
0
100
AcDbLine
 10
234.2274549999999
 20
175.2579999999999
 30
0.0
 11
234.2274549999999
 21
112.864187754437
 31
0.0
  0
LINE
  5
165
330
1E
100
AcDbEntity
  8
0
100
AcDbLine
 10
234.168455
 20
175.4229999999999
 30
0.0
 11
234.2274549999999
 21
175.2579999999999
 31
0.0
  0
LINE
  5
166
330
1E
100
AcDbEntity
  8
0
100
AcDbLine
 10
232.1924549999999
 20
175.4229999999999
 30
0.0
 11
233.0154549999999
 21
175.4229999999999
 31
0.0
  0
LINE
  5
167
330
1E
100
AcDbEntity
  8
0
100
AcDbLine
 10
231.239455
 20
175.4229999999999
 30
0.0
 11
232.1924549999999
 21
175.4229999999999
 31
0.0
  0
LINE
  5
168
330
1E
100
AcDbEntity
  8
0
100
AcDbLine
 10
227.5214549999999
 20
175.5049999999999
 30
0.0
 11
228.3214549999999
 21
175.5049999999999
 31
0.0
  0
LINE
  5
169
330
1E
100
AcDbEntity
  8
0
100
AcDbLine
 10
228.3214549999999
 20
175.5049999999999
 30
0.0
 11
229.239455
 21
175.5049999999999
 31
0.0
  0
LINE
  5
16A
330
1E
100
AcDbEntity
  8
0
100
AcDbLine
 10
229.239455
 20
175.5049999999999
 30
0.0
 11
230.2274549999999
 21
175.5049999999999
 31
0.0
  0
LINE
  5
16B
330
1E
100
AcDbEntity
  8
0
100
AcDbLine
 10
226.921455
 20
175.5049999999999
 30
0.0
 11
227.5214549999999
 21
175.5049999999999
 31
0.0
  0
LINE
  5
16C
330
1E
100
AcDbEntity
  8
0
100
AcDbLine
 10
226.5454549999999
 20
175.5049999999999
 30
0.0
 11
226.921455
 21
175.5049999999999
 31
0.0
  0
LINE
  5
16D
330
1E
100
AcDbEntity
  8
0
100
AcDbLine
 10
226.4034549999999
 20
175.5049999999999
 30
0.0
 11
226.5454549999999
 21
175.5049999999999
 31
0.0
  0
LINE
  5
16E
330
1E
100
AcDbEntity
  8
0
100
AcDbLine
 10
232.933455
 20
175.5049999999999
 30
0.0
 11
233.5334549999999
 21
175.5049999999999
 31
0.0
  0
LINE
  5
16F
330
1E
100
AcDbEntity
  8
0
100
AcDbLine
 10
233.5334549999999
 20
175.5049999999999
 30
0.0
 11
233.9094549999999
 21
175.5049999999999
 31
0.0
  0
LINE
  5
170
330
1E
100
AcDbEntity
  8
0
100
AcDbLine
 10
234.0514549999999
 20
175.5049999999999
 30
0.0
 11
234.168455
 21
175.4229999999999
 31
0.0
  0
LINE
  5
171
330
1E
100
AcDbEntity
  8
0
100
AcDbLine
 10
233.9094549999999
 20
175.5049999999999
 30
0.0
 11
234.0514549999999
 21
175.5049999999999
 31
0.0
  0
LINE
  5
172
330
1E
100
AcDbEntity
  8
0
100
AcDbLine
 10
232.1334549999999
 20
175.5049999999999
 30
0.0
 11
232.933455
 21
175.5049999999999
 31
0.0
  0
LINE
  5
173
330
1E
100
AcDbEntity
  8
0
100
AcDbLine
 10
244.227455
 20
310.0
 30
0.0
 11
244.227455
 21
120.0
 31
0.0
  0
LINE
  5
174
330
1E
100
AcDbEntity
  8
0
100
AcDbLine
 10
231.2154549999999
 20
175.5049999999999
 30
0.0
 11
232.1334549999999
 21
175.5049999999999
 31
0.0
  0
LINE
  5
175
330
1E
100
AcDbEntity
  8
0
100
AcDbLine
 10
230.2274549999999
 20
175.5049999999999
 30
0.0
 11
231.2154549999999
 21
175.5049999999999
 31
0.0
  0
LINE
  5
176
330
1E
100
AcDbEntity
  8
0
100
AcDbLine
 10
230.2274549999999
 20
175.4229999999999
 30
0.0
 11
231.239455
 21
175.4229999999999
 31
0.0
  0
LINE
  5
177
330
1E
100
AcDbEntity
  8
0
100
AcDbLine
 10
216.2274549999999
 20
310.0
 30
0.0
 11
216.2274549999999
 21
120.0
 31
0.0
  0
LINE
  5
178
330
1E
100
AcDbEntity
  8
0
100
AcDbLine
 10
244.227455
 20
120.0
 30
0.0
 11
244.227455
 21
310.0
 31
0.0
  0
LINE
  5
179
330
1E
100
AcDbEntity
  8
0
100
AcDbLine
 10
215.602455
 20
319.528
 30
0.0
 11
216.2274549999999
 21
310.0
 31
0.0
  0
LINE
  5
17A
330
1E
100
AcDbEntity
  8
0
100
AcDbLine
 10
213.7404549999999
 20
328.894
 30
0.0
 11
215.602455
 21
319.528
 31
0.0
  0
LINE
  5
17B
330
1E
100
AcDbEntity
  8
0
100
AcDbLine
 10
210.6704549999999
 20
337.9359999999999
 30
0.0
 11
213.7404549999999
 21
328.894
 31
0.0
  0
LINE
  5
17C
330
1E
100
AcDbEntity
  8
0
100
AcDbLine
 10
240.7864549999999
 20
336.1409999999999
 30
0.0
 11
243.3634549999999
 21
323.1829999999999
 31
0.0
  0
LINE
  5
17D
330
1E
100
AcDbEntity
  8
0
100
AcDbLine
 10
236.5394549999999
 20
348.6509999999999
 30
0.0
 11
240.7864549999999
 21
336.1409999999999
 31
0.0
  0
LINE
  5
17E
330
1E
100
AcDbEntity
  8
0
100
AcDbLine
 10
243.3634549999999
 20
323.1829999999999
 30
0.0
 11
244.227455
 21
310.0
 31
0.0
  0
LINE
  5
17F
330
1E
100
AcDbEntity
  8
0
100
AcDbLine
 10
206.4474549999999
 20
346.4999999999999
 30
0.0
 11
210.6704549999999
 21
337.9359999999999
 31
0.0
  0
LINE
  5
180
330
1E
100
AcDbEntity
  8
0
100
AcDbLine
 10
223.356455
 20
371.485
 30
0.0
 11
230.696455
 21
360.4999999999999
 31
0.0
  0
LINE
  5
181
330
1E
100
AcDbEntity
  8
0
100
AcDbLine
 10
230.696455
 20
360.4999999999999
 30
0.0
 11
236.5394549999999
 21
348.6509999999999
 31
0.0
  0
LINE
  5
182
330
1E
100
AcDbEntity
  8
0
100
AcDbLine
 10
194.8464549999999
 20
361.619
 30
0.0
 11
201.142455
 21
354.4399999999999
 31
0.0
  0
LINE
  5
183
330
1E
100
AcDbEntity
  8
0
100
AcDbLine
 10
133.699455
 20
382.375
 30
0.0
 11
143.2274549999999
 21
383.0
 31
0.0
  0
LINE
  5
184
330
1E
100
AcDbEntity
  8
0
100
AcDbLine
 10
81.74255500000001
 20
390.129
 30
0.0
 11
92.727455
 21
397.4689999999999
 31
0.0
  0
LINE
  5
185
330
1E
100
AcDbEntity
  8
0
100
AcDbLine
 10
104.576455
 20
403.3119999999999
 30
0.0
 11
117.086455
 21
407.559
 31
0.0
  0
LINE
  5
186
330
1E
100
AcDbEntity
  8
0
100
AcDbLine
 10
130.0444549999999
 20
410.1359999999999
 30
0.0
 11
143.2274549999999
 21
411.0
 31
0.0
  0
LINE
  5
187
330
1E
100
AcDbEntity
  8
0
100
AcDbLine
 10
117.086455
 20
407.559
 30
0.0
 11
130.0444549999999
 21
410.1359999999999
 31
0.0
  0
LINE
  5
188
330
1E
100
AcDbEntity
  8
0
100
AcDbLine
 10
92.727455
 20
397.4689999999999
 30
0.0
 11
104.576455
 21
403.3119999999999
 31
0.0
  0
LINE
  5
189
330
1E
100
AcDbEntity
  8
0
100
AcDbLine
 10
143.2274549999999
 20
383.0
 30
0.0
 11
152.755455
 21
382.375
 31
0.0
  0
LINE
  5
18A
330
1E
100
AcDbEntity
  8
0
100
AcDbLine
 10
204.7124549999999
 20
390.129
 30
0.0
 11
214.6454549999999
 21
381.418
 31
0.0
  0
LINE
  5
18B
330
1E
100
AcDbEntity
  8
0
100
AcDbLine
 10
181.878455
 20
403.3119999999999
 30
0.0
 11
193.7274549999999
 21
397.4689999999999
 31
0.0
  0
LINE
  5
18C
330
1E
100
AcDbEntity
  8
0
100
AcDbLine
 10
193.7274549999999
 20
397.4689999999999
 30
0.0
 11
204.7124549999999
 21
390.129
 31
0.0
  0
LINE
  5
18D
330
1E
100
AcDbEntity
  8
0
100
AcDbLine
 10
152.755455
 20
382.375
 30
0.0
 11
162.1214549999999
 21
380.513
 31
0.0
  0
LINE
  5
18E
330
1E
100
AcDbEntity
  8
0
100
AcDbLine
 10
156.410455
 20
410.1359999999999
 30
0.0
 11
169.368455
 21
407.559
 31
0.0
  0
LINE
  5
18F
330
1E
100
AcDbEntity
  8
0
100
AcDbLine
 10
169.368455
 20
407.559
 30
0.0
 11
181.878455
 21
403.3119999999999
 31
0.0
  0
LINE
  5
190
330
1E
100
AcDbEntity
  8
0
100
AcDbLine
 10
143.2274549999999
 20
411.0
 30
0.0
 11
156.410455
 21
410.1359999999999
 31
0.0
  0
LINE
  5
191
330
1E
100
AcDbEntity
  8
0
100
AcDbLine
 10
214.6454549999999
 20
381.418
 30
0.0
 11
223.356455
 21
371.485
 31
0.0
  0
LINE
  5
192
330
1E
100
AcDbEntity
  8
0
100
AcDbLine
 10
60.974555
 20
305.661
 30
0.0
 11
77.171655
 21
340.3659999999999
 31
0.0
  0
LINE
  5
197
330
1E
100
AcDbEntity
  8
0
100
AcDbLine
 10
227.587317447436
 20
113.0453255955059
 30
0.0
 11
230.2737203440101
 21
113.2596483265315
 31
0.0
  0
LINE
  5
198
330
1E
100
AcDbEntity
  8
0
100
AcDbLine
 10
230.2737203440101
 20
113.2596483265315
 30
0.0
 11
233.0514549999999
 21
113.020834554633
 31
0.0
  0
LINE
  5
199
330
1E
100
AcDbEntity
  8
0
100
AcDbLine
 10
32.7107632475007
 20
310.749109602134
 30
0.0
 11
15.8179271887056
 21
274.522407337526
 31
0.0
  0
ENDSEC
  0
SECTION
  2
OBJECTS
  0
DICTIONARY
  5
C
330
0
100
AcDbDictionary
281
     1
  3
ACAD_GROUP
350
D
  3
ACAD_LAYOUT
350
19
  3
ACAD_MLINESTYLE
350
16
  3
ACAD_PLOTSETTINGS
350
18
  3
ACAD_PLOTSTYLENAME
350
E
  3
AcDbVariableDictionary
350
19B
  0
DICTIONARY
  5
D
102
{ACAD_REACTORS
330
C
102
}
330
C
100
AcDbDictionary
281
     1
  0
DICTIONARY
  5
19
102
{ACAD_REACTORS
330
C
102
}
330
C
100
AcDbDictionary
281
     1
  3
Layout1
350
1D
  3
Model
350
21
  0
DICTIONARY
  5
16
102
{ACAD_REACTORS
330
C
102
}
330
C
100
AcDbDictionary
281
     1
  3
Standard
350
17
  0
DICTIONARY
  5
18
102
{ACAD_REACTORS
330
C
102
}
330
C
100
AcDbDictionary
281
     1
  0
ACDBDICTIONARYWDFLT
  5
E
102
{ACAD_REACTORS
330
C
102
}
330
C
100
AcDbDictionary
281
     1
  3
Normal
350
F
100
AcDbDictionaryWithDefault
340
F
  0
DICTIONARY
  5
19B
102
{ACAD_REACTORS
330
C
102
}
330
C
100
AcDbDictionary
281
     1
  3
DIMASSOC
350
19C
  0
LAYOUT
  5
1D
102
{ACAD_REACTORS
330
19
102
}
330
19
100
AcDbPlotSettings
  1

  2
hp deskjet 980c series
  4

  6

 40
0.0
 41
0.0
 42
0.0
 43
0.0
 44
0.0
 45
0.0
 46
0.0
 47
0.0
 48
0.0
 49
0.0
140
0.0
141
0.0
142
1.0
143
1.0
 70
   688
 72
     0
 73
     0
 74
     5
  7

 75
    16
147
1.0
148
0.0
149
0.0
100
AcDbLayout
  1
Layout1
 70
     1
 71
     1
 10
0.0
 20
0.0
 11
12.0
 21
9.0
 12
0.0
 22
0.0
 32
0.0
 14
1.000000000000000E+20
 24
1.000000000000000E+20
 34
1.000000000000000E+20
 15
-1.000000000000000E+20
 25
-1.000000000000000E+20
 35
-1.000000000000000E+20
146
0.0
 13
0.0
 23
0.0
 33
0.0
 16
1.0
 26
0.0
 36
0.0
 17
0.0
 27
1.0
 37
0.0
 76
     0
330
1A
  0
LAYOUT
  5
21
102
{ACAD_REACTORS
330
19
102
}
330
19
100
AcDbPlotSettings
  1

  2
hp deskjet 980c series
  4

  6

 40
0.0
 41
0.0
 42
0.0
 43
0.0
 44
0.0
 45
0.0
 46
0.0
 47
0.0
 48
0.0
 49
0.0
140
0.0
141
0.0
142
1.0
143
1.0
 70
  1712
 72
     0
 73
     0
 74
     0
  7

 75
     0
147
1.0
148
0.0
149
0.0
100
AcDbLayout
  1
Model
 70
     1
 71
     0
 10
0.0
 20
0.0
 11
12.0
 21
9.0
 12
0.0
 22
0.0
 32
0.0
 14
0.0
 24
0.0
 34
0.0
 15
0.0
 25
0.0
 35
0.0
146
0.0
 13
0.0
 23
0.0
 33
0.0
 16
1.0
 26
0.0
 36
0.0
 17
0.0
 27
1.0
 37
0.0
 76
     0
330
1E
  0
MLINESTYLE
  5
17
102
{ACAD_REACTORS
330
16
102
}
330
16
100
AcDbMlineStyle
  2
STANDARD
 70
     0
  3

 62
   256
 51
90.0
 52
90.0
 71
     2
 49
0.5
 62
   256
  6
BYLAYER
 49
-0.5
 62
   256
  6
BYLAYER
  0
ACDBPLACEHOLDER
  5
F
102
{ACAD_REACTORS
330
E
102
}
330
E
  0
DICTIONARYVAR
  5
19C
102
{ACAD_REACTORS
330
19B
102
}
330
19B
100
DictionaryVariables
280
     0
  1
1
  0
ENDSEC
  0
EOF
