  0
SECTION
  2
HEADER
  9
$ACADVER
  1
AC1015
  9
$ACADMAINTVER
 70
    13
  9
$DWGCODEPAGE
  3
ANSI_1252
  9
$INSBASE
 10
0.0
 20
0.0
 30
0.0
  9
$EXTMIN
 10
0.0399999999999996
 20
-0.0000000000000228
 30
0.0
  9
$EXTMAX
 10
110.9599999999999
 20
411.0
 30
0.0
  9
$LIMMIN
 10
0.0
 20
0.0
  9
$LIMMAX
 10
12.0
 20
9.0
  9
$ORTHOMODE
 70
     0
  9
$REGENMODE
 70
     1
  9
$FILLMODE
 70
     1
  9
$QTEXTMODE
 70
     0
  9
$MIRRTEXT
 70
     1
  9
$LTSCALE
 40
1.0
  9
$ATTMODE
 70
     1
  9
$TEXTSIZE
 40
0.2
  9
$TRACEWID
 40
0.05
  9
$TEXTSTYLE
  7
Standard
  9
$CLAYER
  8
0
  9
$CELTYPE
  6
Continuous
  9
$CECOLOR
 62
   256
  9
$CELTSCALE
 40
1.0
  9
$DISPSILH
 70
     0
  9
$DIMSCALE
 40
1.0
  9
$DIMASZ
 40
0.18
  9
$DIMEXO
 40
0.0625
  9
$DIMDLI
 40
0.38
  9
$DIMRND
 40
0.0
  9
$DIMDLE
 40
0.0
  9
$DIMEXE
 40
0.18
  9
$DIMTP
 40
0.0
  9
$DIMTM
 40
0.0
  9
$DIMTXT
 40
0.18
  9
$DIMCEN
 40
0.09
  9
$DIMTSZ
 40
0.0
  9
$DIMTOL
 70
     0
  9
$DIMLIM
 70
     0
  9
$DIMTIH
 70
     1
  9
$DIMTOH
 70
     1
  9
$DIMSE1
 70
     0
  9
$DIMSE2
 70
     0
  9
$DIMTAD
 70
     0
  9
$DIMZIN
 70
     0
  9
$DIMBLK
  1

  9
$DIMASO
 70
     1
  9
$DIMSHO
 70
     1
  9
$DIMPOST
  1

  9
$DIMAPOST
  1

  9
$DIMALT
 70
     0
  9
$DIMALTD
 70
     2
  9
$DIMALTF
 40
25.4
  9
$DIMLFAC
 40
1.0
  9
$DIMTOFL
 70
     0
  9
$DIMTVP
 40
0.0
  9
$DIMTIX
 70
     0
  9
$DIMSOXD
 70
     0
  9
$DIMSAH
 70
     0
  9
$DIMBLK1
  1

  9
$DIMBLK2
  1

  9
$DIMSTYLE
  2
Standard
  9
$DIMCLRD
 70
     0
  9
$DIMCLRE
 70
     0
  9
$DIMCLRT
 70
     0
  9
$DIMTFAC
 40
1.0
  9
$DIMGAP
 40
0.09
  9
$DIMJUST
 70
     0
  9
$DIMSD1
 70
     0
  9
$DIMSD2
 70
     0
  9
$DIMTOLJ
 70
     1
  9
$DIMTZIN
 70
     0
  9
$DIMALTZ
 70
     0
  9
$DIMALTTZ
 70
     0
  9
$DIMUPT
 70
     0
  9
$DIMDEC
 70
     4
  9
$DIMTDEC
 70
     4
  9
$DIMALTU
 70
     2
  9
$DIMALTTD
 70
     2
  9
$DIMTXSTY
  7
Standard
  9
$DIMAUNIT
 70
     0
  9
$DIMADEC
 70
     0
  9
$DIMALTRND
 40
0.0
  9
$DIMAZIN
 70
     0
  9
$DIMDSEP
 70
    46
  9
$DIMATFIT
 70
     3
  9
$DIMFRAC
 70
     0
  9
$DIMLDRBLK
  1

  9
$DIMLUNIT
 70
     2
  9
$DIMLWD
 70
    -2
  9
$DIMLWE
 70
    -2
  9
$DIMTMOVE
 70
     0
  9
$LUNITS
 70
     2
  9
$LUPREC
 70
     4
  9
$SKETCHINC
 40
0.1
  9
$FILLETRAD
 40
0.0
  9
$AUNITS
 70
     0
  9
$AUPREC
 70
     0
  9
$MENU
  1
.
  9
$ELEVATION
 40
0.0
  9
$PELEVATION
 40
0.0
  9
$THICKNESS
 40
0.0
  9
$LIMCHECK
 70
     0
  9
$CHAMFERA
 40
0.0
  9
$CHAMFERB
 40
0.0
  9
$CHAMFERC
 40
0.0
  9
$CHAMFERD
 40
0.0
  9
$SKPOLY
 70
     0
  9
$TDCREATE
 40
2455000.925627708
  9
$TDUCREATE
 40
2455000.842294375
  9
$TDUPDATE
 40
2455000.927639965
  9
$TDUUPDATE
 40
2455000.844306632
  9
$TDINDWG
 40
0.0020124421
  9
$TDUSRTIMER
 40
0.0020124421
  9
$USRTIMER
 70
     1
  9
$ANGBASE
 50
0.0
  9
$ANGDIR
 70
     0
  9
$PDMODE
 70
     0
  9
$PDSIZE
 40
0.0
  9
$PLINEWID
 40
0.0
  9
$SPLFRAME
 70
     0
  9
$SPLINETYPE
 70
     6
  9
$SPLINESEGS
 70
     8
  9
$HANDSEED
  5
1CA
  9
$SURFTAB1
 70
     6
  9
$SURFTAB2
 70
     6
  9
$SURFTYPE
 70
     6
  9
$SURFU
 70
     6
  9
$SURFV
 70
     6
  9
$UCSBASE
  2

  9
$UCSNAME
  2

  9
$UCSORG
 10
0.0
 20
0.0
 30
0.0
  9
$UCSXDIR
 10
1.0
 20
0.0
 30
0.0
  9
$UCSYDIR
 10
0.0
 20
1.0
 30
0.0
  9
$UCSORTHOREF
  2

  9
$UCSORTHOVIEW
 70
     1
  9
$UCSORGTOP
 10
0.0
 20
0.0
 30
0.0
  9
$UCSORGBOTTOM
 10
0.0
 20
0.0
 30
0.0
  9
$UCSORGLEFT
 10
0.0
 20
0.0
 30
0.0
  9
$UCSORGRIGHT
 10
0.0
 20
0.0
 30
0.0
  9
$UCSORGFRONT
 10
0.0
 20
0.0
 30
0.0
  9
$UCSORGBACK
 10
0.0
 20
0.0
 30
0.0
  9
$PUCSBASE
  2

  9
$PUCSNAME
  2

  9
$PUCSORG
 10
0.0
 20
0.0
 30
0.0
  9
$PUCSXDIR
 10
1.0
 20
0.0
 30
0.0
  9
$PUCSYDIR
 10
0.0
 20
1.0
 30
0.0
  9
$PUCSORTHOREF
  2

  9
$PUCSORTHOVIEW
 70
     0
  9
$PUCSORGTOP
 10
0.0
 20
0.0
 30
0.0
  9
$PUCSORGBOTTOM
 10
0.0
 20
0.0
 30
0.0
  9
$PUCSORGLEFT
 10
0.0
 20
0.0
 30
0.0
  9
$PUCSORGRIGHT
 10
0.0
 20
0.0
 30
0.0
  9
$PUCSORGFRONT
 10
0.0
 20
0.0
 30
0.0
  9
$PUCSORGBACK
 10
0.0
 20
0.0
 30
0.0
  9
$USERI1
 70
     0
  9
$USERI2
 70
     0
  9
$USERI3
 70
     0
  9
$USERI4
 70
     0
  9
$USERI5
 70
     0
  9
$USERR1
 40
0.0
  9
$USERR2
 40
0.0
  9
$USERR3
 40
0.0
  9
$USERR4
 40
0.0
  9
$USERR5
 40
0.0
  9
$WORLDVIEW
 70
     1
  9
$SHADEDGE
 70
     3
  9
$SHADEDIF
 70
    70
  9
$TILEMODE
 70
     1
  9
$MAXACTVP
 70
    64
  9
$PINSBASE
 10
0.0
 20
0.0
 30
0.0
  9
$PLIMCHECK
 70
     0
  9
$PEXTMIN
 10
1.000000000000000E+20
 20
1.000000000000000E+20
 30
1.000000000000000E+20
  9
$PEXTMAX
 10
-1.000000000000000E+20
 20
-1.000000000000000E+20
 30
-1.000000000000000E+20
  9
$PLIMMIN
 10
0.0
 20
0.0
  9
$PLIMMAX
 10
12.0
 20
9.0
  9
$UNITMODE
 70
     0
  9
$VISRETAIN
 70
     1
  9
$PLINEGEN
 70
     0
  9
$PSLTSCALE
 70
     1
  9
$TREEDEPTH
 70
  3020
  9
$CMLSTYLE
  2
Standard
  9
$CMLJUST
 70
     0
  9
$CMLSCALE
 40
1.0
  9
$PROXYGRAPHICS
 70
     1
  9
$MEASUREMENT
 70
     0
  9
$CELWEIGHT
370
    -1
  9
$ENDCAPS
280
     0
  9
$JOINSTYLE
280
     0
  9
$LWDISPLAY
290
     0
  9
$INSUNITS
 70
     0
  9
$HYPERLINKBASE
  1

  9
$STYLESHEET
  1

  9
$XEDIT
290
     1
  9
$CEPSNTYPE
380
     0
  9
$PSTYLEMODE
290
     1
  9
$FINGERPRINTGUID
  2
{AF548955-2AC6-4D89-AD4D-B556D4DD58F5}
  9
$VERSIONGUID
  2
{379DA8E3-AC9F-4FA0-BCDA-BA48DA457C01}
  9
$EXTNAMES
290
     1
  9
$PSVPSCALE
 40
0.0
  9
$OLESTARTUP
290
     0
  0
ENDSEC
  0
SECTION
  2
CLASSES
  0
CLASS
  1
ACDBDICTIONARYWDFLT
  2
AcDbDictionaryWithDefault
  3
AutoCAD 2000
 90
        0
280
     0
281
     0
  0
CLASS
  1
ACDBPLACEHOLDER
  2
AcDbPlaceHolder
  3
AutoCAD 2000
 90
        0
280
     0
281
     0
  0
CLASS
  1
LAYOUT
  2
AcDbLayout
  3
AutoCAD 2000
 90
        0
280
     0
281
     0
  0
CLASS
  1
DICTIONARYVAR
  2
AcDbDictionaryVar
  3
AutoCAD 2000
 90
        0
280
     0
281
     0
  0
ENDSEC
  0
SECTION
  2
TABLES
  0
TABLE
  2
VPORT
  5
8
330
0
100
AcDbSymbolTable
 70
     3
  0
VPORT
  5
1C9
330
8
100
AcDbSymbolTableRecord
100
AcDbViewportTableRecord
  2
*Active
 70
     0
 10
0.0
 20
0.0
 11
1.0
 21
1.0
 12
55.49999999999999
 22
205.4999999999999
 13
0.0
 23
0.0
 14
1.0
 24
1.0
 15
0.0
 25
0.0
 16
0.0
 26
0.0
 36
1.0
 17
0.0
 27
0.0
 37
0.0
 40
414.7938461538461
 41
2.385208012326656
 42
50.0
 43
0.0
 44
0.0
 50
0.0
 51
0.0
 71
     0
 72
   100
 73
     1
 74
     3
 75
     0
 76
     0
 77
     0
 78
     0
281
     0
 65
     1
110
0.0
120
0.0
130
0.0
111
1.0
121
0.0
131
0.0
112
0.0
122
1.0
132
0.0
 79
     1
146
0.0
  0
ENDTAB
  0
TABLE
  2
LTYPE
  5
5
330
0
100
AcDbSymbolTable
 70
     1
  0
LTYPE
  5
13
330
5
100
AcDbSymbolTableRecord
100
AcDbLinetypeTableRecord
  2
ByBlock
 70
     0
  3

 72
    65
 73
     0
 40
0.0
  0
LTYPE
  5
14
330
5
100
AcDbSymbolTableRecord
100
AcDbLinetypeTableRecord
  2
ByLayer
 70
     0
  3

 72
    65
 73
     0
 40
0.0
  0
LTYPE
  5
15
330
5
100
AcDbSymbolTableRecord
100
AcDbLinetypeTableRecord
  2
Continuous
 70
     0
  3
Solid line
 72
    65
 73
     0
 40
0.0
  0
ENDTAB
  0
TABLE
  2
LAYER
  5
2
330
0
100
AcDbSymbolTable
 70
     1
  0
LAYER
  5
10
330
2
100
AcDbSymbolTableRecord
100
AcDbLayerTableRecord
  2
0
 70
     0
 62
     7
  6
Continuous
370
    -3
390
F
  0
ENDTAB
  0
TABLE
  2
STYLE
  5
3
330
0
100
AcDbSymbolTable
 70
     1
  0
STYLE
  5
11
330
3
100
AcDbSymbolTableRecord
100
AcDbTextStyleTableRecord
  2
Standard
 70
     0
 40
0.0
 41
1.0
 50
0.0
 71
     0
 42
0.2
  3
txt
  4

  0
ENDTAB
  0
TABLE
  2
VIEW
  5
6
330
0
100
AcDbSymbolTable
 70
     0
  0
ENDTAB
  0
TABLE
  2
UCS
  5
7
330
0
100
AcDbSymbolTable
 70
     0
  0
ENDTAB
  0
TABLE
  2
APPID
  5
9
330
0
100
AcDbSymbolTable
 70
     1
  0
APPID
  5
12
330
9
100
AcDbSymbolTableRecord
100
AcDbRegAppTableRecord
  2
ACAD
 70
     0
  0
ENDTAB
  0
TABLE
  2
DIMSTYLE
  5
A
330
0
100
AcDbSymbolTable
 70
     1
100
AcDbDimStyleTable
 71
     0
  0
DIMSTYLE
105
1C2
330
A
100
AcDbSymbolTableRecord
100
AcDbDimStyleTableRecord
  2
Standard
 70
     0
340
11
  0
ENDTAB
  0
TABLE
  2
BLOCK_RECORD
  5
1
330
0
100
AcDbSymbolTable
 70
     0
  0
BLOCK_RECORD
  5
1E
330
1
100
AcDbSymbolTableRecord
100
AcDbBlockTableRecord
  2
*Model_Space
340
21
  0
BLOCK_RECORD
  5
1A
330
1
100
AcDbSymbolTableRecord
100
AcDbBlockTableRecord
  2
*Paper_Space
340
1D
  0
ENDTAB
  0
ENDSEC
  0
SECTION
  2
BLOCKS
  0
BLOCK
  5
1F
330
1E
100
AcDbEntity
  8
0
100
AcDbBlockBegin
  2
*Model_Space
 70
     0
 10
0.0
 20
0.0
 30
0.0
  3
*Model_Space
  1

  0
ENDBLK
  5
20
330
1E
100
AcDbEntity
  8
0
100
AcDbBlockEnd
  0
BLOCK
  5
1B
330
1A
100
AcDbEntity
 67
     1
  8
0
100
AcDbBlockBegin
  2
*Paper_Space
 70
     0
 10
0.0
 20
0.0
 30
0.0
  3
*Paper_Space
  1

  0
ENDBLK
  5
1C
330
1A
100
AcDbEntity
 67
     1
  8
0
100
AcDbBlockEnd
  0
ENDSEC
  0
SECTION
  2
ENTITIES
  0
LINE
  5
22
330
1E
100
AcDbEntity
  8
0
100
AcDbLine
 10
0.0399999999999996
 20
119.4229999999999
 30
0.0
 11
0.0399999999999996
 21
-0.0000000000000228
 31
0.0
  0
LINE
  5
23
330
1E
100
AcDbEntity
  8
0
100
AcDbLine
 10
0.0399999999999996
 20
119.4229999999999
 30
0.0
 11
0.922353
 21
119.4229999999999
 31
0.0
  0
LINE
  5
24
330
1E
100
AcDbEntity
  8
0
100
AcDbLine
 10
0.0399999999999996
 20
119.4229999999999
 30
0.0
 11
0.407647
 21
119.808
 31
0.0
  0
LINE
  5
25
330
1E
100
AcDbEntity
  8
0
100
AcDbLine
 10
0.9223529999999989
 20
-0.000000000000014
 30
0.0
 11
3.422349999999999
 21
-0.0000000000000144
 31
0.0
  0
LINE
  5
26
330
1E
100
AcDbEntity
  8
0
100
AcDbLine
 10
0.922353
 20
-0.000000000000014
 30
0.0
 11
3.422349999999999
 21
-0.0000000000000144
 31
0.0
  0
LINE
  5
27
330
1E
100
AcDbEntity
  8
0
100
AcDbLine
 10
3.422349999999999
 20
-0.0000000000000144
 30
0.0
 11
7.392939999999999
 21
-0.0000000000000147
 31
0.0
  0
LINE
  5
28
330
1E
100
AcDbEntity
  8
0
100
AcDbLine
 10
7.392939999999999
 20
-0.0000000000000147
 30
0.0
 11
12.6135
 21
-0.0000000000000149
 31
0.0
  0
LINE
  5
29
330
1E
100
AcDbEntity
  8
0
100
AcDbLine
 10
0.922353
 20
-0.0000000000000132
 30
0.0
 11
3.422349999999999
 21
-0.0000000000000128
 31
0.0
  0
LINE
  5
2A
330
1E
100
AcDbEntity
  8
0
100
AcDbLine
 10
0.922353
 20
119.4229999999999
 30
0.0
 11
3.422349999999999
 21
119.4229999999999
 31
0.0
  0
LINE
  5
2B
330
1E
100
AcDbEntity
  8
0
100
AcDbLine
 10
3.422349999999999
 20
119.4229999999999
 30
0.0
 11
7.392939999999999
 21
119.4229999999999
 31
0.0
  0
LINE
  5
2C
330
1E
100
AcDbEntity
  8
0
100
AcDbLine
 10
0.9223529999999989
 20
119.4229999999999
 30
0.0
 11
3.422349999999999
 21
119.4229999999999
 31
0.0
  0
LINE
  5
2D
330
1E
100
AcDbEntity
  8
0
100
AcDbLine
 10
3.422349999999999
 20
-0.0000000000000128
 30
0.0
 11
7.392939999999999
 21
-0.0000000000000125
 31
0.0
  0
LINE
  5
2E
330
1E
100
AcDbEntity
  8
0
100
AcDbLine
 10
0.9223529999999989
 20
-0.0000000000000132
 30
0.0
 11
3.422349999999999
 21
-0.0000000000000128
 31
0.0
  0
LINE
  5
2F
330
1E
100
AcDbEntity
  8
0
100
AcDbLine
 10
0.0399999999999996
 20
-0.0000000000000136
 30
0.0
 11
0.922353
 21
-0.0000000000000132
 31
0.0
  0
LINE
  5
30
330
1E
100
AcDbEntity
  8
0
100
AcDbLine
 10
0.0399999999999996
 20
-0.0000000000000136
 30
0.0
 11
0.922353
 21
-0.000000000000014
 31
0.0
  0
LINE
  5
31
330
1E
100
AcDbEntity
  8
0
100
AcDbLine
 10
0.0399999999999996
 20
-0.0000000000000136
 30
0.0
 11
0.0399999999999996
 21
119.4229999999999
 31
0.0
  0
LINE
  5
32
330
1E
100
AcDbEntity
  8
0
100
AcDbLine
 10
0.407647
 20
119.808
 30
0.0
 11
1.14294
 21
120.0
 31
0.0
  0
LINE
  5
33
330
1E
100
AcDbEntity
  8
0
100
AcDbLine
 10
1.14294
 20
120.0
 30
0.0
 11
8.12823
 21
120.0
 31
0.0
  0
LINE
  5
34
330
1E
100
AcDbEntity
  8
0
100
AcDbLine
 10
0.407647
 20
119.808
 30
0.0
 11
1.14294
 21
120.0
 31
0.0
  0
LINE
  5
35
330
1E
100
AcDbEntity
  8
0
100
AcDbLine
 10
7.04
 20
246.5969999999999
 30
0.0
 11
7.04
 21
242.414
 31
0.0
  0
LINE
  5
36
330
1E
100
AcDbEntity
  8
0
100
AcDbLine
 10
7.04
 20
246.5969999999999
 30
0.0
 11
7.687999999999999
 21
248.544
 31
0.0
  0
LINE
  5
37
330
1E
100
AcDbEntity
  8
0
100
AcDbLine
 10
7.04
 20
242.414
 30
0.0
 11
7.687999999999999
 21
244.361
 31
0.0
  0
LINE
  5
38
330
1E
100
AcDbEntity
  8
0
100
AcDbLine
 10
7.04
 20
242.414
 30
0.0
 11
7.687999999999999
 21
240.4659999999999
 31
0.0
  0
LINE
  5
39
330
1E
100
AcDbEntity
  8
0
100
AcDbLine
 10
7.04
 20
242.414
 30
0.0
 11
7.04
 21
246.5969999999999
 31
0.0
  0
LINE
  5
3B
330
1E
100
AcDbEntity
  8
0
100
AcDbLine
 10
7.392939999999999
 20
119.4229999999999
 30
0.0
 11
12.6135
 21
119.4229999999999
 31
0.0
  0
LINE
  5
3C
330
1E
100
AcDbEntity
  8
0
100
AcDbLine
 10
7.687999999999999
 20
240.4659999999999
 30
0.0
 11
9.416
 21
238.641
 31
0.0
  0
LINE
  5
3D
330
1E
100
AcDbEntity
  8
0
100
AcDbLine
 10
7.687999999999999
 20
248.544
 30
0.0
 11
9.416
 21
250.37
 31
0.0
  0
LINE
  5
3E
330
1E
100
AcDbEntity
  8
0
100
AcDbLine
 10
7.687999999999999
 20
244.361
 30
0.0
 11
9.416
 21
246.187
 31
0.0
  0
LINE
  5
40
330
1E
100
AcDbEntity
  8
0
100
AcDbLine
 10
9.039999999999999
 20
241.507
 30
0.0
 11
9.615999999999999
 21
243.238
 31
0.0
  0
LINE
  5
41
330
1E
100
AcDbEntity
  8
0
100
AcDbLine
 10
9.039999999999999
 20
241.507
 30
0.0
 11
9.615999999999999
 21
239.7759999999999
 31
0.0
  0
LINE
  5
43
330
1E
100
AcDbEntity
  8
0
100
AcDbLine
 10
9.416
 20
238.641
 30
0.0
 11
12.296
 21
237.028
 31
0.0
  0
LINE
  5
44
330
1E
100
AcDbEntity
  8
0
100
AcDbLine
 10
9.416
 20
250.37
 30
0.0
 11
12.296
 21
251.982
 31
0.0
  0
LINE
  5
45
330
1E
100
AcDbEntity
  8
0
100
AcDbLine
 10
9.615999999999999
 20
239.7759999999999
 30
0.0
 11
11.152
 21
238.153
 31
0.0
  0
LINE
  5
46
330
1E
100
AcDbEntity
  8
0
100
AcDbLine
 10
9.615999999999999
 20
243.238
 30
0.0
 11
11.152
 21
244.8609999999999
 31
0.0
  0
LINE
  5
47
330
1E
100
AcDbEntity
  8
0
100
AcDbLine
 10
9.416
 20
246.187
 30
0.0
 11
12.296
 21
247.799
 31
0.0
  0
LINE
  5
48
330
1E
100
AcDbEntity
  8
0
100
AcDbLine
 10
11.03999999999999
 20
237.731447222222
 30
0.0
 11
11.03999999999999
 21
120.0
 31
0.0
  0
LINE
  5
49
330
1E
100
AcDbEntity
  8
0
100
AcDbLine
 10
11.03999999999999
 20
251.278988888889
 30
0.0
 11
11.03999999999999
 21
310.0
 31
0.0
  0
LINE
  5
4A
330
1E
100
AcDbEntity
  8
0
100
AcDbLine
 10
11.03999999999999
 20
120.0
 30
0.0
 11
11.03999999999999
 21
237.731447222222
 31
0.0
  0
LINE
  5
4B
330
1E
100
AcDbEntity
  8
0
100
AcDbLine
 10
8.12823
 20
120.0
 30
0.0
 11
13.1282
 21
120.0
 31
0.0
  0
LINE
  5
4D
330
1E
100
AcDbEntity
  8
0
100
AcDbLine
 10
7.392939999999999
 20
-0.0000000000000125
 30
0.0
 11
12.6135
 21
-0.0000000000000123
 31
0.0
  0
LINE
  5
4E
330
1E
100
AcDbEntity
  8
0
100
AcDbLine
 10
11.03999999999999
 20
332.5169999999999
 30
0.0
 11
11.03999999999999
 21
343.293
 31
0.0
  0
LINE
  5
4F
330
1E
100
AcDbEntity
  8
0
100
AcDbLine
 10
11.03999999999999
 20
332.5169999999999
 30
0.0
 11
11.03999999999999
 21
321.356
 31
0.0
  0
LINE
  5
50
330
1E
100
AcDbEntity
  8
0
100
AcDbLine
 10
11.03999999999999
 20
321.356
 30
0.0
 11
11.03999999999999
 21
310.0
 31
0.0
  0
LINE
  5
51
330
1E
100
AcDbEntity
  8
0
100
AcDbLine
 10
11.03999999999999
 20
321.356
 30
0.0
 11
11.03999999999999
 21
332.5169999999999
 31
0.0
  0
LINE
  5
52
330
1E
100
AcDbEntity
  8
0
100
AcDbLine
 10
11.03999999999999
 20
310.0
 30
0.0
 11
11.03999999999999
 21
321.356
 31
0.0
  0
LINE
  5
53
330
1E
100
AcDbEntity
  8
0
100
AcDbLine
 10
11.03999999999999
 20
310.0
 30
0.0
 11
11.03999999999999
 21
251.278988888889
 31
0.0
  0
LINE
  5
54
330
1E
100
AcDbEntity
  8
0
100
AcDbLine
 10
11.03999999999999
 20
343.293
 30
0.0
 11
11.03999999999999
 21
353.5
 31
0.0
  0
LINE
  5
55
330
1E
100
AcDbEntity
  8
0
100
AcDbLine
 10
11.03999999999999
 20
343.293
 30
0.0
 11
11.03999999999999
 21
332.5169999999999
 31
0.0
  0
LINE
  5
56
330
1E
100
AcDbEntity
  8
0
100
AcDbLine
 10
11.03999999999999
 20
353.5
 30
0.0
 11
11.03999999999999
 21
343.293
 31
0.0
  0
LINE
  5
57
330
1E
100
AcDbEntity
  8
0
100
AcDbLine
 10
11.03999999999999
 20
353.5
 30
0.0
 11
11.03999999999999
 21
362.962
 31
0.0
  0
LINE
  5
58
330
1E
100
AcDbEntity
  8
0
100
AcDbLine
 10
11.03999999999999
 20
353.5
 30
0.0
 11
11.03999999999999
 21
346.283
 31
0.0
  0
LINE
  5
59
330
1E
100
AcDbEntity
  8
0
100
AcDbLine
 10
11.03999999999999
 20
385.3439999999999
 30
0.0
 11
11.03999999999999
 21
379.022
 31
0.0
  0
LINE
  5
5A
330
1E
100
AcDbEntity
  8
0
100
AcDbLine
 10
11.03999999999999
 20
385.3439999999999
 30
0.0
 11
11.03999999999999
 21
390.378
 31
0.0
  0
LINE
  5
5B
330
1E
100
AcDbEntity
  8
0
100
AcDbLine
 10
11.03999999999999
 20
379.022
 30
0.0
 11
11.03999999999999
 21
385.3439999999999
 31
0.0
  0
LINE
  5
5C
330
1E
100
AcDbEntity
  8
0
100
AcDbLine
 10
11.03999999999999
 20
379.022
 30
0.0
 11
11.03999999999999
 21
371.518
 31
0.0
  0
LINE
  5
5D
330
1E
100
AcDbEntity
  8
0
100
AcDbLine
 10
11.03999999999999
 20
394.036
 30
0.0
 11
11.03999999999999
 21
390.378
 31
0.0
  0
LINE
  5
5E
330
1E
100
AcDbEntity
  8
0
100
AcDbLine
 10
11.03999999999999
 20
394.036
 30
0.0
 11
11.03999999999999
 21
396.2559999999999
 31
0.0
  0
LINE
  5
5F
330
1E
100
AcDbEntity
  8
0
100
AcDbLine
 10
11.03999999999999
 20
390.378
 30
0.0
 11
11.03999999999999
 21
394.036
 31
0.0
  0
LINE
  5
60
330
1E
100
AcDbEntity
  8
0
100
AcDbLine
 10
11.03999999999999
 20
390.378
 30
0.0
 11
11.03999999999999
 21
385.3439999999999
 31
0.0
  0
LINE
  5
61
330
1E
100
AcDbEntity
  8
0
100
AcDbLine
 10
11.03999999999999
 20
397.0
 30
0.0
 11
11.544
 21
400.584
 31
0.0
  0
LINE
  5
62
330
1E
100
AcDbEntity
  8
0
100
AcDbLine
 10
11.03999999999999
 20
397.0
 30
0.0
 11
11.03999999999999
 21
396.2559999999999
 31
0.0
  0
LINE
  5
63
330
1E
100
AcDbEntity
  8
0
100
AcDbLine
 10
11.03999999999999
 20
396.2559999999999
 30
0.0
 11
11.03999999999999
 21
397.0
 31
0.0
  0
LINE
  5
64
330
1E
100
AcDbEntity
  8
0
100
AcDbLine
 10
11.03999999999999
 20
396.2559999999999
 30
0.0
 11
11.03999999999999
 21
394.036
 31
0.0
  0
LINE
  5
65
330
1E
100
AcDbEntity
  8
0
100
AcDbLine
 10
11.03999999999999
 20
371.518
 30
0.0
 11
11.03999999999999
 21
362.962
 31
0.0
  0
LINE
  5
66
330
1E
100
AcDbEntity
  8
0
100
AcDbLine
 10
11.03999999999999
 20
371.518
 30
0.0
 11
11.03999999999999
 21
379.022
 31
0.0
  0
LINE
  5
67
330
1E
100
AcDbEntity
  8
0
100
AcDbLine
 10
11.03999999999999
 20
362.962
 30
0.0
 11
11.03999999999999
 21
371.518
 31
0.0
  0
LINE
  5
68
330
1E
100
AcDbEntity
  8
0
100
AcDbLine
 10
11.03999999999999
 20
362.962
 30
0.0
 11
11.03999999999999
 21
353.5
 31
0.0
  0
LINE
  5
69
330
1E
100
AcDbEntity
  8
0
100
AcDbLine
 10
11.03999999999999
 20
346.283
 30
0.0
 11
11.03999999999999
 21
311.5779999999999
 31
0.0
  0
LINE
  5
6A
330
1E
100
AcDbEntity
  8
0
100
AcDbLine
 10
11.03999999999999
 20
346.283
 30
0.0
 11
11.03999999999999
 21
353.5
 31
0.0
  0
LINE
  5
6B
330
1E
100
AcDbEntity
  8
0
100
AcDbLine
 10
11.152
 20
238.153
 30
0.0
 11
13.71199999999999
 21
236.7199999999999
 31
0.0
  0
LINE
  5
6C
330
1E
100
AcDbEntity
  8
0
100
AcDbLine
 10
11.152
 20
244.8609999999999
 30
0.0
 11
13.71199999999999
 21
246.2949999999999
 31
0.0
  0
LINE
  5
6F
330
1E
100
AcDbEntity
  8
0
100
AcDbLine
 10
11.22749999999999
 20
310.662
 30
0.0
 11
11.75869999999999
 21
312.144
 31
0.0
  0
LINE
  5
71
330
1E
100
AcDbEntity
  8
0
100
AcDbLine
 10
12.6135
 20
-0.0000000000000149
 30
0.0
 11
18.6429
 21
-0.0000000000000151
 31
0.0
  0
LINE
  5
72
330
1E
100
AcDbEntity
  8
0
100
AcDbLine
 10
12.296
 20
237.028
 30
0.0
 11
16.112
 21
235.8109999999999
 31
0.0
  0
LINE
  5
73
330
1E
100
AcDbEntity
  8
0
100
AcDbLine
 10
12.296
 20
251.982
 30
0.0
 11
16.112
 21
253.2
 31
0.0
  0
LINE
  5
74
330
1E
100
AcDbEntity
  8
0
100
AcDbLine
 10
12.296
 20
247.799
 30
0.0
 11
16.112
 21
249.0169999999999
 31
0.0
  0
LINE
  5
75
330
1E
100
AcDbEntity
  8
0
100
AcDbLine
 10
12.6135
 20
119.4229999999999
 30
0.0
 11
18.6429
 21
119.4229999999999
 31
0.0
  0
LINE
  5
76
330
1E
100
AcDbEntity
  8
0
100
AcDbLine
 10
13.1282
 20
120.0
 30
0.0
 11
18.8635
 21
120.0
 31
0.0
  0
LINE
  5
77
330
1E
100
AcDbEntity
  8
0
100
AcDbLine
 10
12.6135
 20
-0.0000000000000123
 30
0.0
 11
18.6429
 21
-0.0000000000000121
 31
0.0
  0
LINE
  5
79
330
1E
100
AcDbEntity
  8
0
100
AcDbLine
 10
11.71028539493329
 20
312.008927626678
 30
0.0
 11
11.88
 21
312.5109999999999
 31
0.0
  0
LINE
  5
7A
330
1E
100
AcDbEntity
  8
0
100
AcDbLine
 10
11.71028539493329
 20
312.008927626678
 30
0.0
 11
11.88
 21
312.5109999999999
 31
0.0
  0
LINE
  5
7C
330
1E
100
AcDbEntity
  8
0
100
AcDbLine
 10
11.88
 20
312.5109999999999
 30
0.0
 11
13.224
 21
313.884
 31
0.0
  0
LINE
  5
7D
330
1E
100
AcDbEntity
  8
0
100
AcDbLine
 10
13.71199999999999
 20
236.7199999999999
 30
0.0
 11
17.10399999999999
 21
235.638
 31
0.0
  0
LINE
  5
7E
330
1E
100
AcDbEntity
  8
0
100
AcDbLine
 10
13.71199999999999
 20
246.2949999999999
 30
0.0
 11
17.10399999999999
 21
247.377
 31
0.0
  0
LINE
  5
80
330
1E
100
AcDbEntity
  8
0
100
AcDbLine
 10
16.04
 20
240.601
 30
0.0
 11
16.364
 21
241.575
 31
0.0
  0
LINE
  5
81
330
1E
100
AcDbEntity
  8
0
100
AcDbLine
 10
16.04
 20
240.601
 30
0.0
 11
16.364
 21
239.627
 31
0.0
  0
LINE
  5
83
330
1E
100
AcDbEntity
  8
0
100
AcDbLine
 10
16.112
 20
235.8109999999999
 30
0.0
 11
17.0696764259885
 21
235.6489487343989
 31
0.0
  0
LINE
  5
84
330
1E
100
AcDbEntity
  8
0
100
AcDbLine
 10
16.112
 20
253.2
 30
0.0
 11
20.432
 21
253.93
 31
0.0
  0
LINE
  5
85
330
1E
100
AcDbEntity
  8
0
100
AcDbLine
 10
17.10399999999999
 20
235.638
 30
0.0
 11
20.8049553158665
 21
235.012500000001
 31
0.0
  0
LINE
  5
86
330
1E
100
AcDbEntity
  8
0
100
AcDbLine
 10
17.10399999999999
 20
235.638
 30
0.0
 11
20.8049553158665
 21
235.012500000001
 31
0.0
  0
LINE
  5
87
330
1E
100
AcDbEntity
  8
0
100
AcDbLine
 10
17.444
 20
238.586
 30
0.0
 11
18.848
 21
237.8099999999999
 31
0.0
  0
LINE
  5
88
330
1E
100
AcDbEntity
  8
0
100
AcDbLine
 10
16.57999999999999
 20
239.468
 30
0.0
 11
17.444
 21
238.586
 31
0.0
  0
LINE
  5
89
330
1E
100
AcDbEntity
  8
0
100
AcDbLine
 10
17.22799999999999
 20
238.714
 30
0.0
 11
17.42643298969079
 21
238.602932646048
 31
0.0
  0
LINE
  5
8A
330
1E
100
AcDbEntity
  8
0
100
AcDbLine
 10
17.22799999999999
 20
238.714
 30
0.0
 11
17.444
 21
238.586
 31
0.0
  0
LINE
  5
8B
330
1E
100
AcDbEntity
  8
0
100
AcDbLine
 10
16.364
 20
239.627
 30
0.0
 11
17.22799999999999
 21
238.714
 31
0.0
  0
LINE
  5
8C
330
1E
100
AcDbEntity
  8
0
100
AcDbLine
 10
16.57999999999999
 20
241.385
 30
0.0
 11
17.444
 21
242.268
 31
0.0
  0
LINE
  5
8D
330
1E
100
AcDbEntity
  8
0
100
AcDbLine
 10
16.256
 20
240.427
 30
0.0
 11
16.57999999999999
 21
241.385
 31
0.0
  0
LINE
  5
8E
330
1E
100
AcDbEntity
  8
0
100
AcDbLine
 10
16.256
 20
240.427
 30
0.0
 11
16.57999999999999
 21
239.468
 31
0.0
  0
LINE
  5
8F
330
1E
100
AcDbEntity
  8
0
100
AcDbLine
 10
17.10399999999999
 20
247.377
 30
0.0
 11
20.944
 21
248.0259999999999
 31
0.0
  0
LINE
  5
90
330
1E
100
AcDbEntity
  8
0
100
AcDbLine
 10
17.444
 20
242.268
 30
0.0
 11
18.848
 21
243.044
 31
0.0
  0
LINE
  5
91
330
1E
100
AcDbEntity
  8
0
100
AcDbLine
 10
17.22799999999999
 20
242.4879999999999
 30
0.0
 11
18.66799999999999
 21
243.294
 31
0.0
  0
LINE
  5
92
330
1E
100
AcDbEntity
  8
0
100
AcDbLine
 10
16.364
 20
241.575
 30
0.0
 11
17.22799999999999
 21
242.4879999999999
 31
0.0
  0
LINE
  5
93
330
1E
100
AcDbEntity
  8
0
100
AcDbLine
 10
16.112
 20
249.0169999999999
 30
0.0
 11
20.432
 21
249.747
 31
0.0
  0
LINE
  5
95
330
1E
100
AcDbEntity
  8
0
100
AcDbLine
 10
13.224
 20
313.884
 30
0.0
 11
15.40799999999999
 21
315.091
 31
0.0
  0
LINE
  5
97
330
1E
100
AcDbEntity
  8
0
100
AcDbLine
 10
15.40799999999999
 20
315.091
 30
0.0
 11
18.26399999999999
 21
316.014
 31
0.0
  0
LINE
  5
98
330
1E
100
AcDbEntity
  8
0
100
AcDbLine
 10
18.6429
 20
-0.0000000000000151
 30
0.0
 11
25.04
 21
-0.0000000000000151
 31
0.0
  0
LINE
  5
99
330
1E
100
AcDbEntity
  8
0
100
AcDbLine
 10
18.6429
 20
119.4229999999999
 30
0.0
 11
25.04
 21
119.4229999999999
 31
0.0
  0
LINE
  5
9A
330
1E
100
AcDbEntity
  8
0
100
AcDbLine
 10
25.04
 20
-0.0000000000000151
 30
0.0
 11
31.4371
 21
-0.0000000000000151
 31
0.0
  0
LINE
  5
9B
330
1E
100
AcDbEntity
  8
0
100
AcDbLine
 10
25.04
 20
120.0
 30
0.0
 11
31.2165
 21
120.0
 31
0.0
  0
LINE
  5
9C
330
1E
100
AcDbEntity
  8
0
100
AcDbLine
 10
25.04
 20
119.4229999999999
 30
0.0
 11
31.4371
 21
119.4229999999999
 31
0.0
  0
LINE
  5
9D
330
1E
100
AcDbEntity
  8
0
100
AcDbLine
 10
37.4665
 20
-0.0000000000000149
 30
0.0
 11
42.6871
 21
-0.0000000000000147
 31
0.0
  0
LINE
  5
9E
330
1E
100
AcDbEntity
  8
0
100
AcDbLine
 10
31.4371
 20
-0.0000000000000151
 30
0.0
 11
37.4665
 21
-0.0000000000000149
 31
0.0
  0
LINE
  5
9F
330
1E
100
AcDbEntity
  8
0
100
AcDbLine
 10
37.4665
 20
-0.0000000000000123
 30
0.0
 11
42.6871
 21
-0.0000000000000125
 31
0.0
  0
LINE
  5
A0
330
1E
100
AcDbEntity
  8
0
100
AcDbLine
 10
31.2165
 20
120.0
 30
0.0
 11
36.9518
 21
120.0
 31
0.0
  0
LINE
  5
A1
330
1E
100
AcDbEntity
  8
0
100
AcDbLine
 10
36.9518
 20
120.0
 30
0.0
 11
45.70179999999999
 21
120.0
 31
0.0
  0
LINE
  5
A3
330
1E
100
AcDbEntity
  8
0
100
AcDbLine
 10
37.4665
 20
119.4229999999999
 30
0.0
 11
42.6871
 21
119.4229999999999
 31
0.0
  0
LINE
  5
A4
330
1E
100
AcDbEntity
  8
0
100
AcDbLine
 10
31.4371
 20
119.4229999999999
 30
0.0
 11
37.4665
 21
119.4229999999999
 31
0.0
  0
LINE
  5
A5
330
1E
100
AcDbEntity
  8
0
100
AcDbLine
 10
31.4371
 20
-0.0000000000000121
 30
0.0
 11
37.4665
 21
-0.0000000000000123
 31
0.0
  0
LINE
  5
A6
330
1E
100
AcDbEntity
  8
0
100
AcDbLine
 10
25.04
 20
-0.0000000000000121
 30
0.0
 11
31.4371
 21
-0.0000000000000121
 31
0.0
  0
LINE
  5
A7
330
1E
100
AcDbEntity
  8
0
100
AcDbLine
 10
18.8635
 20
120.0
 30
0.0
 11
25.04
 21
120.0
 31
0.0
  0
LINE
  5
A8
330
1E
100
AcDbEntity
  8
0
100
AcDbLine
 10
18.6429
 20
-0.0000000000000121
 30
0.0
 11
25.04
 21
-0.0000000000000121
 31
0.0
  0
LINE
  5
A9
330
1E
100
AcDbEntity
  8
0
100
AcDbLine
 10
20.8049553158665
 20
235.012500000001
 30
0.0
 11
25.04
 21
234.7329999999999
 31
0.0
  0
LINE
  5
AA
330
1E
100
AcDbEntity
  8
0
100
AcDbLine
 10
25.04
 20
234.7329999999999
 30
0.0
 11
29.27504468413339
 21
235.012500000001
 31
0.0
  0
LINE
  5
AB
330
1E
100
AcDbEntity
  8
0
100
AcDbLine
 10
29.27504468413339
 20
235.012500000001
 30
0.0
 11
32.976
 21
235.638
 31
0.0
  0
LINE
  5
AC
330
1E
100
AcDbEntity
  8
0
100
AcDbLine
 10
32.976
 20
235.638
 30
0.0
 11
36.368
 21
236.7199999999999
 31
0.0
  0
LINE
  5
AD
330
1E
100
AcDbEntity
  8
0
100
AcDbLine
 10
33.0103235740115
 20
235.6489487343989
 30
0.0
 11
33.968
 21
235.8109999999999
 31
0.0
  0
LINE
  5
AE
330
1E
100
AcDbEntity
  8
0
100
AcDbLine
 10
22.772
 20
236.851
 30
0.0
 11
25.04
 21
236.714
 31
0.0
  0
LINE
  5
AF
330
1E
100
AcDbEntity
  8
0
100
AcDbLine
 10
25.04
 20
236.714
 30
0.0
 11
27.308
 21
236.851
 31
0.0
  0
LINE
  5
B0
330
1E
100
AcDbEntity
  8
0
100
AcDbLine
 10
20.684
 20
237.217
 30
0.0
 11
22.772
 21
236.851
 31
0.0
  0
LINE
  5
B1
330
1E
100
AcDbEntity
  8
0
100
AcDbLine
 10
18.848
 20
237.8099999999999
 30
0.0
 11
20.684
 21
237.217
 31
0.0
  0
LINE
  5
B2
330
1E
100
AcDbEntity
  8
0
100
AcDbLine
 10
27.308
 20
236.851
 30
0.0
 11
29.396
 21
237.217
 31
0.0
  0
LINE
  5
B3
330
1E
100
AcDbEntity
  8
0
100
AcDbLine
 10
29.396
 20
237.217
 30
0.0
 11
31.232
 21
237.8099999999999
 31
0.0
  0
LINE
  5
B4
330
1E
100
AcDbEntity
  8
0
100
AcDbLine
 10
31.232
 20
237.8099999999999
 30
0.0
 11
32.63599999999999
 21
238.586
 31
0.0
  0
LINE
  5
B5
330
1E
100
AcDbEntity
  8
0
100
AcDbLine
 10
18.4560203045716
 20
238.026649746191
 30
0.0
 11
18.66799999999999
 21
237.908
 31
0.0
  0
LINE
  5
B6
330
1E
100
AcDbEntity
  8
0
100
AcDbLine
 10
18.4560203045716
 20
238.026649746191
 30
0.0
 11
18.66799999999999
 21
237.908
 31
0.0
  0
LINE
  5
B7
330
1E
100
AcDbEntity
  8
0
100
AcDbLine
 10
32.63599999999999
 20
238.586
 30
0.0
 11
33.5
 21
239.468
 31
0.0
  0
LINE
  5
B8
330
1E
100
AcDbEntity
  8
0
100
AcDbLine
 10
32.63599999999999
 20
238.586
 30
0.0
 11
32.85199999999999
 21
238.714
 31
0.0
  0
LINE
  5
B9
330
1E
100
AcDbEntity
  8
0
100
AcDbLine
 10
31.41199999999999
 20
237.908
 30
0.0
 11
31.6239796954287
 21
238.026649746191
 31
0.0
  0
LINE
  5
BA
330
1E
100
AcDbEntity
  8
0
100
AcDbLine
 10
31.41199999999999
 20
237.908
 30
0.0
 11
31.6239796954287
 21
238.026649746191
 31
0.0
  0
LINE
  5
BB
330
1E
100
AcDbEntity
  8
0
100
AcDbLine
 10
32.6535670103092
 20
238.602932646048
 30
0.0
 11
32.85199999999999
 21
238.714
 31
0.0
  0
LINE
  5
BC
330
1E
100
AcDbEntity
  8
0
100
AcDbLine
 10
33.5
 20
239.468
 30
0.0
 11
33.824
 21
240.427
 31
0.0
  0
LINE
  5
BD
330
1E
100
AcDbEntity
  8
0
100
AcDbLine
 10
32.85199999999999
 20
238.714
 30
0.0
 11
33.716
 21
239.627
 31
0.0
  0
LINE
  5
BF
330
1E
100
AcDbEntity
  8
0
100
AcDbLine
 10
33.716
 20
239.627
 30
0.0
 11
34.03999999999999
 21
240.601
 31
0.0
  0
LINE
  5
C0
330
1E
100
AcDbEntity
  8
0
100
AcDbLine
 10
33.5
 20
241.385
 30
0.0
 11
33.824
 21
240.427
 31
0.0
  0
LINE
  5
C1
330
1E
100
AcDbEntity
  8
0
100
AcDbLine
 10
18.848
 20
243.044
 30
0.0
 11
20.684
 21
243.637
 31
0.0
  0
LINE
  5
C2
330
1E
100
AcDbEntity
  8
0
100
AcDbLine
 10
18.66799999999999
 20
243.294
 30
0.0
 11
20.576
 21
243.9029999999999
 31
0.0
  0
LINE
  5
C3
330
1E
100
AcDbEntity
  8
0
100
AcDbLine
 10
31.232
 20
243.044
 30
0.0
 11
32.63599999999999
 21
242.268
 31
0.0
  0
LINE
  5
C4
330
1E
100
AcDbEntity
  8
0
100
AcDbLine
 10
32.63599999999999
 20
242.268
 30
0.0
 11
33.5
 21
241.385
 31
0.0
  0
LINE
  5
C5
330
1E
100
AcDbEntity
  8
0
100
AcDbLine
 10
22.772
 20
244.002
 30
0.0
 11
25.04
 21
244.139
 31
0.0
  0
LINE
  5
C6
330
1E
100
AcDbEntity
  8
0
100
AcDbLine
 10
20.684
 20
243.637
 30
0.0
 11
22.772
 21
244.002
 31
0.0
  0
LINE
  5
C7
330
1E
100
AcDbEntity
  8
0
100
AcDbLine
 10
20.576
 20
243.9029999999999
 30
0.0
 11
22.736
 21
244.268
 31
0.0
  0
LINE
  5
C8
330
1E
100
AcDbEntity
  8
0
100
AcDbLine
 10
22.736
 20
244.268
 30
0.0
 11
25.04
 21
244.405
 31
0.0
  0
LINE
  5
C9
330
1E
100
AcDbEntity
  8
0
100
AcDbLine
 10
25.04
 20
244.139
 30
0.0
 11
27.308
 21
244.002
 31
0.0
  0
LINE
  5
CA
330
1E
100
AcDbEntity
  8
0
100
AcDbLine
 10
27.308
 20
244.002
 30
0.0
 11
29.396
 21
243.637
 31
0.0
  0
LINE
  5
CB
330
1E
100
AcDbEntity
  8
0
100
AcDbLine
 10
29.396
 20
243.637
 30
0.0
 11
31.232
 21
243.044
 31
0.0
  0
LINE
  5
CC
330
1E
100
AcDbEntity
  8
0
100
AcDbLine
 10
20.944
 20
248.0259999999999
 30
0.0
 11
25.04
 21
248.269
 31
0.0
  0
LINE
  5
CD
330
1E
100
AcDbEntity
  8
0
100
AcDbLine
 10
25.04
 20
248.269
 30
0.0
 11
29.136
 21
248.0259999999999
 31
0.0
  0
LINE
  5
CE
330
1E
100
AcDbEntity
  8
0
100
AcDbLine
 10
29.136
 20
248.0259999999999
 30
0.0
 11
32.976
 21
247.377
 31
0.0
  0
LINE
  5
CF
330
1E
100
AcDbEntity
  8
0
100
AcDbLine
 10
25.04
 20
244.405
 30
0.0
 11
27.344
 21
244.268
 31
0.0
  0
LINE
  5
D0
330
1E
100
AcDbEntity
  8
0
100
AcDbLine
 10
27.344
 20
244.268
 30
0.0
 11
29.504
 21
243.9029999999999
 31
0.0
  0
LINE
  5
D1
330
1E
100
AcDbEntity
  8
0
100
AcDbLine
 10
29.504
 20
243.9029999999999
 30
0.0
 11
31.41199999999999
 21
243.294
 31
0.0
  0
LINE
  5
D2
330
1E
100
AcDbEntity
  8
0
100
AcDbLine
 10
31.41199999999999
 20
243.294
 30
0.0
 11
32.85199999999999
 21
242.4879999999999
 31
0.0
  0
LINE
  5
D3
330
1E
100
AcDbEntity
  8
0
100
AcDbLine
 10
32.976
 20
247.377
 30
0.0
 11
36.368
 21
246.2949999999999
 31
0.0
  0
LINE
  5
D4
330
1E
100
AcDbEntity
  8
0
100
AcDbLine
 10
32.85199999999999
 20
242.4879999999999
 30
0.0
 11
33.716
 21
241.575
 31
0.0
  0
LINE
  5
D5
330
1E
100
AcDbEntity
  8
0
100
AcDbLine
 10
33.716
 20
241.575
 30
0.0
 11
34.03999999999999
 21
240.601
 31
0.0
  0
LINE
  5
D6
330
1E
100
AcDbEntity
  8
0
100
AcDbLine
 10
36.368
 20
236.7199999999999
 30
0.0
 11
38.928
 21
238.153
 31
0.0
  0
LINE
  5
D7
330
1E
100
AcDbEntity
  8
0
100
AcDbLine
 10
36.368
 20
246.2949999999999
 30
0.0
 11
38.928
 21
244.8609999999999
 31
0.0
  0
LINE
  5
D9
330
1E
100
AcDbEntity
  8
0
100
AcDbLine
 10
33.968
 20
235.8109999999999
 30
0.0
 11
37.78399999999999
 21
237.028
 31
0.0
  0
LINE
  5
DA
330
1E
100
AcDbEntity
  8
0
100
AcDbLine
 10
37.78399999999999
 20
237.028
 30
0.0
 11
40.664
 21
238.641
 31
0.0
  0
LINE
  5
DB
330
1E
100
AcDbEntity
  8
0
100
AcDbLine
 10
20.432
 20
249.747
 30
0.0
 11
25.04
 21
250.021
 31
0.0
  0
LINE
  5
DC
330
1E
100
AcDbEntity
  8
0
100
AcDbLine
 10
25.04
 20
250.021
 30
0.0
 11
29.648
 21
249.747
 31
0.0
  0
LINE
  5
DD
330
1E
100
AcDbEntity
  8
0
100
AcDbLine
 10
29.648
 20
249.747
 30
0.0
 11
33.968
 21
249.0169999999999
 31
0.0
  0
LINE
  5
DE
330
1E
100
AcDbEntity
  8
0
100
AcDbLine
 10
33.968
 20
249.0169999999999
 30
0.0
 11
37.78399999999999
 21
247.799
 31
0.0
  0
LINE
  5
DF
330
1E
100
AcDbEntity
  8
0
100
AcDbLine
 10
38.928
 20
238.153
 30
0.0
 11
40.464
 21
239.7759999999999
 31
0.0
  0
LINE
  5
E0
330
1E
100
AcDbEntity
  8
0
100
AcDbLine
 10
38.928
 20
244.8609999999999
 30
0.0
 11
40.464
 21
243.238
 31
0.0
  0
LINE
  5
E2
330
1E
100
AcDbEntity
  8
0
100
AcDbLine
 10
37.78399999999999
 20
247.799
 30
0.0
 11
40.664
 21
246.187
 31
0.0
  0
LINE
  5
E3
330
1E
100
AcDbEntity
  8
0
100
AcDbLine
 10
20.432
 20
253.93
 30
0.0
 11
25.04
 21
254.204
 31
0.0
  0
LINE
  5
E4
330
1E
100
AcDbEntity
  8
0
100
AcDbLine
 10
25.04
 20
275.3349999999999
 30
0.0
 11
25.552
 21
275.401
 31
0.0
  0
LINE
  5
E5
330
1E
100
AcDbEntity
  8
0
100
AcDbLine
 10
24.528
 20
275.401
 30
0.0
 11
25.04
 21
275.3349999999999
 31
0.0
  0
LINE
  5
E6
330
1E
100
AcDbEntity
  8
0
100
AcDbLine
 10
24.048
 20
275.5749999999999
 30
0.0
 11
24.528
 21
275.401
 31
0.0
  0
LINE
  5
E7
330
1E
100
AcDbEntity
  8
0
100
AcDbLine
 10
23.624
 20
275.865
 30
0.0
 11
24.048
 21
275.5749999999999
 31
0.0
  0
LINE
  5
E8
330
1E
100
AcDbEntity
  8
0
100
AcDbLine
 10
23.304
 20
276.249
 30
0.0
 11
23.624
 21
275.865
 31
0.0
  0
LINE
  5
E9
330
1E
100
AcDbEntity
  8
0
100
AcDbLine
 10
23.11199999999999
 20
276.684
 30
0.0
 11
23.304
 21
276.249
 31
0.0
  0
LINE
  5
EA
330
1E
100
AcDbEntity
  8
0
100
AcDbLine
 10
23.03999999999999
 20
309.775
 30
0.0
 11
23.11199999999999
 21
310.239
 31
0.0
  0
LINE
  5
EB
330
1E
100
AcDbEntity
  8
0
100
AcDbLine
 10
23.03999999999999
 20
309.775
 30
0.0
 11
23.03999999999999
 21
277.1479999999999
 31
0.0
  0
LINE
  5
EC
330
1E
100
AcDbEntity
  8
0
100
AcDbLine
 10
23.03999999999999
 20
277.1479999999999
 30
0.0
 11
23.11199999999999
 21
276.684
 31
0.0
  0
LINE
  5
ED
330
1E
100
AcDbEntity
  8
0
100
AcDbLine
 10
23.03999999999999
 20
277.1479999999999
 30
0.0
 11
23.03999999999999
 21
309.775
 31
0.0
  0
LINE
  5
EE
330
1E
100
AcDbEntity
  8
0
100
AcDbLine
 10
25.552
 20
275.401
 30
0.0
 11
26.03199999999999
 21
275.5749999999999
 31
0.0
  0
LINE
  5
EF
330
1E
100
AcDbEntity
  8
0
100
AcDbLine
 10
26.03199999999999
 20
275.5749999999999
 30
0.0
 11
26.45599999999999
 21
275.865
 31
0.0
  0
LINE
  5
F0
330
1E
100
AcDbEntity
  8
0
100
AcDbLine
 10
26.45599999999999
 20
275.865
 30
0.0
 11
26.77599999999999
 21
276.249
 31
0.0
  0
LINE
  5
F1
330
1E
100
AcDbEntity
  8
0
100
AcDbLine
 10
26.77599999999999
 20
276.249
 30
0.0
 11
26.968
 21
276.684
 31
0.0
  0
LINE
  5
F2
330
1E
100
AcDbEntity
  8
0
100
AcDbLine
 10
27.04
 20
309.775
 30
0.0
 11
27.04
 21
277.1479999999999
 31
0.0
  0
LINE
  5
F3
330
1E
100
AcDbEntity
  8
0
100
AcDbLine
 10
27.04
 20
277.1479999999999
 30
0.0
 11
27.04
 21
309.775
 31
0.0
  0
LINE
  5
F4
330
1E
100
AcDbEntity
  8
0
100
AcDbLine
 10
26.968
 20
276.684
 30
0.0
 11
27.04
 21
277.1479999999999
 31
0.0
  0
LINE
  5
F5
330
1E
100
AcDbEntity
  8
0
100
AcDbLine
 10
25.04
 20
254.204
 30
0.0
 11
29.648
 21
253.93
 31
0.0
  0
LINE
  5
F6
330
1E
100
AcDbEntity
  8
0
100
AcDbLine
 10
29.648
 20
253.93
 30
0.0
 11
33.968
 21
253.2
 31
0.0
  0
LINE
  5
F8
330
1E
100
AcDbEntity
  8
0
100
AcDbLine
 10
33.968
 20
253.2
 30
0.0
 11
37.78399999999999
 21
251.982
 31
0.0
  0
LINE
  5
F9
330
1E
100
AcDbEntity
  8
0
100
AcDbLine
 10
37.78399999999999
 20
251.982
 30
0.0
 11
40.664
 21
250.37
 31
0.0
  0
LINE
  5
FA
330
1E
100
AcDbEntity
  8
0
100
AcDbLine
 10
39.03999999999999
 20
251.278988888889
 30
0.0
 11
39.03999999999999
 21
310.0
 31
0.0
  0
LINE
  5
FB
330
1E
100
AcDbEntity
  8
0
100
AcDbLine
 10
39.03999999999999
 20
120.0
 30
0.0
 11
39.03999999999999
 21
237.731447222222
 31
0.0
  0
LINE
  5
FC
330
1E
100
AcDbEntity
  8
0
100
AcDbLine
 10
42.6871
 20
-0.0000000000000147
 30
0.0
 11
46.6576
 21
-0.0000000000000144
 31
0.0
  0
LINE
  5
FD
330
1E
100
AcDbEntity
  8
0
100
AcDbLine
 10
46.6576
 20
-0.0000000000000144
 30
0.0
 11
49.1576
 21
-0.000000000000014
 31
0.0
  0
LINE
  5
FE
330
1E
100
AcDbEntity
  8
0
100
AcDbLine
 10
49.1576
 20
-0.000000000000014
 30
0.0
 11
50.04
 21
-0.0000000000000136
 31
0.0
  0
LINE
  5
FF
330
1E
100
AcDbEntity
  8
0
100
AcDbLine
 10
50.04
 20
-0.0000000000000136
 30
0.0
 11
50.04
 21
50.8867048682622
 31
0.0
  0
LINE
  5
100
330
1E
100
AcDbEntity
  8
0
100
AcDbLine
 10
42.6871
 20
-0.0000000000000125
 30
0.0
 11
46.6576
 21
-0.0000000000000128
 31
0.0
  0
LINE
  5
101
330
1E
100
AcDbEntity
  8
0
100
AcDbLine
 10
46.6576
 20
-0.0000000000000128
 30
0.0
 11
49.1576
 21
-0.0000000000000132
 31
0.0
  0
LINE
  5
102
330
1E
100
AcDbEntity
  8
0
100
AcDbLine
 10
49.1576
 20
-0.0000000000000132
 30
0.0
 11
50.04
 21
-0.0000000000000136
 31
0.0
  0
LINE
  5
103
330
1E
100
AcDbEntity
  8
0
100
AcDbLine
 10
50.04
 20
50.8651085274004
 30
0.0
 11
73.6925
 21
57.1973
 31
0.0
  0
LINE
  5
104
330
1E
100
AcDbEntity
  8
0
100
AcDbLine
 10
50.04
 20
50.8867048682622
 30
0.0
 11
50.04
 21
-0.0000000000000228
 31
0.0
  0
LINE
  5
105
330
1E
100
AcDbEntity
  8
0
100
AcDbLine
 10
74.97669999999999
 20
59.61199999999999
 30
0.0
 11
77.74509999999999
 21
60.8715
 31
0.0
  0
LINE
  5
106
330
1E
100
AcDbEntity
  8
0
100
AcDbLine
 10
74.0352
 20
59.2622
 30
0.0
 11
74.97669999999999
 21
59.61199999999999
 31
0.0
  0
LINE
  5
107
330
1E
100
AcDbEntity
  8
0
100
AcDbLine
 10
74.0352
 20
59.2622
 30
0.0
 11
74.2544
 21
58.444
 31
0.0
  0
LINE
  5
108
330
1E
100
AcDbEntity
  8
0
100
AcDbLine
 10
73.9392
 20
58.5057
 30
0.0
 11
74.1585
 21
57.6875
 31
0.0
  0
LINE
  5
109
330
1E
100
AcDbEntity
  8
0
100
AcDbLine
 10
74.1585
 20
57.6875
 30
0.0
 11
74.2544
 21
58.444
 31
0.0
  0
LINE
  5
10A
330
1E
100
AcDbEntity
  8
0
100
AcDbLine
 10
73.6925
 20
57.1973
 30
0.0
 11
74.1585
 21
57.6875
 31
0.0
  0
LINE
  5
10B
330
1E
100
AcDbEntity
  8
0
100
AcDbLine
 10
50.04
 20
50.8651085274004
 30
0.0
 11
73.6925
 21
57.1973
 31
0.0
  0
LINE
  5
10C
330
1E
100
AcDbEntity
  8
0
100
AcDbLine
 10
81.28989999999999
 20
59.23300000000001
 30
0.0
 11
110.3979999999999
 21
67.0324
 31
0.0
  0
LINE
  5
10F
330
1E
100
AcDbEntity
  8
0
100
AcDbLine
 10
62.13709999999999
 20
102.5519999999999
 30
0.0
 11
73.9392
 21
58.5057
 31
0.0
  0
LINE
  5
115
330
1E
100
AcDbEntity
  8
0
100
AcDbLine
 10
77.74509999999999
 20
60.8715
 30
0.0
 11
79.88268862393791
 21
62.2826810915591
 31
0.0
  0
LINE
  5
116
330
1E
100
AcDbEntity
  8
0
100
AcDbLine
 10
78.3045
 20
65.8027
 30
0.0
 11
79.882
 21
62.28419999999999
 31
0.0
  0
LINE
  5
117
330
1E
100
AcDbEntity
  8
0
100
AcDbLine
 10
79.882
 20
62.28419999999999
 30
0.0
 11
80.8863
 21
60.06899999999999
 31
0.0
  0
LINE
  5
118
330
1E
100
AcDbEntity
  8
0
100
AcDbLine
 10
76.2017
 20
70.3759
 30
0.0
 11
78.3045
 21
65.8027
 31
0.0
  0
LINE
  5
119
330
1E
100
AcDbEntity
  8
0
100
AcDbLine
 10
73.7749
 20
75.7403
 30
0.0
 11
76.2017
 21
70.3759
 31
0.0
  0
LINE
  5
11A
330
1E
100
AcDbEntity
  8
0
100
AcDbLine
 10
50.04
 20
100.5065011933589
 30
0.0
 11
50.04
 21
119.4229999999999
 31
0.0
  0
LINE
  5
11B
330
1E
100
AcDbEntity
  8
0
100
AcDbLine
 10
50.04
 20
100.5065011933589
 30
0.0
 11
61.2692
 21
103.562
 31
0.0
  0
LINE
  5
120
330
1E
100
AcDbEntity
  8
0
100
AcDbLine
 10
62.37919999999999
 20
102.7629999999999
 30
0.0
 11
62.62272958038201
 21
101.854186491017
 31
0.0
  0
LINE
  5
122
330
1E
100
AcDbEntity
  8
0
100
AcDbLine
 10
61.9178
 20
103.37
 30
0.0
 11
62.37919999999999
 21
102.7629999999999
 31
0.0
  0
LINE
  5
123
330
1E
100
AcDbEntity
  8
0
100
AcDbLine
 10
61.9178
 20
103.37
 30
0.0
 11
62.13709999999999
 21
102.5519999999999
 31
0.0
  0
LINE
  5
124
330
1E
100
AcDbEntity
  8
0
100
AcDbLine
 10
42.6871
 20
119.4229999999999
 30
0.0
 11
46.6576
 21
119.4229999999999
 31
0.0
  0
LINE
  5
126
330
1E
100
AcDbEntity
  8
0
100
AcDbLine
 10
40.464
 20
239.7759999999999
 30
0.0
 11
41.04
 21
241.507
 31
0.0
  0
LINE
  5
127
330
1E
100
AcDbEntity
  8
0
100
AcDbLine
 10
40.464
 20
243.238
 30
0.0
 11
41.04
 21
241.507
 31
0.0
  0
LINE
  5
129
330
1E
100
AcDbEntity
  8
0
100
AcDbLine
 10
40.664
 20
238.641
 30
0.0
 11
42.39199999999999
 21
240.4659999999999
 31
0.0
  0
LINE
  5
12A
330
1E
100
AcDbEntity
  8
0
100
AcDbLine
 10
42.39199999999999
 20
240.4659999999999
 30
0.0
 11
43.04
 21
242.414
 31
0.0
  0
LINE
  5
12B
330
1E
100
AcDbEntity
  8
0
100
AcDbLine
 10
40.664
 20
246.187
 30
0.0
 11
42.39199999999999
 21
244.361
 31
0.0
  0
LINE
  5
12C
330
1E
100
AcDbEntity
  8
0
100
AcDbLine
 10
42.39199999999999
 20
244.361
 30
0.0
 11
43.04
 21
242.414
 31
0.0
  0
LINE
  5
12D
330
1E
100
AcDbEntity
  8
0
100
AcDbLine
 10
40.664
 20
250.37
 30
0.0
 11
42.39199999999999
 21
248.544
 31
0.0
  0
LINE
  5
12E
330
1E
100
AcDbEntity
  8
0
100
AcDbLine
 10
42.39199999999999
 20
248.544
 30
0.0
 11
43.04
 21
246.5969999999999
 31
0.0
  0
LINE
  5
12F
330
1E
100
AcDbEntity
  8
0
100
AcDbLine
 10
45.70179999999999
 20
120.0
 30
0.0
 11
48.05469999999999
 21
120.0
 31
0.0
  0
LINE
  5
130
330
1E
100
AcDbEntity
  8
0
100
AcDbLine
 10
48.9371
 20
120.0
 30
0.0
 11
49.6724
 21
119.808
 31
0.0
  0
LINE
  5
131
330
1E
100
AcDbEntity
  8
0
100
AcDbLine
 10
43.04
 20
246.5969999999999
 30
0.0
 11
43.04
 21
242.414
 31
0.0
  0
LINE
  5
132
330
1E
100
AcDbEntity
  8
0
100
AcDbLine
 10
43.04
 20
242.414
 30
0.0
 11
43.04
 21
246.5969999999999
 31
0.0
  0
LINE
  5
133
330
1E
100
AcDbEntity
  8
0
100
AcDbLine
 10
48.05469999999999
 20
120.0
 30
0.0
 11
48.9371
 21
120.0
 31
0.0
  0
LINE
  5
135
330
1E
100
AcDbEntity
  8
0
100
AcDbLine
 10
46.6576
 20
119.4229999999999
 30
0.0
 11
49.1576
 21
119.4229999999999
 31
0.0
  0
LINE
  5
136
330
1E
100
AcDbEntity
  8
0
100
AcDbLine
 10
50.04
 20
119.4229999999999
 30
0.0
 11
50.04
 21
100.5065011933589
 31
0.0
  0
LINE
  5
137
330
1E
100
AcDbEntity
  8
0
100
AcDbLine
 10
49.6724
 20
119.808
 30
0.0
 11
50.04
 21
119.4229999999999
 31
0.0
  0
LINE
  5
138
330
1E
100
AcDbEntity
  8
0
100
AcDbLine
 10
49.1576
 20
119.4229999999999
 30
0.0
 11
50.04
 21
119.4229999999999
 31
0.0
  0
LINE
  5
139
330
1E
100
AcDbEntity
  8
0
100
AcDbLine
 10
61.2692
 20
103.562
 30
0.0
 11
61.9178
 21
103.37
 31
0.0
  0
LINE
  5
13A
330
1E
100
AcDbEntity
  8
0
100
AcDbLine
 10
63.5887
 20
102.113
 30
0.0
 11
65.606843537449
 21
102.308334320981
 31
0.0
  0
LINE
  5
13B
330
1E
100
AcDbEntity
  8
0
100
AcDbLine
 10
62.62272958038201
 20
101.854186491017
 30
0.0
 11
63.5887
 21
102.113
 31
0.0
  0
LINE
  5
13E
330
1E
100
AcDbEntity
  8
0
100
AcDbLine
 10
65.8433
 20
101.4259999999999
 30
0.0
 11
66.8299
 21
97.7439
 31
0.0
  0
LINE
  5
13F
330
1E
100
AcDbEntity
  8
0
100
AcDbLine
 10
66.8299
 20
97.7439
 30
0.0
 11
68.12699999999999
 21
92.9029
 31
0.0
  0
LINE
  5
140
330
1E
100
AcDbEntity
  8
0
100
AcDbLine
 10
68.12699999999999
 20
92.9029
 30
0.0
 11
69.6251
 21
87.31189999999999
 31
0.0
  0
LINE
  5
141
330
1E
100
AcDbEntity
  8
0
100
AcDbLine
 10
69.6251
 20
87.31189999999999
 30
0.0
 11
71.2146
 21
81.37999999999999
 31
0.0
  0
LINE
  5
142
330
1E
100
AcDbEntity
  8
0
100
AcDbLine
 10
65.2221
 20
103.7439999999999
 30
0.0
 11
65.606843537449
 21
102.308334320981
 31
0.0
  0
LINE
  5
143
330
1E
100
AcDbEntity
  8
0
100
AcDbLine
 10
65.2221
 20
103.7439999999999
 30
0.0
 11
65.8433
 21
101.4259999999999
 31
0.0
  0
LINE
  5
144
330
1E
100
AcDbEntity
  8
0
100
AcDbLine
 10
65.00289999999999
 20
104.562
 30
0.0
 11
91.17090000000001
 21
111.573943041718
 31
0.0
  0
LINE
  5
145
330
1E
100
AcDbEntity
  8
0
100
AcDbLine
 10
65.00289999999999
 20
104.562
 30
0.0
 11
65.2221
 21
103.7439999999999
 31
0.0
  0
LINE
  5
146
330
1E
100
AcDbEntity
  8
0
100
AcDbLine
 10
71.2146
 20
81.37999999999999
 30
0.0
 11
73.7749
 21
75.7403
 31
0.0
  0
LINE
  5
147
330
1E
100
AcDbEntity
  8
0
100
AcDbLine
 10
80.8863
 20
60.06899999999999
 30
0.0
 11
81.28989999999999
 21
59.23300000000001
 31
0.0
  0
LINE
  5
153
330
1E
100
AcDbEntity
  8
0
100
AcDbLine
 10
91.75920000000001
 20
175.4229999999999
 30
0.0
 11
92.38269999999999
 21
175.4229999999999
 31
0.0
  0
LINE
  5
154
330
1E
100
AcDbEntity
  8
0
100
AcDbLine
 10
91.3709
 20
175.4229999999999
 30
0.0
 11
91.75920000000001
 21
175.4229999999999
 31
0.0
  0
LINE
  5
155
330
1E
100
AcDbEntity
  8
0
100
AcDbLine
 10
92.38269999999999
 20
175.4229999999999
 30
0.0
 11
93.20619999999999
 21
175.4229999999999
 31
0.0
  0
LINE
  5
156
330
1E
100
AcDbEntity
  8
0
100
AcDbLine
 10
93.20619999999999
 20
175.4229999999999
 30
0.0
 11
94.15919999999999
 21
175.4229999999999
 31
0.0
  0
LINE
  5
157
330
1E
100
AcDbEntity
  8
0
100
AcDbLine
 10
94.15919999999999
 20
175.4229999999999
 30
0.0
 11
95.17090000000001
 21
175.4229999999999
 31
0.0
  0
LINE
  5
158
330
1E
100
AcDbEntity
  8
0
100
AcDbLine
 10
91.2298
 20
175.4229999999999
 30
0.0
 11
91.34739999999998
 21
175.5049999999999
 31
0.0
  0
LINE
  5
159
330
1E
100
AcDbEntity
  8
0
100
AcDbLine
 10
91.2298
 20
175.4229999999999
 30
0.0
 11
91.3709
 21
175.4229999999999
 31
0.0
  0
LINE
  5
15A
330
1E
100
AcDbEntity
  8
0
100
AcDbLine
 10
91.17090000000001
 20
175.2579999999999
 30
0.0
 11
91.2298
 21
175.4229999999999
 31
0.0
  0
LINE
  5
15B
330
1E
100
AcDbEntity
  8
0
100
AcDbLine
 10
91.17090000000001
 20
175.2579999999999
 30
0.0
 11
91.17090000000001
 21
111.573943041718
 31
0.0
  0
LINE
  5
15C
330
1E
100
AcDbEntity
  8
0
100
AcDbLine
 10
91.17090000000001
 20
111.573943041718
 30
0.0
 11
91.17090000000001
 21
175.2579999999999
 31
0.0
  0
LINE
  5
15D
330
1E
100
AcDbEntity
  8
0
100
AcDbLine
 10
97.9592
 20
175.4229999999999
 30
0.0
 11
98.5827
 21
175.4229999999999
 31
0.0
  0
LINE
  5
15E
330
1E
100
AcDbEntity
  8
0
100
AcDbLine
 10
98.5827
 20
175.4229999999999
 30
0.0
 11
98.9709
 21
175.4229999999999
 31
0.0
  0
LINE
  5
15F
330
1E
100
AcDbEntity
  8
0
100
AcDbLine
 10
97.13560000000001
 20
175.4229999999999
 30
0.0
 11
97.9592
 21
175.4229999999999
 31
0.0
  0
LINE
  5
160
330
1E
100
AcDbEntity
  8
0
100
AcDbLine
 10
96.1827
 20
175.4229999999999
 30
0.0
 11
97.13560000000001
 21
175.4229999999999
 31
0.0
  0
LINE
  5
161
330
1E
100
AcDbEntity
  8
0
100
AcDbLine
 10
91.865
 20
175.5049999999999
 30
0.0
 11
92.46500000000001
 21
175.5049999999999
 31
0.0
  0
LINE
  5
162
330
1E
100
AcDbEntity
  8
0
100
AcDbLine
 10
91.4886
 20
175.5049999999999
 30
0.0
 11
91.865
 21
175.5049999999999
 31
0.0
  0
LINE
  5
163
330
1E
100
AcDbEntity
  8
0
100
AcDbLine
 10
91.34739999999998
 20
175.5049999999999
 30
0.0
 11
91.4886
 21
175.5049999999999
 31
0.0
  0
LINE
  5
164
330
1E
100
AcDbEntity
  8
0
100
AcDbLine
 10
92.46500000000001
 20
175.5049999999999
 30
0.0
 11
93.26500000000001
 21
175.5049999999999
 31
0.0
  0
LINE
  5
165
330
1E
100
AcDbEntity
  8
0
100
AcDbLine
 10
93.26500000000001
 20
175.5049999999999
 30
0.0
 11
94.18269999999999
 21
175.5049999999999
 31
0.0
  0
LINE
  5
166
330
1E
100
AcDbEntity
  8
0
100
AcDbLine
 10
94.18269999999999
 20
175.5049999999999
 30
0.0
 11
95.17090000000001
 21
175.5049999999999
 31
0.0
  0
LINE
  5
167
330
1E
100
AcDbEntity
  8
0
100
AcDbLine
 10
97.87680000000001
 20
175.5049999999999
 30
0.0
 11
98.4768
 21
175.5049999999999
 31
0.0
  0
LINE
  5
168
330
1E
100
AcDbEntity
  8
0
100
AcDbLine
 10
98.4768
 20
175.5049999999999
 30
0.0
 11
98.85330000000001
 21
175.5049999999999
 31
0.0
  0
LINE
  5
169
330
1E
100
AcDbEntity
  8
0
100
AcDbLine
 10
97.07680000000001
 20
175.5049999999999
 30
0.0
 11
97.87680000000001
 21
175.5049999999999
 31
0.0
  0
LINE
  5
16A
330
1E
100
AcDbEntity
  8
0
100
AcDbLine
 10
96.1592
 20
175.5049999999999
 30
0.0
 11
97.07680000000001
 21
175.5049999999999
 31
0.0
  0
LINE
  5
16B
330
1E
100
AcDbEntity
  8
0
100
AcDbLine
 10
95.17090000000001
 20
175.5049999999999
 30
0.0
 11
96.1592
 21
175.5049999999999
 31
0.0
  0
LINE
  5
16C
330
1E
100
AcDbEntity
  8
0
100
AcDbLine
 10
95.17090000000001
 20
175.4229999999999
 30
0.0
 11
96.1827
 21
175.4229999999999
 31
0.0
  0
LINE
  5
16D
330
1E
100
AcDbEntity
  8
0
100
AcDbLine
 10
99.17090000000001
 20
112.2752034671529
 30
0.0
 11
99.17090000000001
 21
175.2579999999999
 31
0.0
  0
LINE
  5
16E
330
1E
100
AcDbEntity
  8
0
100
AcDbLine
 10
99.8882
 20
109.5979999999999
 30
0.0
 11
110.9599999999999
 21
68.2792
 31
0.0
  0
LINE
  5
170
330
1E
100
AcDbEntity
  8
0
100
AcDbLine
 10
98.85330000000001
 20
175.5049999999999
 30
0.0
 11
98.99450000000001
 21
175.5049999999999
 31
0.0
  0
LINE
  5
171
330
1E
100
AcDbEntity
  8
0
100
AcDbLine
 10
98.9709
 20
175.4229999999999
 30
0.0
 11
99.1121
 21
175.4229999999999
 31
0.0
  0
LINE
  5
172
330
1E
100
AcDbEntity
  8
0
100
AcDbLine
 10
98.99450000000001
 20
175.5049999999999
 30
0.0
 11
99.1121
 21
175.4229999999999
 31
0.0
  0
LINE
  5
173
330
1E
100
AcDbEntity
  8
0
100
AcDbLine
 10
99.1121
 20
175.4229999999999
 30
0.0
 11
99.17090000000001
 21
175.2579999999999
 31
0.0
  0
LINE
  5
174
330
1E
100
AcDbEntity
  8
0
100
AcDbLine
 10
99.17090000000001
 20
175.2579999999999
 30
0.0
 11
99.17090000000001
 21
112.2752034671529
 31
0.0
  0
LINE
  5
175
330
1E
100
AcDbEntity
  8
0
100
AcDbLine
 10
99.17090000000001
 20
112.2752034671529
 30
0.0
 11
99.8882
 21
109.5979999999999
 31
0.0
  0
LINE
  5
17B
330
1E
100
AcDbEntity
  8
0
100
AcDbLine
 10
110.8639999999999
 20
67.5227
 30
0.0
 11
110.9599999999999
 21
68.2792
 31
0.0
  0
LINE
  5
17C
330
1E
100
AcDbEntity
  8
0
100
AcDbLine
 10
110.3979999999999
 20
67.0324
 30
0.0
 11
110.8639999999999
 21
67.5227
 31
0.0
  0
LINE
  5
17D
330
1E
100
AcDbEntity
  8
0
100
AcDbLine
 10
80.52250508085599
 20
60.8714280642116
 30
0.0
 11
80.9049
 21
59.99929999999999
 31
0.0
  0
LINE
  5
17E
330
1E
100
AcDbEntity
  8
0
100
AcDbLine
 10
80.9049
 20
59.99929999999999
 30
0.0
 11
81.28989999999999
 21
59.23300000000001
 31
0.0
  0
LINE
  5
17F
330
1E
100
AcDbEntity
  8
0
100
AcDbLine
 10
39.03999999999999
 20
237.731447222222
 30
0.0
 11
39.03999999999999
 21
120.0
 31
0.0
  0
LINE
  5
180
330
1E
100
AcDbEntity
  8
0
100
AcDbLine
 10
26.968
 20
310.239
 30
0.0
 11
27.04
 21
309.775
 31
0.0
  0
LINE
  5
181
330
1E
100
AcDbEntity
  8
0
100
AcDbLine
 10
26.45599999999999
 20
311.058
 30
0.0
 11
26.77599999999999
 21
310.674
 31
0.0
  0
LINE
  5
182
330
1E
100
AcDbEntity
  8
0
100
AcDbLine
 10
26.77599999999999
 20
310.674
 30
0.0
 11
26.968
 21
310.239
 31
0.0
  0
LINE
  5
183
330
1E
100
AcDbEntity
  8
0
100
AcDbLine
 10
25.552
 20
311.5219999999999
 30
0.0
 11
26.03199999999999
 21
311.348
 31
0.0
  0
LINE
  5
184
330
1E
100
AcDbEntity
  8
0
100
AcDbLine
 10
26.03199999999999
 20
311.348
 30
0.0
 11
26.45599999999999
 21
311.058
 31
0.0
  0
LINE
  5
185
330
1E
100
AcDbEntity
  8
0
100
AcDbLine
 10
25.04
 20
311.5879999999999
 30
0.0
 11
25.552
 21
311.5219999999999
 31
0.0
  0
LINE
  5
186
330
1E
100
AcDbEntity
  8
0
100
AcDbLine
 10
24.528
 20
311.5219999999999
 30
0.0
 11
25.04
 21
311.5879999999999
 31
0.0
  0
LINE
  5
187
330
1E
100
AcDbEntity
  8
0
100
AcDbLine
 10
24.048
 20
311.348
 30
0.0
 11
24.528
 21
311.5219999999999
 31
0.0
  0
LINE
  5
188
330
1E
100
AcDbEntity
  8
0
100
AcDbLine
 10
23.624
 20
311.058
 30
0.0
 11
24.048
 21
311.348
 31
0.0
  0
LINE
  5
189
330
1E
100
AcDbEntity
  8
0
100
AcDbLine
 10
23.304
 20
310.674
 30
0.0
 11
23.624
 21
311.058
 31
0.0
  0
LINE
  5
18A
330
1E
100
AcDbEntity
  8
0
100
AcDbLine
 10
23.11199999999999
 20
310.239
 30
0.0
 11
23.304
 21
310.674
 31
0.0
  0
LINE
  5
18B
330
1E
100
AcDbEntity
  8
0
100
AcDbLine
 10
38.2
 20
312.5109999999999
 30
0.0
 11
38.3697146050667
 21
312.008927626678
 31
0.0
  0
LINE
  5
18C
330
1E
100
AcDbEntity
  8
0
100
AcDbLine
 10
34.672
 20
315.091
 30
0.0
 11
36.856
 21
313.884
 31
0.0
  0
LINE
  5
18D
330
1E
100
AcDbEntity
  8
0
100
AcDbLine
 10
31.81599999999999
 20
316.014
 30
0.0
 11
34.672
 21
315.091
 31
0.0
  0
LINE
  5
190
330
1E
100
AcDbEntity
  8
0
100
AcDbLine
 10
36.856
 20
313.884
 30
0.0
 11
38.2
 21
312.5109999999999
 31
0.0
  0
LINE
  5
195
330
1E
100
AcDbEntity
  8
0
100
AcDbLine
 10
38.3213
 20
312.144
 30
0.0
 11
38.8525
 21
310.662
 31
0.0
  0
LINE
  5
197
330
1E
100
AcDbEntity
  8
0
100
AcDbLine
 10
28.568
 20
316.582
 30
0.0
 11
31.81599999999999
 21
316.014
 31
0.0
  0
LINE
  5
19B
330
1E
100
AcDbEntity
  8
0
100
AcDbLine
 10
39.03999999999999
 20
311.5779999999999
 30
0.0
 11
39.03999999999999
 21
310.0
 31
0.0
  0
LINE
  5
19C
330
1E
100
AcDbEntity
  8
0
100
AcDbLine
 10
39.03999999999999
 20
311.5779999999999
 30
0.0
 11
39.03999999999999
 21
346.283
 31
0.0
  0
LINE
  5
19D
330
1E
100
AcDbEntity
  8
0
100
AcDbLine
 10
39.03999999999999
 20
310.0
 30
0.0
 11
39.03999999999999
 21
251.278988888889
 31
0.0
  0
LINE
  5
19E
330
1E
100
AcDbEntity
  8
0
100
AcDbLine
 10
39.03999999999999
 20
310.0
 30
0.0
 11
39.03999999999999
 21
311.5779999999999
 31
0.0
  0
LINE
  5
19F
330
1E
100
AcDbEntity
  8
0
100
AcDbLine
 10
18.26399999999999
 20
316.014
 30
0.0
 11
21.51199999999999
 21
316.582
 31
0.0
  0
LINE
  5
1A0
330
1E
100
AcDbEntity
  8
0
100
AcDbLine
 10
11.544
 20
400.584
 30
0.0
 11
12.888
 21
403.9439999999999
 31
0.0
  0
LINE
  5
1A1
330
1E
100
AcDbEntity
  8
0
100
AcDbLine
 10
12.888
 20
403.9439999999999
 30
0.0
 11
15.128
 21
406.9119999999999
 31
0.0
  0
LINE
  5
1A2
330
1E
100
AcDbEntity
  8
0
100
AcDbLine
 10
15.128
 20
406.9119999999999
 30
0.0
 11
18.096
 21
409.152
 31
0.0
  0
LINE
  5
1A3
330
1E
100
AcDbEntity
  8
0
100
AcDbLine
 10
18.096
 20
409.152
 30
0.0
 11
21.45599999999999
 21
410.496
 31
0.0
  0
LINE
  5
1A4
330
1E
100
AcDbEntity
  8
0
100
AcDbLine
 10
25.04
 20
316.795
 30
0.0
 11
28.568
 21
316.582
 31
0.0
  0
LINE
  5
1A5
330
1E
100
AcDbEntity
  8
0
100
AcDbLine
 10
39.03999999999999
 20
371.518
 30
0.0
 11
39.03999999999999
 21
362.962
 31
0.0
  0
LINE
  5
1A6
330
1E
100
AcDbEntity
  8
0
100
AcDbLine
 10
39.03999999999999
 20
371.518
 30
0.0
 11
39.03999999999999
 21
379.022
 31
0.0
  0
LINE
  5
1A7
330
1E
100
AcDbEntity
  8
0
100
AcDbLine
 10
39.03999999999999
 20
362.962
 30
0.0
 11
39.03999999999999
 21
371.518
 31
0.0
  0
LINE
  5
1A8
330
1E
100
AcDbEntity
  8
0
100
AcDbLine
 10
39.03999999999999
 20
362.962
 30
0.0
 11
39.03999999999999
 21
353.5
 31
0.0
  0
LINE
  5
1A9
330
1E
100
AcDbEntity
  8
0
100
AcDbLine
 10
39.03999999999999
 20
353.5
 30
0.0
 11
39.03999999999999
 21
346.283
 31
0.0
  0
LINE
  5
1AA
330
1E
100
AcDbEntity
  8
0
100
AcDbLine
 10
39.03999999999999
 20
353.5
 30
0.0
 11
39.03999999999999
 21
362.962
 31
0.0
  0
LINE
  5
1AB
330
1E
100
AcDbEntity
  8
0
100
AcDbLine
 10
39.03999999999999
 20
346.283
 30
0.0
 11
39.03999999999999
 21
353.5
 31
0.0
  0
LINE
  5
1AC
330
1E
100
AcDbEntity
  8
0
100
AcDbLine
 10
39.03999999999999
 20
346.283
 30
0.0
 11
39.03999999999999
 21
311.5779999999999
 31
0.0
  0
LINE
  5
1AD
330
1E
100
AcDbEntity
  8
0
100
AcDbLine
 10
39.03999999999999
 20
385.3439999999999
 30
0.0
 11
39.03999999999999
 21
379.022
 31
0.0
  0
LINE
  5
1AE
330
1E
100
AcDbEntity
  8
0
100
AcDbLine
 10
39.03999999999999
 20
385.3439999999999
 30
0.0
 11
39.03999999999999
 21
390.378
 31
0.0
  0
LINE
  5
1AF
330
1E
100
AcDbEntity
  8
0
100
AcDbLine
 10
39.03999999999999
 20
379.022
 30
0.0
 11
39.03999999999999
 21
385.3439999999999
 31
0.0
  0
LINE
  5
1B0
330
1E
100
AcDbEntity
  8
0
100
AcDbLine
 10
39.03999999999999
 20
379.022
 30
0.0
 11
39.03999999999999
 21
371.518
 31
0.0
  0
LINE
  5
1B1
330
1E
100
AcDbEntity
  8
0
100
AcDbLine
 10
39.03999999999999
 20
397.0
 30
0.0
 11
39.03999999999999
 21
396.2559999999999
 31
0.0
  0
LINE
  5
1B2
330
1E
100
AcDbEntity
  8
0
100
AcDbLine
 10
38.536
 20
400.584
 30
0.0
 11
39.03999999999999
 21
397.0
 31
0.0
  0
LINE
  5
1B3
330
1E
100
AcDbEntity
  8
0
100
AcDbLine
 10
39.03999999999999
 20
396.2559999999999
 30
0.0
 11
39.03999999999999
 21
397.0
 31
0.0
  0
LINE
  5
1B4
330
1E
100
AcDbEntity
  8
0
100
AcDbLine
 10
39.03999999999999
 20
396.2559999999999
 30
0.0
 11
39.03999999999999
 21
394.036
 31
0.0
  0
LINE
  5
1B5
330
1E
100
AcDbEntity
  8
0
100
AcDbLine
 10
37.192
 20
403.9439999999999
 30
0.0
 11
38.536
 21
400.584
 31
0.0
  0
LINE
  5
1B6
330
1E
100
AcDbEntity
  8
0
100
AcDbLine
 10
34.952
 20
406.9119999999999
 30
0.0
 11
37.192
 21
403.9439999999999
 31
0.0
  0
LINE
  5
1B7
330
1E
100
AcDbEntity
  8
0
100
AcDbLine
 10
31.984
 20
409.152
 30
0.0
 11
34.952
 21
406.9119999999999
 31
0.0
  0
LINE
  5
1B8
330
1E
100
AcDbEntity
  8
0
100
AcDbLine
 10
28.624
 20
410.496
 30
0.0
 11
31.984
 21
409.152
 31
0.0
  0
LINE
  5
1B9
330
1E
100
AcDbEntity
  8
0
100
AcDbLine
 10
25.04
 20
411.0
 30
0.0
 11
28.624
 21
410.496
 31
0.0
  0
LINE
  5
1BA
330
1E
100
AcDbEntity
  8
0
100
AcDbLine
 10
39.03999999999999
 20
394.036
 30
0.0
 11
39.03999999999999
 21
390.378
 31
0.0
  0
LINE
  5
1BB
330
1E
100
AcDbEntity
  8
0
100
AcDbLine
 10
39.03999999999999
 20
394.036
 30
0.0
 11
39.03999999999999
 21
396.2559999999999
 31
0.0
  0
LINE
  5
1BC
330
1E
100
AcDbEntity
  8
0
100
AcDbLine
 10
39.03999999999999
 20
390.378
 30
0.0
 11
39.03999999999999
 21
394.036
 31
0.0
  0
LINE
  5
1BD
330
1E
100
AcDbEntity
  8
0
100
AcDbLine
 10
39.03999999999999
 20
390.378
 30
0.0
 11
39.03999999999999
 21
385.3439999999999
 31
0.0
  0
LINE
  5
1BE
330
1E
100
AcDbEntity
  8
0
100
AcDbLine
 10
21.45599999999999
 20
410.496
 30
0.0
 11
25.04
 21
411.0
 31
0.0
  0
LINE
  5
1BF
330
1E
100
AcDbEntity
  8
0
100
AcDbLine
 10
21.51199999999999
 20
316.582
 30
0.0
 11
25.04
 21
316.795
 31
0.0
  0
LINE
  5
1C1
330
1E
100
AcDbEntity
  8
0
100
AcDbLine
 10
11.03999999999999
 20
311.5779999999999
 30
0.0
 11
11.03999999999999
 21
346.283
 31
0.0
  0
ENDSEC
  0
SECTION
  2
OBJECTS
  0
DICTIONARY
  5
C
330
0
100
AcDbDictionary
281
     1
  3
ACAD_GROUP
350
D
  3
ACAD_LAYOUT
350
19
  3
ACAD_MLINESTYLE
350
16
  3
ACAD_PLOTSETTINGS
350
18
  3
ACAD_PLOTSTYLENAME
350
E
  3
AcDbVariableDictionary
350
1C7
  0
DICTIONARY
  5
D
102
{ACAD_REACTORS
330
C
102
}
330
C
100
AcDbDictionary
281
     1
  0
DICTIONARY
  5
19
102
{ACAD_REACTORS
330
C
102
}
330
C
100
AcDbDictionary
281
     1
  3
Layout1
350
1D
  3
Model
350
21
  0
DICTIONARY
  5
16
102
{ACAD_REACTORS
330
C
102
}
330
C
100
AcDbDictionary
281
     1
  3
Standard
350
17
  0
DICTIONARY
  5
18
102
{ACAD_REACTORS
330
C
102
}
330
C
100
AcDbDictionary
281
     1
  0
ACDBDICTIONARYWDFLT
  5
E
102
{ACAD_REACTORS
330
C
102
}
330
C
100
AcDbDictionary
281
     1
  3
Normal
350
F
100
AcDbDictionaryWithDefault
340
F
  0
DICTIONARY
  5
1C7
102
{ACAD_REACTORS
330
C
102
}
330
C
100
AcDbDictionary
281
     1
  3
DIMASSOC
350
1C8
  0
LAYOUT
  5
1D
102
{ACAD_REACTORS
330
19
102
}
330
19
100
AcDbPlotSettings
  1

  2
hp deskjet 980c series
  4

  6

 40
0.0
 41
0.0
 42
0.0
 43
0.0
 44
0.0
 45
0.0
 46
0.0
 47
0.0
 48
0.0
 49
0.0
140
0.0
141
0.0
142
1.0
143
1.0
 70
   688
 72
     0
 73
     0
 74
     5
  7

 75
    16
147
1.0
148
0.0
149
0.0
100
AcDbLayout
  1
Layout1
 70
     1
 71
     1
 10
0.0
 20
0.0
 11
12.0
 21
9.0
 12
0.0
 22
0.0
 32
0.0
 14
1.000000000000000E+20
 24
1.000000000000000E+20
 34
1.000000000000000E+20
 15
-1.000000000000000E+20
 25
-1.000000000000000E+20
 35
-1.000000000000000E+20
146
0.0
 13
0.0
 23
0.0
 33
0.0
 16
1.0
 26
0.0
 36
0.0
 17
0.0
 27
1.0
 37
0.0
 76
     0
330
1A
  0
LAYOUT
  5
21
102
{ACAD_REACTORS
330
19
102
}
330
19
100
AcDbPlotSettings
  1

  2
hp deskjet 980c series
  4

  6

 40
0.0
 41
0.0
 42
0.0
 43
0.0
 44
0.0
 45
0.0
 46
0.0
 47
0.0
 48
0.0
 49
0.0
140
0.0
141
0.0
142
1.0
143
1.0
 70
  1712
 72
     0
 73
     0
 74
     0
  7

 75
     0
147
1.0
148
0.0
149
0.0
100
AcDbLayout
  1
Model
 70
     1
 71
     0
 10
0.0
 20
0.0
 11
12.0
 21
9.0
 12
0.0
 22
0.0
 32
0.0
 14
0.0
 24
0.0
 34
0.0
 15
0.0
 25
0.0
 35
0.0
146
0.0
 13
0.0
 23
0.0
 33
0.0
 16
1.0
 26
0.0
 36
0.0
 17
0.0
 27
1.0
 37
0.0
 76
     0
330
1E
  0
MLINESTYLE
  5
17
102
{ACAD_REACTORS
330
16
102
}
330
16
100
AcDbMlineStyle
  2
STANDARD
 70
     0
  3

 62
   256
 51
90.0
 52
90.0
 71
     2
 49
0.5
 62
   256
  6
BYLAYER
 49
-0.5
 62
   256
  6
BYLAYER
  0
ACDBPLACEHOLDER
  5
F
102
{ACAD_REACTORS
330
E
102
}
330
E
  0
DICTIONARYVAR
  5
1C8
102
{ACAD_REACTORS
330
1C7
102
}
330
1C7
100
DictionaryVariables
280
     0
  1
1
  0
ENDSEC
  0
EOF
