  0
SECTION
  2
HEADER
  9
$ACADVER
  1
AC1015
  9
$ACADMAINTVER
 70
    13
  9
$DWGCODEPAGE
  3
ANSI_1252
  9
$INSBASE
 10
0.0
 20
0.0
 30
0.0
  9
$EXTMIN
 10
0.0399999999999867
 20
0.103350000000025
 30
0.0
  9
$EXTMAX
 10
159.96
 20
208.89665
 30
0.0
  9
$LIMMIN
 10
0.0
 20
0.0
  9
$LIMMAX
 10
12.0
 20
9.0
  9
$ORTHOMODE
 70
     0
  9
$REGENMODE
 70
     1
  9
$FILLMODE
 70
     1
  9
$QTEXTMODE
 70
     0
  9
$MIRRTEXT
 70
     1
  9
$LTSCALE
 40
1.0
  9
$ATTMODE
 70
     1
  9
$TEXTSIZE
 40
0.2
  9
$TRACEWID
 40
0.05
  9
$TEXTSTYLE
  7
Standard
  9
$CLAYER
  8
0
  9
$CELTYPE
  6
Continuous
  9
$CECOLOR
 62
   256
  9
$CELTSCALE
 40
1.0
  9
$DISPSILH
 70
     0
  9
$DIMSCALE
 40
1.0
  9
$DIMASZ
 40
0.18
  9
$DIMEXO
 40
0.0625
  9
$DIMDLI
 40
0.38
  9
$DIMRND
 40
0.0
  9
$DIMDLE
 40
0.0
  9
$DIMEXE
 40
0.18
  9
$DIMTP
 40
0.0
  9
$DIMTM
 40
0.0
  9
$DIMTXT
 40
0.18
  9
$DIMCEN
 40
0.09
  9
$DIMTSZ
 40
0.0
  9
$DIMTOL
 70
     0
  9
$DIMLIM
 70
     0
  9
$DIMTIH
 70
     1
  9
$DIMTOH
 70
     1
  9
$DIMSE1
 70
     0
  9
$DIMSE2
 70
     0
  9
$DIMTAD
 70
     0
  9
$DIMZIN
 70
     0
  9
$DIMBLK
  1

  9
$DIMASO
 70
     1
  9
$DIMSHO
 70
     1
  9
$DIMPOST
  1

  9
$DIMAPOST
  1

  9
$DIMALT
 70
     0
  9
$DIMALTD
 70
     2
  9
$DIMALTF
 40
25.4
  9
$DIMLFAC
 40
1.0
  9
$DIMTOFL
 70
     0
  9
$DIMTVP
 40
0.0
  9
$DIMTIX
 70
     0
  9
$DIMSOXD
 70
     0
  9
$DIMSAH
 70
     0
  9
$DIMBLK1
  1

  9
$DIMBLK2
  1

  9
$DIMSTYLE
  2
Standard
  9
$DIMCLRD
 70
     0
  9
$DIMCLRE
 70
     0
  9
$DIMCLRT
 70
     0
  9
$DIMTFAC
 40
1.0
  9
$DIMGAP
 40
0.09
  9
$DIMJUST
 70
     0
  9
$DIMSD1
 70
     0
  9
$DIMSD2
 70
     0
  9
$DIMTOLJ
 70
     1
  9
$DIMTZIN
 70
     0
  9
$DIMALTZ
 70
     0
  9
$DIMALTTZ
 70
     0
  9
$DIMUPT
 70
     0
  9
$DIMDEC
 70
     4
  9
$DIMTDEC
 70
     4
  9
$DIMALTU
 70
     2
  9
$DIMALTTD
 70
     2
  9
$DIMTXSTY
  7
Standard
  9
$DIMAUNIT
 70
     0
  9
$DIMADEC
 70
     0
  9
$DIMALTRND
 40
0.0
  9
$DIMAZIN
 70
     0
  9
$DIMDSEP
 70
    46
  9
$DIMATFIT
 70
     3
  9
$DIMFRAC
 70
     0
  9
$DIMLDRBLK
  1

  9
$DIMLUNIT
 70
     2
  9
$DIMLWD
 70
    -2
  9
$DIMLWE
 70
    -2
  9
$DIMTMOVE
 70
     0
  9
$LUNITS
 70
     2
  9
$LUPREC
 70
     4
  9
$SKETCHINC
 40
0.1
  9
$FILLETRAD
 40
0.0
  9
$AUNITS
 70
     0
  9
$AUPREC
 70
     0
  9
$MENU
  1
.
  9
$ELEVATION
 40
0.0
  9
$PELEVATION
 40
0.0
  9
$THICKNESS
 40
0.0
  9
$LIMCHECK
 70
     0
  9
$CHAMFERA
 40
0.0
  9
$CHAMFERB
 40
0.0
  9
$CHAMFERC
 40
0.0
  9
$CHAMFERD
 40
0.0
  9
$SKPOLY
 70
     0
  9
$TDCREATE
 40
2455651.047251331
  9
$TDUCREATE
 40
2455650.963917997
  9
$TDUPDATE
 40
2455651.050942199
  9
$TDUUPDATE
 40
2455650.967608866
  9
$TDINDWG
 40
0.0036910417
  9
$TDUSRTIMER
 40
0.0036910417
  9
$USRTIMER
 70
     1
  9
$ANGBASE
 50
0.0
  9
$ANGDIR
 70
     0
  9
$PDMODE
 70
     0
  9
$PDSIZE
 40
0.0
  9
$PLINEWID
 40
0.0
  9
$SPLFRAME
 70
     0
  9
$SPLINETYPE
 70
     6
  9
$SPLINESEGS
 70
     8
  9
$HANDSEED
  5
2C3
  9
$SURFTAB1
 70
     6
  9
$SURFTAB2
 70
     6
  9
$SURFTYPE
 70
     6
  9
$SURFU
 70
     6
  9
$SURFV
 70
     6
  9
$UCSBASE
  2

  9
$UCSNAME
  2

  9
$UCSORG
 10
0.0
 20
0.0
 30
0.0
  9
$UCSXDIR
 10
1.0
 20
0.0
 30
0.0
  9
$UCSYDIR
 10
0.0
 20
1.0
 30
0.0
  9
$UCSORTHOREF
  2

  9
$UCSORTHOVIEW
 70
     1
  9
$UCSORGTOP
 10
0.0
 20
0.0
 30
0.0
  9
$UCSORGBOTTOM
 10
0.0
 20
0.0
 30
0.0
  9
$UCSORGLEFT
 10
0.0
 20
0.0
 30
0.0
  9
$UCSORGRIGHT
 10
0.0
 20
0.0
 30
0.0
  9
$UCSORGFRONT
 10
0.0
 20
0.0
 30
0.0
  9
$UCSORGBACK
 10
0.0
 20
0.0
 30
0.0
  9
$PUCSBASE
  2

  9
$PUCSNAME
  2

  9
$PUCSORG
 10
0.0
 20
0.0
 30
0.0
  9
$PUCSXDIR
 10
1.0
 20
0.0
 30
0.0
  9
$PUCSYDIR
 10
0.0
 20
1.0
 30
0.0
  9
$PUCSORTHOREF
  2

  9
$PUCSORTHOVIEW
 70
     0
  9
$PUCSORGTOP
 10
0.0
 20
0.0
 30
0.0
  9
$PUCSORGBOTTOM
 10
0.0
 20
0.0
 30
0.0
  9
$PUCSORGLEFT
 10
0.0
 20
0.0
 30
0.0
  9
$PUCSORGRIGHT
 10
0.0
 20
0.0
 30
0.0
  9
$PUCSORGFRONT
 10
0.0
 20
0.0
 30
0.0
  9
$PUCSORGBACK
 10
0.0
 20
0.0
 30
0.0
  9
$USERI1
 70
     0
  9
$USERI2
 70
     0
  9
$USERI3
 70
     0
  9
$USERI4
 70
     0
  9
$USERI5
 70
     0
  9
$USERR1
 40
0.0
  9
$USERR2
 40
0.0
  9
$USERR3
 40
0.0
  9
$USERR4
 40
0.0
  9
$USERR5
 40
0.0
  9
$WORLDVIEW
 70
     1
  9
$SHADEDGE
 70
     3
  9
$SHADEDIF
 70
    70
  9
$TILEMODE
 70
     1
  9
$MAXACTVP
 70
    64
  9
$PINSBASE
 10
0.0
 20
0.0
 30
0.0
  9
$PLIMCHECK
 70
     0
  9
$PEXTMIN
 10
1.000000000000000E+20
 20
1.000000000000000E+20
 30
1.000000000000000E+20
  9
$PEXTMAX
 10
-1.000000000000000E+20
 20
-1.000000000000000E+20
 30
-1.000000000000000E+20
  9
$PLIMMIN
 10
0.0
 20
0.0
  9
$PLIMMAX
 10
12.0
 20
9.0
  9
$UNITMODE
 70
     0
  9
$VISRETAIN
 70
     1
  9
$PLINEGEN
 70
     0
  9
$PSLTSCALE
 70
     1
  9
$TREEDEPTH
 70
  3020
  9
$CMLSTYLE
  2
Standard
  9
$CMLJUST
 70
     0
  9
$CMLSCALE
 40
1.0
  9
$PROXYGRAPHICS
 70
     1
  9
$MEASUREMENT
 70
     0
  9
$CELWEIGHT
370
    -1
  9
$ENDCAPS
280
     0
  9
$JOINSTYLE
280
     0
  9
$LWDISPLAY
290
     0
  9
$INSUNITS
 70
     0
  9
$HYPERLINKBASE
  1

  9
$STYLESHEET
  1

  9
$XEDIT
290
     1
  9
$CEPSNTYPE
380
     0
  9
$PSTYLEMODE
290
     1
  9
$FINGERPRINTGUID
  2
{3CE436AC-02BC-42A0-A8FF-B9879951EDFA}
  9
$VERSIONGUID
  2
{8504D2DF-645D-4D78-9858-957F30018175}
  9
$EXTNAMES
290
     1
  9
$PSVPSCALE
 40
0.0
  9
$OLESTARTUP
290
     0
  0
ENDSEC
  0
SECTION
  2
CLASSES
  0
CLASS
  1
ACDBDICTIONARYWDFLT
  2
AcDbDictionaryWithDefault
  3
AutoCAD 2000
 90
        0
280
     0
281
     0
  0
CLASS
  1
ACDBPLACEHOLDER
  2
AcDbPlaceHolder
  3
AutoCAD 2000
 90
        0
280
     0
281
     0
  0
CLASS
  1
LAYOUT
  2
AcDbLayout
  3
AutoCAD 2000
 90
        0
280
     0
281
     0
  0
CLASS
  1
DICTIONARYVAR
  2
AcDbDictionaryVar
  3
AutoCAD 2000
 90
        0
280
     0
281
     0
  0
ENDSEC
  0
SECTION
  2
TABLES
  0
TABLE
  2
VPORT
  5
8
330
0
100
AcDbSymbolTable
 70
     3
  0
VPORT
  5
2C2
330
8
100
AcDbSymbolTableRecord
100
AcDbViewportTableRecord
  2
*Active
 70
     0
 10
0.0
 20
0.0
 11
1.0
 21
1.0
 12
80.0
 22
104.4999999999999
 13
0.0
 23
0.0
 14
1.0
 24
1.0
 15
0.0
 25
0.0
 16
0.0
 26
0.0
 36
1.0
 17
0.0
 27
0.0
 37
0.0
 40
210.205656031567
 41
2.073363431151241
 42
50.0
 43
0.0
 44
0.0
 50
0.0
 51
0.0
 71
     0
 72
   100
 73
     1
 74
     3
 75
     0
 76
     0
 77
     0
 78
     0
281
     0
 65
     1
110
0.0
120
0.0
130
0.0
111
1.0
121
0.0
131
0.0
112
0.0
122
1.0
132
0.0
 79
     1
146
0.0
  0
ENDTAB
  0
TABLE
  2
LTYPE
  5
5
330
0
100
AcDbSymbolTable
 70
     1
  0
LTYPE
  5
13
330
5
100
AcDbSymbolTableRecord
100
AcDbLinetypeTableRecord
  2
ByBlock
 70
     0
  3

 72
    65
 73
     0
 40
0.0
  0
LTYPE
  5
14
330
5
100
AcDbSymbolTableRecord
100
AcDbLinetypeTableRecord
  2
ByLayer
 70
     0
  3

 72
    65
 73
     0
 40
0.0
  0
LTYPE
  5
15
330
5
100
AcDbSymbolTableRecord
100
AcDbLinetypeTableRecord
  2
Continuous
 70
     0
  3
Solid line
 72
    65
 73
     0
 40
0.0
  0
ENDTAB
  0
TABLE
  2
LAYER
  5
2
330
0
100
AcDbSymbolTable
 70
     1
  0
LAYER
  5
10
330
2
100
AcDbSymbolTableRecord
100
AcDbLayerTableRecord
  2
0
 70
     0
 62
     7
  6
Continuous
370
    -3
390
F
  0
ENDTAB
  0
TABLE
  2
STYLE
  5
3
330
0
100
AcDbSymbolTable
 70
     1
  0
STYLE
  5
11
330
3
100
AcDbSymbolTableRecord
100
AcDbTextStyleTableRecord
  2
Standard
 70
     0
 40
0.0
 41
1.0
 50
0.0
 71
     0
 42
0.2
  3
txt
  4

  0
ENDTAB
  0
TABLE
  2
VIEW
  5
6
330
0
100
AcDbSymbolTable
 70
     0
  0
ENDTAB
  0
TABLE
  2
UCS
  5
7
330
0
100
AcDbSymbolTable
 70
     0
  0
ENDTAB
  0
TABLE
  2
APPID
  5
9
330
0
100
AcDbSymbolTable
 70
     1
  0
APPID
  5
12
330
9
100
AcDbSymbolTableRecord
100
AcDbRegAppTableRecord
  2
ACAD
 70
     0
  0
ENDTAB
  0
TABLE
  2
DIMSTYLE
  5
A
330
0
100
AcDbSymbolTable
 70
     1
100
AcDbDimStyleTable
 71
     0
  0
DIMSTYLE
105
2B9
330
A
100
AcDbSymbolTableRecord
100
AcDbDimStyleTableRecord
  2
Standard
 70
     0
340
11
  0
ENDTAB
  0
TABLE
  2
BLOCK_RECORD
  5
1
330
0
100
AcDbSymbolTable
 70
     0
  0
BLOCK_RECORD
  5
1E
330
1
100
AcDbSymbolTableRecord
100
AcDbBlockTableRecord
  2
*Model_Space
340
21
  0
BLOCK_RECORD
  5
1A
330
1
100
AcDbSymbolTableRecord
100
AcDbBlockTableRecord
  2
*Paper_Space
340
1D
  0
ENDTAB
  0
ENDSEC
  0
SECTION
  2
BLOCKS
  0
BLOCK
  5
1F
330
1E
100
AcDbEntity
  8
0
100
AcDbBlockBegin
  2
*Model_Space
 70
     0
 10
0.0
 20
0.0
 30
0.0
  3
*Model_Space
  1

  0
ENDBLK
  5
20
330
1E
100
AcDbEntity
  8
0
100
AcDbBlockEnd
  0
BLOCK
  5
1B
330
1A
100
AcDbEntity
 67
     1
  8
0
100
AcDbBlockBegin
  2
*Paper_Space
 70
     0
 10
0.0
 20
0.0
 30
0.0
  3
*Paper_Space
  1

  0
ENDBLK
  5
1C
330
1A
100
AcDbEntity
 67
     1
  8
0
100
AcDbBlockEnd
  0
ENDSEC
  0
SECTION
  2
ENTITIES
  0
LINE
  5
22
330
1E
100
AcDbEntity
  8
0
100
AcDbLine
 10
1.598999999999989
 20
169.28165
 30
0.0
 11
1.950999999999989
 21
168.99265
 31
0.0
  0
LINE
  5
23
330
1E
100
AcDbEntity
  8
0
100
AcDbLine
 10
2.39399999999999
 20
168.88865
 30
0.0
 11
10.04199999999999
 21
168.88865
 31
0.0
  0
LINE
  5
24
330
1E
100
AcDbEntity
  8
0
100
AcDbLine
 10
10.04199999999999
 20
168.88865
 30
0.0
 11
32.5264
 21
168.88865
 31
0.0
  0
LINE
  5
25
330
1E
100
AcDbEntity
  8
0
100
AcDbLine
 10
10.04199999999999
 20
168.88865
 30
0.0
 11
32.5264
 21
168.88865
 31
0.0
  0
LINE
  5
26
330
1E
100
AcDbEntity
  8
0
100
AcDbLine
 10
2.39399999999999
 20
168.88865
 30
0.0
 11
10.04199999999999
 21
168.88865
 31
0.0
  0
LINE
  5
27
330
1E
100
AcDbEntity
  8
0
100
AcDbLine
 10
32.7763
 20
168.9556499999999
 30
0.0
 11
32.9592
 21
169.1396499999999
 31
0.0
  0
LINE
  5
28
330
1E
100
AcDbEntity
  8
0
100
AcDbLine
 10
32.9592
 20
169.1396499999999
 30
0.0
 11
33.0262
 21
169.38865
 31
0.0
  0
LINE
  5
29
330
1E
100
AcDbEntity
  8
0
100
AcDbLine
 10
32.5264
 20
168.88865
 30
0.0
 11
32.7763
 21
168.9556499999999
 31
0.0
  0
LINE
  5
2A
330
1E
100
AcDbEntity
  8
0
100
AcDbLine
 10
1.950999999999989
 20
168.99265
 30
0.0
 11
2.39399999999999
 21
168.88865
 31
0.0
  0
LINE
  5
2B
330
1E
100
AcDbEntity
  8
0
100
AcDbLine
 10
33.0262
 20
169.61365
 30
0.0
 11
33.0262
 21
169.38865
 31
0.0
  0
LINE
  5
2C
330
1E
100
AcDbEntity
  8
0
100
AcDbLine
 10
33.0262
 20
169.38865
 30
0.0
 11
33.0262
 21
169.61365
 31
0.0
  0
LINE
  5
2D
330
1E
100
AcDbEntity
  8
0
100
AcDbLine
 10
1.412999999999989
 20
169.69765
 30
0.0
 11
1.598999999999989
 21
169.28165
 31
0.0
  0
LINE
  5
2E
330
1E
100
AcDbEntity
  8
0
100
AcDbLine
 10
34.02579999999999
 20
171.4846499999999
 30
0.0
 11
34.02579999999999
 21
172.9866499999999
 31
0.0
  0
LINE
  5
2F
330
1E
100
AcDbEntity
  8
0
100
AcDbLine
 10
33.0262
 20
171.41765
 30
0.0
 11
34.02579999999999
 21
171.41765
 31
0.0
  0
LINE
  5
30
330
1E
100
AcDbEntity
  8
0
100
AcDbLine
 10
34.02579999999999
 20
171.41765
 30
0.0
 11
34.02579999999999
 21
171.8746499999999
 31
0.0
  0
LINE
  5
31
330
1E
100
AcDbEntity
  8
0
100
AcDbLine
 10
34.02579999999999
 20
171.41765
 30
0.0
 11
34.02579999999999
 21
170.36065
 31
0.0
  0
LINE
  5
33
330
1E
100
AcDbEntity
  8
0
100
AcDbLine
 10
34.02579999999999
 20
171.8746499999999
 30
0.0
 11
34.02579999999999
 21
172.79365
 31
0.0
  0
LINE
  5
34
330
1E
100
AcDbEntity
  8
0
100
AcDbLine
 10
34.02579999999999
 20
171.8746499999999
 30
0.0
 11
34.02579999999999
 21
171.41765
 31
0.0
  0
LINE
  5
35
330
1E
100
AcDbEntity
  8
0
100
AcDbLine
 10
34.02579999999999
 20
172.79365
 30
0.0
 11
34.02579999999999
 21
174.13865
 31
0.0
  0
LINE
  5
36
330
1E
100
AcDbEntity
  8
0
100
AcDbLine
 10
34.02579999999999
 20
172.79365
 30
0.0
 11
34.02579999999999
 21
171.8746499999999
 31
0.0
  0
LINE
  5
37
330
1E
100
AcDbEntity
  8
0
100
AcDbLine
 10
34.02579999999999
 20
170.36065
 30
0.0
 11
34.02579999999999
 21
171.41765
 31
0.0
  0
LINE
  5
38
330
1E
100
AcDbEntity
  8
0
100
AcDbLine
 10
34.02579999999999
 20
169.6476499999999
 30
0.0
 11
34.02579999999999
 21
169.3666499999999
 31
0.0
  0
LINE
  5
39
330
1E
100
AcDbEntity
  8
0
100
AcDbLine
 10
34.02579999999999
 20
169.6476499999999
 30
0.0
 11
34.02579999999999
 21
170.36065
 31
0.0
  0
LINE
  5
3A
330
1E
100
AcDbEntity
  8
0
100
AcDbLine
 10
34.02579999999999
 20
169.3666499999999
 30
0.0
 11
34.0927
 21
169.11665
 31
0.0
  0
LINE
  5
3B
330
1E
100
AcDbEntity
  8
0
100
AcDbLine
 10
34.02579999999999
 20
169.3666499999999
 30
0.0
 11
34.02579999999999
 21
169.6476499999999
 31
0.0
  0
LINE
  5
3C
330
1E
100
AcDbEntity
  8
0
100
AcDbLine
 10
34.02579999999999
 20
170.36065
 30
0.0
 11
34.02579999999999
 21
169.6476499999999
 31
0.0
  0
LINE
  5
3E
330
1E
100
AcDbEntity
  8
0
100
AcDbLine
 10
0.813999999999987
 20
173.1996499999999
 30
0.0
 11
1.412999999999989
 21
169.69765
 31
0.0
  0
LINE
  5
3F
330
1E
100
AcDbEntity
  8
0
100
AcDbLine
 10
34.02579999999999
 20
174.8196499999999
 30
0.0
 11
34.02579999999999
 21
176.92965
 31
0.0
  0
LINE
  5
41
330
1E
100
AcDbEntity
  8
0
100
AcDbLine
 10
0.383999999999987
 20
176.75165
 30
0.0
 11
0.813999999999987
 21
173.1996499999999
 31
0.0
  0
LINE
  5
42
330
1E
100
AcDbEntity
  8
0
100
AcDbLine
 10
34.02579999999999
 20
177.8896499999999
 30
0.0
 11
34.02579999999999
 21
180.14965
 31
0.0
  0
LINE
  5
43
330
1E
100
AcDbEntity
  8
0
100
AcDbLine
 10
34.02579999999999
 20
177.8896499999999
 30
0.0
 11
34.02579999999999
 21
175.8596499999999
 31
0.0
  0
LINE
  5
44
330
1E
100
AcDbEntity
  8
0
100
AcDbLine
 10
34.02579999999999
 20
174.13865
 30
0.0
 11
34.02579999999999
 21
175.8596499999999
 31
0.0
  0
LINE
  5
45
330
1E
100
AcDbEntity
  8
0
100
AcDbLine
 10
34.02579999999999
 20
174.13865
 30
0.0
 11
34.02579999999999
 21
172.79365
 31
0.0
  0
LINE
  5
46
330
1E
100
AcDbEntity
  8
0
100
AcDbLine
 10
34.02579999999999
 20
175.8596499999999
 30
0.0
 11
34.02579999999999
 21
177.8896499999999
 31
0.0
  0
LINE
  5
47
330
1E
100
AcDbEntity
  8
0
100
AcDbLine
 10
34.02579999999999
 20
175.8596499999999
 30
0.0
 11
34.02579999999999
 21
174.13865
 31
0.0
  0
LINE
  5
48
330
1E
100
AcDbEntity
  8
0
100
AcDbLine
 10
34.02579999999999
 20
172.9866499999999
 30
0.0
 11
34.02579999999999
 21
171.4846499999999
 31
0.0
  0
LINE
  5
49
330
1E
100
AcDbEntity
  8
0
100
AcDbLine
 10
34.02579999999999
 20
176.92965
 30
0.0
 11
34.02579999999999
 21
174.8196499999999
 31
0.0
  0
LINE
  5
4A
330
1E
100
AcDbEntity
  8
0
100
AcDbLine
 10
34.02579999999999
 20
176.92965
 30
0.0
 11
34.02579999999999
 21
179.24965
 31
0.0
  0
LINE
  5
59
330
1E
100
AcDbEntity
  8
0
100
AcDbLine
 10
0.0399999999999867
 20
183.8966499999999
 30
0.0
 11
0.125999999999987
 21
180.3236499999999
 31
0.0
  0
LINE
  5
5A
330
1E
100
AcDbEntity
  8
0
100
AcDbLine
 10
0.0399999999999867
 20
183.8966499999999
 30
0.0
 11
0.125999999999987
 21
187.4696499999999
 31
0.0
  0
LINE
  5
5B
330
1E
100
AcDbEntity
  8
0
100
AcDbLine
 10
0.125999999999987
 20
180.3206499999999
 30
0.0
 11
0.383999999999987
 21
176.75165
 31
0.0
  0
LINE
  5
C8
330
1E
100
AcDbEntity
  8
0
100
AcDbLine
 10
0.125999999999987
 20
180.3206499999999
 30
0.0
 11
0.383999999999987
 21
176.75165
 31
0.0
  0
LINE
  5
C9
330
1E
100
AcDbEntity
  8
0
100
AcDbLine
 10
34.02579999999999
 20
180.14965
 30
0.0
 11
34.02579999999999
 21
182.55465
 31
0.0
  0
LINE
  5
CA
330
1E
100
AcDbEntity
  8
0
100
AcDbLine
 10
34.02579999999999
 20
180.14965
 30
0.0
 11
34.02579999999999
 21
177.8896499999999
 31
0.0
  0
LINE
  5
CB
330
1E
100
AcDbEntity
  8
0
100
AcDbLine
 10
34.02579999999999
 20
182.55465
 30
0.0
 11
34.02579999999999
 21
183.8966499999999
 31
0.0
  0
LINE
  5
CC
330
1E
100
AcDbEntity
  8
0
100
AcDbLine
 10
34.02579999999999
 20
182.55465
 30
0.0
 11
34.02579999999999
 21
180.14965
 31
0.0
  0
LINE
  5
CD
330
1E
100
AcDbEntity
  8
0
100
AcDbLine
 10
34.02579999999999
 20
179.24965
 30
0.0
 11
34.02579999999999
 21
176.92965
 31
0.0
  0
LINE
  5
CE
330
1E
100
AcDbEntity
  8
0
100
AcDbLine
 10
34.02579999999999
 20
179.24965
 30
0.0
 11
34.02579999999999
 21
181.71165
 31
0.0
  0
LINE
  5
CF
330
1E
100
AcDbEntity
  8
0
100
AcDbLine
 10
34.0927
 20
169.11665
 30
0.0
 11
34.2757
 21
168.9326499999999
 31
0.0
  0
LINE
  5
D0
330
1E
100
AcDbEntity
  8
0
100
AcDbLine
 10
34.2757
 20
168.9326499999999
 30
0.0
 11
34.5256
 21
168.86565
 31
0.0
  0
LINE
  5
D1
330
1E
100
AcDbEntity
  8
0
100
AcDbLine
 10
34.02579999999999
 20
181.71165
 30
0.0
 11
34.02579999999999
 21
179.24965
 31
0.0
  0
LINE
  5
D2
330
1E
100
AcDbEntity
  8
0
100
AcDbLine
 10
34.02579999999999
 20
181.71165
 30
0.0
 11
34.02579999999999
 21
183.8966499999999
 31
0.0
  0
LINE
  5
D3
330
1E
100
AcDbEntity
  8
0
100
AcDbLine
 10
34.02579999999999
 20
183.8966499999999
 30
0.0
 11
34.02579999999999
 21
181.71165
 31
0.0
  0
LINE
  5
D4
330
1E
100
AcDbEntity
  8
0
100
AcDbLine
 10
34.02579999999999
 20
183.8966499999999
 30
0.0
 11
34.02579999999999
 21
182.55465
 31
0.0
  0
LINE
  5
D5
330
1E
100
AcDbEntity
  8
0
100
AcDbLine
 10
34.02579999999999
 20
183.8966499999999
 30
0.0
 11
34.02579999999999
 21
186.08165
 31
0.0
  0
LINE
  5
D6
330
1E
100
AcDbEntity
  8
0
100
AcDbLine
 10
34.02579999999999
 20
183.8966499999999
 30
0.0
 11
34.02579999999999
 21
185.23865
 31
0.0
  0
LINE
  5
D8
330
1E
100
AcDbEntity
  8
0
100
AcDbLine
 10
52.4224
 20
171.47065
 30
0.0
 11
56.39289999999999
 21
166.24965
 31
0.0
  0
LINE
  5
D9
330
1E
100
AcDbEntity
  8
0
100
AcDbLine
 10
49.9224
 20
177.49965
 30
0.0
 11
52.4224
 21
171.47065
 31
0.0
  0
LINE
  5
DA
330
1E
100
AcDbEntity
  8
0
100
AcDbLine
 10
49.03999999999999
 20
183.8966499999999
 30
0.0
 11
49.9224
 21
177.49965
 31
0.0
  0
LINE
  5
DB
330
1E
100
AcDbEntity
  8
0
100
AcDbLine
 10
49.03999999999999
 20
183.8966499999999
 30
0.0
 11
49.9224
 21
190.29365
 31
0.0
  0
LINE
  5
DC
330
1E
100
AcDbEntity
  8
0
100
AcDbLine
 10
54.4023271149794
 20
168.867149315626
 30
0.0
 11
56.39289999999999
 21
166.24965
 31
0.0
  0
LINE
  5
DD
330
1E
100
AcDbEntity
  8
0
100
AcDbLine
 10
60.04
 20
27.87494999999999
 30
0.0
 11
60.04
 21
21.55245
 31
0.0
  0
LINE
  5
DE
330
1E
100
AcDbEntity
  8
0
100
AcDbLine
 10
60.04
 20
27.87494999999999
 30
0.0
 11
60.04
 21
35.37834999999999
 31
0.0
  0
LINE
  5
DF
330
1E
100
AcDbEntity
  8
0
100
AcDbLine
 10
60.04
 20
35.37834999999999
 30
0.0
 11
60.04
 21
43.93444999999999
 31
0.0
  0
LINE
  5
E0
330
1E
100
AcDbEntity
  8
0
100
AcDbLine
 10
60.04
 20
35.37834999999999
 30
0.0
 11
60.04
 21
27.87494999999999
 31
0.0
  0
LINE
  5
E1
330
1E
100
AcDbEntity
  8
0
100
AcDbLine
 10
60.04
 20
74.37935
 30
0.0
 11
60.04
 21
85.54085
 31
0.0
  0
LINE
  5
E2
330
1E
100
AcDbEntity
  8
0
100
AcDbLine
 10
60.04
 20
74.37935
 30
0.0
 11
60.04
 21
63.60314999999999
 31
0.0
  0
LINE
  5
E3
330
1E
100
AcDbEntity
  8
0
100
AcDbLine
 10
60.04
 20
85.54085
 30
0.0
 11
60.04
 21
74.37935
 31
0.0
  0
LINE
  5
E4
330
1E
100
AcDbEntity
  8
0
100
AcDbLine
 10
60.04
 20
85.54085
 30
0.0
 11
60.04
 21
96.89664999999999
 31
0.0
  0
LINE
  5
E5
330
1E
100
AcDbEntity
  8
0
100
AcDbLine
 10
60.04
 20
53.39665
 30
0.0
 11
60.04
 21
63.60314999999999
 31
0.0
  0
LINE
  5
E6
330
1E
100
AcDbEntity
  8
0
100
AcDbLine
 10
60.04
 20
53.39665
 30
0.0
 11
60.04
 21
43.93444999999999
 31
0.0
  0
LINE
  5
E7
330
1E
100
AcDbEntity
  8
0
100
AcDbLine
 10
60.04
 20
63.60314999999999
 30
0.0
 11
60.04
 21
53.39665
 31
0.0
  0
LINE
  5
E8
330
1E
100
AcDbEntity
  8
0
100
AcDbLine
 10
60.04
 20
63.60314999999999
 30
0.0
 11
60.04
 21
74.37935
 31
0.0
  0
LINE
  5
E9
330
1E
100
AcDbEntity
  8
0
100
AcDbLine
 10
60.04
 20
43.93444999999999
 30
0.0
 11
60.04
 21
35.37834999999999
 31
0.0
  0
LINE
  5
EA
330
1E
100
AcDbEntity
  8
0
100
AcDbLine
 10
60.04
 20
43.93444999999999
 30
0.0
 11
60.04
 21
53.39665
 31
0.0
  0
LINE
  5
EB
330
1E
100
AcDbEntity
  8
0
100
AcDbLine
 10
60.04
 20
21.55245
 30
0.0
 11
60.04
 21
18.15255
 31
0.0
  0
LINE
  5
EC
330
1E
100
AcDbEntity
  8
0
100
AcDbLine
 10
60.04
 20
21.55245
 30
0.0
 11
60.04
 21
27.87494999999999
 31
0.0
  0
LINE
  5
ED
330
1E
100
AcDbEntity
  8
0
100
AcDbLine
 10
60.04
 20
140.3966499999999
 30
0.0
 11
60.04
 21
149.85865
 31
0.0
  0
LINE
  5
EE
330
1E
100
AcDbEntity
  8
0
100
AcDbLine
 10
60.04
 20
140.3966499999999
 30
0.0
 11
60.04
 21
130.18965
 31
0.0
  0
LINE
  5
EF
330
1E
100
AcDbEntity
  8
0
100
AcDbLine
 10
60.04
 20
149.85865
 30
0.0
 11
60.04
 21
140.3966499999999
 31
0.0
  0
LINE
  5
F0
330
1E
100
AcDbEntity
  8
0
100
AcDbLine
 10
60.04
 20
149.85865
 30
0.0
 11
60.04
 21
158.4146499999999
 31
0.0
  0
LINE
  5
F1
330
1E
100
AcDbEntity
  8
0
100
AcDbLine
 10
60.04
 20
119.41365
 30
0.0
 11
60.04
 21
130.18965
 31
0.0
  0
LINE
  5
F2
330
1E
100
AcDbEntity
  8
0
100
AcDbLine
 10
60.04
 20
119.41365
 30
0.0
 11
60.04
 21
108.2526499999999
 31
0.0
  0
LINE
  5
F3
330
1E
100
AcDbEntity
  8
0
100
AcDbLine
 10
60.04
 20
130.18965
 30
0.0
 11
60.04
 21
119.41365
 31
0.0
  0
LINE
  5
F4
330
1E
100
AcDbEntity
  8
0
100
AcDbLine
 10
60.04
 20
130.18965
 30
0.0
 11
60.04
 21
140.3966499999999
 31
0.0
  0
LINE
  5
F5
330
1E
100
AcDbEntity
  8
0
100
AcDbLine
 10
60.04
 20
96.89664999999999
 30
0.0
 11
60.04
 21
108.2526499999999
 31
0.0
  0
LINE
  5
F6
330
1E
100
AcDbEntity
  8
0
100
AcDbLine
 10
60.04
 20
96.89664999999999
 30
0.0
 11
60.04
 21
85.54085
 31
0.0
  0
LINE
  5
F7
330
1E
100
AcDbEntity
  8
0
100
AcDbLine
 10
60.04
 20
108.2526499999999
 30
0.0
 11
60.04
 21
96.89664999999999
 31
0.0
  0
LINE
  5
F8
330
1E
100
AcDbEntity
  8
0
100
AcDbLine
 10
60.04
 20
108.2526499999999
 30
0.0
 11
60.04
 21
119.41365
 31
0.0
  0
LINE
  5
F9
330
1E
100
AcDbEntity
  8
0
100
AcDbLine
 10
60.04
 20
158.4146499999999
 30
0.0
 11
60.04
 21
165.91865
 31
0.0
  0
LINE
  5
FA
330
1E
100
AcDbEntity
  8
0
100
AcDbLine
 10
60.04
 20
158.4146499999999
 30
0.0
 11
60.04
 21
149.85865
 31
0.0
  0
LINE
  5
FB
330
1E
100
AcDbEntity
  8
0
100
AcDbLine
 10
60.04
 20
165.91865
 30
0.0
 11
60.04
 21
158.4146499999999
 31
0.0
  0
LINE
  5
FC
330
1E
100
AcDbEntity
  8
0
100
AcDbLine
 10
60.04
 20
165.91865
 30
0.0
 11
60.04
 21
172.2406499999999
 31
0.0
  0
LINE
  5
FD
330
1E
100
AcDbEntity
  8
0
100
AcDbLine
 10
60.04
 20
180.93265
 30
0.0
 11
60.04
 21
177.27465
 31
0.0
  0
LINE
  5
FE
330
1E
100
AcDbEntity
  8
0
100
AcDbLine
 10
60.04
 20
180.93265
 30
0.0
 11
60.04
 21
183.15265
 31
0.0
  0
LINE
  5
FF
330
1E
100
AcDbEntity
  8
0
100
AcDbLine
 10
60.04
 20
183.15265
 30
0.0
 11
60.04
 21
183.8966499999999
 31
0.0
  0
LINE
  5
100
330
1E
100
AcDbEntity
  8
0
100
AcDbLine
 10
60.04
 20
183.15265
 30
0.0
 11
60.04
 21
180.93265
 31
0.0
  0
LINE
  5
101
330
1E
100
AcDbEntity
  8
0
100
AcDbLine
 10
60.04
 20
172.2406499999999
 30
0.0
 11
60.04
 21
177.27465
 31
0.0
  0
LINE
  5
102
330
1E
100
AcDbEntity
  8
0
100
AcDbLine
 10
60.04
 20
172.2406499999999
 30
0.0
 11
60.04
 21
165.91865
 31
0.0
  0
LINE
  5
103
330
1E
100
AcDbEntity
  8
0
100
AcDbLine
 10
60.04
 20
177.27465
 30
0.0
 11
60.04
 21
172.2406499999999
 31
0.0
  0
LINE
  5
104
330
1E
100
AcDbEntity
  8
0
100
AcDbLine
 10
60.04
 20
177.27465
 30
0.0
 11
60.04
 21
180.93265
 31
0.0
  0
LINE
  5
106
330
1E
100
AcDbEntity
  8
0
100
AcDbLine
 10
56.39289999999999
 20
166.24965
 30
0.0
 11
60.04
 21
163.4755178887479
 31
0.0
  0
LINE
  5
10A
330
1E
100
AcDbEntity
  8
0
100
AcDbLine
 10
0.125999999999987
 20
187.4726499999999
 30
0.0
 11
0.383999999999987
 21
191.04165
 31
0.0
  0
LINE
  5
10B
330
1E
100
AcDbEntity
  8
0
100
AcDbLine
 10
0.383999999999987
 20
191.04165
 30
0.0
 11
0.813999999999987
 21
194.59365
 31
0.0
  0
LINE
  5
10C
330
1E
100
AcDbEntity
  8
0
100
AcDbLine
 10
0.125999999999987
 20
187.4726499999999
 30
0.0
 11
0.383999999999987
 21
191.04165
 31
0.0
  0
LINE
  5
111
330
1E
100
AcDbEntity
  8
0
100
AcDbLine
 10
0.813999999999987
 20
194.59365
 30
0.0
 11
1.412999999999989
 21
198.0956499999999
 31
0.0
  0
LINE
  5
15D
330
1E
100
AcDbEntity
  8
0
100
AcDbLine
 10
34.02579999999999
 20
185.23865
 30
0.0
 11
34.02579999999999
 21
183.8966499999999
 31
0.0
  0
LINE
  5
15E
330
1E
100
AcDbEntity
  8
0
100
AcDbLine
 10
34.02579999999999
 20
185.23865
 30
0.0
 11
34.02579999999999
 21
187.64365
 31
0.0
  0
LINE
  5
164
330
1E
100
AcDbEntity
  8
0
100
AcDbLine
 10
34.02579999999999
 20
187.64365
 30
0.0
 11
34.02579999999999
 21
189.90365
 31
0.0
  0
LINE
  5
165
330
1E
100
AcDbEntity
  8
0
100
AcDbLine
 10
34.02579999999999
 20
187.64365
 30
0.0
 11
34.02579999999999
 21
185.23865
 31
0.0
  0
LINE
  5
167
330
1E
100
AcDbEntity
  8
0
100
AcDbLine
 10
34.02579999999999
 20
190.86365
 30
0.0
 11
34.02579999999999
 21
192.9736499999999
 31
0.0
  0
LINE
  5
168
330
1E
100
AcDbEntity
  8
0
100
AcDbLine
 10
34.02579999999999
 20
190.86365
 30
0.0
 11
34.02579999999999
 21
188.54365
 31
0.0
  0
LINE
  5
169
330
1E
100
AcDbEntity
  8
0
100
AcDbLine
 10
34.02579999999999
 20
189.90365
 30
0.0
 11
34.02579999999999
 21
187.64365
 31
0.0
  0
LINE
  5
16A
330
1E
100
AcDbEntity
  8
0
100
AcDbLine
 10
34.02579999999999
 20
189.90365
 30
0.0
 11
34.02579999999999
 21
191.93365
 31
0.0
  0
LINE
  5
16C
330
1E
100
AcDbEntity
  8
0
100
AcDbLine
 10
34.02579999999999
 20
192.9736499999999
 30
0.0
 11
34.02579999999999
 21
194.8066499999999
 31
0.0
  0
LINE
  5
16D
330
1E
100
AcDbEntity
  8
0
100
AcDbLine
 10
34.02579999999999
 20
192.9736499999999
 30
0.0
 11
34.02579999999999
 21
190.86365
 31
0.0
  0
LINE
  5
16E
330
1E
100
AcDbEntity
  8
0
100
AcDbLine
 10
34.02579999999999
 20
191.93365
 30
0.0
 11
34.02579999999999
 21
189.90365
 31
0.0
  0
LINE
  5
16F
330
1E
100
AcDbEntity
  8
0
100
AcDbLine
 10
34.02579999999999
 20
191.93365
 30
0.0
 11
34.02579999999999
 21
193.65465
 31
0.0
  0
LINE
  5
170
330
1E
100
AcDbEntity
  8
0
100
AcDbLine
 10
34.02579999999999
 20
188.54365
 30
0.0
 11
34.02579999999999
 21
186.08165
 31
0.0
  0
LINE
  5
171
330
1E
100
AcDbEntity
  8
0
100
AcDbLine
 10
34.02579999999999
 20
188.54365
 30
0.0
 11
34.02579999999999
 21
190.86365
 31
0.0
  0
LINE
  5
172
330
1E
100
AcDbEntity
  8
0
100
AcDbLine
 10
34.02579999999999
 20
186.08165
 30
0.0
 11
34.02579999999999
 21
183.8966499999999
 31
0.0
  0
LINE
  5
173
330
1E
100
AcDbEntity
  8
0
100
AcDbLine
 10
34.02579999999999
 20
186.08165
 30
0.0
 11
34.02579999999999
 21
188.54365
 31
0.0
  0
LINE
  5
179
330
1E
100
AcDbEntity
  8
0
100
AcDbLine
 10
34.02579999999999
 20
196.30865
 30
0.0
 11
34.02579999999999
 21
194.8066499999999
 31
0.0
  0
LINE
  5
17A
330
1E
100
AcDbEntity
  8
0
100
AcDbLine
 10
34.02579999999999
 20
194.8066499999999
 30
0.0
 11
34.02579999999999
 21
196.30865
 31
0.0
  0
LINE
  5
17B
330
1E
100
AcDbEntity
  8
0
100
AcDbLine
 10
34.02579999999999
 20
194.8066499999999
 30
0.0
 11
34.02579999999999
 21
192.9736499999999
 31
0.0
  0
LINE
  5
17C
330
1E
100
AcDbEntity
  8
0
100
AcDbLine
 10
33.0262
 20
196.37565
 30
0.0
 11
34.02579999999999
 21
196.37565
 31
0.0
  0
LINE
  5
17D
330
1E
100
AcDbEntity
  8
0
100
AcDbLine
 10
34.02579999999999
 20
196.37565
 30
0.0
 11
34.02579999999999
 21
195.91865
 31
0.0
  0
LINE
  5
17E
330
1E
100
AcDbEntity
  8
0
100
AcDbLine
 10
34.02579999999999
 20
195.91865
 30
0.0
 11
34.02579999999999
 21
194.99965
 31
0.0
  0
LINE
  5
17F
330
1E
100
AcDbEntity
  8
0
100
AcDbLine
 10
34.02579999999999
 20
195.91865
 30
0.0
 11
34.02579999999999
 21
196.37565
 31
0.0
  0
LINE
  5
180
330
1E
100
AcDbEntity
  8
0
100
AcDbLine
 10
1.412999999999989
 20
198.0956499999999
 30
0.0
 11
1.598999999999989
 21
198.51165
 31
0.0
  0
LINE
  5
181
330
1E
100
AcDbEntity
  8
0
100
AcDbLine
 10
2.39399999999999
 20
198.90465
 30
0.0
 11
10.04199999999999
 21
198.90465
 31
0.0
  0
LINE
  5
182
330
1E
100
AcDbEntity
  8
0
100
AcDbLine
 10
2.39399999999999
 20
198.90465
 30
0.0
 11
10.04199999999999
 21
198.90465
 31
0.0
  0
LINE
  5
183
330
1E
100
AcDbEntity
  8
0
100
AcDbLine
 10
1.950999999999989
 20
198.80065
 30
0.0
 11
2.39399999999999
 21
198.90465
 31
0.0
  0
LINE
  5
184
330
1E
100
AcDbEntity
  8
0
100
AcDbLine
 10
1.598999999999989
 20
198.51165
 30
0.0
 11
1.950999999999989
 21
198.80065
 31
0.0
  0
LINE
  5
185
330
1E
100
AcDbEntity
  8
0
100
AcDbLine
 10
10.04199999999999
 20
198.90465
 30
0.0
 11
32.5264
 21
198.90465
 31
0.0
  0
LINE
  5
186
330
1E
100
AcDbEntity
  8
0
100
AcDbLine
 10
33.0262
 20
198.17965
 30
0.0
 11
33.0262
 21
198.40465
 31
0.0
  0
LINE
  5
187
330
1E
100
AcDbEntity
  8
0
100
AcDbLine
 10
32.5264
 20
198.90465
 30
0.0
 11
32.7763
 21
198.83765
 31
0.0
  0
LINE
  5
188
330
1E
100
AcDbEntity
  8
0
100
AcDbLine
 10
32.9592
 20
198.6536499999999
 30
0.0
 11
33.0262
 21
198.40465
 31
0.0
  0
LINE
  5
189
330
1E
100
AcDbEntity
  8
0
100
AcDbLine
 10
32.7763
 20
198.83765
 30
0.0
 11
32.9592
 21
198.6536499999999
 31
0.0
  0
LINE
  5
18A
330
1E
100
AcDbEntity
  8
0
100
AcDbLine
 10
33.0262
 20
198.40465
 30
0.0
 11
33.0262
 21
198.17965
 31
0.0
  0
LINE
  5
18B
330
1E
100
AcDbEntity
  8
0
100
AcDbLine
 10
34.02579999999999
 20
198.42665
 30
0.0
 11
34.02579999999999
 21
198.1456499999999
 31
0.0
  0
LINE
  5
18C
330
1E
100
AcDbEntity
  8
0
100
AcDbLine
 10
34.02579999999999
 20
198.42665
 30
0.0
 11
34.0927
 21
198.67665
 31
0.0
  0
LINE
  5
18D
330
1E
100
AcDbEntity
  8
0
100
AcDbLine
 10
34.02579999999999
 20
198.1456499999999
 30
0.0
 11
34.02579999999999
 21
198.42665
 31
0.0
  0
LINE
  5
18E
330
1E
100
AcDbEntity
  8
0
100
AcDbLine
 10
34.02579999999999
 20
198.1456499999999
 30
0.0
 11
34.02579999999999
 21
197.43265
 31
0.0
  0
LINE
  5
18F
330
1E
100
AcDbEntity
  8
0
100
AcDbLine
 10
10.04199999999999
 20
198.90465
 30
0.0
 11
32.5264
 21
198.90465
 31
0.0
  0
LINE
  5
190
330
1E
100
AcDbEntity
  8
0
100
AcDbLine
 10
34.02579999999999
 20
197.43265
 30
0.0
 11
34.02579999999999
 21
198.1456499999999
 31
0.0
  0
LINE
  5
191
330
1E
100
AcDbEntity
  8
0
100
AcDbLine
 10
34.02579999999999
 20
197.66765
 30
0.0
 11
34.02579999999999
 21
196.37565
 31
0.0
  0
LINE
  5
192
330
1E
100
AcDbEntity
  8
0
100
AcDbLine
 10
34.02579999999999
 20
196.37565
 30
0.0
 11
34.02579999999999
 21
197.66765
 31
0.0
  0
LINE
  5
193
330
1E
100
AcDbEntity
  8
0
100
AcDbLine
 10
34.2757
 20
198.8606499999999
 30
0.0
 11
34.5256
 21
198.92765
 31
0.0
  0
LINE
  5
194
330
1E
100
AcDbEntity
  8
0
100
AcDbLine
 10
34.0927
 20
198.67665
 30
0.0
 11
34.2757
 21
198.8606499999999
 31
0.0
  0
LINE
  5
195
330
1E
100
AcDbEntity
  8
0
100
AcDbLine
 10
34.02579999999999
 20
194.99965
 30
0.0
 11
34.02579999999999
 21
193.65465
 31
0.0
  0
LINE
  5
196
330
1E
100
AcDbEntity
  8
0
100
AcDbLine
 10
34.02579999999999
 20
194.99965
 30
0.0
 11
34.02579999999999
 21
195.91865
 31
0.0
  0
LINE
  5
197
330
1E
100
AcDbEntity
  8
0
100
AcDbLine
 10
34.02579999999999
 20
193.65465
 30
0.0
 11
34.02579999999999
 21
194.99965
 31
0.0
  0
LINE
  5
198
330
1E
100
AcDbEntity
  8
0
100
AcDbLine
 10
34.02579999999999
 20
193.65465
 30
0.0
 11
34.02579999999999
 21
191.93365
 31
0.0
  0
LINE
  5
1A2
330
1E
100
AcDbEntity
  8
0
100
AcDbLine
 10
52.4224
 20
196.32265
 30
0.0
 11
56.39289999999999
 21
201.54365
 31
0.0
  0
LINE
  5
1A3
330
1E
100
AcDbEntity
  8
0
100
AcDbLine
 10
49.9224
 20
190.29365
 30
0.0
 11
52.4224
 21
196.32265
 31
0.0
  0
LINE
  5
1A4
330
1E
100
AcDbEntity
  8
0
100
AcDbLine
 10
34.5256
 20
198.92765
 30
0.0
 11
54.4023271149794
 21
198.926150684374
 31
0.0
  0
LINE
  5
1A5
330
1E
100
AcDbEntity
  8
0
100
AcDbLine
 10
54.4023271149794
 20
198.926150684374
 30
0.0
 11
56.39289999999999
 21
201.54365
 31
0.0
  0
LINE
  5
1A7
330
1E
100
AcDbEntity
  8
0
100
AcDbLine
 10
56.39289999999999
 20
201.54365
 30
0.0
 11
61.6135
 21
205.5146499999999
 31
0.0
  0
LINE
  5
1A8
330
1E
100
AcDbEntity
  8
0
100
AcDbLine
 10
60.04
 20
183.8966499999999
 30
0.0
 11
60.544
 21
187.48065
 31
0.0
  0
LINE
  5
1A9
330
1E
100
AcDbEntity
  8
0
100
AcDbLine
 10
60.04
 20
183.8966499999999
 30
0.0
 11
60.04
 21
183.15265
 31
0.0
  0
LINE
  5
1AA
330
1E
100
AcDbEntity
  8
0
100
AcDbLine
 10
60.04
 20
18.15255
 30
0.0
 11
60.04
 21
17.14475
 31
0.0
  0
LINE
  5
1AB
330
1E
100
AcDbEntity
  8
0
100
AcDbLine
 10
60.04
 20
18.15255
 30
0.0
 11
60.04
 21
21.55245
 31
0.0
  0
LINE
  5
1AC
330
1E
100
AcDbEntity
  8
0
100
AcDbLine
 10
63.3308
 20
4.63625000000003
 30
0.0
 11
64.2599
 21
3.72295000000002
 31
0.0
  0
LINE
  5
1AD
330
1E
100
AcDbEntity
  8
0
100
AcDbLine
 10
62.5048
 20
5.62655000000003
 30
0.0
 11
63.3308
 21
4.63625000000003
 31
0.0
  0
LINE
  5
1AE
330
1E
100
AcDbEntity
  8
0
100
AcDbLine
 10
67.5731
 20
1.537750000000019
 30
0.0
 11
68.8172
 21
1.01815000000003
 31
0.0
  0
LINE
  5
1AF
330
1E
100
AcDbEntity
  8
0
100
AcDbLine
 10
66.39109999999999
 20
2.16735000000003
 30
0.0
 11
67.5731
 21
1.537750000000019
 31
0.0
  0
LINE
  5
1B0
330
1E
100
AcDbEntity
  8
0
100
AcDbLine
 10
70.1113
 20
0.610350000000024
 30
0.0
 11
71.44339999999999
 21
0.319750000000025
 31
0.0
  0
LINE
  5
1B1
330
1E
100
AcDbEntity
  8
0
100
AcDbLine
 10
68.8172
 20
1.01815000000003
 30
0.0
 11
70.1113
 21
0.610350000000024
 31
0.0
  0
LINE
  5
1B2
330
1E
100
AcDbEntity
  8
0
100
AcDbLine
 10
65.283
 20
2.89775000000003
 30
0.0
 11
66.39109999999999
 21
2.16735000000003
 31
0.0
  0
LINE
  5
1B3
330
1E
100
AcDbEntity
  8
0
100
AcDbLine
 10
64.2599
 20
3.72295000000002
 30
0.0
 11
65.283
 21
2.89775000000003
 31
0.0
  0
LINE
  5
1B4
330
1E
100
AcDbEntity
  8
0
100
AcDbLine
 10
61.1917
 20
7.803450000000029
 30
0.0
 11
61.78869999999999
 21
6.686350000000018
 31
0.0
  0
LINE
  5
1B5
330
1E
100
AcDbEntity
  8
0
100
AcDbLine
 10
61.78869999999999
 20
6.686350000000018
 30
0.0
 11
62.5048
 21
5.62655000000003
 31
0.0
  0
LINE
  5
1B6
330
1E
100
AcDbEntity
  8
0
100
AcDbLine
 10
61.1567
 20
7.870950000000029
 30
0.0
 11
61.1917
 21
7.803450000000029
 31
0.0
  0
LINE
  5
1B7
330
1E
100
AcDbEntity
  8
0
100
AcDbLine
 10
60.6826
 20
9.039950000000018
 30
0.0
 11
61.1567
 21
7.870950000000029
 31
0.0
  0
LINE
  5
1B8
330
1E
100
AcDbEntity
  8
0
100
AcDbLine
 10
60.3366
 20
10.24505
 30
0.0
 11
60.6826
 21
9.039950000000018
 31
0.0
  0
LINE
  5
1B9
330
1E
100
AcDbEntity
  8
0
100
AcDbLine
 10
60.1226
 20
11.47405
 30
0.0
 11
60.3366
 21
10.24505
 31
0.0
  0
LINE
  5
1BA
330
1E
100
AcDbEntity
  8
0
100
AcDbLine
 10
60.0426
 20
16.83625
 30
0.0
 11
60.0426
 21
12.94845
 31
0.0
  0
LINE
  5
1BB
330
1E
100
AcDbEntity
  8
0
100
AcDbLine
 10
60.0426
 20
16.83625
 30
0.0
 11
60.05586417449979
 21
17.0425079134718
 31
0.0
  0
LINE
  5
1BC
330
1E
100
AcDbEntity
  8
0
100
AcDbLine
 10
60.0426
 20
12.94845
 30
0.0
 11
60.0477
 21
12.83325
 31
0.0
  0
LINE
  5
1BD
330
1E
100
AcDbEntity
  8
0
100
AcDbLine
 10
60.0426
 20
12.94845
 30
0.0
 11
60.0426
 21
16.83625
 31
0.0
  0
LINE
  5
1BE
330
1E
100
AcDbEntity
  8
0
100
AcDbLine
 10
60.0477
 20
16.5265450000001
 30
0.0
 11
60.0477
 21
12.83325
 31
0.0
  0
LINE
  5
1BF
330
1E
100
AcDbEntity
  8
0
100
AcDbLine
 10
60.0477
 20
12.83325
 30
0.0
 11
60.0477
 21
16.5265450000001
 31
0.0
  0
LINE
  5
1C0
330
1E
100
AcDbEntity
  8
0
100
AcDbLine
 10
60.0426
 20
16.60585
 30
0.0
 11
60.0426
 21
12.71805
 31
0.0
  0
LINE
  5
1C1
330
1E
100
AcDbEntity
  8
0
100
AcDbLine
 10
60.0426
 20
16.60585
 30
0.0
 11
60.0477
 21
16.72105
 31
0.0
  0
LINE
  5
1C2
330
1E
100
AcDbEntity
  8
0
100
AcDbLine
 10
60.0426
 20
12.71805
 30
0.0
 11
60.1226
 21
11.47405
 31
0.0
  0
LINE
  5
1C3
330
1E
100
AcDbEntity
  8
0
100
AcDbLine
 10
60.0426
 20
12.71805
 30
0.0
 11
60.0426
 21
16.60585
 31
0.0
  0
LINE
  5
1C4
330
1E
100
AcDbEntity
  8
0
100
AcDbLine
 10
60.544
 20
13.89655
 30
0.0
 11
61.888
 21
10.85134999999999
 31
0.0
  0
LINE
  5
1C5
330
1E
100
AcDbEntity
  8
0
100
AcDbLine
 10
61.888
 20
10.85134999999999
 30
0.0
 11
64.128
 21
8.16145000000003
 31
0.0
  0
LINE
  5
1C6
330
1E
100
AcDbEntity
  8
0
100
AcDbLine
 10
64.128
 20
8.16145000000003
 30
0.0
 11
67.096
 21
6.131350000000029
 31
0.0
  0
LINE
  5
1C7
330
1E
100
AcDbEntity
  8
0
100
AcDbLine
 10
67.096
 20
6.131350000000029
 30
0.0
 11
70.456
 21
4.91325000000003
 31
0.0
  0
LINE
  5
1C8
330
1E
100
AcDbEntity
  8
0
100
AcDbLine
 10
71.44339999999999
 20
0.319750000000025
 30
0.0
 11
72.8005
 21
0.147850000000024
 31
0.0
  0
LINE
  5
1C9
330
1E
100
AcDbEntity
  8
0
100
AcDbLine
 10
72.8005
 20
0.147850000000024
 30
0.0
 11
74.04
 21
0.103350000000025
 31
0.0
  0
LINE
  5
1CA
330
1E
100
AcDbEntity
  8
0
100
AcDbLine
 10
74.04
 20
0.103350000000025
 30
0.0
 11
75.2795
 21
0.147850000000024
 31
0.0
  0
LINE
  5
1CB
330
1E
100
AcDbEntity
  8
0
100
AcDbLine
 10
75.2795
 20
0.147850000000024
 30
0.0
 11
76.6366
 21
0.319750000000025
 31
0.0
  0
LINE
  5
1CC
330
1E
100
AcDbEntity
  8
0
100
AcDbLine
 10
76.6366
 20
0.319750000000025
 30
0.0
 11
77.9687
 21
0.610350000000024
 31
0.0
  0
LINE
  5
1CD
330
1E
100
AcDbEntity
  8
0
100
AcDbLine
 10
77.9687
 20
0.610350000000024
 30
0.0
 11
79.2628
 21
1.01815000000003
 31
0.0
  0
LINE
  5
1CE
330
1E
100
AcDbEntity
  8
0
100
AcDbLine
 10
79.2628
 20
1.01815000000003
 30
0.0
 11
80.50690000000001
 21
1.537750000000019
 31
0.0
  0
LINE
  5
1CF
330
1E
100
AcDbEntity
  8
0
100
AcDbLine
 10
80.50690000000001
 20
1.537750000000019
 30
0.0
 11
81.68890000000001
 21
2.16735000000003
 31
0.0
  0
LINE
  5
1D0
330
1E
100
AcDbEntity
  8
0
100
AcDbLine
 10
81.68890000000001
 20
2.16735000000003
 30
0.0
 11
82.79700000000001
 21
2.89775000000003
 31
0.0
  0
LINE
  5
1D1
330
1E
100
AcDbEntity
  8
0
100
AcDbLine
 10
82.79700000000001
 20
2.89775000000003
 30
0.0
 11
83.82009999999999
 21
3.72295000000002
 31
0.0
  0
LINE
  5
1D2
330
1E
100
AcDbEntity
  8
0
100
AcDbLine
 10
83.82009999999999
 20
3.72295000000002
 30
0.0
 11
84.7492
 21
4.63625000000003
 31
0.0
  0
LINE
  5
1D3
330
1E
100
AcDbEntity
  8
0
100
AcDbLine
 10
84.7492
 20
4.63625000000003
 30
0.0
 11
85.5752
 21
5.62655000000003
 31
0.0
  0
LINE
  5
1D4
330
1E
100
AcDbEntity
  8
0
100
AcDbLine
 10
85.5752
 20
5.62655000000003
 30
0.0
 11
86.29130000000001
 21
6.686350000000018
 31
0.0
  0
LINE
  5
1D5
330
1E
100
AcDbEntity
  8
0
100
AcDbLine
 10
86.88830000000001
 20
7.803450000000029
 30
0.0
 11
86.9233
 21
7.870950000000029
 31
0.0
  0
LINE
  5
1D6
330
1E
100
AcDbEntity
  8
0
100
AcDbLine
 10
86.29130000000001
 20
6.686350000000018
 30
0.0
 11
86.88830000000001
 21
7.803450000000029
 31
0.0
  0
LINE
  5
1D7
330
1E
100
AcDbEntity
  8
0
100
AcDbLine
 10
86.9233
 20
7.870950000000029
 30
0.0
 11
87.39740000000001
 21
9.039950000000018
 31
0.0
  0
LINE
  5
1D8
330
1E
100
AcDbEntity
  8
0
100
AcDbLine
 10
87.39740000000001
 20
9.039950000000018
 30
0.0
 11
87.7434
 21
10.24505
 31
0.0
  0
LINE
  5
1D9
330
1E
100
AcDbEntity
  8
0
100
AcDbLine
 10
87.7434
 20
10.24505
 30
0.0
 11
87.9574
 21
11.47405
 31
0.0
  0
LINE
  5
1DA
330
1E
100
AcDbEntity
  8
0
100
AcDbLine
 10
87.9574
 20
11.47405
 30
0.0
 11
88.03740000000001
 21
12.71805
 31
0.0
  0
LINE
  5
1DB
330
1E
100
AcDbEntity
  8
0
100
AcDbLine
 10
88.03740000000001
 20
12.94845
 30
0.0
 11
88.03740000000001
 21
16.60585
 31
0.0
  0
LINE
  5
1DC
330
1E
100
AcDbEntity
  8
0
100
AcDbLine
 10
88.03740000000001
 20
12.71805
 30
0.0
 11
88.03740000000001
 21
16.60585
 31
0.0
  0
LINE
  5
1DD
330
1E
100
AcDbEntity
  8
0
100
AcDbLine
 10
88.0323
 20
12.83325
 30
0.0
 11
88.0323
 21
16.5265449999997
 31
0.0
  0
LINE
  5
1DE
330
1E
100
AcDbEntity
  8
0
100
AcDbLine
 10
88.0323
 20
12.83325
 30
0.0
 11
88.03740000000001
 21
12.94845
 31
0.0
  0
LINE
  5
1DF
330
1E
100
AcDbEntity
  8
0
100
AcDbLine
 10
88.0323
 20
16.5265449999997
 30
0.0
 11
88.0323
 21
12.83325
 31
0.0
  0
LINE
  5
1E0
330
1E
100
AcDbEntity
  8
0
100
AcDbLine
 10
88.03740000000001
 20
16.60585
 30
0.0
 11
88.03740000000001
 21
12.71805
 31
0.0
  0
LINE
  5
1E1
330
1E
100
AcDbEntity
  8
0
100
AcDbLine
 10
88.03740000000001
 20
16.60585
 30
0.0
 11
88.03740000000001
 21
12.94845
 31
0.0
  0
LINE
  5
1E2
330
1E
100
AcDbEntity
  8
0
100
AcDbLine
 10
88.03740000000001
 20
16.60585
 30
0.0
 11
88.03740000000001
 21
16.83625
 31
0.0
  0
LINE
  5
1E3
330
1E
100
AcDbEntity
  8
0
100
AcDbLine
 10
88.03740000000001
 20
16.83625
 30
0.0
 11
88.03740000000001
 21
16.60585
 31
0.0
  0
LINE
  5
1E4
330
1E
100
AcDbEntity
  8
0
100
AcDbLine
 10
88.0241358255002
 20
17.0425079134719
 30
0.0
 11
88.03740000000001
 21
16.83625
 31
0.0
  0
LINE
  5
1E5
330
1E
100
AcDbEntity
  8
0
100
AcDbLine
 10
88.0323
 20
16.72105
 30
0.0
 11
88.03740000000001
 21
16.60585
 31
0.0
  0
LINE
  5
1E6
330
1E
100
AcDbEntity
  8
0
100
AcDbLine
 10
88.04
 20
17.14475
 30
0.0
 11
88.04
 21
18.15255
 31
0.0
  0
LINE
  5
1E7
330
1E
100
AcDbEntity
  8
0
100
AcDbLine
 10
87.536
 20
13.89655
 30
0.0
 11
88.04
 21
17.14475
 31
0.0
  0
LINE
  5
1E8
330
1E
100
AcDbEntity
  8
0
100
AcDbLine
 10
86.19200000000001
 20
10.85134999999999
 30
0.0
 11
87.536
 21
13.89655
 31
0.0
  0
LINE
  5
1E9
330
1E
100
AcDbEntity
  8
0
100
AcDbLine
 10
83.952
 20
8.16145000000003
 30
0.0
 11
86.19200000000001
 21
10.85134999999999
 31
0.0
  0
LINE
  5
1EA
330
1E
100
AcDbEntity
  8
0
100
AcDbLine
 10
80.98399999999999
 20
6.131350000000029
 30
0.0
 11
83.952
 21
8.16145000000003
 31
0.0
  0
LINE
  5
1EB
330
1E
100
AcDbEntity
  8
0
100
AcDbLine
 10
77.62399999999999
 20
4.91325000000003
 30
0.0
 11
80.98399999999999
 21
6.131350000000029
 31
0.0
  0
LINE
  5
1EC
330
1E
100
AcDbEntity
  8
0
100
AcDbLine
 10
74.04
 20
4.45645000000003
 30
0.0
 11
77.62399999999999
 21
4.91325000000003
 31
0.0
  0
LINE
  5
1ED
330
1E
100
AcDbEntity
  8
0
100
AcDbLine
 10
88.04
 20
21.55245
 30
0.0
 11
88.04
 21
18.15255
 31
0.0
  0
LINE
  5
1EE
330
1E
100
AcDbEntity
  8
0
100
AcDbLine
 10
88.04
 20
21.55245
 30
0.0
 11
88.04
 21
27.87494999999999
 31
0.0
  0
LINE
  5
1EF
330
1E
100
AcDbEntity
  8
0
100
AcDbLine
 10
88.04
 20
18.15255
 30
0.0
 11
88.04
 21
21.55245
 31
0.0
  0
LINE
  5
1F0
330
1E
100
AcDbEntity
  8
0
100
AcDbLine
 10
88.04
 20
18.15255
 30
0.0
 11
88.04
 21
17.14475
 31
0.0
  0
LINE
  5
1F1
330
1E
100
AcDbEntity
  8
0
100
AcDbLine
 10
70.456
 20
4.91325000000003
 30
0.0
 11
74.04
 21
4.45645000000003
 31
0.0
  0
LINE
  5
1F2
330
1E
100
AcDbEntity
  8
0
100
AcDbLine
 10
60.04
 20
183.8966499999999
 30
0.0
 11
60.544
 21
187.48065
 31
0.0
  0
LINE
  5
1F3
330
1E
100
AcDbEntity
  8
0
100
AcDbLine
 10
60.544
 20
187.48065
 30
0.0
 11
61.888
 21
190.84065
 31
0.0
  0
LINE
  5
1F4
330
1E
100
AcDbEntity
  8
0
100
AcDbLine
 10
61.888
 20
190.84065
 30
0.0
 11
64.128
 21
193.80865
 31
0.0
  0
LINE
  5
1F5
330
1E
100
AcDbEntity
  8
0
100
AcDbLine
 10
64.128
 20
193.80865
 30
0.0
 11
67.096
 21
196.04865
 31
0.0
  0
LINE
  5
1F6
330
1E
100
AcDbEntity
  8
0
100
AcDbLine
 10
61.6135
 20
205.5146499999999
 30
0.0
 11
67.64289999999999
 21
208.01465
 31
0.0
  0
LINE
  5
1F7
330
1E
100
AcDbEntity
  8
0
100
AcDbLine
 10
67.64289999999999
 20
208.01465
 30
0.0
 11
74.04
 21
208.89665
 31
0.0
  0
LINE
  5
1F8
330
1E
100
AcDbEntity
  8
0
100
AcDbLine
 10
67.096
 20
196.04865
 30
0.0
 11
70.456
 21
197.39265
 31
0.0
  0
LINE
  5
1F9
330
1E
100
AcDbEntity
  8
0
100
AcDbLine
 10
88.04
 20
35.37834999999999
 30
0.0
 11
88.04
 21
27.87494999999999
 31
0.0
  0
LINE
  5
1FA
330
1E
100
AcDbEntity
  8
0
100
AcDbLine
 10
88.04
 20
35.37834999999999
 30
0.0
 11
88.04
 21
43.93444999999999
 31
0.0
  0
LINE
  5
1FB
330
1E
100
AcDbEntity
  8
0
100
AcDbLine
 10
88.04
 20
27.87494999999999
 30
0.0
 11
88.04
 21
35.37834999999999
 31
0.0
  0
LINE
  5
1FC
330
1E
100
AcDbEntity
  8
0
100
AcDbLine
 10
88.04
 20
27.87494999999999
 30
0.0
 11
88.04
 21
21.55245
 31
0.0
  0
LINE
  5
1FD
330
1E
100
AcDbEntity
  8
0
100
AcDbLine
 10
88.04
 20
53.39665
 30
0.0
 11
88.04
 21
43.93444999999999
 31
0.0
  0
LINE
  5
1FE
330
1E
100
AcDbEntity
  8
0
100
AcDbLine
 10
88.04
 20
53.39665
 30
0.0
 11
88.04
 21
63.60314999999999
 31
0.0
  0
LINE
  5
1FF
330
1E
100
AcDbEntity
  8
0
100
AcDbLine
 10
88.04
 20
43.93444999999999
 30
0.0
 11
88.04
 21
53.39665
 31
0.0
  0
LINE
  5
200
330
1E
100
AcDbEntity
  8
0
100
AcDbLine
 10
88.04
 20
43.93444999999999
 30
0.0
 11
88.04
 21
35.37834999999999
 31
0.0
  0
LINE
  5
201
330
1E
100
AcDbEntity
  8
0
100
AcDbLine
 10
88.04
 20
119.41365
 30
0.0
 11
88.04
 21
108.2526499999999
 31
0.0
  0
LINE
  5
202
330
1E
100
AcDbEntity
  8
0
100
AcDbLine
 10
88.04
 20
119.41365
 30
0.0
 11
88.04
 21
130.18965
 31
0.0
  0
LINE
  5
203
330
1E
100
AcDbEntity
  8
0
100
AcDbLine
 10
88.04
 20
108.2526499999999
 30
0.0
 11
88.04
 21
119.41365
 31
0.0
  0
LINE
  5
204
330
1E
100
AcDbEntity
  8
0
100
AcDbLine
 10
88.04
 20
108.2526499999999
 30
0.0
 11
88.04
 21
96.89664999999999
 31
0.0
  0
LINE
  5
205
330
1E
100
AcDbEntity
  8
0
100
AcDbLine
 10
88.04
 20
140.3966499999999
 30
0.0
 11
88.04
 21
130.18965
 31
0.0
  0
LINE
  5
206
330
1E
100
AcDbEntity
  8
0
100
AcDbLine
 10
88.04
 20
140.3966499999999
 30
0.0
 11
88.04
 21
149.85865
 31
0.0
  0
LINE
  5
207
330
1E
100
AcDbEntity
  8
0
100
AcDbLine
 10
88.04
 20
130.18965
 30
0.0
 11
88.04
 21
140.3966499999999
 31
0.0
  0
LINE
  5
208
330
1E
100
AcDbEntity
  8
0
100
AcDbLine
 10
88.04
 20
130.18965
 30
0.0
 11
88.04
 21
119.41365
 31
0.0
  0
LINE
  5
209
330
1E
100
AcDbEntity
  8
0
100
AcDbLine
 10
88.04
 20
159.8966499999999
 30
0.0
 11
116.481
 21
159.8966499999999
 31
0.0
  0
LINE
  5
20A
330
1E
100
AcDbEntity
  8
0
100
AcDbLine
 10
88.04
 20
158.4146499999999
 30
0.0
 11
88.04
 21
149.85865
 31
0.0
  0
LINE
  5
20B
330
1E
100
AcDbEntity
  8
0
100
AcDbLine
 10
88.04
 20
158.4146499999999
 30
0.0
 11
88.04
 21
165.91865
 31
0.0
  0
LINE
  5
20C
330
1E
100
AcDbEntity
  8
0
100
AcDbLine
 10
88.04
 20
149.85865
 30
0.0
 11
88.04
 21
158.4146499999999
 31
0.0
  0
LINE
  5
20D
330
1E
100
AcDbEntity
  8
0
100
AcDbLine
 10
88.04
 20
149.85865
 30
0.0
 11
88.04
 21
140.3966499999999
 31
0.0
  0
LINE
  5
20E
330
1E
100
AcDbEntity
  8
0
100
AcDbLine
 10
88.04
 20
96.89664999999999
 30
0.0
 11
88.04
 21
85.54085
 31
0.0
  0
LINE
  5
20F
330
1E
100
AcDbEntity
  8
0
100
AcDbLine
 10
88.04
 20
96.89664999999999
 30
0.0
 11
88.04
 21
108.2526499999999
 31
0.0
  0
LINE
  5
210
330
1E
100
AcDbEntity
  8
0
100
AcDbLine
 10
88.04
 20
85.54085
 30
0.0
 11
88.04
 21
96.89664999999999
 31
0.0
  0
LINE
  5
211
330
1E
100
AcDbEntity
  8
0
100
AcDbLine
 10
88.04
 20
85.54085
 30
0.0
 11
88.04
 21
74.37935
 31
0.0
  0
LINE
  5
212
330
1E
100
AcDbEntity
  8
0
100
AcDbLine
 10
88.04
 20
74.37935
 30
0.0
 11
88.04
 21
63.60314999999999
 31
0.0
  0
LINE
  5
213
330
1E
100
AcDbEntity
  8
0
100
AcDbLine
 10
88.04
 20
74.37935
 30
0.0
 11
88.04
 21
85.54085
 31
0.0
  0
LINE
  5
214
330
1E
100
AcDbEntity
  8
0
100
AcDbLine
 10
88.04
 20
63.60314999999999
 30
0.0
 11
88.04
 21
74.37935
 31
0.0
  0
LINE
  5
215
330
1E
100
AcDbEntity
  8
0
100
AcDbLine
 10
88.04
 20
63.60314999999999
 30
0.0
 11
88.04
 21
53.39665
 31
0.0
  0
LINE
  5
216
330
1E
100
AcDbEntity
  8
0
100
AcDbLine
 10
88.04
 20
165.91865
 30
0.0
 11
88.04
 21
172.2406499999999
 31
0.0
  0
LINE
  5
217
330
1E
100
AcDbEntity
  8
0
100
AcDbLine
 10
88.04
 20
165.91865
 30
0.0
 11
88.04
 21
158.4146499999999
 31
0.0
  0
LINE
  5
219
330
1E
100
AcDbEntity
  8
0
100
AcDbLine
 10
88.04
 20
163.4755178887479
 30
0.0
 11
91.6871
 21
166.24965
 31
0.0
  0
LINE
  5
21A
330
1E
100
AcDbEntity
  8
0
100
AcDbLine
 10
88.04
 20
172.2406499999999
 30
0.0
 11
88.04
 21
165.91865
 31
0.0
  0
LINE
  5
21B
330
1E
100
AcDbEntity
  8
0
100
AcDbLine
 10
88.04
 20
172.2406499999999
 30
0.0
 11
88.04
 21
177.27465
 31
0.0
  0
LINE
  5
21C
330
1E
100
AcDbEntity
  8
0
100
AcDbLine
 10
88.04
 20
177.27465
 30
0.0
 11
88.04
 21
180.93265
 31
0.0
  0
LINE
  5
21D
330
1E
100
AcDbEntity
  8
0
100
AcDbLine
 10
88.04
 20
177.27465
 30
0.0
 11
88.04
 21
172.2406499999999
 31
0.0
  0
LINE
  5
21F
330
1E
100
AcDbEntity
  8
0
100
AcDbLine
 10
91.6871
 20
166.24965
 30
0.0
 11
95.6576
 21
171.47065
 31
0.0
  0
LINE
  5
220
330
1E
100
AcDbEntity
  8
0
100
AcDbLine
 10
116.481
 20
159.8966499999999
 30
0.0
 11
118.0699999999999
 21
160.74365
 31
0.0
  0
LINE
  5
221
330
1E
100
AcDbEntity
  8
0
100
AcDbLine
 10
153.1859999999999
 20
159.8966499999999
 30
0.0
 11
154.776
 21
160.74365
 31
0.0
  0
LINE
  5
222
330
1E
100
AcDbEntity
  8
0
100
AcDbLine
 10
115.467
 20
161.09665
 30
0.0
 11
117.0379999999999
 21
160.2496499999999
 31
0.0
  0
LINE
  5
223
330
1E
100
AcDbEntity
  8
0
100
AcDbLine
 10
113.987
 20
163.42565
 30
0.0
 11
115.467
 21
161.09665
 31
0.0
  0
LINE
  5
224
330
1E
100
AcDbEntity
  8
0
100
AcDbLine
 10
111.7399999999999
 20
172.10865
 30
0.0
 11
112.708
 21
167.16765
 31
0.0
  0
LINE
  5
225
330
1E
100
AcDbEntity
  8
0
100
AcDbLine
 10
112.708
 20
167.16765
 30
0.0
 11
113.987
 21
163.42565
 31
0.0
  0
LINE
  5
226
330
1E
100
AcDbEntity
  8
0
100
AcDbLine
 10
114.8429999999999
 20
171.96765
 30
0.0
 11
115.83
 21
166.9556499999999
 31
0.0
  0
LINE
  5
227
330
1E
100
AcDbEntity
  8
0
100
AcDbLine
 10
115.83
 20
166.9556499999999
 30
0.0
 11
117.127
 21
163.14365
 31
0.0
  0
LINE
  5
228
330
1E
100
AcDbEntity
  8
0
100
AcDbLine
 10
117.127
 20
163.14365
 30
0.0
 11
118.625
 21
160.74365
 31
0.0
  0
LINE
  5
22A
330
1E
100
AcDbEntity
  8
0
100
AcDbLine
 10
148.445
 20
172.10865
 30
0.0
 11
149.413
 21
167.16765
 31
0.0
  0
LINE
  5
22B
330
1E
100
AcDbEntity
  8
0
100
AcDbLine
 10
149.413
 20
167.16765
 30
0.0
 11
150.692
 21
163.42565
 31
0.0
  0
LINE
  5
22C
330
1E
100
AcDbEntity
  8
0
100
AcDbLine
 10
150.692
 20
163.42565
 30
0.0
 11
152.172
 21
161.09665
 31
0.0
  0
LINE
  5
22D
330
1E
100
AcDbEntity
  8
0
100
AcDbLine
 10
152.172
 20
161.09665
 30
0.0
 11
153.743
 21
160.2496499999999
 31
0.0
  0
LINE
  5
22E
330
1E
100
AcDbEntity
  8
0
100
AcDbLine
 10
118.625
 20
160.74365
 30
0.0
 11
120.215
 21
159.8966499999999
 31
0.0
  0
LINE
  5
22F
330
1E
100
AcDbEntity
  8
0
100
AcDbLine
 10
118.0699999999999
 20
160.74365
 30
0.0
 11
118.4639587158429
 21
161.001660068075
 31
0.0
  0
LINE
  5
231
330
1E
100
AcDbEntity
  8
0
100
AcDbLine
 10
158.2239999999999
 20
167.66165
 30
0.0
 11
159.156
 21
172.4616499999999
 31
0.0
  0
LINE
  5
232
330
1E
100
AcDbEntity
  8
0
100
AcDbLine
 10
159.156
 20
172.4616499999999
 30
0.0
 11
159.74
 21
177.9676499999999
 31
0.0
  0
LINE
  5
233
330
1E
100
AcDbEntity
  8
0
100
AcDbLine
 10
158.0729999999999
 20
167.16765
 30
0.0
 11
158.2239999999999
 21
167.66165
 31
0.0
  0
LINE
  5
234
330
1E
100
AcDbEntity
  8
0
100
AcDbLine
 10
158.0729999999999
 20
167.16765
 30
0.0
 11
158.0985934180209
 21
167.29815266093
 31
0.0
  0
LINE
  5
235
330
1E
100
AcDbEntity
  8
0
100
AcDbLine
 10
156.7939999999999
 20
163.42565
 30
0.0
 11
158.0729999999999
 21
167.16765
 31
0.0
  0
LINE
  5
236
330
1E
100
AcDbEntity
  8
0
100
AcDbLine
 10
155.315
 20
161.09665
 30
0.0
 11
156.7939999999999
 21
163.42565
 31
0.0
  0
LINE
  5
237
330
1E
100
AcDbEntity
  8
0
100
AcDbLine
 10
154.776
 20
160.74365
 30
0.0
 11
155.315
 21
161.09665
 31
0.0
  0
LINE
  5
238
330
1E
100
AcDbEntity
  8
0
100
AcDbLine
 10
153.743
 20
160.2496499999999
 30
0.0
 11
155.315
 21
161.09665
 31
0.0
  0
LINE
  5
239
330
1E
100
AcDbEntity
  8
0
100
AcDbLine
 10
120.215
 20
159.8966499999999
 30
0.0
 11
153.1859999999999
 21
159.8966499999999
 31
0.0
  0
LINE
  5
23A
330
1E
100
AcDbEntity
  8
0
100
AcDbLine
 10
95.6576
 20
171.47065
 30
0.0
 11
98.1576
 21
177.49965
 31
0.0
  0
LINE
  5
23B
330
1E
100
AcDbEntity
  8
0
100
AcDbLine
 10
74.04
 20
208.89665
 30
0.0
 11
80.4371
 21
208.01465
 31
0.0
  0
LINE
  5
23C
330
1E
100
AcDbEntity
  8
0
100
AcDbLine
 10
88.04
 20
180.93265
 30
0.0
 11
88.04
 21
177.27465
 31
0.0
  0
LINE
  5
23D
330
1E
100
AcDbEntity
  8
0
100
AcDbLine
 10
88.04
 20
180.93265
 30
0.0
 11
88.04
 21
183.15265
 31
0.0
  0
LINE
  5
23E
330
1E
100
AcDbEntity
  8
0
100
AcDbLine
 10
88.04
 20
183.8966499999999
 30
0.0
 11
88.04
 21
183.15265
 31
0.0
  0
LINE
  5
23F
330
1E
100
AcDbEntity
  8
0
100
AcDbLine
 10
111.1369999999999
 20
177.8256499999999
 30
0.0
 11
111.7399999999999
 21
172.10865
 31
0.0
  0
LINE
  5
240
330
1E
100
AcDbEntity
  8
0
100
AcDbLine
 10
147.842
 20
177.8256499999999
 30
0.0
 11
148.445
 21
172.10865
 31
0.0
  0
LINE
  5
241
330
1E
100
AcDbEntity
  8
0
100
AcDbLine
 10
114.222
 20
177.75565
 30
0.0
 11
114.8429999999999
 21
171.96765
 31
0.0
  0
LINE
  5
242
330
1E
100
AcDbEntity
  8
0
100
AcDbLine
 10
110.918
 20
183.8966499999999
 30
0.0
 11
111.1369999999999
 21
189.9676499999999
 31
0.0
  0
LINE
  5
243
330
1E
100
AcDbEntity
  8
0
100
AcDbLine
 10
110.918
 20
183.8966499999999
 30
0.0
 11
111.1369999999999
 21
177.8256499999999
 31
0.0
  0
LINE
  5
244
330
1E
100
AcDbEntity
  8
0
100
AcDbLine
 10
140.865
 20
181.9906499999999
 30
0.0
 11
141.4649999999999
 21
181.19065
 31
0.0
  0
LINE
  5
245
330
1E
100
AcDbEntity
  8
0
100
AcDbLine
 10
140.7589999999999
 20
181.93165
 30
0.0
 11
141.3829999999999
 21
181.10865
 31
0.0
  0
LINE
  5
246
330
1E
100
AcDbEntity
  8
0
100
AcDbLine
 10
140.4889999999999
 20
182.90865
 30
0.0
 11
140.865
 21
181.9906499999999
 31
0.0
  0
LINE
  5
247
330
1E
100
AcDbEntity
  8
0
100
AcDbLine
 10
140.371
 20
182.88465
 30
0.0
 11
140.7589999999999
 21
181.93165
 31
0.0
  0
LINE
  5
248
330
1E
100
AcDbEntity
  8
0
100
AcDbLine
 10
141.4649999999999
 20
181.19065
 30
0.0
 11
142.2649999999999
 21
180.59065
 31
0.0
  0
LINE
  5
249
330
1E
100
AcDbEntity
  8
0
100
AcDbLine
 10
142.2649999999999
 20
180.59065
 30
0.0
 11
143.1829999999999
 21
180.21465
 31
0.0
  0
LINE
  5
24A
330
1E
100
AcDbEntity
  8
0
100
AcDbLine
 10
141.3829999999999
 20
181.10865
 30
0.0
 11
142.206
 21
180.48465
 31
0.0
  0
LINE
  5
24B
330
1E
100
AcDbEntity
  8
0
100
AcDbLine
 10
142.206
 20
180.48465
 30
0.0
 11
143.1589999999999
 21
180.09665
 31
0.0
  0
LINE
  5
24C
330
1E
100
AcDbEntity
  8
0
100
AcDbLine
 10
143.1829999999999
 20
180.21465
 30
0.0
 11
144.171
 21
180.07265
 31
0.0
  0
LINE
  5
24D
330
1E
100
AcDbEntity
  8
0
100
AcDbLine
 10
143.1589999999999
 20
180.09665
 30
0.0
 11
144.171
 21
179.95565
 31
0.0
  0
LINE
  5
24E
330
1E
100
AcDbEntity
  8
0
100
AcDbLine
 10
140.347
 20
183.8966499999999
 30
0.0
 11
140.4889999999999
 21
184.88465
 31
0.0
  0
LINE
  5
24F
330
1E
100
AcDbEntity
  8
0
100
AcDbLine
 10
140.347
 20
183.8966499999999
 30
0.0
 11
140.4889999999999
 21
182.90865
 31
0.0
  0
LINE
  5
250
330
1E
100
AcDbEntity
  8
0
100
AcDbLine
 10
140.2299999999999
 20
183.8966499999999
 30
0.0
 11
140.371
 21
184.90865
 31
0.0
  0
LINE
  5
251
330
1E
100
AcDbEntity
  8
0
100
AcDbLine
 10
140.2299999999999
 20
183.8966499999999
 30
0.0
 11
140.371
 21
182.88465
 31
0.0
  0
LINE
  5
252
330
1E
100
AcDbEntity
  8
0
100
AcDbLine
 10
140.4889999999999
 20
184.88465
 30
0.0
 11
140.865
 21
185.80265
 31
0.0
  0
LINE
  5
253
330
1E
100
AcDbEntity
  8
0
100
AcDbLine
 10
140.371
 20
184.90865
 30
0.0
 11
140.7589999999999
 21
185.86165
 31
0.0
  0
LINE
  5
256
330
1E
100
AcDbEntity
  8
0
100
AcDbLine
 10
145.1589999999999
 20
180.21465
 30
0.0
 11
146.0769999999999
 21
180.59065
 31
0.0
  0
LINE
  5
257
330
1E
100
AcDbEntity
  8
0
100
AcDbLine
 10
144.171
 20
180.07265
 30
0.0
 11
145.1589999999999
 21
180.21465
 31
0.0
  0
LINE
  5
258
330
1E
100
AcDbEntity
  8
0
100
AcDbLine
 10
146.877
 20
181.19065
 30
0.0
 11
147.477
 21
181.9906499999999
 31
0.0
  0
LINE
  5
259
330
1E
100
AcDbEntity
  8
0
100
AcDbLine
 10
146.9589999999999
 20
181.10865
 30
0.0
 11
147.583
 21
181.93165
 31
0.0
  0
LINE
  5
25A
330
1E
100
AcDbEntity
  8
0
100
AcDbLine
 10
147.477
 20
181.9906499999999
 30
0.0
 11
147.8529999999999
 21
182.90865
 31
0.0
  0
LINE
  5
25B
330
1E
100
AcDbEntity
  8
0
100
AcDbLine
 10
147.583
 20
181.93165
 30
0.0
 11
147.971
 21
182.88465
 31
0.0
  0
LINE
  5
25C
330
1E
100
AcDbEntity
  8
0
100
AcDbLine
 10
146.0769999999999
 20
180.59065
 30
0.0
 11
146.877
 21
181.19065
 31
0.0
  0
LINE
  5
25D
330
1E
100
AcDbEntity
  8
0
100
AcDbLine
 10
146.1359999999999
 20
180.48465
 30
0.0
 11
146.9589999999999
 21
181.10865
 31
0.0
  0
LINE
  5
25E
330
1E
100
AcDbEntity
  8
0
100
AcDbLine
 10
145.1829999999999
 20
180.09665
 30
0.0
 11
146.1359999999999
 21
180.48465
 31
0.0
  0
LINE
  5
25F
330
1E
100
AcDbEntity
  8
0
100
AcDbLine
 10
144.171
 20
179.95565
 30
0.0
 11
145.1829999999999
 21
180.09665
 31
0.0
  0
LINE
  5
260
330
1E
100
AcDbEntity
  8
0
100
AcDbLine
 10
147.8529999999999
 20
182.90865
 30
0.0
 11
147.994
 21
183.8966499999999
 31
0.0
  0
LINE
  5
261
330
1E
100
AcDbEntity
  8
0
100
AcDbLine
 10
147.971
 20
182.88465
 30
0.0
 11
148.1119999999999
 21
183.8966499999999
 31
0.0
  0
LINE
  5
262
330
1E
100
AcDbEntity
  8
0
100
AcDbLine
 10
147.8529999999999
 20
184.88465
 30
0.0
 11
147.994
 21
183.8966499999999
 31
0.0
  0
LINE
  5
263
330
1E
100
AcDbEntity
  8
0
100
AcDbLine
 10
147.971
 20
184.90865
 30
0.0
 11
148.1119999999999
 21
183.8966499999999
 31
0.0
  0
LINE
  5
265
330
1E
100
AcDbEntity
  8
0
100
AcDbLine
 10
147.689537430347
 20
182.0521352071369
 30
0.0
 11
147.842
 21
177.8256499999999
 31
0.0
  0
LINE
  5
266
330
1E
100
AcDbEntity
  8
0
100
AcDbLine
 10
140.865
 20
185.80265
 30
0.0
 11
141.4649999999999
 21
186.60265
 31
0.0
  0
LINE
  5
267
330
1E
100
AcDbEntity
  8
0
100
AcDbLine
 10
141.4649999999999
 20
186.60265
 30
0.0
 11
142.2649999999999
 21
187.20265
 31
0.0
  0
LINE
  5
268
330
1E
100
AcDbEntity
  8
0
100
AcDbLine
 10
140.7589999999999
 20
185.86165
 30
0.0
 11
141.3829999999999
 21
186.68465
 31
0.0
  0
LINE
  5
26A
330
1E
100
AcDbEntity
  8
0
100
AcDbLine
 10
141.3829999999999
 20
186.68465
 30
0.0
 11
142.206
 21
187.30865
 31
0.0
  0
LINE
  5
26B
330
1E
100
AcDbEntity
  8
0
100
AcDbLine
 10
146.877
 20
186.60265
 30
0.0
 11
147.477
 21
185.80265
 31
0.0
  0
LINE
  5
26C
330
1E
100
AcDbEntity
  8
0
100
AcDbLine
 10
147.477
 20
185.80265
 30
0.0
 11
147.8529999999999
 21
184.88465
 31
0.0
  0
LINE
  5
26E
330
1E
100
AcDbEntity
  8
0
100
AcDbLine
 10
146.9589999999999
 20
186.68465
 30
0.0
 11
147.583
 21
185.86165
 31
0.0
  0
LINE
  5
26F
330
1E
100
AcDbEntity
  8
0
100
AcDbLine
 10
147.583
 20
185.86165
 30
0.0
 11
147.971
 21
184.90865
 31
0.0
  0
LINE
  5
270
330
1E
100
AcDbEntity
  8
0
100
AcDbLine
 10
142.2649999999999
 20
187.20265
 30
0.0
 11
143.1829999999999
 21
187.57865
 31
0.0
  0
LINE
  5
271
330
1E
100
AcDbEntity
  8
0
100
AcDbLine
 10
142.206
 20
187.30865
 30
0.0
 11
143.1589999999999
 21
187.6966499999999
 31
0.0
  0
LINE
  5
272
330
1E
100
AcDbEntity
  8
0
100
AcDbLine
 10
146.0769999999999
 20
187.20265
 30
0.0
 11
146.877
 21
186.60265
 31
0.0
  0
LINE
  5
274
330
1E
100
AcDbEntity
  8
0
100
AcDbLine
 10
146.1359999999999
 20
187.30865
 30
0.0
 11
146.9589999999999
 21
186.68465
 31
0.0
  0
LINE
  5
278
330
1E
100
AcDbEntity
  8
0
100
AcDbLine
 10
147.689537430347
 20
185.7411647928639
 30
0.0
 11
147.842
 21
189.9676499999999
 31
0.0
  0
LINE
  5
279
330
1E
100
AcDbEntity
  8
0
100
AcDbLine
 10
114.0029999999999
 20
183.8966499999999
 30
0.0
 11
114.222
 21
190.03765
 31
0.0
  0
LINE
  5
27A
330
1E
100
AcDbEntity
  8
0
100
AcDbLine
 10
114.0029999999999
 20
183.8966499999999
 30
0.0
 11
114.222
 21
177.75565
 31
0.0
  0
LINE
  5
27B
330
1E
100
AcDbEntity
  8
0
100
AcDbLine
 10
159.74
 20
177.9676499999999
 30
0.0
 11
159.96
 21
183.8966499999999
 31
0.0
  0
LINE
  5
27C
330
1E
100
AcDbEntity
  8
0
100
AcDbLine
 10
88.04
 20
183.15265
 30
0.0
 11
88.04
 21
183.8966499999999
 31
0.0
  0
LINE
  5
27D
330
1E
100
AcDbEntity
  8
0
100
AcDbLine
 10
88.04
 20
183.15265
 30
0.0
 11
88.04
 21
180.93265
 31
0.0
  0
LINE
  5
27E
330
1E
100
AcDbEntity
  8
0
100
AcDbLine
 10
143.1829999999999
 20
187.57865
 30
0.0
 11
144.171
 21
187.7206499999999
 31
0.0
  0
LINE
  5
27F
330
1E
100
AcDbEntity
  8
0
100
AcDbLine
 10
143.1589999999999
 20
187.6966499999999
 30
0.0
 11
144.171
 21
187.8376499999999
 31
0.0
  0
LINE
  5
281
330
1E
100
AcDbEntity
  8
0
100
AcDbLine
 10
144.171
 20
187.7206499999999
 30
0.0
 11
145.1589999999999
 21
187.57865
 31
0.0
  0
LINE
  5
282
330
1E
100
AcDbEntity
  8
0
100
AcDbLine
 10
144.171
 20
187.8376499999999
 30
0.0
 11
145.1829999999999
 21
187.6966499999999
 31
0.0
  0
LINE
  5
283
330
1E
100
AcDbEntity
  8
0
100
AcDbLine
 10
145.1589999999999
 20
187.57865
 30
0.0
 11
146.0769999999999
 21
187.20265
 31
0.0
  0
LINE
  5
284
330
1E
100
AcDbEntity
  8
0
100
AcDbLine
 10
145.1829999999999
 20
187.6966499999999
 30
0.0
 11
146.1359999999999
 21
187.30865
 31
0.0
  0
LINE
  5
287
330
1E
100
AcDbEntity
  8
0
100
AcDbLine
 10
111.1369999999999
 20
189.9676499999999
 30
0.0
 11
111.7399999999999
 21
195.68465
 31
0.0
  0
LINE
  5
288
330
1E
100
AcDbEntity
  8
0
100
AcDbLine
 10
147.842
 20
189.9676499999999
 30
0.0
 11
148.445
 21
195.68465
 31
0.0
  0
LINE
  5
289
330
1E
100
AcDbEntity
  8
0
100
AcDbLine
 10
114.222
 20
190.03765
 30
0.0
 11
114.8429999999999
 21
195.82565
 31
0.0
  0
LINE
  5
28A
330
1E
100
AcDbEntity
  8
0
100
AcDbLine
 10
159.74
 20
189.82565
 30
0.0
 11
159.96
 21
183.8966499999999
 31
0.0
  0
LINE
  5
28B
330
1E
100
AcDbEntity
  8
0
100
AcDbLine
 10
98.1576
 20
190.29365
 30
0.0
 11
99.04000000000001
 21
183.8966499999999
 31
0.0
  0
LINE
  5
28C
330
1E
100
AcDbEntity
  8
0
100
AcDbLine
 10
87.536
 20
187.48065
 30
0.0
 11
88.04
 21
183.8966499999999
 31
0.0
  0
LINE
  5
28D
330
1E
100
AcDbEntity
  8
0
100
AcDbLine
 10
86.19200000000001
 20
190.84065
 30
0.0
 11
87.536
 21
187.48065
 31
0.0
  0
LINE
  5
28E
330
1E
100
AcDbEntity
  8
0
100
AcDbLine
 10
111.7399999999999
 20
195.68465
 30
0.0
 11
112.708
 21
200.62565
 31
0.0
  0
LINE
  5
28F
330
1E
100
AcDbEntity
  8
0
100
AcDbLine
 10
148.445
 20
195.68465
 30
0.0
 11
149.413
 21
200.62565
 31
0.0
  0
LINE
  5
290
330
1E
100
AcDbEntity
  8
0
100
AcDbLine
 10
114.8429999999999
 20
195.82565
 30
0.0
 11
115.83
 21
200.8376499999999
 31
0.0
  0
LINE
  5
291
330
1E
100
AcDbEntity
  8
0
100
AcDbLine
 10
159.156
 20
195.3316499999999
 30
0.0
 11
159.74
 21
189.82565
 31
0.0
  0
LINE
  5
292
330
1E
100
AcDbEntity
  8
0
100
AcDbLine
 10
95.6576
 20
196.32265
 30
0.0
 11
98.1576
 21
190.29365
 31
0.0
  0
LINE
  5
293
330
1E
100
AcDbEntity
  8
0
100
AcDbLine
 10
83.952
 20
193.80865
 30
0.0
 11
86.19200000000001
 21
190.84065
 31
0.0
  0
LINE
  5
294
330
1E
100
AcDbEntity
  8
0
100
AcDbLine
 10
80.98399999999999
 20
196.04865
 30
0.0
 11
83.952
 21
193.80865
 31
0.0
  0
LINE
  5
296
330
1E
100
AcDbEntity
  8
0
100
AcDbLine
 10
80.72168768
 20
207.8966499999999
 30
0.0
 11
116.481
 21
207.8966499999999
 31
0.0
  0
LINE
  5
297
330
1E
100
AcDbEntity
  8
0
100
AcDbLine
 10
80.72168768
 20
207.8966499999999
 30
0.0
 11
116.481
 21
207.8966499999999
 31
0.0
  0
LINE
  5
298
330
1E
100
AcDbEntity
  8
0
100
AcDbLine
 10
86.46649999999999
 20
205.5146499999999
 30
0.0
 11
91.6871
 21
201.54365
 31
0.0
  0
LINE
  5
299
330
1E
100
AcDbEntity
  8
0
100
AcDbLine
 10
80.4371
 20
208.01465
 30
0.0
 11
86.46649999999999
 21
205.5146499999999
 31
0.0
  0
LINE
  5
29B
330
1E
100
AcDbEntity
  8
0
100
AcDbLine
 10
112.708
 20
200.62565
 30
0.0
 11
113.987
 21
204.36765
 31
0.0
  0
LINE
  5
29C
330
1E
100
AcDbEntity
  8
0
100
AcDbLine
 10
149.413
 20
200.62565
 30
0.0
 11
150.692
 21
204.36765
 31
0.0
  0
LINE
  5
29D
330
1E
100
AcDbEntity
  8
0
100
AcDbLine
 10
158.2239999999999
 20
200.13165
 30
0.0
 11
159.156
 21
195.3316499999999
 31
0.0
  0
LINE
  5
29E
330
1E
100
AcDbEntity
  8
0
100
AcDbLine
 10
113.987
 20
204.36765
 30
0.0
 11
115.467
 21
206.6966499999999
 31
0.0
  0
LINE
  5
29F
330
1E
100
AcDbEntity
  8
0
100
AcDbLine
 10
115.467
 20
206.6966499999999
 30
0.0
 11
117.0379999999999
 21
207.54365
 31
0.0
  0
LINE
  5
2A0
330
1E
100
AcDbEntity
  8
0
100
AcDbLine
 10
115.83
 20
200.8376499999999
 30
0.0
 11
117.127
 21
204.6496499999999
 31
0.0
  0
LINE
  5
2A1
330
1E
100
AcDbEntity
  8
0
100
AcDbLine
 10
117.127
 20
204.6496499999999
 30
0.0
 11
118.625
 21
207.0496499999999
 31
0.0
  0
LINE
  5
2A3
330
1E
100
AcDbEntity
  8
0
100
AcDbLine
 10
150.692
 20
204.36765
 30
0.0
 11
152.172
 21
206.6966499999999
 31
0.0
  0
LINE
  5
2A4
330
1E
100
AcDbEntity
  8
0
100
AcDbLine
 10
152.172
 20
206.6966499999999
 30
0.0
 11
153.743
 21
207.54365
 31
0.0
  0
LINE
  5
2A5
330
1E
100
AcDbEntity
  8
0
100
AcDbLine
 10
118.625
 20
207.0496499999999
 30
0.0
 11
120.215
 21
207.8966499999999
 31
0.0
  0
LINE
  5
2A6
330
1E
100
AcDbEntity
  8
0
100
AcDbLine
 10
118.0699999999999
 20
207.0496499999999
 30
0.0
 11
118.4639587158429
 21
206.7916399319249
 31
0.0
  0
LINE
  5
2A9
330
1E
100
AcDbEntity
  8
0
100
AcDbLine
 10
116.481
 20
207.8966499999999
 30
0.0
 11
118.0699999999999
 21
207.0496499999999
 31
0.0
  0
LINE
  5
2AA
330
1E
100
AcDbEntity
  8
0
100
AcDbLine
 10
120.215
 20
207.8966499999999
 30
0.0
 11
153.1859999999999
 21
207.8966499999999
 31
0.0
  0
LINE
  5
2AB
330
1E
100
AcDbEntity
  8
0
100
AcDbLine
 10
156.7939999999999
 20
204.36765
 30
0.0
 11
158.0729999999999
 21
200.62565
 31
0.0
  0
LINE
  5
2AC
330
1E
100
AcDbEntity
  8
0
100
AcDbLine
 10
155.315
 20
206.6966499999999
 30
0.0
 11
156.7939999999999
 21
204.36765
 31
0.0
  0
LINE
  5
2AD
330
1E
100
AcDbEntity
  8
0
100
AcDbLine
 10
154.776
 20
207.0496499999999
 30
0.0
 11
155.315
 21
206.6966499999999
 31
0.0
  0
LINE
  5
2AE
330
1E
100
AcDbEntity
  8
0
100
AcDbLine
 10
153.743
 20
207.54365
 30
0.0
 11
155.315
 21
206.6966499999999
 31
0.0
  0
LINE
  5
2AF
330
1E
100
AcDbEntity
  8
0
100
AcDbLine
 10
153.1859999999999
 20
207.8966499999999
 30
0.0
 11
154.776
 21
207.0496499999999
 31
0.0
  0
LINE
  5
2B0
330
1E
100
AcDbEntity
  8
0
100
AcDbLine
 10
158.0729999999999
 20
200.62565
 30
0.0
 11
158.0985934180209
 21
200.4951473390699
 31
0.0
  0
LINE
  5
2B1
330
1E
100
AcDbEntity
  8
0
100
AcDbLine
 10
158.0729999999999
 20
200.62565
 30
0.0
 11
158.2239999999999
 21
200.13165
 31
0.0
  0
LINE
  5
2B2
330
1E
100
AcDbEntity
  8
0
100
AcDbLine
 10
91.6871
 20
201.54365
 30
0.0
 11
95.6576
 21
196.32265
 31
0.0
  0
LINE
  5
2B3
330
1E
100
AcDbEntity
  8
0
100
AcDbLine
 10
77.62399999999999
 20
197.39265
 30
0.0
 11
80.98399999999999
 21
196.04865
 31
0.0
  0
LINE
  5
2B4
330
1E
100
AcDbEntity
  8
0
100
AcDbLine
 10
74.04
 20
197.89665
 30
0.0
 11
77.62399999999999
 21
197.39265
 31
0.0
  0
LINE
  5
2B5
330
1E
100
AcDbEntity
  8
0
100
AcDbLine
 10
98.1576
 20
177.49965
 30
0.0
 11
99.04000000000001
 21
183.8966499999999
 31
0.0
  0
LINE
  5
2B6
330
1E
100
AcDbEntity
  8
0
100
AcDbLine
 10
70.456
 20
197.39265
 30
0.0
 11
74.04
 21
197.89665
 31
0.0
  0
LINE
  5
2B7
330
1E
100
AcDbEntity
  8
0
100
AcDbLine
 10
60.04
 20
17.14475
 30
0.0
 11
60.04
 21
18.15255
 31
0.0
  0
LINE
  5
2B8
330
1E
100
AcDbEntity
  8
0
100
AcDbLine
 10
60.04
 20
17.14475
 30
0.0
 11
60.544
 21
13.89655
 31
0.0
  0
LINE
  5
2BD
330
1E
100
AcDbEntity
  8
0
100
AcDbLine
 10
33.0262
 20
198.17965
 30
0.0
 11
33.0262
 21
169.61365
 31
0.0
  0
LINE
  5
2BE
330
1E
100
AcDbEntity
  8
0
100
AcDbLine
 10
34.5256
 20
168.86565
 30
0.0
 11
54.4023271149794
 21
168.867149315626
 31
0.0
  0
ENDSEC
  0
SECTION
  2
OBJECTS
  0
DICTIONARY
  5
C
330
0
100
AcDbDictionary
281
     1
  3
ACAD_GROUP
350
D
  3
ACAD_LAYOUT
350
19
  3
ACAD_MLINESTYLE
350
16
  3
ACAD_PLOTSETTINGS
350
18
  3
ACAD_PLOTSTYLENAME
350
E
  3
AcDbVariableDictionary
350
2C0
  0
DICTIONARY
  5
D
102
{ACAD_REACTORS
330
C
102
}
330
C
100
AcDbDictionary
281
     1
  0
DICTIONARY
  5
19
102
{ACAD_REACTORS
330
C
102
}
330
C
100
AcDbDictionary
281
     1
  3
Layout1
350
1D
  3
Model
350
21
  0
DICTIONARY
  5
16
102
{ACAD_REACTORS
330
C
102
}
330
C
100
AcDbDictionary
281
     1
  3
Standard
350
17
  0
DICTIONARY
  5
18
102
{ACAD_REACTORS
330
C
102
}
330
C
100
AcDbDictionary
281
     1
  0
ACDBDICTIONARYWDFLT
  5
E
102
{ACAD_REACTORS
330
C
102
}
330
C
100
AcDbDictionary
281
     1
  3
Normal
350
F
100
AcDbDictionaryWithDefault
340
F
  0
DICTIONARY
  5
2C0
102
{ACAD_REACTORS
330
C
102
}
330
C
100
AcDbDictionary
281
     1
  3
DIMASSOC
350
2C1
  0
LAYOUT
  5
1D
102
{ACAD_REACTORS
330
19
102
}
330
19
100
AcDbPlotSettings
  1

  2
C:\Programme\AutoCAD LT 2002 Deu\plotters\DWF ePlot (optimized for plotting).pc3
  4

  6

 40
0.0
 41
0.0
 42
0.0
 43
0.0
 44
0.0
 45
0.0
 46
0.0
 47
0.0
 48
0.0
 49
0.0
140
0.0
141
0.0
142
1.0
143
1.0
 70
   688
 72
     0
 73
     0
 74
     5
  7

 75
    16
147
1.0
148
0.0
149
0.0
100
AcDbLayout
  1
Layout1
 70
     1
 71
     1
 10
0.0
 20
0.0
 11
12.0
 21
9.0
 12
0.0
 22
0.0
 32
0.0
 14
1.000000000000000E+20
 24
1.000000000000000E+20
 34
1.000000000000000E+20
 15
-1.000000000000000E+20
 25
-1.000000000000000E+20
 35
-1.000000000000000E+20
146
0.0
 13
0.0
 23
0.0
 33
0.0
 16
1.0
 26
0.0
 36
0.0
 17
0.0
 27
1.0
 37
0.0
 76
     0
330
1A
  0
LAYOUT
  5
21
102
{ACAD_REACTORS
330
19
102
}
330
19
100
AcDbPlotSettings
  1

  2
C:\Programme\AutoCAD LT 2002 Deu\plotters\DWF ePlot (optimized for plotting).pc3
  4

  6

 40
0.0
 41
0.0
 42
0.0
 43
0.0
 44
0.0
 45
0.0
 46
0.0
 47
0.0
 48
0.0
 49
0.0
140
0.0
141
0.0
142
1.0
143
1.0
 70
  1712
 72
     0
 73
     0
 74
     0
  7

 75
     0
147
1.0
148
0.0
149
0.0
100
AcDbLayout
  1
Model
 70
     1
 71
     0
 10
0.0
 20
0.0
 11
12.0
 21
9.0
 12
0.0
 22
0.0
 32
0.0
 14
0.0
 24
0.0
 34
0.0
 15
0.0
 25
0.0
 35
0.0
146
0.0
 13
0.0
 23
0.0
 33
0.0
 16
1.0
 26
0.0
 36
0.0
 17
0.0
 27
1.0
 37
0.0
 76
     0
330
1E
  0
MLINESTYLE
  5
17
102
{ACAD_REACTORS
330
16
102
}
330
16
100
AcDbMlineStyle
  2
STANDARD
 70
     0
  3

 62
   256
 51
90.0
 52
90.0
 71
     2
 49
0.5
 62
   256
  6
BYLAYER
 49
-0.5
 62
   256
  6
BYLAYER
  0
ACDBPLACEHOLDER
  5
F
102
{ACAD_REACTORS
330
E
102
}
330
E
  0
DICTIONARYVAR
  5
2C1
102
{ACAD_REACTORS
330
2C0
102
}
330
2C0
100
DictionaryVariables
280
     0
  1
1
  0
ENDSEC
  0
EOF
