  0
SECTION
  2
HEADER
  9
$ACADVER
  1
AC1015
  9
$ACADMAINTVER
 70
    13
  9
$DWGCODEPAGE
  3
ANSI_1252
  9
$INSBASE
 10
0.0
 20
0.0
 30
0.0
  9
$EXTMIN
 10
0.103350000000025
 20
-0.0000000000000196
 30
0.0
  9
$EXTMAX
 10
208.89665
 20
353.0
 30
0.0
  9
$LIMMIN
 10
0.0
 20
0.0
  9
$LIMMAX
 10
12.0
 20
9.0
  9
$ORTHOMODE
 70
     0
  9
$REGENMODE
 70
     1
  9
$FILLMODE
 70
     1
  9
$QTEXTMODE
 70
     0
  9
$MIRRTEXT
 70
     1
  9
$LTSCALE
 40
1.0
  9
$ATTMODE
 70
     1
  9
$TEXTSIZE
 40
0.2
  9
$TRACEWID
 40
0.05
  9
$TEXTSTYLE
  7
Standard
  9
$CLAYER
  8
0
  9
$CELTYPE
  6
Continuous
  9
$CECOLOR
 62
   256
  9
$CELTSCALE
 40
1.0
  9
$DISPSILH
 70
     0
  9
$DIMSCALE
 40
1.0
  9
$DIMASZ
 40
0.18
  9
$DIMEXO
 40
0.0625
  9
$DIMDLI
 40
0.38
  9
$DIMRND
 40
0.0
  9
$DIMDLE
 40
0.0
  9
$DIMEXE
 40
0.18
  9
$DIMTP
 40
0.0
  9
$DIMTM
 40
0.0
  9
$DIMTXT
 40
0.18
  9
$DIMCEN
 40
0.09
  9
$DIMTSZ
 40
0.0
  9
$DIMTOL
 70
     0
  9
$DIMLIM
 70
     0
  9
$DIMTIH
 70
     1
  9
$DIMTOH
 70
     1
  9
$DIMSE1
 70
     0
  9
$DIMSE2
 70
     0
  9
$DIMTAD
 70
     0
  9
$DIMZIN
 70
     0
  9
$DIMBLK
  1

  9
$DIMASO
 70
     1
  9
$DIMSHO
 70
     1
  9
$DIMPOST
  1

  9
$DIMAPOST
  1

  9
$DIMALT
 70
     0
  9
$DIMALTD
 70
     2
  9
$DIMALTF
 40
25.4
  9
$DIMLFAC
 40
1.0
  9
$DIMTOFL
 70
     0
  9
$DIMTVP
 40
0.0
  9
$DIMTIX
 70
     0
  9
$DIMSOXD
 70
     0
  9
$DIMSAH
 70
     0
  9
$DIMBLK1
  1

  9
$DIMBLK2
  1

  9
$DIMSTYLE
  2
Standard
  9
$DIMCLRD
 70
     0
  9
$DIMCLRE
 70
     0
  9
$DIMCLRT
 70
     0
  9
$DIMTFAC
 40
1.0
  9
$DIMGAP
 40
0.09
  9
$DIMJUST
 70
     0
  9
$DIMSD1
 70
     0
  9
$DIMSD2
 70
     0
  9
$DIMTOLJ
 70
     1
  9
$DIMTZIN
 70
     0
  9
$DIMALTZ
 70
     0
  9
$DIMALTTZ
 70
     0
  9
$DIMUPT
 70
     0
  9
$DIMDEC
 70
     4
  9
$DIMTDEC
 70
     4
  9
$DIMALTU
 70
     2
  9
$DIMALTTD
 70
     2
  9
$DIMTXSTY
  7
Standard
  9
$DIMAUNIT
 70
     0
  9
$DIMADEC
 70
     0
  9
$DIMALTRND
 40
0.0
  9
$DIMAZIN
 70
     0
  9
$DIMDSEP
 70
    46
  9
$DIMATFIT
 70
     3
  9
$DIMFRAC
 70
     0
  9
$DIMLDRBLK
  1

  9
$DIMLUNIT
 70
     2
  9
$DIMLWD
 70
    -2
  9
$DIMLWE
 70
    -2
  9
$DIMTMOVE
 70
     0
  9
$LUNITS
 70
     2
  9
$LUPREC
 70
     4
  9
$SKETCHINC
 40
0.1
  9
$FILLETRAD
 40
0.0
  9
$AUNITS
 70
     0
  9
$AUPREC
 70
     0
  9
$MENU
  1
.
  9
$ELEVATION
 40
0.0
  9
$PELEVATION
 40
0.0
  9
$THICKNESS
 40
0.0
  9
$LIMCHECK
 70
     0
  9
$CHAMFERA
 40
0.0
  9
$CHAMFERB
 40
0.0
  9
$CHAMFERC
 40
0.0
  9
$CHAMFERD
 40
0.0
  9
$SKPOLY
 70
     0
  9
$TDCREATE
 40
2455651.044167384
  9
$TDUCREATE
 40
2455650.960834051
  9
$TDUPDATE
 40
2455651.045008854
  9
$TDUUPDATE
 40
2455650.961675520
  9
$TDINDWG
 40
0.0008416551
  9
$TDUSRTIMER
 40
0.0008416551
  9
$USRTIMER
 70
     1
  9
$ANGBASE
 50
0.0
  9
$ANGDIR
 70
     0
  9
$PDMODE
 70
     0
  9
$PDSIZE
 40
0.0
  9
$PLINEWID
 40
0.0
  9
$SPLFRAME
 70
     0
  9
$SPLINETYPE
 70
     6
  9
$SPLINESEGS
 70
     8
  9
$HANDSEED
  5
188
  9
$SURFTAB1
 70
     6
  9
$SURFTAB2
 70
     6
  9
$SURFTYPE
 70
     6
  9
$SURFU
 70
     6
  9
$SURFV
 70
     6
  9
$UCSBASE
  2

  9
$UCSNAME
  2

  9
$UCSORG
 10
0.0
 20
0.0
 30
0.0
  9
$UCSXDIR
 10
1.0
 20
0.0
 30
0.0
  9
$UCSYDIR
 10
0.0
 20
1.0
 30
0.0
  9
$UCSORTHOREF
  2

  9
$UCSORTHOVIEW
 70
     1
  9
$UCSORGTOP
 10
0.0
 20
0.0
 30
0.0
  9
$UCSORGBOTTOM
 10
0.0
 20
0.0
 30
0.0
  9
$UCSORGLEFT
 10
0.0
 20
0.0
 30
0.0
  9
$UCSORGRIGHT
 10
0.0
 20
0.0
 30
0.0
  9
$UCSORGFRONT
 10
0.0
 20
0.0
 30
0.0
  9
$UCSORGBACK
 10
0.0
 20
0.0
 30
0.0
  9
$PUCSBASE
  2

  9
$PUCSNAME
  2

  9
$PUCSORG
 10
0.0
 20
0.0
 30
0.0
  9
$PUCSXDIR
 10
1.0
 20
0.0
 30
0.0
  9
$PUCSYDIR
 10
0.0
 20
1.0
 30
0.0
  9
$PUCSORTHOREF
  2

  9
$PUCSORTHOVIEW
 70
     0
  9
$PUCSORGTOP
 10
0.0
 20
0.0
 30
0.0
  9
$PUCSORGBOTTOM
 10
0.0
 20
0.0
 30
0.0
  9
$PUCSORGLEFT
 10
0.0
 20
0.0
 30
0.0
  9
$PUCSORGRIGHT
 10
0.0
 20
0.0
 30
0.0
  9
$PUCSORGFRONT
 10
0.0
 20
0.0
 30
0.0
  9
$PUCSORGBACK
 10
0.0
 20
0.0
 30
0.0
  9
$USERI1
 70
     0
  9
$USERI2
 70
     0
  9
$USERI3
 70
     0
  9
$USERI4
 70
     0
  9
$USERI5
 70
     0
  9
$USERR1
 40
0.0
  9
$USERR2
 40
0.0
  9
$USERR3
 40
0.0
  9
$USERR4
 40
0.0
  9
$USERR5
 40
0.0
  9
$WORLDVIEW
 70
     1
  9
$SHADEDGE
 70
     3
  9
$SHADEDIF
 70
    70
  9
$TILEMODE
 70
     1
  9
$MAXACTVP
 70
    64
  9
$PINSBASE
 10
0.0
 20
0.0
 30
0.0
  9
$PLIMCHECK
 70
     0
  9
$PEXTMIN
 10
1.000000000000000E+20
 20
1.000000000000000E+20
 30
1.000000000000000E+20
  9
$PEXTMAX
 10
-1.000000000000000E+20
 20
-1.000000000000000E+20
 30
-1.000000000000000E+20
  9
$PLIMMIN
 10
0.0
 20
0.0
  9
$PLIMMAX
 10
12.0
 20
9.0
  9
$UNITMODE
 70
     0
  9
$VISRETAIN
 70
     1
  9
$PLINEGEN
 70
     0
  9
$PSLTSCALE
 70
     1
  9
$TREEDEPTH
 70
  3020
  9
$CMLSTYLE
  2
Standard
  9
$CMLJUST
 70
     0
  9
$CMLSCALE
 40
1.0
  9
$PROXYGRAPHICS
 70
     1
  9
$MEASUREMENT
 70
     0
  9
$CELWEIGHT
370
    -1
  9
$ENDCAPS
280
     0
  9
$JOINSTYLE
280
     0
  9
$LWDISPLAY
290
     0
  9
$INSUNITS
 70
     0
  9
$HYPERLINKBASE
  1

  9
$STYLESHEET
  1

  9
$XEDIT
290
     1
  9
$CEPSNTYPE
380
     0
  9
$PSTYLEMODE
290
     1
  9
$FINGERPRINTGUID
  2
{812C38D2-50B0-43E5-8918-24EEBB88775A}
  9
$VERSIONGUID
  2
{ECD2E323-D548-41AE-A32E-E40A997E4531}
  9
$EXTNAMES
290
     1
  9
$PSVPSCALE
 40
0.0
  9
$OLESTARTUP
290
     0
  0
ENDSEC
  0
SECTION
  2
CLASSES
  0
CLASS
  1
ACDBDICTIONARYWDFLT
  2
AcDbDictionaryWithDefault
  3
AutoCAD 2000
 90
        0
280
     0
281
     0
  0
CLASS
  1
ACDBPLACEHOLDER
  2
AcDbPlaceHolder
  3
AutoCAD 2000
 90
        0
280
     0
281
     0
  0
CLASS
  1
LAYOUT
  2
AcDbLayout
  3
AutoCAD 2000
 90
        0
280
     0
281
     0
  0
CLASS
  1
DICTIONARYVAR
  2
AcDbDictionaryVar
  3
AutoCAD 2000
 90
        0
280
     0
281
     0
  0
ENDSEC
  0
SECTION
  2
TABLES
  0
TABLE
  2
VPORT
  5
8
330
0
100
AcDbSymbolTable
 70
     4
  0
VPORT
  5
187
330
8
100
AcDbSymbolTableRecord
100
AcDbViewportTableRecord
  2
*Active
 70
     0
 10
0.0
 20
0.0
 11
1.0
 21
1.0
 12
104.4999999999999
 22
176.4999999999999
 13
0.0
 23
0.0
 14
1.0
 24
1.0
 15
0.0
 25
0.0
 16
0.0
 26
0.0
 36
1.0
 17
0.0
 27
0.0
 37
0.0
 40
355.3878241262683
 41
2.073363431151241
 42
50.0
 43
0.0
 44
0.0
 50
0.0
 51
0.0
 71
     0
 72
   100
 73
     1
 74
     3
 75
     0
 76
     0
 77
     0
 78
     0
281
     0
 65
     1
110
0.0
120
0.0
130
0.0
111
1.0
121
0.0
131
0.0
112
0.0
122
1.0
132
0.0
 79
     1
146
0.0
  0
ENDTAB
  0
TABLE
  2
LTYPE
  5
5
330
0
100
AcDbSymbolTable
 70
     1
  0
LTYPE
  5
13
330
5
100
AcDbSymbolTableRecord
100
AcDbLinetypeTableRecord
  2
ByBlock
 70
     0
  3

 72
    65
 73
     0
 40
0.0
  0
LTYPE
  5
14
330
5
100
AcDbSymbolTableRecord
100
AcDbLinetypeTableRecord
  2
ByLayer
 70
     0
  3

 72
    65
 73
     0
 40
0.0
  0
LTYPE
  5
15
330
5
100
AcDbSymbolTableRecord
100
AcDbLinetypeTableRecord
  2
Continuous
 70
     0
  3
Solid line
 72
    65
 73
     0
 40
0.0
  0
ENDTAB
  0
TABLE
  2
LAYER
  5
2
330
0
100
AcDbSymbolTable
 70
     1
  0
LAYER
  5
10
330
2
100
AcDbSymbolTableRecord
100
AcDbLayerTableRecord
  2
0
 70
     0
 62
     7
  6
Continuous
370
    -3
390
F
  0
ENDTAB
  0
TABLE
  2
STYLE
  5
3
330
0
100
AcDbSymbolTable
 70
     1
  0
STYLE
  5
11
330
3
100
AcDbSymbolTableRecord
100
AcDbTextStyleTableRecord
  2
Standard
 70
     0
 40
0.0
 41
1.0
 50
0.0
 71
     0
 42
0.2
  3
txt
  4

  0
ENDTAB
  0
TABLE
  2
VIEW
  5
6
330
0
100
AcDbSymbolTable
 70
     0
  0
ENDTAB
  0
TABLE
  2
UCS
  5
7
330
0
100
AcDbSymbolTable
 70
     0
  0
ENDTAB
  0
TABLE
  2
APPID
  5
9
330
0
100
AcDbSymbolTable
 70
     1
  0
APPID
  5
12
330
9
100
AcDbSymbolTableRecord
100
AcDbRegAppTableRecord
  2
ACAD
 70
     0
  0
ENDTAB
  0
TABLE
  2
DIMSTYLE
  5
A
330
0
100
AcDbSymbolTable
 70
     1
100
AcDbDimStyleTable
 71
     0
  0
DIMSTYLE
105
177
330
A
100
AcDbSymbolTableRecord
100
AcDbDimStyleTableRecord
  2
Standard
 70
     0
340
11
  0
ENDTAB
  0
TABLE
  2
BLOCK_RECORD
  5
1
330
0
100
AcDbSymbolTable
 70
     0
  0
BLOCK_RECORD
  5
1E
330
1
100
AcDbSymbolTableRecord
100
AcDbBlockTableRecord
  2
*Model_Space
340
21
  0
BLOCK_RECORD
  5
1A
330
1
100
AcDbSymbolTableRecord
100
AcDbBlockTableRecord
  2
*Paper_Space
340
1D
  0
ENDTAB
  0
ENDSEC
  0
SECTION
  2
BLOCKS
  0
BLOCK
  5
1F
330
1E
100
AcDbEntity
  8
0
100
AcDbBlockBegin
  2
*Model_Space
 70
     0
 10
0.0
 20
0.0
 30
0.0
  3
*Model_Space
  1

  0
ENDBLK
  5
20
330
1E
100
AcDbEntity
  8
0
100
AcDbBlockEnd
  0
BLOCK
  5
1B
330
1A
100
AcDbEntity
 67
     1
  8
0
100
AcDbBlockBegin
  2
*Paper_Space
 70
     0
 10
0.0
 20
0.0
 30
0.0
  3
*Paper_Space
  1

  0
ENDBLK
  5
1C
330
1A
100
AcDbEntity
 67
     1
  8
0
100
AcDbBlockEnd
  0
ENDSEC
  0
SECTION
  2
ENTITIES
  0
LINE
  5
41
330
1E
100
AcDbEntity
  8
0
100
AcDbLine
 10
25.23435
 20
270.739
 30
0.0
 11
25.40135
 21
270.8399999999999
 31
0.0
  0
LINE
  5
42
330
1E
100
AcDbEntity
  8
0
100
AcDbLine
 10
25.04135
 20
270.7089999999999
 30
0.0
 11
25.23435
 21
270.739
 31
0.0
  0
LINE
  5
43
330
1E
100
AcDbEntity
  8
0
100
AcDbLine
 10
25.40135
 20
270.8399999999999
 30
0.0
 11
25.51625
 21
270.997
 31
0.0
  0
LINE
  5
44
330
1E
100
AcDbEntity
  8
0
100
AcDbLine
 10
24.85235
 20
270.7559999999999
 30
0.0
 11
25.04135
 21
270.7089999999999
 31
0.0
  0
LINE
  5
45
330
1E
100
AcDbEntity
  8
0
100
AcDbLine
 10
25.51625
 20
270.997
 30
0.0
 11
29.40495
 21
279.3349999999999
 31
0.0
  0
LINE
  5
51
330
1E
100
AcDbEntity
  8
0
100
AcDbLine
 10
29.25905
 20
279.733
 30
0.0
 11
29.37805
 21
279.6329999999999
 31
0.0
  0
LINE
  5
56
330
1E
100
AcDbEntity
  8
0
100
AcDbLine
 10
29.37805
 20
279.6329999999999
 30
0.0
 11
29.43195
 21
279.488
 31
0.0
  0
LINE
  5
57
330
1E
100
AcDbEntity
  8
0
100
AcDbLine
 10
29.40495
 20
279.3349999999999
 30
0.0
 11
29.43195
 21
279.488
 31
0.0
  0
LINE
  5
58
330
1E
100
AcDbEntity
  8
0
100
AcDbLine
 10
29.26855
 20
279.7889999999999
 30
0.0
 11
29.83315
 21
280.2049999999999
 31
0.0
  0
LINE
  5
6C
330
1E
100
AcDbEntity
  8
0
100
AcDbLine
 10
0.133350000000024
 20
282.444
 30
0.0
 11
0.234450000000025
 21
282.2769999999999
 31
0.0
  0
LINE
  5
6D
330
1E
100
AcDbEntity
  8
0
100
AcDbLine
 10
0.103350000000025
 20
282.637
 30
0.0
 11
0.149850000000026
 21
282.8259999999999
 31
0.0
  0
LINE
  5
6E
330
1E
100
AcDbEntity
  8
0
100
AcDbLine
 10
0.103350000000025
 20
282.637
 30
0.0
 11
0.133350000000024
 21
282.444
 31
0.0
  0
LINE
  5
6F
330
1E
100
AcDbEntity
  8
0
100
AcDbLine
 10
0.234450000000025
 20
282.2769999999999
 30
0.0
 11
0.391850000000026
 21
282.162
 31
0.0
  0
LINE
  5
8A
330
1E
100
AcDbEntity
  8
0
100
AcDbLine
 10
0.149850000000026
 20
282.8259999999999
 30
0.0
 11
4.03775000000002
 21
291.1639999999999
 31
0.0
  0
LINE
  5
8B
330
1E
100
AcDbEntity
  8
0
100
AcDbLine
 10
4.13695000000002
 20
291.2829999999999
 30
0.0
 11
4.283350000000029
 21
291.3349999999999
 31
0.0
  0
LINE
  5
8C
330
1E
100
AcDbEntity
  8
0
100
AcDbLine
 10
4.283350000000029
 20
291.3349999999999
 30
0.0
 11
4.436350000000019
 21
291.3079999999999
 31
0.0
  0
LINE
  5
8D
330
1E
100
AcDbEntity
  8
0
100
AcDbLine
 10
4.03775000000002
 20
291.1639999999999
 30
0.0
 11
4.13695000000002
 21
291.2829999999999
 31
0.0
  0
LINE
  5
AF
330
1E
100
AcDbEntity
  8
0
100
AcDbLine
 10
16.76795
 20
313.485
 30
0.0
 11
25.47885
 21
323.418
 31
0.0
  0
LINE
  5
B0
330
1E
100
AcDbEntity
  8
0
100
AcDbLine
 10
9.428050000000029
 20
302.4999999999999
 30
0.0
 11
16.76795
 21
313.485
 31
0.0
  0
LINE
  5
B1
330
1E
100
AcDbEntity
  8
0
100
AcDbLine
 10
5.464250000000019
 20
294.1999999999999
 30
0.0
 11
9.428050000000029
 21
302.4999999999999
 31
0.0
  0
LINE
  5
B3
330
1E
100
AcDbEntity
  8
0
100
AcDbLine
 10
4.45645000000003
 20
292.038
 30
0.0
 11
5.464250000000019
 21
294.1999999999999
 31
0.0
  0
LINE
  5
B4
330
1E
100
AcDbEntity
  8
0
100
AcDbLine
 10
4.45645000000003
 20
292.038
 30
0.0
 11
4.500950000000019
 21
291.339
 31
0.0
  0
LINE
  5
BB
330
1E
100
AcDbEntity
  8
0
100
AcDbLine
 10
25.47885
 20
323.418
 30
0.0
 11
35.41174999999999
 21
332.129
 31
0.0
  0
LINE
  5
C3
330
1E
100
AcDbEntity
  8
0
100
AcDbLine
 10
166.24965
 20
-0.0000000000000109
 30
0.0
 11
171.47065
 21
-0.0000000000000112
 31
0.0
  0
LINE
  5
C4
330
1E
100
AcDbEntity
  8
0
100
AcDbLine
 10
162.27865
 20
-0.0000000000000106
 30
0.0
 11
166.24965
 21
-0.0000000000000109
 31
0.0
  0
LINE
  5
C5
330
1E
100
AcDbEntity
  8
0
100
AcDbLine
 10
159.7786499999999
 20
-0.0000000000000105
 30
0.0
 11
162.27865
 21
-0.0000000000000106
 31
0.0
  0
LINE
  5
C6
330
1E
100
AcDbEntity
  8
0
100
AcDbLine
 10
159.8966499999999
 20
49.2663
 30
0.0
 11
159.8966499999999
 21
60.3795
 31
0.0
  0
LINE
  5
C7
330
1E
100
AcDbEntity
  8
0
100
AcDbLine
 10
159.8966499999999
 20
60.3795
 30
0.0
 11
159.8966499999999
 21
49.2663
 31
0.0
  0
LINE
  5
C8
330
1E
100
AcDbEntity
  8
0
100
AcDbLine
 10
159.8966499999999
 20
60.3795
 30
0.0
 11
159.969882411832
 21
60.8923862656308
 31
0.0
  0
LINE
  5
C9
330
1E
100
AcDbEntity
  8
0
100
AcDbLine
 10
161.09665
 20
54.6651
 30
0.0
 11
163.42565
 21
49.14229999999999
 31
0.0
  0
LINE
  5
CA
330
1E
100
AcDbEntity
  8
0
100
AcDbLine
 10
161.035600046936
 20
55.08774298675789
 30
0.0
 11
161.09665
 21
54.6651
 31
0.0
  0
LINE
  5
CB
330
1E
100
AcDbEntity
  8
0
100
AcDbLine
 10
160.74365
 20
55.7403
 30
0.0
 11
163.14365
 21
50.3759
 31
0.0
  0
LINE
  5
CC
330
1E
100
AcDbEntity
  8
0
100
AcDbLine
 10
161.09665
 20
64.50020000000001
 30
0.0
 11
163.42565
 21
58.9774
 31
0.0
  0
LINE
  5
CD
330
1E
100
AcDbEntity
  8
0
100
AcDbLine
 10
161.09665
 20
76.2277
 30
0.0
 11
163.42565
 21
81.7505
 31
0.0
  0
LINE
  5
CE
330
1E
100
AcDbEntity
  8
0
100
AcDbLine
 10
160.74365
 20
76.1466
 30
0.0
 11
163.14365
 21
81.73759999999999
 31
0.0
  0
LINE
  5
CF
330
1E
100
AcDbEntity
  8
0
100
AcDbLine
 10
160.2496499999999
 20
70.36399999999999
 30
0.0
 11
161.09665
 21
64.50020000000001
 31
0.0
  0
LINE
  5
D0
330
1E
100
AcDbEntity
  8
0
100
AcDbLine
 10
160.2496499999999
 20
70.36399999999999
 30
0.0
 11
161.09665
 21
76.2277
 31
0.0
  0
LINE
  5
D1
330
1E
100
AcDbEntity
  8
0
100
AcDbLine
 10
159.8966499999999
 20
70.21469999999999
 30
0.0
 11
159.8966499999999
 21
61.38
 31
0.0
  0
LINE
  5
D2
330
1E
100
AcDbEntity
  8
0
100
AcDbLine
 10
159.8966499999999
 20
70.21469999999999
 30
0.0
 11
160.74365
 21
76.1466
 31
0.0
  0
LINE
  5
D3
330
1E
100
AcDbEntity
  8
0
100
AcDbLine
 10
159.8966499999999
 20
61.38
 30
0.0
 11
160.74365
 21
55.7403
 31
0.0
  0
LINE
  5
D4
330
1E
100
AcDbEntity
  8
0
100
AcDbLine
 10
159.8966499999999
 20
61.38
 30
0.0
 11
159.8966499999999
 21
70.21469999999999
 31
0.0
  0
LINE
  5
D5
330
1E
100
AcDbEntity
  8
0
100
AcDbLine
 10
163.42565
 20
49.14229999999999
 30
0.0
 11
167.16765
 21
44.3695
 31
0.0
  0
LINE
  5
D6
330
1E
100
AcDbEntity
  8
0
100
AcDbLine
 10
163.42565
 20
81.7505
 30
0.0
 11
167.16765
 21
86.5233
 31
0.0
  0
LINE
  5
D7
330
1E
100
AcDbEntity
  8
0
100
AcDbLine
 10
163.14365
 20
81.73759999999999
 30
0.0
 11
166.9556499999999
 21
86.57859999999999
 31
0.0
  0
LINE
  5
D8
330
1E
100
AcDbEntity
  8
0
100
AcDbLine
 10
163.42565
 20
58.9774
 30
0.0
 11
167.16765
 21
54.2046
 31
0.0
  0
LINE
  5
D9
330
1E
100
AcDbEntity
  8
0
100
AcDbLine
 10
163.14365
 20
50.3759
 30
0.0
 11
166.9556499999999
 21
45.8027
 31
0.0
  0
LINE
  5
DA
330
1E
100
AcDbEntity
  8
0
100
AcDbLine
 10
162.27865
 20
99.4231
 30
0.0
 11
166.24965
 21
99.4231
 31
0.0
  0
LINE
  5
DC
330
1E
100
AcDbEntity
  8
0
100
AcDbLine
 10
159.7786499999999
 20
99.4231
 30
0.0
 11
162.27865
 21
99.4231
 31
0.0
  0
LINE
  5
DD
330
1E
100
AcDbEntity
  8
0
100
AcDbLine
 10
166.9556499999999
 20
86.57859999999999
 30
0.0
 11
171.96765
 21
90.26049999999999
 31
0.0
  0
LINE
  5
DE
330
1E
100
AcDbEntity
  8
0
100
AcDbLine
 10
167.16765
 20
44.3695
 30
0.0
 11
172.10865
 21
40.7558
 31
0.0
  0
LINE
  5
DF
330
1E
100
AcDbEntity
  8
0
100
AcDbLine
 10
167.16765
 20
86.5233
 30
0.0
 11
172.10865
 21
90.137
 31
0.0
  0
LINE
  5
E0
330
1E
100
AcDbEntity
  8
0
100
AcDbLine
 10
167.16765
 20
54.2046
 30
0.0
 11
172.10865
 21
50.5909
 31
0.0
  0
LINE
  5
E1
330
1E
100
AcDbEntity
  8
0
100
AcDbLine
 10
166.9556499999999
 20
45.8027
 30
0.0
 11
171.96765
 21
42.28419999999999
 31
0.0
  0
LINE
  5
E3
330
1E
100
AcDbEntity
  8
0
100
AcDbLine
 10
166.24965
 20
99.4231
 30
0.0
 11
171.47065
 21
99.4231
 31
0.0
  0
LINE
  5
E4
330
1E
100
AcDbEntity
  8
0
100
AcDbLine
 10
159.2646499999999
 20
99.80769999999999
 30
0.0
 11
159.99965
 21
100.0
 31
0.0
  0
LINE
  5
E5
330
1E
100
AcDbEntity
  8
0
100
AcDbLine
 10
158.8966499999999
 20
99.4231
 30
0.0
 11
158.8966499999999
 21
-0.0000000000000196
 31
0.0
  0
LINE
  5
E6
330
1E
100
AcDbEntity
  8
0
100
AcDbLine
 10
158.8966499999999
 20
99.4231
 30
0.0
 11
159.2646499999999
 21
99.80769999999999
 31
0.0
  0
LINE
  5
E7
330
1E
100
AcDbEntity
  8
0
100
AcDbLine
 10
158.8966499999999
 20
99.4231
 30
0.0
 11
159.7786499999999
 21
99.4231
 31
0.0
  0
LINE
  5
E8
330
1E
100
AcDbEntity
  8
0
100
AcDbLine
 10
158.8966499999999
 20
-0.0000000000000104
 30
0.0
 11
159.7786499999999
 21
-0.0000000000000105
 31
0.0
  0
LINE
  5
E9
330
1E
100
AcDbEntity
  8
0
100
AcDbLine
 10
158.8966499999999
 20
-0.0000000000000104
 30
0.0
 11
158.8966499999999
 21
99.4231
 31
0.0
  0
LINE
  5
EA
330
1E
100
AcDbEntity
  8
0
100
AcDbLine
 10
196.32265
 20
-0.0000000000000127
 30
0.0
 11
201.54365
 21
-0.000000000000013
 31
0.0
  0
LINE
  5
EB
330
1E
100
AcDbEntity
  8
0
100
AcDbLine
 10
183.8966499999999
 20
-0.0000000000000119
 30
0.0
 11
190.29365
 21
-0.0000000000000123
 31
0.0
  0
LINE
  5
EC
330
1E
100
AcDbEntity
  8
0
100
AcDbLine
 10
190.29365
 20
-0.0000000000000123
 30
0.0
 11
196.32265
 21
-0.0000000000000127
 31
0.0
  0
LINE
  5
ED
330
1E
100
AcDbEntity
  8
0
100
AcDbLine
 10
201.54365
 20
-0.000000000000013
 30
0.0
 11
205.5146499999999
 21
-0.0000000000000133
 31
0.0
  0
LINE
  5
EE
330
1E
100
AcDbEntity
  8
0
100
AcDbLine
 10
205.5146499999999
 20
-0.0000000000000133
 30
0.0
 11
208.01465
 21
-0.0000000000000134
 31
0.0
  0
LINE
  5
EF
330
1E
100
AcDbEntity
  8
0
100
AcDbLine
 10
208.89665
 20
-0.0000000000000135
 30
0.0
 11
208.89665
 21
99.4231
 31
0.0
  0
LINE
  5
F0
330
1E
100
AcDbEntity
  8
0
100
AcDbLine
 10
208.01465
 20
-0.0000000000000134
 30
0.0
 11
208.89665
 21
-0.0000000000000135
 31
0.0
  0
LINE
  5
F1
330
1E
100
AcDbEntity
  8
0
100
AcDbLine
 10
171.47065
 20
99.4231
 30
0.0
 11
177.49965
 21
99.4231
 31
0.0
  0
LINE
  5
F2
330
1E
100
AcDbEntity
  8
0
100
AcDbLine
 10
177.8256499999999
 20
38.50569999999999
 30
0.0
 11
183.8966499999999
 21
37.6875
 31
0.0
  0
LINE
  5
F3
330
1E
100
AcDbEntity
  8
0
100
AcDbLine
 10
183.8966499999999
 20
37.6875
 30
0.0
 11
189.9676499999999
 21
38.50569999999999
 31
0.0
  0
LINE
  5
F4
330
1E
100
AcDbEntity
  8
0
100
AcDbLine
 10
171.96765
 20
90.26049999999999
 30
0.0
 11
177.75565
 21
92.5787
 31
0.0
  0
LINE
  5
F5
330
1E
100
AcDbEntity
  8
0
100
AcDbLine
 10
172.10865
 20
40.7558
 30
0.0
 11
177.8256499999999
 21
38.50569999999999
 31
0.0
  0
LINE
  5
F6
330
1E
100
AcDbEntity
  8
0
100
AcDbLine
 10
172.10865
 20
90.137
 30
0.0
 11
177.8256499999999
 21
92.38710000000001
 31
0.0
  0
LINE
  5
F7
330
1E
100
AcDbEntity
  8
0
100
AcDbLine
 10
177.8256499999999
 20
92.38710000000001
 30
0.0
 11
181.90865
 21
92.93737352989621
 31
0.0
  0
LINE
  5
F8
330
1E
100
AcDbEntity
  8
0
100
AcDbLine
 10
179.8966499999999
 20
92.8639574824947
 30
0.0
 11
179.8966499999999
 21
155.2579999999999
 31
0.0
  0
LINE
  5
F9
330
1E
100
AcDbEntity
  8
0
100
AcDbLine
 10
177.75565
 20
92.5787
 30
0.0
 11
181.256510495152
 21
93.04513935143031
 31
0.0
  0
LINE
  5
FA
330
1E
100
AcDbEntity
  8
0
100
AcDbLine
 10
172.10865
 20
50.5909
 30
0.0
 11
177.8256499999999
 21
48.34089999999999
 31
0.0
  0
LINE
  5
FB
330
1E
100
AcDbEntity
  8
0
100
AcDbLine
 10
177.8256499999999
 20
48.34089999999999
 30
0.0
 11
183.8966499999999
 21
47.5227
 31
0.0
  0
LINE
  5
FC
330
1E
100
AcDbEntity
  8
0
100
AcDbLine
 10
171.96765
 20
42.28419999999999
 30
0.0
 11
177.75565
 21
40.069
 31
0.0
  0
LINE
  5
FD
330
1E
100
AcDbEntity
  8
0
100
AcDbLine
 10
177.75565
 20
40.069
 30
0.0
 11
183.8966499999999
 21
39.233
 31
0.0
  0
LINE
  5
FE
330
1E
100
AcDbEntity
  8
0
100
AcDbLine
 10
187.8966499999999
 20
92.8639574824947
 30
0.0
 11
187.8966499999999
 21
155.2579999999999
 31
0.0
  0
LINE
  5
FF
330
1E
100
AcDbEntity
  8
0
100
AcDbLine
 10
185.673597406832
 20
92.96581748175421
 30
0.0
 11
189.9676499999999
 21
92.38710000000001
 31
0.0
  0
LINE
  5
100
330
1E
100
AcDbEntity
  8
0
100
AcDbLine
 10
186.7206499999999
 20
93.0206425826412
 30
0.0
 11
190.03765
 21
92.5787
 31
0.0
  0
LINE
  5
101
330
1E
100
AcDbEntity
  8
0
100
AcDbLine
 10
183.8966499999999
 20
47.5227
 30
0.0
 11
189.9676499999999
 21
48.34089999999999
 31
0.0
  0
LINE
  5
102
330
1E
100
AcDbEntity
  8
0
100
AcDbLine
 10
183.8966499999999
 20
39.233
 30
0.0
 11
190.03765
 21
39.99929999999999
 31
0.0
  0
LINE
  5
103
330
1E
100
AcDbEntity
  8
0
100
AcDbLine
 10
189.9676499999999
 20
38.50569999999999
 30
0.0
 11
195.68465
 21
40.7558
 31
0.0
  0
LINE
  5
104
330
1E
100
AcDbEntity
  8
0
100
AcDbLine
 10
195.68465
 20
40.7558
 30
0.0
 11
200.62565
 21
44.3695
 31
0.0
  0
LINE
  5
105
330
1E
100
AcDbEntity
  8
0
100
AcDbLine
 10
195.68465
 20
90.137
 30
0.0
 11
200.62565
 21
86.5233
 31
0.0
  0
LINE
  5
106
330
1E
100
AcDbEntity
  8
0
100
AcDbLine
 10
189.9676499999999
 20
92.38710000000001
 30
0.0
 11
195.68465
 21
90.137
 31
0.0
  0
LINE
  5
107
330
1E
100
AcDbEntity
  8
0
100
AcDbLine
 10
190.03765
 20
92.5787
 30
0.0
 11
195.82565
 21
90.26049999999999
 31
0.0
  0
LINE
  5
108
330
1E
100
AcDbEntity
  8
0
100
AcDbLine
 10
195.82565
 20
90.26049999999999
 30
0.0
 11
200.8376499999999
 21
86.57859999999999
 31
0.0
  0
LINE
  5
109
330
1E
100
AcDbEntity
  8
0
100
AcDbLine
 10
195.68465
 20
50.5909
 30
0.0
 11
200.62565
 21
54.2046
 31
0.0
  0
LINE
  5
10A
330
1E
100
AcDbEntity
  8
0
100
AcDbLine
 10
189.9676499999999
 20
48.34089999999999
 30
0.0
 11
195.68465
 21
50.5909
 31
0.0
  0
LINE
  5
10B
330
1E
100
AcDbEntity
  8
0
100
AcDbLine
 10
195.82565
 20
42.18899999999999
 30
0.0
 11
200.8376499999999
 21
45.7028
 31
0.0
  0
LINE
  5
10C
330
1E
100
AcDbEntity
  8
0
100
AcDbLine
 10
190.03765
 20
39.99929999999999
 30
0.0
 11
195.82565
 21
42.18899999999999
 31
0.0
  0
LINE
  5
10D
330
1E
100
AcDbEntity
  8
0
100
AcDbLine
 10
200.62565
 20
44.3695
 30
0.0
 11
204.36765
 21
49.14229999999999
 31
0.0
  0
LINE
  5
10E
330
1E
100
AcDbEntity
  8
0
100
AcDbLine
 10
200.62565
 20
86.5233
 30
0.0
 11
204.36765
 21
81.7505
 31
0.0
  0
LINE
  5
10F
330
1E
100
AcDbEntity
  8
0
100
AcDbLine
 10
200.8376499999999
 20
86.57859999999999
 30
0.0
 11
204.6496499999999
 21
81.73759999999999
 31
0.0
  0
LINE
  5
110
330
1E
100
AcDbEntity
  8
0
100
AcDbLine
 10
200.62565
 20
54.2046
 30
0.0
 11
204.36765
 21
58.9774
 31
0.0
  0
LINE
  5
111
330
1E
100
AcDbEntity
  8
0
100
AcDbLine
 10
200.8376499999999
 20
45.7028
 30
0.0
 11
204.6496499999999
 21
50.276
 31
0.0
  0
LINE
  5
112
330
1E
100
AcDbEntity
  8
0
100
AcDbLine
 10
204.36765
 20
49.14229999999999
 30
0.0
 11
206.6966499999999
 21
54.6651
 31
0.0
  0
LINE
  5
113
330
1E
100
AcDbEntity
  8
0
100
AcDbLine
 10
206.6966499999999
 20
54.6651
 30
0.0
 11
206.7372425838629
 21
54.9461185761512
 31
0.0
  0
LINE
  5
114
330
1E
100
AcDbEntity
  8
0
100
AcDbLine
 10
207.8966499999999
 20
49.0332
 30
0.0
 11
207.8966499999999
 21
60.3795
 31
0.0
  0
LINE
  5
115
330
1E
100
AcDbEntity
  8
0
100
AcDbLine
 10
204.6496499999999
 20
50.276
 30
0.0
 11
207.0496499999999
 21
55.645
 31
0.0
  0
LINE
  5
116
330
1E
100
AcDbEntity
  8
0
100
AcDbLine
 10
207.8240157752639
 20
60.8881968372332
 30
0.0
 11
207.8966499999999
 21
60.3795
 31
0.0
  0
LINE
  5
117
330
1E
100
AcDbEntity
  8
0
100
AcDbLine
 10
207.8966499999999
 20
60.3795
 30
0.0
 11
207.8966499999999
 21
49.0332
 31
0.0
  0
LINE
  5
118
330
1E
100
AcDbEntity
  8
0
100
AcDbLine
 10
204.36765
 20
58.9774
 30
0.0
 11
206.6966499999999
 21
64.50020000000001
 31
0.0
  0
LINE
  5
119
330
1E
100
AcDbEntity
  8
0
100
AcDbLine
 10
204.36765
 20
81.7505
 30
0.0
 11
206.6966499999999
 21
76.2277
 31
0.0
  0
LINE
  5
11A
330
1E
100
AcDbEntity
  8
0
100
AcDbLine
 10
206.6966499999999
 20
76.2277
 30
0.0
 11
207.54365
 21
70.36399999999999
 31
0.0
  0
LINE
  5
11B
330
1E
100
AcDbEntity
  8
0
100
AcDbLine
 10
204.6496499999999
 20
81.73759999999999
 30
0.0
 11
207.0496499999999
 21
76.1466
 31
0.0
  0
LINE
  5
11C
330
1E
100
AcDbEntity
  8
0
100
AcDbLine
 10
207.0496499999999
 20
76.1466
 30
0.0
 11
207.8966499999999
 21
70.21469999999999
 31
0.0
  0
LINE
  5
11D
330
1E
100
AcDbEntity
  8
0
100
AcDbLine
 10
207.8966499999999
 20
70.21469999999999
 30
0.0
 11
207.8966499999999
 21
61.38
 31
0.0
  0
LINE
  5
11E
330
1E
100
AcDbEntity
  8
0
100
AcDbLine
 10
206.6966499999999
 20
64.50020000000001
 30
0.0
 11
207.54365
 21
70.36399999999999
 31
0.0
  0
LINE
  5
11F
330
1E
100
AcDbEntity
  8
0
100
AcDbLine
 10
207.8966499999999
 20
61.38
 30
0.0
 11
207.8966499999999
 21
70.21469999999999
 31
0.0
  0
LINE
  5
120
330
1E
100
AcDbEntity
  8
0
100
AcDbLine
 10
207.0496499999999
 20
55.645
 30
0.0
 11
207.8966499999999
 21
61.38
 31
0.0
  0
LINE
  5
121
330
1E
100
AcDbEntity
  8
0
100
AcDbLine
 10
201.54365
 20
99.4231
 30
0.0
 11
205.5146499999999
 21
99.4231
 31
0.0
  0
LINE
  5
122
330
1E
100
AcDbEntity
  8
0
100
AcDbLine
 10
205.5146499999999
 20
99.4231
 30
0.0
 11
208.01465
 21
99.4231
 31
0.0
  0
LINE
  5
123
330
1E
100
AcDbEntity
  8
0
100
AcDbLine
 10
208.01465
 20
99.4231
 30
0.0
 11
208.89665
 21
99.4231
 31
0.0
  0
LINE
  5
124
330
1E
100
AcDbEntity
  8
0
100
AcDbLine
 10
208.89665
 20
99.4231
 30
0.0
 11
208.89665
 21
-0.0000000000000196
 31
0.0
  0
LINE
  5
125
330
1E
100
AcDbEntity
  8
0
100
AcDbLine
 10
196.32265
 20
99.4231
 30
0.0
 11
201.54365
 21
99.4231
 31
0.0
  0
LINE
  5
126
330
1E
100
AcDbEntity
  8
0
100
AcDbLine
 10
190.29365
 20
99.4231
 30
0.0
 11
196.32265
 21
99.4231
 31
0.0
  0
LINE
  5
127
330
1E
100
AcDbEntity
  8
0
100
AcDbLine
 10
187.8966499999999
 20
99.4231
 30
0.0
 11
190.29365
 21
99.4231
 31
0.0
  0
LINE
  5
128
330
1E
100
AcDbEntity
  8
0
100
AcDbLine
 10
181.10865
 20
155.423
 30
0.0
 11
181.93165
 21
155.423
 31
0.0
  0
LINE
  5
129
330
1E
100
AcDbEntity
  8
0
100
AcDbLine
 10
181.93165
 20
155.423
 30
0.0
 11
182.88465
 21
155.423
 31
0.0
  0
LINE
  5
12A
330
1E
100
AcDbEntity
  8
0
100
AcDbLine
 10
182.88465
 20
155.423
 30
0.0
 11
183.8966499999999
 21
155.423
 31
0.0
  0
LINE
  5
12B
330
1E
100
AcDbEntity
  8
0
100
AcDbLine
 10
180.48465
 20
155.423
 30
0.0
 11
181.10865
 21
155.423
 31
0.0
  0
LINE
  5
12C
330
1E
100
AcDbEntity
  8
0
100
AcDbLine
 10
180.09665
 20
155.423
 30
0.0
 11
180.48465
 21
155.423
 31
0.0
  0
LINE
  5
12D
330
1E
100
AcDbEntity
  8
0
100
AcDbLine
 10
181.19065
 20
155.505
 30
0.0
 11
181.9906499999999
 21
155.505
 31
0.0
  0
LINE
  5
12E
330
1E
100
AcDbEntity
  8
0
100
AcDbLine
 10
181.9906499999999
 20
155.505
 30
0.0
 11
182.90865
 21
155.505
 31
0.0
  0
LINE
  5
12F
330
1E
100
AcDbEntity
  8
0
100
AcDbLine
 10
182.90865
 20
155.505
 30
0.0
 11
183.8966499999999
 21
155.505
 31
0.0
  0
LINE
  5
130
330
1E
100
AcDbEntity
  8
0
100
AcDbLine
 10
180.59065
 20
155.505
 30
0.0
 11
181.19065
 21
155.505
 31
0.0
  0
LINE
  5
131
330
1E
100
AcDbEntity
  8
0
100
AcDbLine
 10
180.21465
 20
155.505
 30
0.0
 11
180.59065
 21
155.505
 31
0.0
  0
LINE
  5
132
330
1E
100
AcDbEntity
  8
0
100
AcDbLine
 10
180.07265
 20
155.505
 30
0.0
 11
180.21465
 21
155.505
 31
0.0
  0
LINE
  5
133
330
1E
100
AcDbEntity
  8
0
100
AcDbLine
 10
179.95565
 20
155.423
 30
0.0
 11
180.09665
 21
155.423
 31
0.0
  0
LINE
  5
134
330
1E
100
AcDbEntity
  8
0
100
AcDbLine
 10
179.95565
 20
155.423
 30
0.0
 11
180.07265
 21
155.505
 31
0.0
  0
LINE
  5
135
330
1E
100
AcDbEntity
  8
0
100
AcDbLine
 10
179.8966499999999
 20
155.2579999999999
 30
0.0
 11
179.8966499999999
 21
92.8639574824947
 31
0.0
  0
LINE
  5
136
330
1E
100
AcDbEntity
  8
0
100
AcDbLine
 10
179.8966499999999
 20
155.2579999999999
 30
0.0
 11
179.95565
 21
155.423
 31
0.0
  0
LINE
  5
137
330
1E
100
AcDbEntity
  8
0
100
AcDbLine
 10
183.8966499999999
 20
155.505
 30
0.0
 11
184.88465
 21
155.505
 31
0.0
  0
LINE
  5
138
330
1E
100
AcDbEntity
  8
0
100
AcDbLine
 10
186.68465
 20
155.423
 30
0.0
 11
187.30865
 21
155.423
 31
0.0
  0
LINE
  5
139
330
1E
100
AcDbEntity
  8
0
100
AcDbLine
 10
187.30865
 20
155.423
 30
0.0
 11
187.6966499999999
 21
155.423
 31
0.0
  0
LINE
  5
13A
330
1E
100
AcDbEntity
  8
0
100
AcDbLine
 10
187.8966499999999
 20
155.2579999999999
 30
0.0
 11
187.8966499999999
 21
92.8639574824947
 31
0.0
  0
LINE
  5
13B
330
1E
100
AcDbEntity
  8
0
100
AcDbLine
 10
187.6966499999999
 20
155.423
 30
0.0
 11
187.8376499999999
 21
155.423
 31
0.0
  0
LINE
  5
13C
330
1E
100
AcDbEntity
  8
0
100
AcDbLine
 10
187.8376499999999
 20
155.423
 30
0.0
 11
187.8966499999999
 21
155.2579999999999
 31
0.0
  0
LINE
  5
13D
330
1E
100
AcDbEntity
  8
0
100
AcDbLine
 10
185.86165
 20
155.423
 30
0.0
 11
186.68465
 21
155.423
 31
0.0
  0
LINE
  5
13E
330
1E
100
AcDbEntity
  8
0
100
AcDbLine
 10
186.60265
 20
155.505
 30
0.0
 11
187.20265
 21
155.505
 31
0.0
  0
LINE
  5
13F
330
1E
100
AcDbEntity
  8
0
100
AcDbLine
 10
187.20265
 20
155.505
 30
0.0
 11
187.57865
 21
155.505
 31
0.0
  0
LINE
  5
140
330
1E
100
AcDbEntity
  8
0
100
AcDbLine
 10
187.7206499999999
 20
155.505
 30
0.0
 11
187.8376499999999
 21
155.423
 31
0.0
  0
LINE
  5
141
330
1E
100
AcDbEntity
  8
0
100
AcDbLine
 10
187.57865
 20
155.505
 30
0.0
 11
187.7206499999999
 21
155.505
 31
0.0
  0
LINE
  5
142
330
1E
100
AcDbEntity
  8
0
100
AcDbLine
 10
185.80265
 20
155.505
 30
0.0
 11
186.60265
 21
155.505
 31
0.0
  0
LINE
  5
143
330
1E
100
AcDbEntity
  8
0
100
AcDbLine
 10
184.88465
 20
155.505
 30
0.0
 11
185.80265
 21
155.505
 31
0.0
  0
LINE
  5
144
330
1E
100
AcDbEntity
  8
0
100
AcDbLine
 10
184.90865
 20
155.423
 30
0.0
 11
185.86165
 21
155.423
 31
0.0
  0
LINE
  5
145
330
1E
100
AcDbEntity
  8
0
100
AcDbLine
 10
183.8966499999999
 20
155.423
 30
0.0
 11
184.90865
 21
155.423
 31
0.0
  0
LINE
  5
148
330
1E
100
AcDbEntity
  8
0
100
AcDbLine
 10
207.79365
 20
100.0
 30
0.0
 11
208.52865
 21
99.80769999999999
 31
0.0
  0
LINE
  5
149
330
1E
100
AcDbEntity
  8
0
100
AcDbLine
 10
208.52865
 20
99.80769999999999
 30
0.0
 11
208.89665
 21
99.4231
 31
0.0
  0
LINE
  5
14A
330
1E
100
AcDbEntity
  8
0
100
AcDbLine
 10
197.89665
 20
100.0
 30
0.0
 11
197.89665
 21
252.0
 31
0.0
  0
LINE
  5
14B
330
1E
100
AcDbEntity
  8
0
100
AcDbLine
 10
177.49965
 20
99.4231
 30
0.0
 11
179.8966499999999
 21
99.4231
 31
0.0
  0
LINE
  5
14C
330
1E
100
AcDbEntity
  8
0
100
AcDbLine
 10
171.47065
 20
-0.0000000000000112
 30
0.0
 11
177.49965
 21
-0.0000000000000115
 31
0.0
  0
LINE
  5
14D
330
1E
100
AcDbEntity
  8
0
100
AcDbLine
 10
177.49965
 20
-0.0000000000000115
 30
0.0
 11
183.8966499999999
 21
-0.0000000000000119
 31
0.0
  0
LINE
  5
14E
330
1E
100
AcDbEntity
  8
0
100
AcDbLine
 10
169.89665
 20
100.0
 30
0.0
 11
169.89665
 21
252.0
 31
0.0
  0
LINE
  5
14F
330
1E
100
AcDbEntity
  8
0
100
AcDbLine
 10
38.98185
 20
296.4399999999999
 30
0.0
 11
45.27785
 21
303.619
 31
0.0
  0
LINE
  5
150
330
1E
100
AcDbEntity
  8
0
100
AcDbLine
 10
33.67675
 20
288.5
 30
0.0
 11
38.98185
 21
296.4399999999999
 31
0.0
  0
LINE
  5
151
330
1E
100
AcDbEntity
  8
0
100
AcDbLine
 10
30.84084999999999
 20
282.3659999999999
 30
0.0
 11
33.67675
 21
288.5
 31
0.0
  0
LINE
  5
152
330
1E
100
AcDbEntity
  8
0
100
AcDbLine
 10
45.27785
 20
303.619
 30
0.0
 11
52.45705
 21
309.915
 31
0.0
  0
LINE
  5
153
330
1E
100
AcDbEntity
  8
0
100
AcDbLine
 10
154.8116499999999
 20
296.4399999999999
 30
0.0
 11
160.1166499999999
 21
288.5
 31
0.0
  0
LINE
  5
154
330
1E
100
AcDbEntity
  8
0
100
AcDbLine
 10
167.40965
 20
270.894
 30
0.0
 11
169.2716499999999
 21
261.528
 31
0.0
  0
LINE
  5
155
330
1E
100
AcDbEntity
  8
0
100
AcDbLine
 10
164.33965
 20
279.9359999999999
 30
0.0
 11
167.40965
 21
270.894
 31
0.0
  0
LINE
  5
156
330
1E
100
AcDbEntity
  8
0
100
AcDbLine
 10
160.1166499999999
 20
288.5
 30
0.0
 11
164.33965
 21
279.9359999999999
 31
0.0
  0
LINE
  5
157
330
1E
100
AcDbEntity
  8
0
100
AcDbLine
 10
52.45705
 20
309.915
 30
0.0
 11
60.39665
 21
315.22
 31
0.0
  0
LINE
  5
158
330
1E
100
AcDbEntity
  8
0
100
AcDbLine
 10
68.96075
 20
319.443
 30
0.0
 11
78.00284999999999
 21
322.513
 31
0.0
  0
LINE
  5
159
330
1E
100
AcDbEntity
  8
0
100
AcDbLine
 10
87.36825000000001
 20
324.3749999999999
 30
0.0
 11
96.89664999999999
 21
325.0
 31
0.0
  0
LINE
  5
15A
330
1E
100
AcDbEntity
  8
0
100
AcDbLine
 10
78.00284999999999
 20
322.513
 30
0.0
 11
87.36825000000001
 21
324.3749999999999
 31
0.0
  0
LINE
  5
15B
330
1E
100
AcDbEntity
  8
0
100
AcDbLine
 10
60.39665
 20
315.22
 30
0.0
 11
68.96075
 21
319.443
 31
0.0
  0
LINE
  5
15C
330
1E
100
AcDbEntity
  8
0
100
AcDbLine
 10
35.41174999999999
 20
332.129
 30
0.0
 11
46.39664999999999
 21
339.469
 31
0.0
  0
LINE
  5
15D
330
1E
100
AcDbEntity
  8
0
100
AcDbLine
 10
58.24564999999999
 20
345.3119999999999
 30
0.0
 11
70.75594999999999
 21
349.559
 31
0.0
  0
LINE
  5
15E
330
1E
100
AcDbEntity
  8
0
100
AcDbLine
 10
83.71354999999999
 20
352.1359999999999
 30
0.0
 11
96.89664999999999
 21
353.0
 31
0.0
  0
LINE
  5
15F
330
1E
100
AcDbEntity
  8
0
100
AcDbLine
 10
70.75594999999999
 20
349.559
 30
0.0
 11
83.71354999999999
 21
352.1359999999999
 31
0.0
  0
LINE
  5
160
330
1E
100
AcDbEntity
  8
0
100
AcDbLine
 10
46.39664999999999
 20
339.469
 30
0.0
 11
58.24564999999999
 21
345.3119999999999
 31
0.0
  0
LINE
  5
161
330
1E
100
AcDbEntity
  8
0
100
AcDbLine
 10
96.89664999999999
 20
325.0
 30
0.0
 11
106.42465
 21
324.3749999999999
 31
0.0
  0
LINE
  5
162
330
1E
100
AcDbEntity
  8
0
100
AcDbLine
 10
106.42465
 20
324.3749999999999
 30
0.0
 11
115.7906499999999
 21
322.513
 31
0.0
  0
LINE
  5
163
330
1E
100
AcDbEntity
  8
0
100
AcDbLine
 10
124.83265
 20
319.443
 30
0.0
 11
133.39665
 21
315.22
 31
0.0
  0
LINE
  5
164
330
1E
100
AcDbEntity
  8
0
100
AcDbLine
 10
141.3366499999999
 20
309.915
 30
0.0
 11
148.5156499999999
 21
303.619
 31
0.0
  0
LINE
  5
165
330
1E
100
AcDbEntity
  8
0
100
AcDbLine
 10
158.38165
 20
332.129
 30
0.0
 11
168.31465
 21
323.418
 31
0.0
  0
LINE
  5
166
330
1E
100
AcDbEntity
  8
0
100
AcDbLine
 10
133.39665
 20
315.22
 30
0.0
 11
141.3366499999999
 21
309.915
 31
0.0
  0
LINE
  5
167
330
1E
100
AcDbEntity
  8
0
100
AcDbLine
 10
135.5476499999999
 20
345.3119999999999
 30
0.0
 11
147.3966499999999
 21
339.469
 31
0.0
  0
LINE
  5
168
330
1E
100
AcDbEntity
  8
0
100
AcDbLine
 10
147.3966499999999
 20
339.469
 30
0.0
 11
158.38165
 21
332.129
 31
0.0
  0
LINE
  5
169
330
1E
100
AcDbEntity
  8
0
100
AcDbLine
 10
115.7906499999999
 20
322.513
 30
0.0
 11
124.83265
 21
319.443
 31
0.0
  0
LINE
  5
16A
330
1E
100
AcDbEntity
  8
0
100
AcDbLine
 10
110.0796499999999
 20
352.1359999999999
 30
0.0
 11
123.0376499999999
 21
349.559
 31
0.0
  0
LINE
  5
16B
330
1E
100
AcDbEntity
  8
0
100
AcDbLine
 10
123.0376499999999
 20
349.559
 30
0.0
 11
135.5476499999999
 21
345.3119999999999
 31
0.0
  0
LINE
  5
16C
330
1E
100
AcDbEntity
  8
0
100
AcDbLine
 10
96.89664999999999
 20
353.0
 30
0.0
 11
110.0796499999999
 21
352.1359999999999
 31
0.0
  0
LINE
  5
16D
330
1E
100
AcDbEntity
  8
0
100
AcDbLine
 10
148.5156499999999
 20
303.619
 30
0.0
 11
154.8116499999999
 21
296.4399999999999
 31
0.0
  0
LINE
  5
16E
330
1E
100
AcDbEntity
  8
0
100
AcDbLine
 10
194.45565
 20
278.1409999999999
 30
0.0
 11
197.0326499999999
 21
265.1829999999999
 31
0.0
  0
LINE
  5
16F
330
1E
100
AcDbEntity
  8
0
100
AcDbLine
 10
190.20865
 20
290.651
 30
0.0
 11
194.45565
 21
278.1409999999999
 31
0.0
  0
LINE
  5
170
330
1E
100
AcDbEntity
  8
0
100
AcDbLine
 10
169.2716499999999
 20
261.528
 30
0.0
 11
169.89665
 21
252.0
 31
0.0
  0
LINE
  5
171
330
1E
100
AcDbEntity
  8
0
100
AcDbLine
 10
197.0326499999999
 20
265.1829999999999
 30
0.0
 11
197.89665
 21
252.0
 31
0.0
  0
LINE
  5
172
330
1E
100
AcDbEntity
  8
0
100
AcDbLine
 10
177.02565
 20
313.485
 30
0.0
 11
184.3656499999999
 21
302.4999999999999
 31
0.0
  0
LINE
  5
173
330
1E
100
AcDbEntity
  8
0
100
AcDbLine
 10
184.3656499999999
 20
302.4999999999999
 30
0.0
 11
190.20865
 21
290.651
 31
0.0
  0
LINE
  5
174
330
1E
100
AcDbEntity
  8
0
100
AcDbLine
 10
168.31465
 20
323.418
 30
0.0
 11
177.02565
 21
313.485
 31
0.0
  0
LINE
  5
175
330
1E
100
AcDbEntity
  8
0
100
AcDbLine
 10
197.89665
 20
252.0
 30
0.0
 11
197.89665
 21
100.0
 31
0.0
  0
LINE
  5
176
330
1E
100
AcDbEntity
  8
0
100
AcDbLine
 10
29.83315
 20
280.2049999999999
 30
0.0
 11
30.84084999999999
 21
282.3659999999999
 31
0.0
  0
LINE
  5
17B
330
1E
100
AcDbEntity
  8
0
100
AcDbLine
 10
4.436350000000019
 20
291.3079999999999
 30
0.0
 11
29.26855
 21
279.7889999999999
 31
0.0
  0
LINE
  5
17C
330
1E
100
AcDbEntity
  8
0
100
AcDbLine
 10
0.391850000000026
 20
282.162
 30
0.0
 11
24.85235
 21
270.7559999999999
 31
0.0
  0
LINE
  5
17D
330
1E
100
AcDbEntity
  8
0
100
AcDbLine
 10
159.99965
 20
100.0
 30
0.0
 11
179.8966499999999
 21
100.0
 31
0.0
  0
LINE
  5
17E
330
1E
100
AcDbEntity
  8
0
100
AcDbLine
 10
207.79365
 20
100.0
 30
0.0
 11
187.8966499999999
 21
100.0
 31
0.0
  0
LINE
  5
17F
330
1E
100
AcDbEntity
  8
0
100
AcDbLine
 10
181.90865
 20
92.93737352989621
 30
0.0
 11
183.8570219220391
 21
93.06394365229243
 31
0.0
  0
LINE
  5
180
330
1E
100
AcDbEntity
  8
0
100
AcDbLine
 10
183.8570219220391
 20
93.06394365229243
 30
0.0
 11
185.673597406832
 21
92.96581748175421
 31
0.0
  0
LINE
  5
181
330
1E
100
AcDbEntity
  8
0
100
AcDbLine
 10
181.256510495152
 20
93.04513935143031
 30
0.0
 11
183.8690860790316
 21
93.24481219506651
 31
0.0
  0
LINE
  5
182
330
1E
100
AcDbEntity
  8
0
100
AcDbLine
 10
183.8690860790316
 20
93.24481219506651
 30
0.0
 11
186.7206499999999
 21
93.0206425826412
 31
0.0
  0
ENDSEC
  0
SECTION
  2
OBJECTS
  0
DICTIONARY
  5
C
330
0
100
AcDbDictionary
281
     1
  3
ACAD_GROUP
350
D
  3
ACAD_LAYOUT
350
19
  3
ACAD_MLINESTYLE
350
16
  3
ACAD_PLOTSETTINGS
350
18
  3
ACAD_PLOTSTYLENAME
350
E
  3
AcDbVariableDictionary
350
184
  0
DICTIONARY
  5
D
102
{ACAD_REACTORS
330
C
102
}
330
C
100
AcDbDictionary
281
     1
  0
DICTIONARY
  5
19
102
{ACAD_REACTORS
330
C
102
}
330
C
100
AcDbDictionary
281
     1
  3
Layout1
350
1D
  3
Model
350
21
  0
DICTIONARY
  5
16
102
{ACAD_REACTORS
330
C
102
}
330
C
100
AcDbDictionary
281
     1
  3
Standard
350
17
  0
DICTIONARY
  5
18
102
{ACAD_REACTORS
330
C
102
}
330
C
100
AcDbDictionary
281
     1
  0
ACDBDICTIONARYWDFLT
  5
E
102
{ACAD_REACTORS
330
C
102
}
330
C
100
AcDbDictionary
281
     1
  3
Normal
350
F
100
AcDbDictionaryWithDefault
340
F
  0
DICTIONARY
  5
184
102
{ACAD_REACTORS
330
C
102
}
330
C
100
AcDbDictionary
281
     1
  3
DIMASSOC
350
185
  0
LAYOUT
  5
1D
102
{ACAD_REACTORS
330
19
102
}
330
19
100
AcDbPlotSettings
  1

  2
C:\Programme\AutoCAD LT 2002 Deu\plotters\DWF ePlot (optimized for plotting).pc3
  4

  6

 40
0.0
 41
0.0
 42
0.0
 43
0.0
 44
0.0
 45
0.0
 46
0.0
 47
0.0
 48
0.0
 49
0.0
140
0.0
141
0.0
142
1.0
143
1.0
 70
   688
 72
     0
 73
     0
 74
     5
  7

 75
    16
147
1.0
148
0.0
149
0.0
100
AcDbLayout
  1
Layout1
 70
     1
 71
     1
 10
0.0
 20
0.0
 11
12.0
 21
9.0
 12
0.0
 22
0.0
 32
0.0
 14
1.000000000000000E+20
 24
1.000000000000000E+20
 34
1.000000000000000E+20
 15
-1.000000000000000E+20
 25
-1.000000000000000E+20
 35
-1.000000000000000E+20
146
0.0
 13
0.0
 23
0.0
 33
0.0
 16
1.0
 26
0.0
 36
0.0
 17
0.0
 27
1.0
 37
0.0
 76
     0
330
1A
  0
LAYOUT
  5
21
102
{ACAD_REACTORS
330
19
102
}
330
19
100
AcDbPlotSettings
  1

  2
C:\Programme\AutoCAD LT 2002 Deu\plotters\DWF ePlot (optimized for plotting).pc3
  4

  6

 40
0.0
 41
0.0
 42
0.0
 43
0.0
 44
0.0
 45
0.0
 46
0.0
 47
0.0
 48
0.0
 49
0.0
140
0.0
141
0.0
142
1.0
143
1.0
 70
  1712
 72
     0
 73
     0
 74
     0
  7

 75
     0
147
1.0
148
0.0
149
0.0
100
AcDbLayout
  1
Model
 70
     1
 71
     0
 10
0.0
 20
0.0
 11
12.0
 21
9.0
 12
0.0
 22
0.0
 32
0.0
 14
0.0
 24
0.0
 34
0.0
 15
0.0
 25
0.0
 35
0.0
146
0.0
 13
0.0
 23
0.0
 33
0.0
 16
1.0
 26
0.0
 36
0.0
 17
0.0
 27
1.0
 37
0.0
 76
     0
330
1E
  0
MLINESTYLE
  5
17
102
{ACAD_REACTORS
330
16
102
}
330
16
100
AcDbMlineStyle
  2
STANDARD
 70
     0
  3

 62
   256
 51
90.0
 52
90.0
 71
     2
 49
0.5
 62
   256
  6
BYLAYER
 49
-0.5
 62
   256
  6
BYLAYER
  0
ACDBPLACEHOLDER
  5
F
102
{ACAD_REACTORS
330
E
102
}
330
E
  0
DICTIONARYVAR
  5
185
102
{ACAD_REACTORS
330
184
102
}
330
184
100
DictionaryVariables
280
     0
  1
1
  0
ENDSEC
  0
EOF
