  0
SECTION
  2
HEADER
  9
$ACADVER
  1
AC1015
  9
$ACADMAINTVER
 70
    13
  9
$DWGCODEPAGE
  3
ANSI_1252
  9
$INSBASE
 10
0.0
 20
0.0
 30
0.0
  9
$EXTMIN
 10
-0.219668999999987
 20
-0.000000000000012
 30
0.0
  9
$EXTMAX
 10
191.2196689999999
 20
300.0
 30
0.0
  9
$LIMMIN
 10
0.0
 20
0.0
  9
$LIMMAX
 10
12.0
 20
9.0
  9
$ORTHOMODE
 70
     0
  9
$REGENMODE
 70
     1
  9
$FILLMODE
 70
     1
  9
$QTEXTMODE
 70
     0
  9
$MIRRTEXT
 70
     1
  9
$LTSCALE
 40
1.0
  9
$ATTMODE
 70
     1
  9
$TEXTSIZE
 40
0.2
  9
$TRACEWID
 40
0.05
  9
$TEXTSTYLE
  7
Standard
  9
$CLAYER
  8
0
  9
$CELTYPE
  6
Continuous
  9
$CECOLOR
 62
   256
  9
$CELTSCALE
 40
1.0
  9
$DISPSILH
 70
     0
  9
$DIMSCALE
 40
1.0
  9
$DIMASZ
 40
0.18
  9
$DIMEXO
 40
0.0625
  9
$DIMDLI
 40
0.38
  9
$DIMRND
 40
0.0
  9
$DIMDLE
 40
0.0
  9
$DIMEXE
 40
0.18
  9
$DIMTP
 40
0.0
  9
$DIMTM
 40
0.0
  9
$DIMTXT
 40
0.18
  9
$DIMCEN
 40
0.09
  9
$DIMTSZ
 40
0.0
  9
$DIMTOL
 70
     0
  9
$DIMLIM
 70
     0
  9
$DIMTIH
 70
     1
  9
$DIMTOH
 70
     1
  9
$DIMSE1
 70
     0
  9
$DIMSE2
 70
     0
  9
$DIMTAD
 70
     0
  9
$DIMZIN
 70
     0
  9
$DIMBLK
  1

  9
$DIMASO
 70
     1
  9
$DIMSHO
 70
     1
  9
$DIMPOST
  1

  9
$DIMAPOST
  1

  9
$DIMALT
 70
     0
  9
$DIMALTD
 70
     2
  9
$DIMALTF
 40
25.4
  9
$DIMLFAC
 40
1.0
  9
$DIMTOFL
 70
     0
  9
$DIMTVP
 40
0.0
  9
$DIMTIX
 70
     0
  9
$DIMSOXD
 70
     0
  9
$DIMSAH
 70
     0
  9
$DIMBLK1
  1

  9
$DIMBLK2
  1

  9
$DIMSTYLE
  2
Standard
  9
$DIMCLRD
 70
     0
  9
$DIMCLRE
 70
     0
  9
$DIMCLRT
 70
     0
  9
$DIMTFAC
 40
1.0
  9
$DIMGAP
 40
0.09
  9
$DIMJUST
 70
     0
  9
$DIMSD1
 70
     0
  9
$DIMSD2
 70
     0
  9
$DIMTOLJ
 70
     1
  9
$DIMTZIN
 70
     0
  9
$DIMALTZ
 70
     0
  9
$DIMALTTZ
 70
     0
  9
$DIMUPT
 70
     0
  9
$DIMDEC
 70
     4
  9
$DIMTDEC
 70
     4
  9
$DIMALTU
 70
     2
  9
$DIMALTTD
 70
     2
  9
$DIMTXSTY
  7
Standard
  9
$DIMAUNIT
 70
     0
  9
$DIMADEC
 70
     0
  9
$DIMALTRND
 40
0.0
  9
$DIMAZIN
 70
     0
  9
$DIMDSEP
 70
    46
  9
$DIMATFIT
 70
     3
  9
$DIMFRAC
 70
     0
  9
$DIMLDRBLK
  1

  9
$DIMLUNIT
 70
     2
  9
$DIMLWD
 70
    -2
  9
$DIMLWE
 70
    -2
  9
$DIMTMOVE
 70
     0
  9
$LUNITS
 70
     2
  9
$LUPREC
 70
     4
  9
$SKETCHINC
 40
0.1
  9
$FILLETRAD
 40
0.0
  9
$AUNITS
 70
     0
  9
$AUPREC
 70
     0
  9
$MENU
  1
.
  9
$ELEVATION
 40
0.0
  9
$PELEVATION
 40
0.0
  9
$THICKNESS
 40
0.0
  9
$LIMCHECK
 70
     0
  9
$CHAMFERA
 40
0.0
  9
$CHAMFERB
 40
0.0
  9
$CHAMFERC
 40
0.0
  9
$CHAMFERD
 40
0.0
  9
$SKPOLY
 70
     0
  9
$TDCREATE
 40
2455652.985762974
  9
$TDUCREATE
 40
2455652.902429641
  9
$TDUPDATE
 40
2455652.987016238
  9
$TDUUPDATE
 40
2455652.903682905
  9
$TDINDWG
 40
0.0012532639
  9
$TDUSRTIMER
 40
0.0012532639
  9
$USRTIMER
 70
     1
  9
$ANGBASE
 50
0.0
  9
$ANGDIR
 70
     0
  9
$PDMODE
 70
     0
  9
$PDSIZE
 40
0.0
  9
$PLINEWID
 40
0.0
  9
$SPLFRAME
 70
     0
  9
$SPLINETYPE
 70
     6
  9
$SPLINESEGS
 70
     8
  9
$HANDSEED
  5
16F
  9
$SURFTAB1
 70
     6
  9
$SURFTAB2
 70
     6
  9
$SURFTYPE
 70
     6
  9
$SURFU
 70
     6
  9
$SURFV
 70
     6
  9
$UCSBASE
  2

  9
$UCSNAME
  2

  9
$UCSORG
 10
0.0
 20
0.0
 30
0.0
  9
$UCSXDIR
 10
1.0
 20
0.0
 30
0.0
  9
$UCSYDIR
 10
0.0
 20
1.0
 30
0.0
  9
$UCSORTHOREF
  2

  9
$UCSORTHOVIEW
 70
     1
  9
$UCSORGTOP
 10
0.0
 20
0.0
 30
0.0
  9
$UCSORGBOTTOM
 10
0.0
 20
0.0
 30
0.0
  9
$UCSORGLEFT
 10
0.0
 20
0.0
 30
0.0
  9
$UCSORGRIGHT
 10
0.0
 20
0.0
 30
0.0
  9
$UCSORGFRONT
 10
0.0
 20
0.0
 30
0.0
  9
$UCSORGBACK
 10
0.0
 20
0.0
 30
0.0
  9
$PUCSBASE
  2

  9
$PUCSNAME
  2

  9
$PUCSORG
 10
0.0
 20
0.0
 30
0.0
  9
$PUCSXDIR
 10
1.0
 20
0.0
 30
0.0
  9
$PUCSYDIR
 10
0.0
 20
1.0
 30
0.0
  9
$PUCSORTHOREF
  2

  9
$PUCSORTHOVIEW
 70
     0
  9
$PUCSORGTOP
 10
0.0
 20
0.0
 30
0.0
  9
$PUCSORGBOTTOM
 10
0.0
 20
0.0
 30
0.0
  9
$PUCSORGLEFT
 10
0.0
 20
0.0
 30
0.0
  9
$PUCSORGRIGHT
 10
0.0
 20
0.0
 30
0.0
  9
$PUCSORGFRONT
 10
0.0
 20
0.0
 30
0.0
  9
$PUCSORGBACK
 10
0.0
 20
0.0
 30
0.0
  9
$USERI1
 70
     0
  9
$USERI2
 70
     0
  9
$USERI3
 70
     0
  9
$USERI4
 70
     0
  9
$USERI5
 70
     0
  9
$USERR1
 40
0.0
  9
$USERR2
 40
0.0
  9
$USERR3
 40
0.0
  9
$USERR4
 40
0.0
  9
$USERR5
 40
0.0
  9
$WORLDVIEW
 70
     1
  9
$SHADEDGE
 70
     3
  9
$SHADEDIF
 70
    70
  9
$TILEMODE
 70
     1
  9
$MAXACTVP
 70
    64
  9
$PINSBASE
 10
0.0
 20
0.0
 30
0.0
  9
$PLIMCHECK
 70
     0
  9
$PEXTMIN
 10
1.000000000000000E+20
 20
1.000000000000000E+20
 30
1.000000000000000E+20
  9
$PEXTMAX
 10
-1.000000000000000E+20
 20
-1.000000000000000E+20
 30
-1.000000000000000E+20
  9
$PLIMMIN
 10
0.0
 20
0.0
  9
$PLIMMAX
 10
12.0
 20
9.0
  9
$UNITMODE
 70
     0
  9
$VISRETAIN
 70
     1
  9
$PLINEGEN
 70
     0
  9
$PSLTSCALE
 70
     1
  9
$TREEDEPTH
 70
  3020
  9
$CMLSTYLE
  2
Standard
  9
$CMLJUST
 70
     0
  9
$CMLSCALE
 40
1.0
  9
$PROXYGRAPHICS
 70
     1
  9
$MEASUREMENT
 70
     0
  9
$CELWEIGHT
370
    -1
  9
$ENDCAPS
280
     0
  9
$JOINSTYLE
280
     0
  9
$LWDISPLAY
290
     0
  9
$INSUNITS
 70
     0
  9
$HYPERLINKBASE
  1

  9
$STYLESHEET
  1

  9
$XEDIT
290
     1
  9
$CEPSNTYPE
380
     0
  9
$PSTYLEMODE
290
     1
  9
$FINGERPRINTGUID
  2
{BEE446D6-18FF-4679-9729-65ADC013E882}
  9
$VERSIONGUID
  2
{3CDB12A4-5E6A-463D-ABE6-99606935B6A9}
  9
$EXTNAMES
290
     1
  9
$PSVPSCALE
 40
0.0
  9
$OLESTARTUP
290
     0
  0
ENDSEC
  0
SECTION
  2
CLASSES
  0
CLASS
  1
ACDBDICTIONARYWDFLT
  2
AcDbDictionaryWithDefault
  3
AutoCAD 2000
 90
        0
280
     0
281
     0
  0
CLASS
  1
ACDBPLACEHOLDER
  2
AcDbPlaceHolder
  3
AutoCAD 2000
 90
        0
280
     0
281
     0
  0
CLASS
  1
LAYOUT
  2
AcDbLayout
  3
AutoCAD 2000
 90
        0
280
     0
281
     0
  0
CLASS
  1
DICTIONARYVAR
  2
AcDbDictionaryVar
  3
AutoCAD 2000
 90
        0
280
     0
281
     0
  0
ENDSEC
  0
SECTION
  2
TABLES
  0
TABLE
  2
VPORT
  5
8
330
0
100
AcDbSymbolTable
 70
     4
  0
VPORT
  5
16E
330
8
100
AcDbSymbolTableRecord
100
AcDbViewportTableRecord
  2
*Active
 70
     0
 10
0.0
 20
0.0
 11
1.0
 21
1.0
 12
95.5
 22
150.0
 13
0.0
 23
0.0
 14
1.0
 24
1.0
 15
0.0
 25
0.0
 16
0.0
 26
0.0
 36
1.0
 17
0.0
 27
0.0
 37
0.0
 40
302.0293122886133
 41
2.073363431151241
 42
50.0
 43
0.0
 44
0.0
 50
0.0
 51
0.0
 71
     0
 72
   100
 73
     1
 74
     3
 75
     0
 76
     0
 77
     0
 78
     0
281
     0
 65
     1
110
0.0
120
0.0
130
0.0
111
1.0
121
0.0
131
0.0
112
0.0
122
1.0
132
0.0
 79
     1
146
0.0
  0
ENDTAB
  0
TABLE
  2
LTYPE
  5
5
330
0
100
AcDbSymbolTable
 70
     1
  0
LTYPE
  5
13
330
5
100
AcDbSymbolTableRecord
100
AcDbLinetypeTableRecord
  2
ByBlock
 70
     0
  3

 72
    65
 73
     0
 40
0.0
  0
LTYPE
  5
14
330
5
100
AcDbSymbolTableRecord
100
AcDbLinetypeTableRecord
  2
ByLayer
 70
     0
  3

 72
    65
 73
     0
 40
0.0
  0
LTYPE
  5
15
330
5
100
AcDbSymbolTableRecord
100
AcDbLinetypeTableRecord
  2
Continuous
 70
     0
  3
Solid line
 72
    65
 73
     0
 40
0.0
  0
ENDTAB
  0
TABLE
  2
LAYER
  5
2
330
0
100
AcDbSymbolTable
 70
     1
  0
LAYER
  5
10
330
2
100
AcDbSymbolTableRecord
100
AcDbLayerTableRecord
  2
0
 70
     0
 62
     7
  6
Continuous
370
    -3
390
F
  0
ENDTAB
  0
TABLE
  2
STYLE
  5
3
330
0
100
AcDbSymbolTable
 70
     1
  0
STYLE
  5
11
330
3
100
AcDbSymbolTableRecord
100
AcDbTextStyleTableRecord
  2
Standard
 70
     0
 40
0.0
 41
1.0
 50
0.0
 71
     0
 42
0.2
  3
txt
  4

  0
ENDTAB
  0
TABLE
  2
VIEW
  5
6
330
0
100
AcDbSymbolTable
 70
     0
  0
ENDTAB
  0
TABLE
  2
UCS
  5
7
330
0
100
AcDbSymbolTable
 70
     0
  0
ENDTAB
  0
TABLE
  2
APPID
  5
9
330
0
100
AcDbSymbolTable
 70
     1
  0
APPID
  5
12
330
9
100
AcDbSymbolTableRecord
100
AcDbRegAppTableRecord
  2
ACAD
 70
     0
  0
ENDTAB
  0
TABLE
  2
DIMSTYLE
  5
A
330
0
100
AcDbSymbolTable
 70
     1
100
AcDbDimStyleTable
 71
     0
  0
DIMSTYLE
105
166
330
A
100
AcDbSymbolTableRecord
100
AcDbDimStyleTableRecord
  2
Standard
 70
     0
340
11
  0
ENDTAB
  0
TABLE
  2
BLOCK_RECORD
  5
1
330
0
100
AcDbSymbolTable
 70
     0
  0
BLOCK_RECORD
  5
1E
330
1
100
AcDbSymbolTableRecord
100
AcDbBlockTableRecord
  2
*Model_Space
340
21
  0
BLOCK_RECORD
  5
1A
330
1
100
AcDbSymbolTableRecord
100
AcDbBlockTableRecord
  2
*Paper_Space
340
1D
  0
ENDTAB
  0
ENDSEC
  0
SECTION
  2
BLOCKS
  0
BLOCK
  5
1F
330
1E
100
AcDbEntity
  8
0
100
AcDbBlockBegin
  2
*Model_Space
 70
     0
 10
0.0
 20
0.0
 30
0.0
  3
*Model_Space
  1

  0
ENDBLK
  5
20
330
1E
100
AcDbEntity
  8
0
100
AcDbBlockEnd
  0
BLOCK
  5
1B
330
1A
100
AcDbEntity
 67
     1
  8
0
100
AcDbBlockBegin
  2
*Paper_Space
 70
     0
 10
0.0
 20
0.0
 30
0.0
  3
*Paper_Space
  1

  0
ENDBLK
  5
1C
330
1A
100
AcDbEntity
 67
     1
  8
0
100
AcDbBlockEnd
  0
ENDSEC
  0
SECTION
  2
ENTITIES
  0
LINE
  5
22
330
1E
100
AcDbEntity
  8
0
100
AcDbLine
 10
151.984669
 20
-0.0000000000000094
 30
0.0
 11
156.787669
 21
-0.0000000000000096
 31
0.0
  0
LINE
  5
23
330
1E
100
AcDbEntity
  8
0
100
AcDbLine
 10
156.787669
 20
-0.0000000000000096
 30
0.0
 11
162.3346689999999
 21
-0.00000000000001
 31
0.0
  0
LINE
  5
24
330
1E
100
AcDbEntity
  8
0
100
AcDbLine
 10
162.3346689999999
 20
-0.00000000000001
 30
0.0
 11
168.2196689999999
 21
-0.0000000000000103
 31
0.0
  0
LINE
  5
25
330
1E
100
AcDbEntity
  8
0
100
AcDbLine
 10
148.331669
 20
-0.0000000000000091
 30
0.0
 11
151.984669
 21
-0.0000000000000094
 31
0.0
  0
LINE
  5
26
330
1E
100
AcDbEntity
  8
0
100
AcDbLine
 10
146.0316689999999
 20
-0.000000000000009
 30
0.0
 11
148.331669
 21
-0.0000000000000091
 31
0.0
  0
LINE
  5
27
330
1E
100
AcDbEntity
  8
0
100
AcDbLine
 10
145.2196689999999
 20
-0.0000000000000089
 30
0.0
 11
146.0316689999999
 21
-0.000000000000009
 31
0.0
  0
LINE
  5
28
330
1E
100
AcDbEntity
  8
0
100
AcDbLine
 10
145.2196689999999
 20
-0.0000000000000089
 30
0.0
 11
145.2196689999999
 21
3.76922999999999
 31
0.0
  0
LINE
  5
29
330
1E
100
AcDbEntity
  8
0
100
AcDbLine
 10
156.787669
 20
3.76922999999999
 30
0.0
 11
162.3346689999999
 21
3.76922999999999
 31
0.0
  0
LINE
  5
2A
330
1E
100
AcDbEntity
  8
0
100
AcDbLine
 10
151.984669
 20
3.76922999999999
 30
0.0
 11
156.787669
 21
3.76922999999999
 31
0.0
  0
LINE
  5
2B
330
1E
100
AcDbEntity
  8
0
100
AcDbLine
 10
162.3346689999999
 20
3.76922999999999
 30
0.0
 11
168.2196689999999
 21
3.76922999999999
 31
0.0
  0
LINE
  5
2C
330
1E
100
AcDbEntity
  8
0
100
AcDbLine
 10
148.331669
 20
3.76922999999999
 30
0.0
 11
151.984669
 21
3.76922999999999
 31
0.0
  0
LINE
  5
2D
330
1E
100
AcDbEntity
  8
0
100
AcDbLine
 10
145.557669
 20
3.92307999999999
 30
0.0
 11
146.2346689999999
 21
3.99999999999999
 31
0.0
  0
LINE
  5
2E
330
1E
100
AcDbEntity
  8
0
100
AcDbLine
 10
146.0316689999999
 20
3.76922999999999
 30
0.0
 11
148.331669
 21
3.76922999999999
 31
0.0
  0
LINE
  5
2F
330
1E
100
AcDbEntity
  8
0
100
AcDbLine
 10
145.2196689999999
 20
3.76922999999999
 30
0.0
 11
146.0316689999999
 21
3.76922999999999
 31
0.0
  0
LINE
  5
30
330
1E
100
AcDbEntity
  8
0
100
AcDbLine
 10
145.2196689999999
 20
3.76922999999999
 30
0.0
 11
145.557669
 21
3.92307999999999
 31
0.0
  0
LINE
  5
31
330
1E
100
AcDbEntity
  8
0
100
AcDbLine
 10
145.2196689999999
 20
3.76922999999999
 30
0.0
 11
145.2196689999999
 21
-0.0000000000000088
 31
0.0
  0
LINE
  5
32
330
1E
100
AcDbEntity
  8
0
100
AcDbLine
 10
168.2196689999999
 20
3.76922999999999
 30
0.0
 11
174.104669
 21
3.76922999999999
 31
0.0
  0
LINE
  5
33
330
1E
100
AcDbEntity
  8
0
100
AcDbLine
 10
179.6516689999999
 20
3.76922999999999
 30
0.0
 11
184.4546689999999
 21
3.76922999999999
 31
0.0
  0
LINE
  5
34
330
1E
100
AcDbEntity
  8
0
100
AcDbLine
 10
174.104669
 20
3.76922999999999
 30
0.0
 11
179.6516689999999
 21
3.76922999999999
 31
0.0
  0
LINE
  5
35
330
1E
100
AcDbEntity
  8
0
100
AcDbLine
 10
174.104669
 20
-0.0000000000000107
 30
0.0
 11
179.6516689999999
 21
-0.000000000000011
 31
0.0
  0
LINE
  5
36
330
1E
100
AcDbEntity
  8
0
100
AcDbLine
 10
168.2196689999999
 20
-0.0000000000000103
 30
0.0
 11
174.104669
 21
-0.0000000000000107
 31
0.0
  0
LINE
  5
37
330
1E
100
AcDbEntity
  8
0
100
AcDbLine
 10
16.14996899999999
 20
218.3279999999999
 30
0.0
 11
18.420069
 21
217.412
 31
0.0
  0
LINE
  5
38
330
1E
100
AcDbEntity
  8
0
100
AcDbLine
 10
18.420069
 20
217.412
 30
0.0
 11
20.15596899999999
 21
216.711
 31
0.0
  0
LINE
  5
39
330
1E
100
AcDbEntity
  8
0
100
AcDbLine
 10
16.42746899999999
 20
218.6309999999999
 30
0.0
 11
18.786569
 21
217.679
 31
0.0
  0
LINE
  5
3A
330
1E
100
AcDbEntity
  8
0
100
AcDbLine
 10
18.786569
 20
217.679
 30
0.0
 11
20.56696899999999
 21
216.9599999999999
 31
0.0
  0
LINE
  5
3B
330
1E
100
AcDbEntity
  8
0
100
AcDbLine
 10
-0.219668999999987
 20
225.3499999999999
 30
0.0
 11
3.235289000000009
 21
233.91
 31
0.0
  0
LINE
  5
3C
330
1E
100
AcDbEntity
  8
0
100
AcDbLine
 10
5.378299000000009
 20
222.676
 30
0.0
 11
7.959939000000009
 21
221.634
 31
0.0
  0
LINE
  5
3D
330
1E
100
AcDbEntity
  8
0
100
AcDbLine
 10
7.959939000000009
 20
221.634
 30
0.0
 11
10.764169
 21
220.502
 31
0.0
  0
LINE
  5
3E
330
1E
100
AcDbEntity
  8
0
100
AcDbLine
 10
8.059379000000008
 20
222.0079999999999
 30
0.0
 11
10.908069
 21
220.8579999999999
 31
0.0
  0
LINE
  5
3F
330
1E
100
AcDbEntity
  8
0
100
AcDbLine
 10
5.388719000000009
 20
223.0859999999999
 30
0.0
 11
8.059379000000008
 21
222.0079999999999
 31
0.0
  0
LINE
  5
40
330
1E
100
AcDbEntity
  8
0
100
AcDbLine
 10
3.029639000000009
 20
224.038
 30
0.0
 11
5.388719000000009
 21
223.0859999999999
 31
0.0
  0
LINE
  5
41
330
1E
100
AcDbEntity
  8
0
100
AcDbLine
 10
3.108239000000009
 20
223.592
 30
0.0
 11
5.378299000000009
 21
222.676
 31
0.0
  0
LINE
  5
42
330
1E
100
AcDbEntity
  8
0
100
AcDbLine
 10
1.37230900000001
 20
224.293
 30
0.0
 11
3.108239000000009
 21
223.592
 31
0.0
  0
LINE
  5
43
330
1E
100
AcDbEntity
  8
0
100
AcDbLine
 10
1.249199000000009
 20
224.757
 30
0.0
 11
3.029639000000009
 21
224.038
 31
0.0
  0
LINE
  5
44
330
1E
100
AcDbEntity
  8
0
100
AcDbLine
 10
0.180930000000013
 20
225.1879999999999
 30
0.0
 11
1.249199000000009
 21
224.757
 31
0.0
  0
LINE
  5
45
330
1E
100
AcDbEntity
  8
0
100
AcDbLine
 10
0.304039000000013
 20
224.724
 30
0.0
 11
1.37230900000001
 21
224.293
 31
0.0
  0
LINE
  5
46
330
1E
100
AcDbEntity
  8
0
100
AcDbLine
 10
-0.0965599999999868
 20
224.885
 30
0.0
 11
0.304039000000013
 21
224.724
 31
0.0
  0
LINE
  5
47
330
1E
100
AcDbEntity
  8
0
100
AcDbLine
 10
-0.219668999999987
 20
225.3499999999999
 30
0.0
 11
3.235289000000009
 21
233.91
 31
0.0
  0
LINE
  5
48
330
1E
100
AcDbEntity
  8
0
100
AcDbLine
 10
-0.219668999999987
 20
225.3499999999999
 30
0.0
 11
-0.0965599999999868
 21
224.885
 31
0.0
  0
LINE
  5
49
330
1E
100
AcDbEntity
  8
0
100
AcDbLine
 10
-0.219668999999987
 20
225.3499999999999
 30
0.0
 11
0.180930000000013
 21
225.1879999999999
 31
0.0
  0
LINE
  5
4A
330
1E
100
AcDbEntity
  8
0
100
AcDbLine
 10
10.908069
 20
220.8579999999999
 30
0.0
 11
13.756769
 21
219.709
 31
0.0
  0
LINE
  5
4B
330
1E
100
AcDbEntity
  8
0
100
AcDbLine
 10
13.756769
 20
219.709
 30
0.0
 11
16.42746899999999
 21
218.6309999999999
 31
0.0
  0
LINE
  5
4C
330
1E
100
AcDbEntity
  8
0
100
AcDbLine
 10
10.764169
 20
220.502
 30
0.0
 11
13.568369
 21
219.37
 31
0.0
  0
LINE
  5
4D
330
1E
100
AcDbEntity
  8
0
100
AcDbLine
 10
13.568369
 20
219.37
 30
0.0
 11
16.14996899999999
 21
218.3279999999999
 31
0.0
  0
LINE
  5
4E
330
1E
100
AcDbEntity
  8
0
100
AcDbLine
 10
21.224269
 20
216.28
 30
0.0
 11
21.624769
 21
216.1179999999999
 31
0.0
  0
LINE
  5
4F
330
1E
100
AcDbEntity
  8
0
100
AcDbLine
 10
20.56696899999999
 20
216.9599999999999
 30
0.0
 11
21.635269
 21
216.529
 31
0.0
  0
LINE
  5
50
330
1E
100
AcDbEntity
  8
0
100
AcDbLine
 10
21.635269
 20
216.529
 30
0.0
 11
22.035869
 21
216.367
 31
0.0
  0
LINE
  5
51
330
1E
100
AcDbEntity
  8
0
100
AcDbLine
 10
20.15596899999999
 20
216.711
 30
0.0
 11
21.224269
 21
216.28
 31
0.0
  0
LINE
  5
52
330
1E
100
AcDbEntity
  8
0
100
AcDbLine
 10
21.624769
 20
216.1179999999999
 30
0.0
 11
22.035869
 21
216.367
 31
0.0
  0
LINE
  5
53
330
1E
100
AcDbEntity
  8
0
100
AcDbLine
 10
24.02196899999999
 20
225.52
 30
0.0
 11
25.090169
 21
225.089
 31
0.0
  0
LINE
  5
54
330
1E
100
AcDbEntity
  8
0
100
AcDbLine
 10
25.090169
 20
225.089
 30
0.0
 11
25.490769
 21
224.927
 31
0.0
  0
LINE
  5
55
330
1E
100
AcDbEntity
  8
0
100
AcDbLine
 10
24.96706899999999
 20
225.5529999999999
 30
0.0
 11
25.36766899999999
 21
225.3909999999999
 31
0.0
  0
LINE
  5
56
330
1E
100
AcDbEntity
  8
0
100
AcDbLine
 10
22.035869
 20
216.367
 30
0.0
 11
25.490769
 21
224.927
 31
0.0
  0
LINE
  5
57
330
1E
100
AcDbEntity
  8
0
100
AcDbLine
 10
25.36766899999999
 20
225.3909999999999
 30
0.0
 11
25.778669
 21
225.6399999999999
 31
0.0
  0
LINE
  5
58
330
1E
100
AcDbEntity
  8
0
100
AcDbLine
 10
25.36766899999999
 20
225.3909999999999
 30
0.0
 11
25.490769
 21
224.927
 31
0.0
  0
LINE
  5
59
330
1E
100
AcDbEntity
  8
0
100
AcDbLine
 10
19.882369
 20
227.1909999999999
 30
0.0
 11
22.241469
 21
226.2379999999999
 31
0.0
  0
LINE
  5
5A
330
1E
100
AcDbEntity
  8
0
100
AcDbLine
 10
6.484599000000009
 20
232.5979999999999
 30
0.0
 11
8.843679000000008
 21
231.6459999999999
 31
0.0
  0
LINE
  5
5B
330
1E
100
AcDbEntity
  8
0
100
AcDbLine
 10
6.851099000000009
 20
232.865
 30
0.0
 11
9.121169000000008
 21
231.949
 31
0.0
  0
LINE
  5
5C
330
1E
100
AcDbEntity
  8
0
100
AcDbLine
 10
4.704149000000009
 20
233.3169999999999
 30
0.0
 11
6.484599000000009
 21
232.5979999999999
 31
0.0
  0
LINE
  5
5D
330
1E
100
AcDbEntity
  8
0
100
AcDbLine
 10
3.635889000000009
 20
233.7479999999999
 30
0.0
 11
4.704149000000009
 21
233.3169999999999
 31
0.0
  0
LINE
  5
5E
330
1E
100
AcDbEntity
  8
0
100
AcDbLine
 10
5.115169000000009
 20
233.5659999999999
 30
0.0
 11
6.851099000000009
 21
232.865
 31
0.0
  0
LINE
  5
5F
330
1E
100
AcDbEntity
  8
0
100
AcDbLine
 10
3.646309000000009
 20
234.159
 30
0.0
 11
4.046909000000009
 21
233.997
 31
0.0
  0
LINE
  5
60
330
1E
100
AcDbEntity
  8
0
100
AcDbLine
 10
4.046909000000009
 20
233.997
 30
0.0
 11
5.115169000000009
 21
233.5659999999999
 31
0.0
  0
LINE
  5
61
330
1E
100
AcDbEntity
  8
0
100
AcDbLine
 10
4.992059000000019
 20
234.03
 30
0.0
 11
6.772499000000009
 21
233.312
 31
0.0
  0
LINE
  5
62
330
1E
100
AcDbEntity
  8
0
100
AcDbLine
 10
3.923789000000009
 20
234.4609999999999
 30
0.0
 11
4.992059000000019
 21
234.03
 31
0.0
  0
LINE
  5
63
330
1E
100
AcDbEntity
  8
0
100
AcDbLine
 10
3.235289000000009
 20
233.91
 30
0.0
 11
3.646309000000009
 21
234.159
 31
0.0
  0
LINE
  5
64
330
1E
100
AcDbEntity
  8
0
100
AcDbLine
 10
3.235289000000009
 20
233.91
 30
0.0
 11
3.635889000000009
 21
233.7479999999999
 31
0.0
  0
LINE
  5
65
330
1E
100
AcDbEntity
  8
0
100
AcDbLine
 10
6.772499000000009
 20
233.312
 30
0.0
 11
9.131579000000009
 21
232.359
 31
0.0
  0
LINE
  5
66
330
1E
100
AcDbEntity
  8
0
100
AcDbLine
 10
14.36306899999999
 20
229.418
 30
0.0
 11
17.211769
 21
228.268
 31
0.0
  0
LINE
  5
67
330
1E
100
AcDbEntity
  8
0
100
AcDbLine
 10
8.843679000000008
 20
231.6459999999999
 30
0.0
 11
11.51436899999999
 21
230.5679999999999
 31
0.0
  0
LINE
  5
68
330
1E
100
AcDbEntity
  8
0
100
AcDbLine
 10
11.51436899999999
 20
230.5679999999999
 30
0.0
 11
14.36306899999999
 21
229.418
 31
0.0
  0
LINE
  5
69
330
1E
100
AcDbEntity
  8
0
100
AcDbLine
 10
9.121169000000008
 20
231.949
 30
0.0
 11
11.70276899999999
 21
230.907
 31
0.0
  0
LINE
  5
6A
330
1E
100
AcDbEntity
  8
0
100
AcDbLine
 10
9.131579000000009
 20
232.359
 30
0.0
 11
11.802269
 21
231.2809999999999
 31
0.0
  0
LINE
  5
6B
330
1E
100
AcDbEntity
  8
0
100
AcDbLine
 10
11.70276899999999
 20
230.907
 30
0.0
 11
14.506969
 21
229.775
 31
0.0
  0
LINE
  5
6C
330
1E
100
AcDbEntity
  8
0
100
AcDbLine
 10
11.802269
 20
231.2809999999999
 30
0.0
 11
14.65096899999999
 21
230.132
 31
0.0
  0
LINE
  5
6D
330
1E
100
AcDbEntity
  8
0
100
AcDbLine
 10
7.070509000000009
 20
244.442
 30
0.0
 11
12.277369
 21
255.0
 31
0.0
  0
LINE
  5
6E
330
1E
100
AcDbEntity
  8
0
100
AcDbLine
 10
12.277369
 20
255.0
 30
0.0
 11
18.817869
 21
264.7889999999999
 31
0.0
  0
LINE
  5
6F
330
1E
100
AcDbEntity
  8
0
100
AcDbLine
 10
3.523189000000009
 20
234.6229999999999
 30
0.0
 11
3.923789000000009
 21
234.4609999999999
 31
0.0
  0
LINE
  5
70
330
1E
100
AcDbEntity
  8
0
100
AcDbLine
 10
3.523189000000009
 20
234.6229999999999
 30
0.0
 11
7.070509000000009
 21
244.442
 31
0.0
  0
LINE
  5
71
330
1E
100
AcDbEntity
  8
0
100
AcDbLine
 10
3.523189000000009
 20
234.6229999999999
 30
0.0
 11
3.646309000000009
 21
234.159
 31
0.0
  0
LINE
  5
72
330
1E
100
AcDbEntity
  8
0
100
AcDbLine
 10
17.211769
 20
228.268
 30
0.0
 11
19.882369
 21
227.1909999999999
 31
0.0
  0
LINE
  5
73
330
1E
100
AcDbEntity
  8
0
100
AcDbLine
 10
17.31116899999999
 20
228.643
 30
0.0
 11
19.892869
 21
227.6009999999999
 31
0.0
  0
LINE
  5
74
330
1E
100
AcDbEntity
  8
0
100
AcDbLine
 10
19.892869
 20
227.6009999999999
 30
0.0
 11
22.162869
 21
226.685
 31
0.0
  0
LINE
  5
75
330
1E
100
AcDbEntity
  8
0
100
AcDbLine
 10
14.65096899999999
 20
230.132
 30
0.0
 11
17.499669
 21
228.982
 31
0.0
  0
LINE
  5
76
330
1E
100
AcDbEntity
  8
0
100
AcDbLine
 10
17.499669
 20
228.982
 30
0.0
 11
20.170269
 21
227.904
 31
0.0
  0
LINE
  5
77
330
1E
100
AcDbEntity
  8
0
100
AcDbLine
 10
20.170269
 20
227.904
 30
0.0
 11
22.52936899999999
 21
226.9519999999999
 31
0.0
  0
LINE
  5
78
330
1E
100
AcDbEntity
  8
0
100
AcDbLine
 10
18.817869
 20
264.7889999999999
 30
0.0
 11
26.580069
 21
273.6399999999999
 31
0.0
  0
LINE
  5
79
330
1E
100
AcDbEntity
  8
0
100
AcDbLine
 10
14.506969
 20
229.775
 30
0.0
 11
17.31116899999999
 21
228.643
 31
0.0
  0
LINE
  5
7A
330
1E
100
AcDbEntity
  8
0
100
AcDbLine
 10
23.898869
 20
225.984
 30
0.0
 11
24.96706899999999
 21
225.5529999999999
 31
0.0
  0
LINE
  5
7B
330
1E
100
AcDbEntity
  8
0
100
AcDbLine
 10
22.241469
 20
226.2379999999999
 30
0.0
 11
24.02196899999999
 21
225.52
 31
0.0
  0
LINE
  5
7C
330
1E
100
AcDbEntity
  8
0
100
AcDbLine
 10
22.162869
 20
226.685
 30
0.0
 11
23.898869
 21
225.984
 31
0.0
  0
LINE
  5
7D
330
1E
100
AcDbEntity
  8
0
100
AcDbLine
 10
24.309869
 20
226.2329999999999
 30
0.0
 11
25.378069
 21
225.802
 31
0.0
  0
LINE
  5
7E
330
1E
100
AcDbEntity
  8
0
100
AcDbLine
 10
25.378069
 20
225.802
 30
0.0
 11
25.778669
 21
225.6399999999999
 31
0.0
  0
LINE
  5
7F
330
1E
100
AcDbEntity
  8
0
100
AcDbLine
 10
22.52936899999999
 20
226.9519999999999
 30
0.0
 11
24.309869
 21
226.2329999999999
 31
0.0
  0
LINE
  5
80
330
1E
100
AcDbEntity
  8
0
100
AcDbLine
 10
29.243669
 20
235.257
 30
0.0
 11
33.06196899999999
 21
243.0
 31
0.0
  0
LINE
  5
81
330
1E
100
AcDbEntity
  8
0
100
AcDbLine
 10
33.06196899999999
 20
243.0
 30
0.0
 11
37.858369
 21
250.178
 31
0.0
  0
LINE
  5
82
330
1E
100
AcDbEntity
  8
0
100
AcDbLine
 10
37.858369
 20
250.178
 30
0.0
 11
43.55066899999999
 21
256.669
 31
0.0
  0
LINE
  5
83
330
1E
100
AcDbEntity
  8
0
100
AcDbLine
 10
43.55066899999999
 20
256.669
 30
0.0
 11
50.041369
 21
262.3609999999999
 31
0.0
  0
LINE
  5
84
330
1E
100
AcDbEntity
  8
0
100
AcDbLine
 10
26.580069
 20
273.6399999999999
 30
0.0
 11
35.43116899999999
 21
281.4019999999999
 31
0.0
  0
LINE
  5
85
330
1E
100
AcDbEntity
  8
0
100
AcDbLine
 10
50.041369
 20
262.3609999999999
 30
0.0
 11
57.21966899999999
 21
267.158
 31
0.0
  0
LINE
  5
86
330
1E
100
AcDbEntity
  8
0
100
AcDbLine
 10
35.43116899999999
 20
281.4019999999999
 30
0.0
 11
45.219669
 21
287.942
 31
0.0
  0
LINE
  5
87
330
1E
100
AcDbEntity
  8
0
100
AcDbLine
 10
57.21966899999999
 20
267.158
 30
0.0
 11
64.96256899999998
 21
270.976
 31
0.0
  0
LINE
  5
88
330
1E
100
AcDbEntity
  8
0
100
AcDbLine
 10
45.219669
 20
287.942
 30
0.0
 11
55.77816899999999
 21
293.149
 31
0.0
  0
LINE
  5
89
330
1E
100
AcDbEntity
  8
0
100
AcDbLine
 10
81.604969
 20
275.435
 30
0.0
 11
90.219669
 21
276.0
 31
0.0
  0
LINE
  5
8A
330
1E
100
AcDbEntity
  8
0
100
AcDbLine
 10
73.137569
 20
273.7509999999999
 30
0.0
 11
81.604969
 21
275.435
 31
0.0
  0
LINE
  5
8B
330
1E
100
AcDbEntity
  8
0
100
AcDbLine
 10
64.96256899999998
 20
270.976
 30
0.0
 11
73.137569
 21
273.7509999999999
 31
0.0
  0
LINE
  5
8C
330
1E
100
AcDbEntity
  8
0
100
AcDbLine
 10
78.47226899999999
 20
299.23
 30
0.0
 11
90.219669
 21
300.0
 31
0.0
  0
LINE
  5
8D
330
1E
100
AcDbEntity
  8
0
100
AcDbLine
 10
66.92596899999999
 20
296.9329999999999
 30
0.0
 11
78.47226899999999
 21
299.23
 31
0.0
  0
LINE
  5
8E
330
1E
100
AcDbEntity
  8
0
100
AcDbLine
 10
55.77816899999999
 20
293.149
 30
0.0
 11
66.92596899999999
 21
296.9329999999999
 31
0.0
  0
LINE
  5
8F
330
1E
100
AcDbEntity
  8
0
100
AcDbLine
 10
107.3016689999999
 20
273.7509999999999
 30
0.0
 11
115.4766689999999
 21
270.976
 31
0.0
  0
LINE
  5
90
330
1E
100
AcDbEntity
  8
0
100
AcDbLine
 10
113.5136689999999
 20
296.9329999999999
 30
0.0
 11
124.6616689999999
 21
293.149
 31
0.0
  0
LINE
  5
91
330
1E
100
AcDbEntity
  8
0
100
AcDbLine
 10
115.4766689999999
 20
270.976
 30
0.0
 11
123.219669
 21
267.158
 31
0.0
  0
LINE
  5
92
330
1E
100
AcDbEntity
  8
0
100
AcDbLine
 10
124.6616689999999
 20
293.149
 30
0.0
 11
135.2196689999999
 21
287.942
 31
0.0
  0
LINE
  5
93
330
1E
100
AcDbEntity
  8
0
100
AcDbLine
 10
123.219669
 20
267.158
 30
0.0
 11
130.397669
 21
262.3609999999999
 31
0.0
  0
LINE
  5
94
330
1E
100
AcDbEntity
  8
0
100
AcDbLine
 10
135.2196689999999
 20
287.942
 30
0.0
 11
145.008669
 21
281.4019999999999
 31
0.0
  0
LINE
  5
95
330
1E
100
AcDbEntity
  8
0
100
AcDbLine
 10
130.397669
 20
262.3609999999999
 30
0.0
 11
136.8886689999999
 21
256.669
 31
0.0
  0
LINE
  5
96
330
1E
100
AcDbEntity
  8
0
100
AcDbLine
 10
98.83436899999999
 20
275.435
 30
0.0
 11
107.3016689999999
 21
273.7509999999999
 31
0.0
  0
LINE
  5
97
330
1E
100
AcDbEntity
  8
0
100
AcDbLine
 10
101.9666689999999
 20
299.23
 30
0.0
 11
113.5136689999999
 21
296.9329999999999
 31
0.0
  0
LINE
  5
98
330
1E
100
AcDbEntity
  8
0
100
AcDbLine
 10
90.219669
 20
276.0
 30
0.0
 11
98.83436899999999
 21
275.435
 31
0.0
  0
LINE
  5
99
330
1E
100
AcDbEntity
  8
0
100
AcDbLine
 10
90.219669
 20
300.0
 30
0.0
 11
101.9666689999999
 21
299.23
 31
0.0
  0
LINE
  5
9A
330
1E
100
AcDbEntity
  8
0
100
AcDbLine
 10
145.008669
 20
281.4019999999999
 30
0.0
 11
153.859669
 21
273.6399999999999
 31
0.0
  0
LINE
  5
9B
330
1E
100
AcDbEntity
  8
0
100
AcDbLine
 10
142.5806689999999
 20
250.178
 30
0.0
 11
147.377669
 21
243.0
 31
0.0
  0
LINE
  5
9C
330
1E
100
AcDbEntity
  8
0
100
AcDbLine
 10
136.8886689999999
 20
256.669
 30
0.0
 11
142.5806689999999
 21
250.178
 31
0.0
  0
LINE
  5
9D
330
1E
100
AcDbEntity
  8
0
100
AcDbLine
 10
25.778669
 20
225.6399999999999
 30
0.0
 11
29.243669
 21
235.257
 31
0.0
  0
LINE
  5
9E
330
1E
100
AcDbEntity
  8
0
100
AcDbLine
 10
163.6136689999999
 20
3.99999999999999
 30
0.0
 11
168.2196689999999
 21
3.99999999999999
 31
0.0
  0
LINE
  5
9F
330
1E
100
AcDbEntity
  8
0
100
AcDbLine
 10
168.2196689999999
 20
3.99999999999999
 30
0.0
 11
172.825669
 21
3.99999999999999
 31
0.0
  0
LINE
  5
A0
330
1E
100
AcDbEntity
  8
0
100
AcDbLine
 10
150.2196689999999
 20
3.99999999999999
 30
0.0
 11
150.2196689999999
 21
105.7779999999999
 31
0.0
  0
LINE
  5
A1
330
1E
100
AcDbEntity
  8
0
100
AcDbLine
 10
152.6606689999999
 20
3.99999999999999
 30
0.0
 11
155.5136689999999
 21
3.99999999999999
 31
0.0
  0
LINE
  5
A2
330
1E
100
AcDbEntity
  8
0
100
AcDbLine
 10
150.854669
 20
105.7779999999999
 30
0.0
 11
152.6546689999999
 21
105.7779999999999
 31
0.0
  0
LINE
  5
A3
330
1E
100
AcDbEntity
  8
0
100
AcDbLine
 10
147.377669
 20
243.0
 30
0.0
 11
151.1956689999999
 21
235.257
 31
0.0
  0
LINE
  5
A4
330
1E
100
AcDbEntity
  8
0
100
AcDbLine
 10
151.1956689999999
 20
235.257
 30
0.0
 11
153.9706689999999
 21
227.082
 31
0.0
  0
LINE
  5
A5
330
1E
100
AcDbEntity
  8
0
100
AcDbLine
 10
151.0136689999999
 20
106.0
 30
0.0
 11
151.6486689999999
 21
106.0
 31
0.0
  0
LINE
  5
A6
330
1E
100
AcDbEntity
  8
0
100
AcDbLine
 10
150.4846689999999
 20
105.926
 30
0.0
 11
151.0136689999999
 21
106.0
 31
0.0
  0
LINE
  5
A7
330
1E
100
AcDbEntity
  8
0
100
AcDbLine
 10
150.2196689999999
 20
105.7779999999999
 30
0.0
 11
150.4846689999999
 21
105.926
 31
0.0
  0
LINE
  5
A8
330
1E
100
AcDbEntity
  8
0
100
AcDbLine
 10
150.2196689999999
 20
105.7779999999999
 30
0.0
 11
150.2196689999999
 21
3.99999999999999
 31
0.0
  0
LINE
  5
A9
330
1E
100
AcDbEntity
  8
0
100
AcDbLine
 10
150.2196689999999
 20
105.7779999999999
 30
0.0
 11
150.854669
 21
105.7779999999999
 31
0.0
  0
LINE
  5
AA
330
1E
100
AcDbEntity
  8
0
100
AcDbLine
 10
151.2196689999999
 20
90.46689999999999
 30
0.0
 11
151.2196689999999
 21
83.34940000000001
 31
0.0
  0
LINE
  5
AB
330
1E
100
AcDbEntity
  8
0
100
AcDbLine
 10
151.2196689999999
 20
90.46689999999999
 30
0.0
 11
151.819669
 21
94.7169
 31
0.0
  0
LINE
  5
AC
330
1E
100
AcDbEntity
  8
0
100
AcDbLine
 10
151.2196689999999
 20
83.34940000000001
 30
0.0
 11
151.819669
 21
79.4875
 31
0.0
  0
LINE
  5
AD
330
1E
100
AcDbEntity
  8
0
100
AcDbLine
 10
151.2196689999999
 20
83.34940000000001
 30
0.0
 11
151.2196689999999
 21
90.46689999999999
 31
0.0
  0
LINE
  5
AE
330
1E
100
AcDbEntity
  8
0
100
AcDbLine
 10
151.6486689999999
 20
106.0
 30
0.0
 11
153.343669
 21
106.0
 31
0.0
  0
LINE
  5
AF
330
1E
100
AcDbEntity
  8
0
100
AcDbLine
 10
151.5536689999999
 20
90.7904
 30
0.0
 11
152.153669
 21
86.66909999999999
 31
0.0
  0
LINE
  5
B0
330
1E
100
AcDbEntity
  8
0
100
AcDbLine
 10
151.5536689999999
 20
90.7904
 30
0.0
 11
152.153669
 21
94.9116
 31
0.0
  0
LINE
  5
B1
330
1E
100
AcDbEntity
  8
0
100
AcDbLine
 10
151.819669
 20
79.4875
 30
0.0
 11
153.486669
 21
75.9262
 31
0.0
  0
LINE
  5
B2
330
1E
100
AcDbEntity
  8
0
100
AcDbLine
 10
153.486669
 20
75.9262
 30
0.0
 11
156.2196689999999
 21
72.83669999999999
 31
0.0
  0
LINE
  5
B3
330
1E
100
AcDbEntity
  8
0
100
AcDbLine
 10
151.819669
 20
94.7169
 30
0.0
 11
153.486669
 21
98.64499999999999
 31
0.0
  0
LINE
  5
B4
330
1E
100
AcDbEntity
  8
0
100
AcDbLine
 10
152.153669
 20
94.9116
 30
0.0
 11
153.819669
 21
98.77540000000001
 31
0.0
  0
LINE
  5
B5
330
1E
100
AcDbEntity
  8
0
100
AcDbLine
 10
153.486669
 20
98.64499999999999
 30
0.0
 11
156.2196689999999
 21
102.058
 31
0.0
  0
LINE
  5
B6
330
1E
100
AcDbEntity
  8
0
100
AcDbLine
 10
153.859669
 20
273.6399999999999
 30
0.0
 11
161.6216689999999
 21
264.7889999999999
 31
0.0
  0
LINE
  5
B7
330
1E
100
AcDbEntity
  8
0
100
AcDbLine
 10
153.343669
 20
106.0
 30
0.0
 11
156.0436689999999
 21
106.0
 31
0.0
  0
LINE
  5
B8
330
1E
100
AcDbEntity
  8
0
100
AcDbLine
 10
152.6546689999999
 20
105.7779999999999
 30
0.0
 11
155.5136689999999
 21
105.7779999999999
 31
0.0
  0
LINE
  5
B9
330
1E
100
AcDbEntity
  8
0
100
AcDbLine
 10
153.819669
 20
98.77540000000001
 30
0.0
 11
156.4196689999999
 21
102.1879999999999
 31
0.0
  0
LINE
  5
BA
330
1E
100
AcDbEntity
  8
0
100
AcDbLine
 10
152.153669
 20
86.66909999999999
 30
0.0
 11
153.819669
 21
82.8054
 31
0.0
  0
LINE
  5
BB
330
1E
100
AcDbEntity
  8
0
100
AcDbLine
 10
153.819669
 20
82.8054
 30
0.0
 11
156.4196689999999
 21
79.3925
 31
0.0
  0
LINE
  5
BC
330
1E
100
AcDbEntity
  8
0
100
AcDbLine
 10
151.807669
 20
78.37479999999999
 30
0.0
 11
153.5076689999999
 21
74.5224
 31
0.0
  0
LINE
  5
BD
330
1E
100
AcDbEntity
  8
0
100
AcDbLine
 10
153.5076689999999
 20
74.5224
 30
0.0
 11
156.188669
 21
71.04829999999999
 31
0.0
  0
LINE
  5
BE
330
1E
100
AcDbEntity
  8
0
100
AcDbLine
 10
151.2196689999999
 20
82.6692
 30
0.0
 11
151.2691744500139
 21
83.03075817098569
 31
0.0
  0
LINE
  5
BF
330
1E
100
AcDbEntity
  8
0
100
AcDbLine
 10
151.2196689999999
 20
82.6692
 30
0.0
 11
151.2196689999999
 21
71.15680000000001
 31
0.0
  0
LINE
  5
C0
330
1E
100
AcDbEntity
  8
0
100
AcDbLine
 10
151.2196689999999
 20
82.6692
 30
0.0
 11
151.807669
 21
78.37479999999999
 31
0.0
  0
LINE
  5
C1
330
1E
100
AcDbEntity
  8
0
100
AcDbLine
 10
151.2196689999999
 20
71.15680000000001
 30
0.0
 11
151.2196689999999
 21
82.6692
 31
0.0
  0
LINE
  5
C2
330
1E
100
AcDbEntity
  8
0
100
AcDbLine
 10
156.2196689999999
 20
72.83669999999999
 30
0.0
 11
159.752669
 21
70.4338
 31
0.0
  0
LINE
  5
C3
330
1E
100
AcDbEntity
  8
0
100
AcDbLine
 10
156.188669
 20
71.04829999999999
 30
0.0
 11
159.784669
 21
68.4589
 31
0.0
  0
LINE
  5
C5
330
1E
100
AcDbEntity
  8
0
100
AcDbLine
 10
163.8386689999999
 20
66.8168
 30
0.0
 11
168.2196689999999
 21
66.24850000000001
 31
0.0
  0
LINE
  5
C8
330
1E
100
AcDbEntity
  8
0
100
AcDbLine
 10
163.819669
 20
68.9533
 30
0.0
 11
168.2196689999999
 21
68.4385
 31
0.0
  0
LINE
  5
C9
330
1E
100
AcDbEntity
  8
0
100
AcDbLine
 10
159.784669
 20
68.4589
 30
0.0
 11
163.8386689999999
 21
66.8168
 31
0.0
  0
LINE
  5
CA
330
1E
100
AcDbEntity
  8
0
100
AcDbLine
 10
164.067669
 20
67.67050000000001
 30
0.0
 11
168.2196689999999
 21
67.0686
 31
0.0
  0
LINE
  5
CF
330
1E
100
AcDbEntity
  8
0
100
AcDbLine
 10
168.2196689999999
 20
68.4385
 30
0.0
 11
172.6196689999999
 21
68.9533
 31
0.0
  0
LINE
  5
D3
330
1E
100
AcDbEntity
  8
0
100
AcDbLine
 10
168.2196689999999
 20
66.24850000000001
 30
0.0
 11
172.6006689999999
 21
66.8168
 31
0.0
  0
LINE
  5
DB
330
1E
100
AcDbEntity
  8
0
100
AcDbLine
 10
172.6006689999999
 20
66.8168
 30
0.0
 11
176.654669
 21
68.4589
 31
0.0
  0
LINE
  5
DD
330
1E
100
AcDbEntity
  8
0
100
AcDbLine
 10
176.654669
 20
68.4589
 30
0.0
 11
180.2506689999999
 21
71.04829999999999
 31
0.0
  0
LINE
  5
DE
330
1E
100
AcDbEntity
  8
0
100
AcDbLine
 10
172.371669
 20
67.67050000000001
 30
0.0
 11
176.3156689999999
 21
69.1405
 31
0.0
  0
LINE
  5
E0
330
1E
100
AcDbEntity
  8
0
100
AcDbLine
 10
168.2196689999999
 20
67.0686
 30
0.0
 11
172.371669
 21
67.67050000000001
 31
0.0
  0
LINE
  5
E2
330
1E
100
AcDbEntity
  8
0
100
AcDbLine
 10
176.3156689999999
 20
69.1405
 30
0.0
 11
179.7056689999999
 21
71.6807
 31
0.0
  0
LINE
  5
E3
330
1E
100
AcDbEntity
  8
0
100
AcDbLine
 10
172.6196689999999
 20
68.9533
 30
0.0
 11
176.686669
 21
70.4338
 31
0.0
  0
LINE
  5
E7
330
1E
100
AcDbEntity
  8
0
100
AcDbLine
 10
176.686669
 20
70.4338
 30
0.0
 11
180.2196689999999
 21
72.83669999999999
 31
0.0
  0
LINE
  5
E8
330
1E
100
AcDbEntity
  8
0
100
AcDbLine
 10
168.2196689999999
 20
74.69159999999999
 30
0.0
 11
172.485669
 21
75.2712
 31
0.0
  0
LINE
  5
E9
330
1E
100
AcDbEntity
  8
0
100
AcDbLine
 10
159.752669
 20
70.4338
 30
0.0
 11
163.819669
 21
68.9533
 31
0.0
  0
LINE
  5
EA
330
1E
100
AcDbEntity
  8
0
100
AcDbLine
 10
160.123669
 20
69.1405
 30
0.0
 11
164.067669
 21
67.67050000000001
 31
0.0
  0
LINE
  5
EB
330
1E
100
AcDbEntity
  8
0
100
AcDbLine
 10
156.7336689999999
 20
71.6807
 30
0.0
 11
160.123669
 21
69.1405
 31
0.0
  0
LINE
  5
EC
330
1E
100
AcDbEntity
  8
0
100
AcDbLine
 10
153.9706689999999
 20
227.082
 30
0.0
 11
155.6546689999999
 21
218.615
 31
0.0
  0
LINE
  5
ED
330
1E
100
AcDbEntity
  8
0
100
AcDbLine
 10
172.485669
 20
75.2712
 30
0.0
 11
176.486669
 21
76.8811
 31
0.0
  0
LINE
  5
EE
330
1E
100
AcDbEntity
  8
0
100
AcDbLine
 10
156.2196689999999
 20
102.058
 30
0.0
 11
159.752669
 21
104.698
 31
0.0
  0
LINE
  5
EF
330
1E
100
AcDbEntity
  8
0
100
AcDbLine
 10
156.0436689999999
 20
106.0
 30
0.0
 11
159.6426689999999
 21
106.0
 31
0.0
  0
LINE
  5
F0
330
1E
100
AcDbEntity
  8
0
100
AcDbLine
 10
155.5136689999999
 20
105.7779999999999
 30
0.0
 11
159.272669
 21
105.7779999999999
 31
0.0
  0
LINE
  5
F1
330
1E
100
AcDbEntity
  8
0
100
AcDbLine
 10
159.6426689999999
 20
106.0
 30
0.0
 11
163.0416342173909
 21
106.0
 31
0.0
  0
LINE
  5
F2
330
1E
100
AcDbEntity
  8
0
100
AcDbLine
 10
159.272669
 20
105.7779999999999
 30
0.0
 11
162.480842913043
 21
105.7779999999999
 31
0.0
  0
LINE
  5
F3
330
1E
100
AcDbEntity
  8
0
100
AcDbLine
 10
155.6546689999999
 20
218.615
 30
0.0
 11
156.2196689999999
 21
210.0
 31
0.0
  0
LINE
  5
F4
330
1E
100
AcDbEntity
  8
0
100
AcDbLine
 10
156.2196689999999
 20
106.0
 30
0.0
 11
156.2196689999999
 21
210.0
 31
0.0
  0
LINE
  5
F5
330
1E
100
AcDbEntity
  8
0
100
AcDbLine
 10
159.752669
 20
104.698
 30
0.0
 11
163.819669
 21
106.308
 31
0.0
  0
LINE
  5
F6
330
1E
100
AcDbEntity
  8
0
100
AcDbLine
 10
156.4196689999999
 20
102.1879999999999
 30
0.0
 11
159.9526689999999
 21
104.7
 31
0.0
  0
LINE
  5
F7
330
1E
100
AcDbEntity
  8
0
100
AcDbLine
 10
159.9526689999999
 20
104.7
 30
0.0
 11
163.9536689999999
 21
106.3099999999999
 31
0.0
  0
LINE
  5
F8
330
1E
100
AcDbEntity
  8
0
100
AcDbLine
 10
156.4196689999999
 20
79.3925
 30
0.0
 11
159.9526689999999
 21
76.8811
 31
0.0
  0
LINE
  5
F9
330
1E
100
AcDbEntity
  8
0
100
AcDbLine
 10
173.397703782609
 20
106.0
 30
0.0
 11
176.795669
 21
106.0
 31
0.0
  0
LINE
  5
FA
330
1E
100
AcDbEntity
  8
0
100
AcDbLine
 10
173.958495086957
 20
105.7779999999999
 30
0.0
 11
177.1666689999999
 21
105.7779999999999
 31
0.0
  0
LINE
  5
FB
330
1E
100
AcDbEntity
  8
0
100
AcDbLine
 10
176.486669
 20
76.8811
 30
0.0
 11
180.0196689999999
 21
79.3925
 31
0.0
  0
LINE
  5
FC
330
1E
100
AcDbEntity
  8
0
100
AcDbLine
 10
172.6196689999999
 20
106.308
 30
0.0
 11
176.686669
 21
104.698
 31
0.0
  0
LINE
  5
FD
330
1E
100
AcDbEntity
  8
0
100
AcDbLine
 10
176.795669
 20
106.0
 30
0.0
 11
180.3956689999999
 21
106.0
 31
0.0
  0
LINE
  5
FE
330
1E
100
AcDbEntity
  8
0
100
AcDbLine
 10
177.1666689999999
 20
105.7779999999999
 30
0.0
 11
180.9256689999999
 21
105.7779999999999
 31
0.0
  0
LINE
  5
FF
330
1E
100
AcDbEntity
  8
0
100
AcDbLine
 10
176.686669
 20
104.698
 30
0.0
 11
180.2196689999999
 21
102.058
 31
0.0
  0
LINE
  5
100
330
1E
100
AcDbEntity
  8
0
100
AcDbLine
 10
176.486669
 20
104.7
 30
0.0
 11
180.0196689999999
 21
102.1879999999999
 31
0.0
  0
LINE
  5
101
330
1E
100
AcDbEntity
  8
0
100
AcDbLine
 10
172.485669
 20
106.3099999999999
 30
0.0
 11
176.486669
 21
104.7
 31
0.0
  0
LINE
  5
102
330
1E
100
AcDbEntity
  8
0
100
AcDbLine
 10
163.819669
 20
106.308
 30
0.0
 11
164.360669
 21
106.379313636364
 31
0.0
  0
LINE
  5
103
330
1E
100
AcDbEntity
  8
0
100
AcDbLine
 10
165.4316689999999
 20
166.9109999999999
 30
0.0
 11
166.254669
 21
166.9109999999999
 31
0.0
  0
LINE
  5
104
330
1E
100
AcDbEntity
  8
0
100
AcDbLine
 10
166.254669
 20
166.9109999999999
 30
0.0
 11
167.2076689999999
 21
166.9109999999999
 31
0.0
  0
LINE
  5
105
330
1E
100
AcDbEntity
  8
0
100
AcDbLine
 10
167.2076689999999
 20
166.9109999999999
 30
0.0
 11
168.2196689999999
 21
166.9109999999999
 31
0.0
  0
LINE
  5
106
330
1E
100
AcDbEntity
  8
0
100
AcDbLine
 10
164.807669
 20
166.9109999999999
 30
0.0
 11
165.4316689999999
 21
166.9109999999999
 31
0.0
  0
LINE
  5
107
330
1E
100
AcDbEntity
  8
0
100
AcDbLine
 10
164.419669
 20
166.9109999999999
 30
0.0
 11
164.807669
 21
166.9109999999999
 31
0.0
  0
LINE
  5
108
330
1E
100
AcDbEntity
  8
0
100
AcDbLine
 10
164.278669
 20
166.9109999999999
 30
0.0
 11
164.3956689999999
 21
166.9709999999999
 31
0.0
  0
LINE
  5
109
330
1E
100
AcDbEntity
  8
0
100
AcDbLine
 10
164.278669
 20
166.9109999999999
 30
0.0
 11
164.419669
 21
166.9109999999999
 31
0.0
  0
LINE
  5
10A
330
1E
100
AcDbEntity
  8
0
100
AcDbLine
 10
164.2196689999999
 20
166.791
 30
0.0
 11
164.278669
 21
166.9109999999999
 31
0.0
  0
LINE
  5
10B
330
1E
100
AcDbEntity
  8
0
100
AcDbLine
 10
164.2196689999999
 20
166.791
 30
0.0
 11
164.2196689999999
 21
106.346102672293
 31
0.0
  0
LINE
  5
10C
330
1E
100
AcDbEntity
  8
0
100
AcDbLine
 10
164.2196689999999
 20
106.346102672293
 30
0.0
 11
164.2196689999999
 21
166.791
 31
0.0
  0
LINE
  5
10D
330
1E
100
AcDbEntity
  8
0
100
AcDbLine
 10
171.0076689999999
 20
166.9109999999999
 30
0.0
 11
171.631669
 21
166.9109999999999
 31
0.0
  0
LINE
  5
10E
330
1E
100
AcDbEntity
  8
0
100
AcDbLine
 10
171.631669
 20
166.9109999999999
 30
0.0
 11
172.0196689999999
 21
166.9109999999999
 31
0.0
  0
LINE
  5
10F
330
1E
100
AcDbEntity
  8
0
100
AcDbLine
 10
170.1846689999999
 20
166.9109999999999
 30
0.0
 11
171.0076689999999
 21
166.9109999999999
 31
0.0
  0
LINE
  5
110
330
1E
100
AcDbEntity
  8
0
100
AcDbLine
 10
169.231669
 20
166.9109999999999
 30
0.0
 11
170.1846689999999
 21
166.9109999999999
 31
0.0
  0
LINE
  5
111
330
1E
100
AcDbEntity
  8
0
100
AcDbLine
 10
165.5136689999999
 20
166.9709999999999
 30
0.0
 11
166.3136689999999
 21
166.9709999999999
 31
0.0
  0
LINE
  5
112
330
1E
100
AcDbEntity
  8
0
100
AcDbLine
 10
166.3136689999999
 20
166.9709999999999
 30
0.0
 11
167.2316689999999
 21
166.9709999999999
 31
0.0
  0
LINE
  5
113
330
1E
100
AcDbEntity
  8
0
100
AcDbLine
 10
167.2316689999999
 20
166.9709999999999
 30
0.0
 11
168.2196689999999
 21
166.9709999999999
 31
0.0
  0
LINE
  5
114
330
1E
100
AcDbEntity
  8
0
100
AcDbLine
 10
164.9136689999999
 20
166.9709999999999
 30
0.0
 11
165.5136689999999
 21
166.9709999999999
 31
0.0
  0
LINE
  5
115
330
1E
100
AcDbEntity
  8
0
100
AcDbLine
 10
164.5376689999999
 20
166.9709999999999
 30
0.0
 11
164.9136689999999
 21
166.9709999999999
 31
0.0
  0
LINE
  5
116
330
1E
100
AcDbEntity
  8
0
100
AcDbLine
 10
168.161669
 20
255.0
 30
0.0
 11
173.3686689999999
 21
244.442
 31
0.0
  0
LINE
  5
117
330
1E
100
AcDbEntity
  8
0
100
AcDbLine
 10
161.6216689999999
 20
264.7889999999999
 30
0.0
 11
168.161669
 21
255.0
 31
0.0
  0
LINE
  5
118
330
1E
100
AcDbEntity
  8
0
100
AcDbLine
 10
164.3956689999999
 20
166.9709999999999
 30
0.0
 11
164.5376689999999
 21
166.9709999999999
 31
0.0
  0
LINE
  5
119
330
1E
100
AcDbEntity
  8
0
100
AcDbLine
 10
170.925669
 20
166.9709999999999
 30
0.0
 11
171.5256689999999
 21
166.9709999999999
 31
0.0
  0
LINE
  5
11A
330
1E
100
AcDbEntity
  8
0
100
AcDbLine
 10
171.5256689999999
 20
166.9709999999999
 30
0.0
 11
171.901669
 21
166.9709999999999
 31
0.0
  0
LINE
  5
11B
330
1E
100
AcDbEntity
  8
0
100
AcDbLine
 10
170.1256689999999
 20
166.9709999999999
 30
0.0
 11
170.925669
 21
166.9709999999999
 31
0.0
  0
LINE
  5
11C
330
1E
100
AcDbEntity
  8
0
100
AcDbLine
 10
169.2076689999999
 20
166.9709999999999
 30
0.0
 11
170.1256689999999
 21
166.9709999999999
 31
0.0
  0
LINE
  5
11D
330
1E
100
AcDbEntity
  8
0
100
AcDbLine
 10
168.2196689999999
 20
166.9709999999999
 30
0.0
 11
169.2076689999999
 21
166.9709999999999
 31
0.0
  0
LINE
  5
11E
330
1E
100
AcDbEntity
  8
0
100
AcDbLine
 10
168.2196689999999
 20
166.9109999999999
 30
0.0
 11
169.231669
 21
166.9109999999999
 31
0.0
  0
LINE
  5
11F
330
1E
100
AcDbEntity
  8
0
100
AcDbLine
 10
172.2196689999999
 20
106.346102672293
 30
0.0
 11
172.2196689999999
 21
166.791
 31
0.0
  0
LINE
  5
120
330
1E
100
AcDbEntity
  8
0
100
AcDbLine
 10
172.0436689999999
 20
166.9709999999999
 30
0.0
 11
172.1606689999999
 21
166.9109999999999
 31
0.0
  0
LINE
  5
121
330
1E
100
AcDbEntity
  8
0
100
AcDbLine
 10
171.901669
 20
166.9709999999999
 30
0.0
 11
172.0436689999999
 21
166.9709999999999
 31
0.0
  0
LINE
  5
122
330
1E
100
AcDbEntity
  8
0
100
AcDbLine
 10
172.0196689999999
 20
166.9109999999999
 30
0.0
 11
172.1606689999999
 21
166.9109999999999
 31
0.0
  0
LINE
  5
123
330
1E
100
AcDbEntity
  8
0
100
AcDbLine
 10
178.5956689999999
 20
210.0
 30
0.0
 11
179.796669
 21
210.0
 31
0.0
  0
LINE
  5
124
330
1E
100
AcDbEntity
  8
0
100
AcDbLine
 10
178.5956689999999
 20
210.0
 30
0.0
 11
179.795669
 21
210.0
 31
0.0
  0
LINE
  5
125
330
1E
100
AcDbEntity
  8
0
100
AcDbLine
 10
173.3686689999999
 20
244.442
 30
0.0
 11
177.1526689999999
 21
233.294
 31
0.0
  0
LINE
  5
126
330
1E
100
AcDbEntity
  8
0
100
AcDbLine
 10
177.1526689999999
 20
233.294
 30
0.0
 11
179.449669
 21
221.747
 31
0.0
  0
LINE
  5
127
330
1E
100
AcDbEntity
  8
0
100
AcDbLine
 10
179.449669
 20
221.747
 30
0.0
 11
180.2196689999999
 21
210.0
 31
0.0
  0
LINE
  5
128
330
1E
100
AcDbEntity
  8
0
100
AcDbLine
 10
172.2196689999999
 20
166.791
 30
0.0
 11
172.2196689999999
 21
106.346102672293
 31
0.0
  0
LINE
  5
129
330
1E
100
AcDbEntity
  8
0
100
AcDbLine
 10
172.1606689999999
 20
166.9109999999999
 30
0.0
 11
172.2196689999999
 21
166.791
 31
0.0
  0
LINE
  5
12A
330
1E
100
AcDbEntity
  8
0
100
AcDbLine
 10
172.0976643561949
 20
106.3768097030469
 30
0.0
 11
172.6196689999999
 21
106.308
 31
0.0
  0
LINE
  5
12B
330
1E
100
AcDbEntity
  8
0
100
AcDbLine
 10
171.7327592183299
 20
106.4121881771179
 30
0.0
 11
172.485669
 21
106.3099999999999
 31
0.0
  0
LINE
  5
12C
330
1E
100
AcDbEntity
  8
0
100
AcDbLine
 10
163.9536689999999
 20
106.3099999999999
 30
0.0
 11
164.760669
 21
106.4195295358649
 31
0.0
  0
LINE
  5
12D
330
1E
100
AcDbEntity
  8
0
100
AcDbLine
 10
159.9526689999999
 20
76.8811
 30
0.0
 11
163.9536689999999
 21
75.2712
 31
0.0
  0
LINE
  5
12E
330
1E
100
AcDbEntity
  8
0
100
AcDbLine
 10
163.9536689999999
 20
75.2712
 30
0.0
 11
168.2196689999999
 21
74.69159999999999
 31
0.0
  0
LINE
  5
12F
330
1E
100
AcDbEntity
  8
0
100
AcDbLine
 10
154.103669
 20
74.95560000000001
 30
0.0
 11
156.7336689999999
 21
71.6807
 31
0.0
  0
LINE
  5
130
330
1E
100
AcDbEntity
  8
0
100
AcDbLine
 10
153.904688313633
 20
75.45365310301159
 30
0.0
 11
154.103669
 21
74.95560000000001
 31
0.0
  0
LINE
  5
131
330
1E
100
AcDbEntity
  8
0
100
AcDbLine
 10
162.5376689999999
 20
3.99999999999999
 30
0.0
 11
168.2196689999999
 21
3.99999999999999
 31
0.0
  0
LINE
  5
132
330
1E
100
AcDbEntity
  8
0
100
AcDbLine
 10
162.5376689999999
 20
3.99999999999999
 30
0.0
 11
163.6136689999999
 21
3.99999999999999
 31
0.0
  0
LINE
  5
133
330
1E
100
AcDbEntity
  8
0
100
AcDbLine
 10
147.046669
 20
3.99999999999999
 30
0.0
 11
149.2106689999999
 21
3.99999999999999
 31
0.0
  0
LINE
  5
134
330
1E
100
AcDbEntity
  8
0
100
AcDbLine
 10
146.2346689999999
 20
3.99999999999999
 30
0.0
 11
183.778669
 21
3.99999999999999
 31
0.0
  0
LINE
  5
135
330
1E
100
AcDbEntity
  8
0
100
AcDbLine
 10
146.2346689999999
 20
3.99999999999999
 30
0.0
 11
180.9256689999999
 21
3.99999999999999
 31
0.0
  0
LINE
  5
136
330
1E
100
AcDbEntity
  8
0
100
AcDbLine
 10
191.2196689999999
 20
-0.0000000000000118
 30
0.0
 11
191.2196689999999
 21
3.76922999999999
 31
0.0
  0
LINE
  5
137
330
1E
100
AcDbEntity
  8
0
100
AcDbLine
 10
179.7056689999999
 20
71.6807
 30
0.0
 11
182.3356689999999
 21
74.95560000000001
 31
0.0
  0
LINE
  5
138
330
1E
100
AcDbEntity
  8
0
100
AcDbLine
 10
179.795669
 20
210.0
 30
0.0
 11
180.2196689999999
 21
210.0
 31
0.0
  0
LINE
  5
139
330
1E
100
AcDbEntity
  8
0
100
AcDbLine
 10
179.796669
 20
210.0
 30
0.0
 11
180.2196689999999
 21
210.0
 31
0.0
  0
LINE
  5
13A
330
1E
100
AcDbEntity
  8
0
100
AcDbLine
 10
180.0196689999999
 20
79.3925
 30
0.0
 11
182.6196689999999
 21
82.8054
 31
0.0
  0
LINE
  5
13B
330
1E
100
AcDbEntity
  8
0
100
AcDbLine
 10
180.9256689999999
 20
3.99999999999999
 30
0.0
 11
190.2046689999999
 21
3.99999999999999
 31
0.0
  0
LINE
  5
13C
330
1E
100
AcDbEntity
  8
0
100
AcDbLine
 10
180.9256689999999
 20
3.99999999999999
 30
0.0
 11
183.778669
 21
3.99999999999999
 31
0.0
  0
LINE
  5
13D
330
1E
100
AcDbEntity
  8
0
100
AcDbLine
 10
180.2506689999999
 20
71.04829999999999
 30
0.0
 11
182.9316689999999
 21
74.5224
 31
0.0
  0
LINE
  5
13E
330
1E
100
AcDbEntity
  8
0
100
AcDbLine
 10
182.3356689999999
 20
74.95560000000001
 30
0.0
 11
182.534649686367
 21
75.4536531030117
 31
0.0
  0
LINE
  5
13F
330
1E
100
AcDbEntity
  8
0
100
AcDbLine
 10
180.2196689999999
 20
72.83669999999999
 30
0.0
 11
182.9526689999999
 21
75.9262
 31
0.0
  0
LINE
  5
140
330
1E
100
AcDbEntity
  8
0
100
AcDbLine
 10
182.9316689999999
 20
74.5224
 30
0.0
 11
184.6316689999999
 21
78.37479999999999
 31
0.0
  0
LINE
  5
141
330
1E
100
AcDbEntity
  8
0
100
AcDbLine
 10
182.9526689999999
 20
75.9262
 30
0.0
 11
184.619669
 21
79.4875
 31
0.0
  0
LINE
  5
142
330
1E
100
AcDbEntity
  8
0
100
AcDbLine
 10
184.2856689999999
 20
86.66909999999999
 30
0.0
 11
184.885669
 21
90.7904
 31
0.0
  0
LINE
  5
143
330
1E
100
AcDbEntity
  8
0
100
AcDbLine
 10
182.6196689999999
 20
82.8054
 30
0.0
 11
184.2856689999999
 21
86.66909999999999
 31
0.0
  0
LINE
  5
144
330
1E
100
AcDbEntity
  8
0
100
AcDbLine
 10
182.9526689999999
 20
98.64499999999999
 30
0.0
 11
184.619669
 21
94.7169
 31
0.0
  0
LINE
  5
145
330
1E
100
AcDbEntity
  8
0
100
AcDbLine
 10
184.2856689999999
 20
94.9116
 30
0.0
 11
184.885669
 21
90.7904
 31
0.0
  0
LINE
  5
146
330
1E
100
AcDbEntity
  8
0
100
AcDbLine
 10
180.2196689999999
 20
106.0
 30
0.0
 11
180.2196689999999
 21
210.0
 31
0.0
  0
LINE
  5
147
330
1E
100
AcDbEntity
  8
0
100
AcDbLine
 10
180.9256689999999
 20
105.7779999999999
 30
0.0
 11
183.784669
 21
105.7779999999999
 31
0.0
  0
LINE
  5
148
330
1E
100
AcDbEntity
  8
0
100
AcDbLine
 10
180.3956689999999
 20
106.0
 30
0.0
 11
183.0956689999999
 21
106.0
 31
0.0
  0
LINE
  5
149
330
1E
100
AcDbEntity
  8
0
100
AcDbLine
 10
183.0956689999999
 20
106.0
 30
0.0
 11
184.790669
 21
106.0
 31
0.0
  0
LINE
  5
14A
330
1E
100
AcDbEntity
  8
0
100
AcDbLine
 10
183.784669
 20
105.7779999999999
 30
0.0
 11
185.5846689999999
 21
105.7779999999999
 31
0.0
  0
LINE
  5
14B
330
1E
100
AcDbEntity
  8
0
100
AcDbLine
 10
180.2196689999999
 20
102.058
 30
0.0
 11
182.9526689999999
 21
98.64499999999999
 31
0.0
  0
LINE
  5
14C
330
1E
100
AcDbEntity
  8
0
100
AcDbLine
 10
182.6196689999999
 20
98.77540000000001
 30
0.0
 11
184.2856689999999
 21
94.9116
 31
0.0
  0
LINE
  5
14D
330
1E
100
AcDbEntity
  8
0
100
AcDbLine
 10
180.0196689999999
 20
102.1879999999999
 30
0.0
 11
182.6196689999999
 21
98.77540000000001
 31
0.0
  0
LINE
  5
14E
330
1E
100
AcDbEntity
  8
0
100
AcDbLine
 10
184.4546689999999
 20
3.76922999999999
 30
0.0
 11
188.107669
 21
3.76922999999999
 31
0.0
  0
LINE
  5
14F
330
1E
100
AcDbEntity
  8
0
100
AcDbLine
 10
188.107669
 20
3.76922999999999
 30
0.0
 11
190.407669
 21
3.76922999999999
 31
0.0
  0
LINE
  5
150
330
1E
100
AcDbEntity
  8
0
100
AcDbLine
 10
190.407669
 20
3.76922999999999
 30
0.0
 11
191.2196689999999
 21
3.76922999999999
 31
0.0
  0
LINE
  5
151
330
1E
100
AcDbEntity
  8
0
100
AcDbLine
 10
191.2196689999999
 20
3.76922999999999
 30
0.0
 11
191.2196689999999
 21
-0.000000000000012
 31
0.0
  0
LINE
  5
152
330
1E
100
AcDbEntity
  8
0
100
AcDbLine
 10
188.107669
 20
-0.0000000000000116
 30
0.0
 11
190.407669
 21
-0.0000000000000117
 31
0.0
  0
LINE
  5
153
330
1E
100
AcDbEntity
  8
0
100
AcDbLine
 10
185.2196689999999
 20
71.15680000000001
 30
0.0
 11
185.2196689999999
 21
82.6692
 31
0.0
  0
LINE
  5
154
330
1E
100
AcDbEntity
  8
0
100
AcDbLine
 10
184.6316689999999
 20
78.37479999999999
 30
0.0
 11
185.2196689999999
 21
82.6692
 31
0.0
  0
LINE
  5
155
330
1E
100
AcDbEntity
  8
0
100
AcDbLine
 10
185.170163549986
 20
83.03075817098569
 30
0.0
 11
185.2196689999999
 21
82.6692
 31
0.0
  0
LINE
  5
156
330
1E
100
AcDbEntity
  8
0
100
AcDbLine
 10
185.2196689999999
 20
82.6692
 30
0.0
 11
185.2196689999999
 21
71.15680000000001
 31
0.0
  0
LINE
  5
157
330
1E
100
AcDbEntity
  8
0
100
AcDbLine
 10
185.2196689999999
 20
83.34940000000001
 30
0.0
 11
185.2196689999999
 21
90.46689999999999
 31
0.0
  0
LINE
  5
158
330
1E
100
AcDbEntity
  8
0
100
AcDbLine
 10
184.619669
 20
79.4875
 30
0.0
 11
185.2196689999999
 21
83.34940000000001
 31
0.0
  0
LINE
  5
159
330
1E
100
AcDbEntity
  8
0
100
AcDbLine
 10
186.2196689999999
 20
3.99999999999999
 30
0.0
 11
186.2196689999999
 21
105.7779999999999
 31
0.0
  0
LINE
  5
15A
330
1E
100
AcDbEntity
  8
0
100
AcDbLine
 10
185.2196689999999
 20
90.46689999999999
 30
0.0
 11
185.2196689999999
 21
83.34940000000001
 31
0.0
  0
LINE
  5
15B
330
1E
100
AcDbEntity
  8
0
100
AcDbLine
 10
185.4256689999999
 20
106.0
 30
0.0
 11
185.9546689999999
 21
105.926
 31
0.0
  0
LINE
  5
15C
330
1E
100
AcDbEntity
  8
0
100
AcDbLine
 10
184.790669
 20
106.0
 30
0.0
 11
185.4256689999999
 21
106.0
 31
0.0
  0
LINE
  5
15D
330
1E
100
AcDbEntity
  8
0
100
AcDbLine
 10
186.2196689999999
 20
105.7779999999999
 30
0.0
 11
186.2196689999999
 21
3.99999999999999
 31
0.0
  0
LINE
  5
15E
330
1E
100
AcDbEntity
  8
0
100
AcDbLine
 10
185.9546689999999
 20
105.926
 30
0.0
 11
186.2196689999999
 21
105.7779999999999
 31
0.0
  0
LINE
  5
15F
330
1E
100
AcDbEntity
  8
0
100
AcDbLine
 10
185.5846689999999
 20
105.7779999999999
 30
0.0
 11
186.2196689999999
 21
105.7779999999999
 31
0.0
  0
LINE
  5
160
330
1E
100
AcDbEntity
  8
0
100
AcDbLine
 10
184.619669
 20
94.7169
 30
0.0
 11
185.2196689999999
 21
90.46689999999999
 31
0.0
  0
LINE
  5
161
330
1E
100
AcDbEntity
  8
0
100
AcDbLine
 10
190.2046689999999
 20
3.99999999999999
 30
0.0
 11
190.8816689999999
 21
3.92307999999999
 31
0.0
  0
LINE
  5
162
330
1E
100
AcDbEntity
  8
0
100
AcDbLine
 10
190.8816689999999
 20
3.92307999999999
 30
0.0
 11
191.2196689999999
 21
3.76922999999999
 31
0.0
  0
LINE
  5
163
330
1E
100
AcDbEntity
  8
0
100
AcDbLine
 10
184.4546689999999
 20
-0.0000000000000113
 30
0.0
 11
188.107669
 21
-0.0000000000000116
 31
0.0
  0
LINE
  5
164
330
1E
100
AcDbEntity
  8
0
100
AcDbLine
 10
190.407669
 20
-0.0000000000000117
 30
0.0
 11
191.2196689999999
 21
-0.0000000000000118
 31
0.0
  0
LINE
  5
165
330
1E
100
AcDbEntity
  8
0
100
AcDbLine
 10
179.6516689999999
 20
-0.000000000000011
 30
0.0
 11
184.4546689999999
 21
-0.0000000000000113
 31
0.0
  0
ENDSEC
  0
SECTION
  2
OBJECTS
  0
DICTIONARY
  5
C
330
0
100
AcDbDictionary
281
     1
  3
ACAD_GROUP
350
D
  3
ACAD_LAYOUT
350
19
  3
ACAD_MLINESTYLE
350
16
  3
ACAD_PLOTSETTINGS
350
18
  3
ACAD_PLOTSTYLENAME
350
E
  3
AcDbVariableDictionary
350
16B
  0
DICTIONARY
  5
D
102
{ACAD_REACTORS
330
C
102
}
330
C
100
AcDbDictionary
281
     1
  0
DICTIONARY
  5
19
102
{ACAD_REACTORS
330
C
102
}
330
C
100
AcDbDictionary
281
     1
  3
Layout1
350
1D
  3
Model
350
21
  0
DICTIONARY
  5
16
102
{ACAD_REACTORS
330
C
102
}
330
C
100
AcDbDictionary
281
     1
  3
Standard
350
17
  0
DICTIONARY
  5
18
102
{ACAD_REACTORS
330
C
102
}
330
C
100
AcDbDictionary
281
     1
  0
ACDBDICTIONARYWDFLT
  5
E
102
{ACAD_REACTORS
330
C
102
}
330
C
100
AcDbDictionary
281
     1
  3
Normal
350
F
100
AcDbDictionaryWithDefault
340
F
  0
DICTIONARY
  5
16B
102
{ACAD_REACTORS
330
C
102
}
330
C
100
AcDbDictionary
281
     1
  3
DIMASSOC
350
16C
  0
LAYOUT
  5
1D
102
{ACAD_REACTORS
330
19
102
}
330
19
100
AcDbPlotSettings
  1

  2
C:\Programme\AutoCAD LT 2002 Deu\plotters\DWF ePlot (optimized for plotting).pc3
  4

  6

 40
0.0
 41
0.0
 42
0.0
 43
0.0
 44
0.0
 45
0.0
 46
0.0
 47
0.0
 48
0.0
 49
0.0
140
0.0
141
0.0
142
1.0
143
1.0
 70
   688
 72
     0
 73
     0
 74
     5
  7

 75
    16
147
1.0
148
0.0
149
0.0
100
AcDbLayout
  1
Layout1
 70
     1
 71
     1
 10
0.0
 20
0.0
 11
12.0
 21
9.0
 12
0.0
 22
0.0
 32
0.0
 14
1.000000000000000E+20
 24
1.000000000000000E+20
 34
1.000000000000000E+20
 15
-1.000000000000000E+20
 25
-1.000000000000000E+20
 35
-1.000000000000000E+20
146
0.0
 13
0.0
 23
0.0
 33
0.0
 16
1.0
 26
0.0
 36
0.0
 17
0.0
 27
1.0
 37
0.0
 76
     0
330
1A
  0
LAYOUT
  5
21
102
{ACAD_REACTORS
330
19
102
}
330
19
100
AcDbPlotSettings
  1

  2
C:\Programme\AutoCAD LT 2002 Deu\plotters\DWF ePlot (optimized for plotting).pc3
  4

  6

 40
0.0
 41
0.0
 42
0.0
 43
0.0
 44
0.0
 45
0.0
 46
0.0
 47
0.0
 48
0.0
 49
0.0
140
0.0
141
0.0
142
1.0
143
1.0
 70
  1712
 72
     0
 73
     0
 74
     0
  7

 75
     0
147
1.0
148
0.0
149
0.0
100
AcDbLayout
  1
Model
 70
     1
 71
     0
 10
0.0
 20
0.0
 11
12.0
 21
9.0
 12
0.0
 22
0.0
 32
0.0
 14
0.0
 24
0.0
 34
0.0
 15
0.0
 25
0.0
 35
0.0
146
0.0
 13
0.0
 23
0.0
 33
0.0
 16
1.0
 26
0.0
 36
0.0
 17
0.0
 27
1.0
 37
0.0
 76
     0
330
1E
  0
MLINESTYLE
  5
17
102
{ACAD_REACTORS
330
16
102
}
330
16
100
AcDbMlineStyle
  2
STANDARD
 70
     0
  3

 62
   256
 51
90.0
 52
90.0
 71
     2
 49
0.5
 62
   256
  6
BYLAYER
 49
-0.5
 62
   256
  6
BYLAYER
  0
ACDBPLACEHOLDER
  5
F
102
{ACAD_REACTORS
330
E
102
}
330
E
  0
DICTIONARYVAR
  5
16C
102
{ACAD_REACTORS
330
16B
102
}
330
16B
100
DictionaryVariables
280
     0
  1
1
  0
ENDSEC
  0
EOF
