  0
SECTION
  2
HEADER
  9
$ACADVER
  1
AC1015
  9
$ACADMAINTVER
 70
    13
  9
$DWGCODEPAGE
  3
ANSI_1252
  9
$INSBASE
 10
0.0
 20
0.0
 30
0.0
  9
$EXTMIN
 10
0.229975000000016
 20
-0.0564749999999889
 30
0.0
  9
$EXTMAX
 10
277.7700249999999
 20
184.056475
 30
0.0
  9
$LIMMIN
 10
0.0
 20
0.0
  9
$LIMMAX
 10
12.0
 20
9.0
  9
$ORTHOMODE
 70
     0
  9
$REGENMODE
 70
     1
  9
$FILLMODE
 70
     1
  9
$QTEXTMODE
 70
     0
  9
$MIRRTEXT
 70
     1
  9
$LTSCALE
 40
1.0
  9
$ATTMODE
 70
     1
  9
$TEXTSIZE
 40
0.2
  9
$TRACEWID
 40
0.05
  9
$TEXTSTYLE
  7
Standard
  9
$CLAYER
  8
0
  9
$CELTYPE
  6
Continuous
  9
$CECOLOR
 62
   256
  9
$CELTSCALE
 40
1.0
  9
$DISPSILH
 70
     0
  9
$DIMSCALE
 40
1.0
  9
$DIMASZ
 40
0.18
  9
$DIMEXO
 40
0.0625
  9
$DIMDLI
 40
0.38
  9
$DIMRND
 40
0.0
  9
$DIMDLE
 40
0.0
  9
$DIMEXE
 40
0.18
  9
$DIMTP
 40
0.0
  9
$DIMTM
 40
0.0
  9
$DIMTXT
 40
0.18
  9
$DIMCEN
 40
0.09
  9
$DIMTSZ
 40
0.0
  9
$DIMTOL
 70
     0
  9
$DIMLIM
 70
     0
  9
$DIMTIH
 70
     1
  9
$DIMTOH
 70
     1
  9
$DIMSE1
 70
     0
  9
$DIMSE2
 70
     0
  9
$DIMTAD
 70
     0
  9
$DIMZIN
 70
     0
  9
$DIMBLK
  1

  9
$DIMASO
 70
     1
  9
$DIMSHO
 70
     1
  9
$DIMPOST
  1

  9
$DIMAPOST
  1

  9
$DIMALT
 70
     0
  9
$DIMALTD
 70
     2
  9
$DIMALTF
 40
25.4
  9
$DIMLFAC
 40
1.0
  9
$DIMTOFL
 70
     0
  9
$DIMTVP
 40
0.0
  9
$DIMTIX
 70
     0
  9
$DIMSOXD
 70
     0
  9
$DIMSAH
 70
     0
  9
$DIMBLK1
  1

  9
$DIMBLK2
  1

  9
$DIMSTYLE
  2
Standard
  9
$DIMCLRD
 70
     0
  9
$DIMCLRE
 70
     0
  9
$DIMCLRT
 70
     0
  9
$DIMTFAC
 40
1.0
  9
$DIMGAP
 40
0.09
  9
$DIMJUST
 70
     0
  9
$DIMSD1
 70
     0
  9
$DIMSD2
 70
     0
  9
$DIMTOLJ
 70
     1
  9
$DIMTZIN
 70
     0
  9
$DIMALTZ
 70
     0
  9
$DIMALTTZ
 70
     0
  9
$DIMUPT
 70
     0
  9
$DIMDEC
 70
     4
  9
$DIMTDEC
 70
     4
  9
$DIMALTU
 70
     2
  9
$DIMALTTD
 70
     2
  9
$DIMTXSTY
  7
Standard
  9
$DIMAUNIT
 70
     0
  9
$DIMADEC
 70
     0
  9
$DIMALTRND
 40
0.0
  9
$DIMAZIN
 70
     0
  9
$DIMDSEP
 70
    46
  9
$DIMATFIT
 70
     3
  9
$DIMFRAC
 70
     0
  9
$DIMLDRBLK
  1

  9
$DIMLUNIT
 70
     2
  9
$DIMLWD
 70
    -2
  9
$DIMLWE
 70
    -2
  9
$DIMTMOVE
 70
     0
  9
$LUNITS
 70
     2
  9
$LUPREC
 70
     4
  9
$SKETCHINC
 40
0.1
  9
$FILLETRAD
 40
0.0
  9
$AUNITS
 70
     0
  9
$AUPREC
 70
     0
  9
$MENU
  1
.
  9
$ELEVATION
 40
0.0
  9
$PELEVATION
 40
0.0
  9
$THICKNESS
 40
0.0
  9
$LIMCHECK
 70
     0
  9
$CHAMFERA
 40
0.0
  9
$CHAMFERB
 40
0.0
  9
$CHAMFERC
 40
0.0
  9
$CHAMFERD
 40
0.0
  9
$SKPOLY
 70
     0
  9
$TDCREATE
 40
2454830.815647222
  9
$TDUCREATE
 40
2454830.773980555
  9
$TDUPDATE
 40
2454830.821146539
  9
$TDUUPDATE
 40
2454830.779479873
  9
$TDINDWG
 40
0.0054993171
  9
$TDUSRTIMER
 40
0.0054993171
  9
$USRTIMER
 70
     1
  9
$ANGBASE
 50
0.0
  9
$ANGDIR
 70
     0
  9
$PDMODE
 70
     0
  9
$PDSIZE
 40
0.0
  9
$PLINEWID
 40
0.0
  9
$SPLFRAME
 70
     0
  9
$SPLINETYPE
 70
     6
  9
$SPLINESEGS
 70
     8
  9
$HANDSEED
  5
43E
  9
$SURFTAB1
 70
     6
  9
$SURFTAB2
 70
     6
  9
$SURFTYPE
 70
     6
  9
$SURFU
 70
     6
  9
$SURFV
 70
     6
  9
$UCSBASE
  2

  9
$UCSNAME
  2

  9
$UCSORG
 10
0.0
 20
0.0
 30
0.0
  9
$UCSXDIR
 10
1.0
 20
0.0
 30
0.0
  9
$UCSYDIR
 10
0.0
 20
1.0
 30
0.0
  9
$UCSORTHOREF
  2

  9
$UCSORTHOVIEW
 70
     1
  9
$UCSORGTOP
 10
0.0
 20
0.0
 30
0.0
  9
$UCSORGBOTTOM
 10
0.0
 20
0.0
 30
0.0
  9
$UCSORGLEFT
 10
0.0
 20
0.0
 30
0.0
  9
$UCSORGRIGHT
 10
0.0
 20
0.0
 30
0.0
  9
$UCSORGFRONT
 10
0.0
 20
0.0
 30
0.0
  9
$UCSORGBACK
 10
0.0
 20
0.0
 30
0.0
  9
$PUCSBASE
  2

  9
$PUCSNAME
  2

  9
$PUCSORG
 10
0.0
 20
0.0
 30
0.0
  9
$PUCSXDIR
 10
1.0
 20
0.0
 30
0.0
  9
$PUCSYDIR
 10
0.0
 20
1.0
 30
0.0
  9
$PUCSORTHOREF
  2

  9
$PUCSORTHOVIEW
 70
     0
  9
$PUCSORGTOP
 10
0.0
 20
0.0
 30
0.0
  9
$PUCSORGBOTTOM
 10
0.0
 20
0.0
 30
0.0
  9
$PUCSORGLEFT
 10
0.0
 20
0.0
 30
0.0
  9
$PUCSORGRIGHT
 10
0.0
 20
0.0
 30
0.0
  9
$PUCSORGFRONT
 10
0.0
 20
0.0
 30
0.0
  9
$PUCSORGBACK
 10
0.0
 20
0.0
 30
0.0
  9
$USERI1
 70
     0
  9
$USERI2
 70
     0
  9
$USERI3
 70
     0
  9
$USERI4
 70
     0
  9
$USERI5
 70
     0
  9
$USERR1
 40
0.0
  9
$USERR2
 40
0.0
  9
$USERR3
 40
0.0
  9
$USERR4
 40
0.0
  9
$USERR5
 40
0.0
  9
$WORLDVIEW
 70
     1
  9
$SHADEDGE
 70
     3
  9
$SHADEDIF
 70
    70
  9
$TILEMODE
 70
     1
  9
$MAXACTVP
 70
    64
  9
$PINSBASE
 10
0.0
 20
0.0
 30
0.0
  9
$PLIMCHECK
 70
     0
  9
$PEXTMIN
 10
1.000000000000000E+20
 20
1.000000000000000E+20
 30
1.000000000000000E+20
  9
$PEXTMAX
 10
-1.000000000000000E+20
 20
-1.000000000000000E+20
 30
-1.000000000000000E+20
  9
$PLIMMIN
 10
0.0
 20
0.0
  9
$PLIMMAX
 10
12.0
 20
9.0
  9
$UNITMODE
 70
     0
  9
$VISRETAIN
 70
     1
  9
$PLINEGEN
 70
     0
  9
$PSLTSCALE
 70
     1
  9
$TREEDEPTH
 70
  3020
  9
$CMLSTYLE
  2
Standard
  9
$CMLJUST
 70
     0
  9
$CMLSCALE
 40
1.0
  9
$PROXYGRAPHICS
 70
     1
  9
$MEASUREMENT
 70
     0
  9
$CELWEIGHT
370
    -1
  9
$ENDCAPS
280
     0
  9
$JOINSTYLE
280
     0
  9
$LWDISPLAY
290
     0
  9
$INSUNITS
 70
     0
  9
$HYPERLINKBASE
  1

  9
$STYLESHEET
  1

  9
$XEDIT
290
     1
  9
$CEPSNTYPE
380
     0
  9
$PSTYLEMODE
290
     1
  9
$FINGERPRINTGUID
  2
{C62BB529-150C-4B11-98B7-BDFC1668B399}
  9
$VERSIONGUID
  2
{E6C805A4-3D3C-4E6B-9A80-38E8F1323716}
  9
$EXTNAMES
290
     1
  9
$PSVPSCALE
 40
0.0
  9
$OLESTARTUP
290
     0
  0
ENDSEC
  0
SECTION
  2
CLASSES
  0
CLASS
  1
ACDBDICTIONARYWDFLT
  2
AcDbDictionaryWithDefault
  3
AutoCAD 2000
 90
        0
280
     0
281
     0
  0
CLASS
  1
ACDBPLACEHOLDER
  2
AcDbPlaceHolder
  3
AutoCAD 2000
 90
        0
280
     0
281
     0
  0
CLASS
  1
LAYOUT
  2
AcDbLayout
  3
AutoCAD 2000
 90
        0
280
     0
281
     0
  0
CLASS
  1
DICTIONARYVAR
  2
AcDbDictionaryVar
  3
AutoCAD 2000
 90
        0
280
     0
281
     0
  0
ENDSEC
  0
SECTION
  2
TABLES
  0
TABLE
  2
VPORT
  5
8
330
0
100
AcDbSymbolTable
 70
     2
  0
VPORT
  5
43D
330
8
100
AcDbSymbolTableRecord
100
AcDbViewportTableRecord
  2
*Active
 70
     0
 10
0.0
 20
0.0
 11
1.0
 21
1.0
 12
139.0
 22
92.0
 13
0.0
 23
0.0
 14
1.0
 24
1.0
 15
0.0
 25
0.0
 16
0.0
 26
0.0
 36
1.0
 17
0.0
 27
0.0
 37
0.0
 40
185.5255813299232
 41
2.078104993597951
 42
50.0
 43
0.0
 44
0.0
 50
0.0
 51
0.0
 71
     0
 72
   100
 73
     1
 74
     3
 75
     0
 76
     0
 77
     0
 78
     0
281
     0
 65
     1
110
0.0
120
0.0
130
0.0
111
1.0
121
0.0
131
0.0
112
0.0
122
1.0
132
0.0
 79
     1
146
0.0
  0
ENDTAB
  0
TABLE
  2
LTYPE
  5
5
330
0
100
AcDbSymbolTable
 70
     1
  0
LTYPE
  5
13
330
5
100
AcDbSymbolTableRecord
100
AcDbLinetypeTableRecord
  2
ByBlock
 70
     0
  3

 72
    65
 73
     0
 40
0.0
  0
LTYPE
  5
14
330
5
100
AcDbSymbolTableRecord
100
AcDbLinetypeTableRecord
  2
ByLayer
 70
     0
  3

 72
    65
 73
     0
 40
0.0
  0
LTYPE
  5
15
330
5
100
AcDbSymbolTableRecord
100
AcDbLinetypeTableRecord
  2
Continuous
 70
     0
  3
Solid line
 72
    65
 73
     0
 40
0.0
  0
ENDTAB
  0
TABLE
  2
LAYER
  5
2
330
0
100
AcDbSymbolTable
 70
     1
  0
LAYER
  5
10
330
2
100
AcDbSymbolTableRecord
100
AcDbLayerTableRecord
  2
0
 70
     0
 62
     7
  6
Continuous
370
    -3
390
F
  0
ENDTAB
  0
TABLE
  2
STYLE
  5
3
330
0
100
AcDbSymbolTable
 70
     1
  0
STYLE
  5
11
330
3
100
AcDbSymbolTableRecord
100
AcDbTextStyleTableRecord
  2
Standard
 70
     0
 40
0.0
 41
1.0
 50
0.0
 71
     0
 42
0.2
  3
txt
  4

  0
ENDTAB
  0
TABLE
  2
VIEW
  5
6
330
0
100
AcDbSymbolTable
 70
     0
  0
ENDTAB
  0
TABLE
  2
UCS
  5
7
330
0
100
AcDbSymbolTable
 70
     0
  0
ENDTAB
  0
TABLE
  2
APPID
  5
9
330
0
100
AcDbSymbolTable
 70
     1
  0
APPID
  5
12
330
9
100
AcDbSymbolTableRecord
100
AcDbRegAppTableRecord
  2
ACAD
 70
     0
  0
ENDTAB
  0
TABLE
  2
DIMSTYLE
  5
A
330
0
100
AcDbSymbolTable
 70
     1
100
AcDbDimStyleTable
 71
     0
  0
DIMSTYLE
105
325
330
A
100
AcDbSymbolTableRecord
100
AcDbDimStyleTableRecord
  2
Standard
 70
     0
340
11
  0
ENDTAB
  0
TABLE
  2
BLOCK_RECORD
  5
1
330
0
100
AcDbSymbolTable
 70
     0
  0
BLOCK_RECORD
  5
1E
330
1
100
AcDbSymbolTableRecord
100
AcDbBlockTableRecord
  2
*Model_Space
340
21
  0
BLOCK_RECORD
  5
1A
330
1
100
AcDbSymbolTableRecord
100
AcDbBlockTableRecord
  2
*Paper_Space
340
1D
  0
ENDTAB
  0
ENDSEC
  0
SECTION
  2
BLOCKS
  0
BLOCK
  5
1F
330
1E
100
AcDbEntity
  8
0
100
AcDbBlockBegin
  2
*Model_Space
 70
     0
 10
0.0
 20
0.0
 30
0.0
  3
*Model_Space
  1

  0
ENDBLK
  5
20
330
1E
100
AcDbEntity
  8
0
100
AcDbBlockEnd
  0
BLOCK
  5
1B
330
1A
100
AcDbEntity
 67
     1
  8
0
100
AcDbBlockBegin
  2
*Paper_Space
 70
     0
 10
0.0
 20
0.0
 30
0.0
  3
*Paper_Space
  1

  0
ENDBLK
  5
1C
330
1A
100
AcDbEntity
 67
     1
  8
0
100
AcDbBlockEnd
  0
ENDSEC
  0
SECTION
  2
ENTITIES
  0
LINE
  5
22
330
1E
100
AcDbEntity
  8
0
100
AcDbLine
 10
3.50002500000002
 20
99.35647500000001
 30
0.0
 11
3.50002500000002
 21
95.25647499999999
 31
0.0
  0
LINE
  5
23
330
1E
100
AcDbEntity
  8
0
100
AcDbLine
 10
3.50002500000002
 20
99.35647500000001
 30
0.0
 11
3.50002500000002
 21
104.056475
 31
0.0
  0
LINE
  5
24
330
1E
100
AcDbEntity
  8
0
100
AcDbLine
 10
3.50002500000002
 20
95.25647499999999
 30
0.0
 11
3.50002500000002
 21
92.15647500000001
 31
0.0
  0
LINE
  5
25
330
1E
100
AcDbEntity
  8
0
100
AcDbLine
 10
3.50002500000002
 20
95.25647499999999
 30
0.0
 11
3.50002500000002
 21
99.35647500000001
 31
0.0
  0
LINE
  5
26
330
1E
100
AcDbEntity
  8
0
100
AcDbLine
 10
3.50002500000002
 20
92.15647500000001
 30
0.0
 11
3.50002500000002
 21
90.25647499999999
 31
0.0
  0
LINE
  5
27
330
1E
100
AcDbEntity
  8
0
100
AcDbLine
 10
3.50002500000002
 20
92.15647500000001
 30
0.0
 11
3.50002500000002
 21
95.25647499999999
 31
0.0
  0
LINE
  5
28
330
1E
100
AcDbEntity
  8
0
100
AcDbLine
 10
3.50002500000002
 20
90.25647499999999
 30
0.0
 11
3.50002500000002
 21
89.55647500000001
 31
0.0
  0
LINE
  5
29
330
1E
100
AcDbEntity
  8
0
100
AcDbLine
 10
3.50002500000002
 20
90.25647499999999
 30
0.0
 11
3.50002500000002
 21
92.15647500000001
 31
0.0
  0
LINE
  5
2A
330
1E
100
AcDbEntity
  8
0
100
AcDbLine
 10
3.50002500000002
 20
104.056475
 30
0.0
 11
3.50002500000002
 21
99.35647500000001
 31
0.0
  0
LINE
  5
2B
330
1E
100
AcDbEntity
  8
0
100
AcDbLine
 10
3.50002500000002
 20
104.056475
 30
0.0
 11
3.50002500000002
 21
106.056475
 31
0.0
  0
LINE
  5
2C
330
1E
100
AcDbEntity
  8
0
100
AcDbLine
 10
3.17852500000002
 20
106.056475
 30
0.0
 11
5.000025000000019
 21
106.056475
 31
0.0
  0
LINE
  5
2D
330
1E
100
AcDbEntity
  8
0
100
AcDbLine
 10
3.50002500000002
 20
104.756475
 30
0.0
 11
3.50002500000002
 21
105.156475
 31
0.0
  0
LINE
  5
2E
330
1E
100
AcDbEntity
  8
0
100
AcDbLine
 10
3.50002500000002
 20
104.756475
 30
0.0
 11
3.50002500000002
 21
104.556475
 31
0.0
  0
LINE
  5
2F
330
1E
100
AcDbEntity
  8
0
100
AcDbLine
 10
3.50002500000002
 20
104.556475
 30
0.0
 11
3.50002500000002
 21
104.756475
 31
0.0
  0
LINE
  5
30
330
1E
100
AcDbEntity
  8
0
100
AcDbLine
 10
3.50002500000002
 20
104.2564749999999
 30
0.0
 11
3.50002500000002
 21
105.156475
 31
0.0
  0
LINE
  5
31
330
1E
100
AcDbEntity
  8
0
100
AcDbLine
 10
3.50002500000002
 20
104.2564749999999
 30
0.0
 11
3.50002500000002
 21
103.756475
 31
0.0
  0
LINE
  5
32
330
1E
100
AcDbEntity
  8
0
100
AcDbLine
 10
3.50002500000002
 20
103.756475
 30
0.0
 11
3.50002500000002
 21
104.2564749999999
 31
0.0
  0
LINE
  5
33
330
1E
100
AcDbEntity
  8
0
100
AcDbLine
 10
3.50002500000002
 20
103.756475
 30
0.0
 11
3.50002500000002
 21
103.556475
 31
0.0
  0
LINE
  5
34
330
1E
100
AcDbEntity
  8
0
100
AcDbLine
 10
3.50002500000002
 20
103.556475
 30
0.0
 11
3.50002500000002
 21
103.756475
 31
0.0
  0
LINE
  5
35
330
1E
100
AcDbEntity
  8
0
100
AcDbLine
 10
3.50002500000002
 20
89.55647500000001
 30
0.0
 11
4.00002500000002
 21
88.55647500000001
 31
0.0
  0
LINE
  5
36
330
1E
100
AcDbEntity
  8
0
100
AcDbLine
 10
3.50002500000002
 20
89.55647500000001
 30
0.0
 11
3.50002500000002
 21
90.25647499999999
 31
0.0
  0
LINE
  5
37
330
1E
100
AcDbEntity
  8
0
100
AcDbLine
 10
3.50002500000002
 20
105.8564749999999
 30
0.0
 11
3.50002500000002
 21
106.056475
 31
0.0
  0
LINE
  5
38
330
1E
100
AcDbEntity
  8
0
100
AcDbLine
 10
3.50002500000002
 20
105.8564749999999
 30
0.0
 11
3.50002500000002
 21
105.156475
 31
0.0
  0
LINE
  5
39
330
1E
100
AcDbEntity
  8
0
100
AcDbLine
 10
2.25771500000002
 20
106.2364749999999
 30
0.0
 11
2.46153500000002
 21
106.1644749999999
 31
0.0
  0
LINE
  5
3A
330
1E
100
AcDbEntity
  8
0
100
AcDbLine
 10
2.25771500000002
 20
106.2364749999999
 30
0.0
 11
2.96350500000002
 21
106.1284749999999
 31
0.0
  0
LINE
  5
3B
330
1E
100
AcDbEntity
  8
0
100
AcDbLine
 10
1.607945000000019
 20
106.5244749999999
 30
0.0
 11
2.25771500000002
 21
106.2364749999999
 31
0.0
  0
LINE
  5
3C
330
1E
100
AcDbEntity
  8
0
100
AcDbLine
 10
1.036595000000019
 20
106.9924749999999
 30
0.0
 11
1.607945000000019
 21
106.5244749999999
 31
0.0
  0
LINE
  5
3D
330
1E
100
AcDbEntity
  8
0
100
AcDbLine
 10
0.5996750000000161
 20
107.6044749999999
 30
0.0
 11
1.036595000000019
 21
106.9924749999999
 31
0.0
  0
LINE
  5
3E
330
1E
100
AcDbEntity
  8
0
100
AcDbLine
 10
1.607945000000019
 20
111.5884749999999
 30
0.0
 11
2.25771500000002
 21
111.8764749999999
 31
0.0
  0
LINE
  5
3F
330
1E
100
AcDbEntity
  8
0
100
AcDbLine
 10
2.25771500000002
 20
111.8764749999999
 30
0.0
 11
2.46153500000002
 21
111.948475
 31
0.0
  0
LINE
  5
40
330
1E
100
AcDbEntity
  8
0
100
AcDbLine
 10
2.25771500000002
 20
111.8764749999999
 30
0.0
 11
2.96350500000002
 21
111.984475
 31
0.0
  0
LINE
  5
41
330
1E
100
AcDbEntity
  8
0
100
AcDbLine
 10
1.036595000000019
 20
111.1204749999999
 30
0.0
 11
1.607945000000019
 21
111.5884749999999
 31
0.0
  0
LINE
  5
42
330
1E
100
AcDbEntity
  8
0
100
AcDbLine
 10
0.5996750000000161
 20
110.508475
 30
0.0
 11
1.036595000000019
 21
111.1204749999999
 31
0.0
  0
LINE
  5
43
330
1E
100
AcDbEntity
  8
0
100
AcDbLine
 10
0.330805000000016
 20
109.8124749999999
 30
0.0
 11
0.5996750000000161
 21
110.508475
 31
0.0
  0
LINE
  5
44
330
1E
100
AcDbEntity
  8
0
100
AcDbLine
 10
2.46153500000002
 20
111.948475
 30
0.0
 11
3.17852500000002
 21
112.0564749999999
 31
0.0
  0
LINE
  5
45
330
1E
100
AcDbEntity
  8
0
100
AcDbLine
 10
2.96350500000002
 20
111.984475
 30
0.0
 11
3.66928500000002
 21
111.8764749999999
 31
0.0
  0
LINE
  5
46
330
1E
100
AcDbEntity
  8
0
100
AcDbLine
 10
0.330805000000016
 20
108.300475
 30
0.0
 11
0.5996750000000161
 21
107.6044749999999
 31
0.0
  0
LINE
  5
47
330
1E
100
AcDbEntity
  8
0
100
AcDbLine
 10
0.229975000000016
 20
109.056475
 30
0.0
 11
0.330805000000016
 21
108.300475
 31
0.0
  0
LINE
  5
48
330
1E
100
AcDbEntity
  8
0
100
AcDbLine
 10
0.229975000000016
 20
109.056475
 30
0.0
 11
0.330805000000016
 21
109.8124749999999
 31
0.0
  0
LINE
  5
49
330
1E
100
AcDbEntity
  8
0
100
AcDbLine
 10
2.46153500000002
 20
106.1644749999999
 30
0.0
 11
3.17852500000002
 21
106.056475
 31
0.0
  0
LINE
  5
4A
330
1E
100
AcDbEntity
  8
0
100
AcDbLine
 10
3.17852500000002
 20
112.0564749999999
 30
0.0
 11
5.000025000000019
 21
112.0564749999999
 31
0.0
  0
LINE
  5
4B
330
1E
100
AcDbEntity
  8
0
100
AcDbLine
 10
3.17852500000002
 20
112.0564749999999
 30
0.0
 11
5.000025000000019
 21
112.0564749999999
 31
0.0
  0
LINE
  5
4C
330
1E
100
AcDbEntity
  8
0
100
AcDbLine
 10
2.96350500000002
 20
106.1284749999999
 30
0.0
 11
3.66928500000002
 21
106.2364749999999
 31
0.0
  0
LINE
  5
4D
330
1E
100
AcDbEntity
  8
0
100
AcDbLine
 10
3.50002500000002
 20
112.0564749999999
 30
0.0
 11
3.50002500000002
 21
112.9564749999999
 31
0.0
  0
LINE
  5
4E
330
1E
100
AcDbEntity
  8
0
100
AcDbLine
 10
3.50002500000002
 20
112.0564749999999
 30
0.0
 11
3.50002500000002
 21
112.256475
 31
0.0
  0
LINE
  5
4F
330
1E
100
AcDbEntity
  8
0
100
AcDbLine
 10
3.50002500000002
 20
112.0564749999999
 30
0.0
 11
3.50002500000002
 21
114.056475
 31
0.0
  0
LINE
  5
50
330
1E
100
AcDbEntity
  8
0
100
AcDbLine
 10
3.50002500000002
 20
112.256475
 30
0.0
 11
3.50002500000002
 21
112.9564749999999
 31
0.0
  0
LINE
  5
51
330
1E
100
AcDbEntity
  8
0
100
AcDbLine
 10
3.50002500000002
 20
112.256475
 30
0.0
 11
3.50002500000002
 21
112.0564749999999
 31
0.0
  0
LINE
  5
52
330
1E
100
AcDbEntity
  8
0
100
AcDbLine
 10
3.50002500000002
 20
114.056475
 30
0.0
 11
3.50002500000002
 21
112.0564749999999
 31
0.0
  0
LINE
  5
53
330
1E
100
AcDbEntity
  8
0
100
AcDbLine
 10
3.50002500000002
 20
114.056475
 30
0.0
 11
3.50002500000002
 21
118.7564749999999
 31
0.0
  0
LINE
  5
54
330
1E
100
AcDbEntity
  8
0
100
AcDbLine
 10
3.50002500000002
 20
113.556475
 30
0.0
 11
3.50002500000002
 21
113.356475
 31
0.0
  0
LINE
  5
55
330
1E
100
AcDbEntity
  8
0
100
AcDbLine
 10
3.50002500000002
 20
113.356475
 30
0.0
 11
3.50002500000002
 21
113.556475
 31
0.0
  0
LINE
  5
56
330
1E
100
AcDbEntity
  8
0
100
AcDbLine
 10
3.50002500000002
 20
113.356475
 30
0.0
 11
3.50002500000002
 21
112.9564749999999
 31
0.0
  0
LINE
  5
57
330
1E
100
AcDbEntity
  8
0
100
AcDbLine
 10
3.50002500000002
 20
112.9564749999999
 30
0.0
 11
3.50002500000002
 21
113.856475
 31
0.0
  0
LINE
  5
58
330
1E
100
AcDbEntity
  8
0
100
AcDbLine
 10
3.50002500000002
 20
112.9564749999999
 30
0.0
 11
3.50002500000002
 21
113.356475
 31
0.0
  0
LINE
  5
59
330
1E
100
AcDbEntity
  8
0
100
AcDbLine
 10
3.50002500000002
 20
112.9564749999999
 30
0.0
 11
3.50002500000002
 21
112.256475
 31
0.0
  0
LINE
  5
5A
330
1E
100
AcDbEntity
  8
0
100
AcDbLine
 10
3.50002500000002
 20
112.9564749999999
 30
0.0
 11
3.50002500000002
 21
112.0564749999999
 31
0.0
  0
LINE
  5
5B
330
1E
100
AcDbEntity
  8
0
100
AcDbLine
 10
3.50002500000002
 20
113.856475
 30
0.0
 11
3.50002500000002
 21
114.356475
 31
0.0
  0
LINE
  5
5C
330
1E
100
AcDbEntity
  8
0
100
AcDbLine
 10
3.50002500000002
 20
113.856475
 30
0.0
 11
3.50002500000002
 21
112.9564749999999
 31
0.0
  0
LINE
  5
5D
330
1E
100
AcDbEntity
  8
0
100
AcDbLine
 10
3.50002500000002
 20
125.956475
 30
0.0
 11
3.50002500000002
 21
122.856475
 31
0.0
  0
LINE
  5
5E
330
1E
100
AcDbEntity
  8
0
100
AcDbLine
 10
3.50002500000002
 20
125.956475
 30
0.0
 11
3.50002500000002
 21
127.856475
 31
0.0
  0
LINE
  5
5F
330
1E
100
AcDbEntity
  8
0
100
AcDbLine
 10
3.50002500000002
 20
127.856475
 30
0.0
 11
3.50002500000002
 21
125.956475
 31
0.0
  0
LINE
  5
60
330
1E
100
AcDbEntity
  8
0
100
AcDbLine
 10
3.50002500000002
 20
127.856475
 30
0.0
 11
3.50002500000002
 21
128.556475
 31
0.0
  0
LINE
  5
61
330
1E
100
AcDbEntity
  8
0
100
AcDbLine
 10
3.50002500000002
 20
122.856475
 30
0.0
 11
3.50002500000002
 21
118.7564749999999
 31
0.0
  0
LINE
  5
62
330
1E
100
AcDbEntity
  8
0
100
AcDbLine
 10
3.50002500000002
 20
122.856475
 30
0.0
 11
3.50002500000002
 21
125.956475
 31
0.0
  0
LINE
  5
63
330
1E
100
AcDbEntity
  8
0
100
AcDbLine
 10
3.50002500000002
 20
118.7564749999999
 30
0.0
 11
3.50002500000002
 21
114.056475
 31
0.0
  0
LINE
  5
64
330
1E
100
AcDbEntity
  8
0
100
AcDbLine
 10
3.50002500000002
 20
118.7564749999999
 30
0.0
 11
3.50002500000002
 21
122.856475
 31
0.0
  0
LINE
  5
65
330
1E
100
AcDbEntity
  8
0
100
AcDbLine
 10
3.50002500000002
 20
114.556475
 30
0.0
 11
3.50002500000002
 21
114.356475
 31
0.0
  0
LINE
  5
66
330
1E
100
AcDbEntity
  8
0
100
AcDbLine
 10
3.50002500000002
 20
114.356475
 30
0.0
 11
3.50002500000002
 21
114.556475
 31
0.0
  0
LINE
  5
67
330
1E
100
AcDbEntity
  8
0
100
AcDbLine
 10
3.50002500000002
 20
114.356475
 30
0.0
 11
3.50002500000002
 21
113.856475
 31
0.0
  0
LINE
  5
68
330
1E
100
AcDbEntity
  8
0
100
AcDbLine
 10
3.50002500000002
 20
128.556475
 30
0.0
 11
4.00002500000002
 21
129.556475
 31
0.0
  0
LINE
  5
69
330
1E
100
AcDbEntity
  8
0
100
AcDbLine
 10
3.50002500000002
 20
128.556475
 30
0.0
 11
3.50002500000002
 21
127.856475
 31
0.0
  0
LINE
  5
6A
330
1E
100
AcDbEntity
  8
0
100
AcDbLine
 10
3.50002500000002
 20
106.056475
 30
0.0
 11
3.50002500000002
 21
105.156475
 31
0.0
  0
LINE
  5
6B
330
1E
100
AcDbEntity
  8
0
100
AcDbLine
 10
3.50002500000002
 20
106.056475
 30
0.0
 11
3.50002500000002
 21
105.8564749999999
 31
0.0
  0
LINE
  5
6C
330
1E
100
AcDbEntity
  8
0
100
AcDbLine
 10
3.50002500000002
 20
106.056475
 30
0.0
 11
3.50002500000002
 21
104.056475
 31
0.0
  0
LINE
  5
6D
330
1E
100
AcDbEntity
  8
0
100
AcDbLine
 10
5.000025000000019
 20
88.056475
 30
0.0
 11
45.500025
 21
88.056475
 31
0.0
  0
LINE
  5
6E
330
1E
100
AcDbEntity
  8
0
100
AcDbLine
 10
123.576025
 20
11.129575
 30
0.0
 11
125.112025
 21
7.521205000000009
 31
0.0
  0
LINE
  5
6F
330
1E
100
AcDbEntity
  8
0
100
AcDbLine
 10
125.112025
 20
7.521205000000009
 30
0.0
 11
127.672025
 21
4.333765000000009
 31
0.0
  0
LINE
  5
70
330
1E
100
AcDbEntity
  8
0
100
AcDbLine
 10
127.672025
 20
4.333765000000009
 30
0.0
 11
131.0640249999999
 21
1.928152000000009
 31
0.0
  0
LINE
  5
71
330
1E
100
AcDbEntity
  8
0
100
AcDbLine
 10
123.000025
 20
14.978575
 30
0.0
 11
123.000025
 21
15.274375
 31
0.0
  0
LINE
  5
72
330
1E
100
AcDbEntity
  8
0
100
AcDbLine
 10
123.000025
 20
14.978575
 30
0.0
 11
123.022346018708
 21
15.1277305573023
 31
0.0
  0
LINE
  5
73
330
1E
100
AcDbEntity
  8
0
100
AcDbLine
 10
123.000025
 20
14.978575
 30
0.0
 11
123.576025
 21
11.129575
 31
0.0
  0
LINE
  5
74
330
1E
100
AcDbEntity
  8
0
100
AcDbLine
 10
123.000025
 20
23.933575
 30
0.0
 11
123.000025
 21
22.05647499999999
 31
0.0
  0
LINE
  5
75
330
1E
100
AcDbEntity
  8
0
100
AcDbLine
 10
123.000025
 20
23.933575
 30
0.0
 11
123.000025
 21
25.915375
 31
0.0
  0
LINE
  5
76
330
1E
100
AcDbEntity
  8
0
100
AcDbLine
 10
123.000025
 20
22.05647499999999
 30
0.0
 11
123.000025
 21
20.316275
 31
0.0
  0
LINE
  5
77
330
1E
100
AcDbEntity
  8
0
100
AcDbLine
 10
123.000025
 20
22.05647499999999
 30
0.0
 11
123.000025
 21
23.933575
 31
0.0
  0
LINE
  5
78
330
1E
100
AcDbEntity
  8
0
100
AcDbLine
 10
123.000025
 20
20.316275
 30
0.0
 11
123.000025
 21
18.742775
 31
0.0
  0
LINE
  5
79
330
1E
100
AcDbEntity
  8
0
100
AcDbLine
 10
123.000025
 20
20.316275
 30
0.0
 11
123.000025
 21
22.05647499999999
 31
0.0
  0
LINE
  5
7A
330
1E
100
AcDbEntity
  8
0
100
AcDbLine
 10
123.000025
 20
18.742775
 30
0.0
 11
123.000025
 21
17.36277499999999
 31
0.0
  0
LINE
  5
7B
330
1E
100
AcDbEntity
  8
0
100
AcDbLine
 10
123.000025
 20
18.742775
 30
0.0
 11
123.000025
 21
20.316275
 31
0.0
  0
LINE
  5
7C
330
1E
100
AcDbEntity
  8
0
100
AcDbLine
 10
123.000025
 20
17.36277499999999
 30
0.0
 11
123.000025
 21
16.20007499999999
 31
0.0
  0
LINE
  5
7D
330
1E
100
AcDbEntity
  8
0
100
AcDbLine
 10
123.000025
 20
17.36277499999999
 30
0.0
 11
123.000025
 21
18.742775
 31
0.0
  0
LINE
  5
7E
330
1E
100
AcDbEntity
  8
0
100
AcDbLine
 10
123.000025
 20
16.20007499999999
 30
0.0
 11
123.000025
 21
15.274375
 31
0.0
  0
LINE
  5
7F
330
1E
100
AcDbEntity
  8
0
100
AcDbLine
 10
123.000025
 20
16.20007499999999
 30
0.0
 11
123.000025
 21
17.36277499999999
 31
0.0
  0
LINE
  5
80
330
1E
100
AcDbEntity
  8
0
100
AcDbLine
 10
123.000025
 20
15.274375
 30
0.0
 11
123.000025
 21
16.20007499999999
 31
0.0
  0
LINE
  5
81
330
1E
100
AcDbEntity
  8
0
100
AcDbLine
 10
123.000025
 20
15.274375
 30
0.0
 11
123.000025
 21
14.978575
 31
0.0
  0
LINE
  5
82
330
1E
100
AcDbEntity
  8
0
100
AcDbLine
 10
143.096025
 20
0.484785000000011
 30
0.0
 11
146.936025
 21
1.928152000000009
 31
0.0
  0
LINE
  5
83
330
1E
100
AcDbEntity
  8
0
100
AcDbLine
 10
139.0000249999999
 20
-0.0564749999999889
 30
0.0
 11
143.096025
 21
0.484785000000011
 31
0.0
  0
LINE
  5
84
330
1E
100
AcDbEntity
  8
0
100
AcDbLine
 10
143.096025
 20
0.484785000000011
 30
0.0
 11
146.936025
 21
1.928152000000009
 31
0.0
  0
LINE
  5
85
330
1E
100
AcDbEntity
  8
0
100
AcDbLine
 10
154.424025
 20
11.129575
 30
0.0
 11
155.000025
 21
14.978575
 31
0.0
  0
LINE
  5
86
330
1E
100
AcDbEntity
  8
0
100
AcDbLine
 10
152.888025
 20
7.521205000000009
 30
0.0
 11
154.424025
 21
11.129575
 31
0.0
  0
LINE
  5
87
330
1E
100
AcDbEntity
  8
0
100
AcDbLine
 10
150.3280249999999
 20
4.333765000000009
 30
0.0
 11
152.888025
 21
7.521205000000009
 31
0.0
  0
LINE
  5
88
330
1E
100
AcDbEntity
  8
0
100
AcDbLine
 10
146.936025
 20
1.928152000000009
 30
0.0
 11
150.3280249999999
 21
4.333765000000009
 31
0.0
  0
LINE
  5
89
330
1E
100
AcDbEntity
  8
0
100
AcDbLine
 10
155.000025
 20
14.978575
 30
0.0
 11
155.000025
 21
15.274375
 31
0.0
  0
LINE
  5
8A
330
1E
100
AcDbEntity
  8
0
100
AcDbLine
 10
155.000025
 20
17.36277499999999
 30
0.0
 11
155.000025
 21
16.20007499999999
 31
0.0
  0
LINE
  5
8B
330
1E
100
AcDbEntity
  8
0
100
AcDbLine
 10
155.000025
 20
17.36277499999999
 30
0.0
 11
155.000025
 21
18.742775
 31
0.0
  0
LINE
  5
8C
330
1E
100
AcDbEntity
  8
0
100
AcDbLine
 10
155.000025
 20
16.20007499999999
 30
0.0
 11
155.000025
 21
15.274375
 31
0.0
  0
LINE
  5
8D
330
1E
100
AcDbEntity
  8
0
100
AcDbLine
 10
155.000025
 20
16.20007499999999
 30
0.0
 11
155.000025
 21
17.36277499999999
 31
0.0
  0
LINE
  5
8E
330
1E
100
AcDbEntity
  8
0
100
AcDbLine
 10
155.000025
 20
23.933575
 30
0.0
 11
155.000025
 21
22.05647499999999
 31
0.0
  0
LINE
  5
8F
330
1E
100
AcDbEntity
  8
0
100
AcDbLine
 10
155.000025
 20
23.933575
 30
0.0
 11
155.000025
 21
25.915375
 31
0.0
  0
LINE
  5
90
330
1E
100
AcDbEntity
  8
0
100
AcDbLine
 10
155.000025
 20
22.05647499999999
 30
0.0
 11
155.000025
 21
20.316275
 31
0.0
  0
LINE
  5
91
330
1E
100
AcDbEntity
  8
0
100
AcDbLine
 10
155.000025
 20
22.05647499999999
 30
0.0
 11
155.000025
 21
23.933575
 31
0.0
  0
LINE
  5
92
330
1E
100
AcDbEntity
  8
0
100
AcDbLine
 10
155.000025
 20
18.742775
 30
0.0
 11
155.000025
 21
20.316275
 31
0.0
  0
LINE
  5
93
330
1E
100
AcDbEntity
  8
0
100
AcDbLine
 10
155.000025
 20
18.742775
 30
0.0
 11
155.000025
 21
17.36277499999999
 31
0.0
  0
LINE
  5
94
330
1E
100
AcDbEntity
  8
0
100
AcDbLine
 10
155.000025
 20
20.316275
 30
0.0
 11
155.000025
 21
18.742775
 31
0.0
  0
LINE
  5
95
330
1E
100
AcDbEntity
  8
0
100
AcDbLine
 10
155.000025
 20
20.316275
 30
0.0
 11
155.000025
 21
22.05647499999999
 31
0.0
  0
LINE
  5
96
330
1E
100
AcDbEntity
  8
0
100
AcDbLine
 10
155.000025
 20
15.274375
 30
0.0
 11
155.000025
 21
14.978575
 31
0.0
  0
LINE
  5
97
330
1E
100
AcDbEntity
  8
0
100
AcDbLine
 10
155.000025
 20
15.274375
 30
0.0
 11
155.000025
 21
16.20007499999999
 31
0.0
  0
LINE
  5
98
330
1E
100
AcDbEntity
  8
0
100
AcDbLine
 10
154.9777039812919
 20
15.1277305573023
 30
0.0
 11
155.000025
 21
14.978575
 31
0.0
  0
LINE
  5
99
330
1E
100
AcDbEntity
  8
0
100
AcDbLine
 10
131.0640249999999
 20
1.928152000000009
 30
0.0
 11
134.9040249999999
 21
0.484785000000011
 31
0.0
  0
LINE
  5
9A
330
1E
100
AcDbEntity
  8
0
100
AcDbLine
 10
131.0640249999999
 20
1.928152000000009
 30
0.0
 11
134.9040249999999
 21
0.484785000000011
 31
0.0
  0
LINE
  5
9B
330
1E
100
AcDbEntity
  8
0
100
AcDbLine
 10
134.9040249999999
 20
0.484785000000011
 30
0.0
 11
139.0000249999999
 21
-0.0564749999999889
 31
0.0
  0
LINE
  5
9C
330
1E
100
AcDbEntity
  8
0
100
AcDbLine
 10
120.7974933544299
 20
88.056475
 30
0.0
 11
123.000025
 21
30.056475
 31
0.0
  0
LINE
  5
9D
330
1E
100
AcDbEntity
  8
0
100
AcDbLine
 10
155.000025
 20
25.915375
 30
0.0
 11
155.000025
 21
27.96807499999999
 31
0.0
  0
LINE
  5
9E
330
1E
100
AcDbEntity
  8
0
100
AcDbLine
 10
155.000025
 20
25.915375
 30
0.0
 11
155.000025
 21
23.933575
 31
0.0
  0
LINE
  5
9F
330
1E
100
AcDbEntity
  8
0
100
AcDbLine
 10
155.000025
 20
27.96807499999999
 30
0.0
 11
155.000025
 21
30.056475
 31
0.0
  0
LINE
  5
A0
330
1E
100
AcDbEntity
  8
0
100
AcDbLine
 10
155.000025
 20
27.96807499999999
 30
0.0
 11
155.000025
 21
25.915375
 31
0.0
  0
LINE
  5
A1
330
1E
100
AcDbEntity
  8
0
100
AcDbLine
 10
123.000025
 20
25.915375
 30
0.0
 11
123.000025
 21
27.96807499999999
 31
0.0
  0
LINE
  5
A2
330
1E
100
AcDbEntity
  8
0
100
AcDbLine
 10
123.000025
 20
25.915375
 30
0.0
 11
123.000025
 21
23.933575
 31
0.0
  0
LINE
  5
A3
330
1E
100
AcDbEntity
  8
0
100
AcDbLine
 10
155.000025
 20
30.056475
 30
0.0
 11
157.2025566455699
 21
88.056475
 31
0.0
  0
LINE
  5
A4
330
1E
100
AcDbEntity
  8
0
100
AcDbLine
 10
155.000025
 20
30.056475
 30
0.0
 11
155.000025
 21
27.96807499999999
 31
0.0
  0
LINE
  5
A5
330
1E
100
AcDbEntity
  8
0
100
AcDbLine
 10
155.000025
 20
30.056475
 30
0.0
 11
157.2025566455699
 21
88.056475
 31
0.0
  0
LINE
  5
A6
330
1E
100
AcDbEntity
  8
0
100
AcDbLine
 10
123.000025
 20
30.056475
 30
0.0
 11
123.000025
 21
27.96807499999999
 31
0.0
  0
LINE
  5
A7
330
1E
100
AcDbEntity
  8
0
100
AcDbLine
 10
123.000025
 20
27.96807499999999
 30
0.0
 11
123.000025
 21
30.056475
 31
0.0
  0
LINE
  5
A8
330
1E
100
AcDbEntity
  8
0
100
AcDbLine
 10
123.000025
 20
27.96807499999999
 30
0.0
 11
123.000025
 21
25.915375
 31
0.0
  0
LINE
  5
A9
330
1E
100
AcDbEntity
  8
0
100
AcDbLine
 10
120.7974933544299
 20
88.056475
 30
0.0
 11
123.000025
 21
30.056475
 31
0.0
  0
LINE
  5
AF
330
1E
100
AcDbEntity
  8
0
100
AcDbLine
 10
47.000025
 20
88.056475
 30
0.0
 11
120.7974933544299
 21
88.056475
 31
0.0
  0
LINE
  5
B0
330
1E
100
AcDbEntity
  8
0
100
AcDbLine
 10
47.000025
 20
88.056475
 30
0.0
 11
120.7974933544299
 21
88.056475
 31
0.0
  0
LINE
  5
B1
330
1E
100
AcDbEntity
  8
0
100
AcDbLine
 10
45.500025
 20
88.056475
 30
0.0
 11
45.500025
 21
88.85647500000001
 31
0.0
  0
LINE
  5
B4
330
1E
100
AcDbEntity
  8
0
100
AcDbLine
 10
3.66928500000002
 20
111.8764749999999
 30
0.0
 11
4.31906500000002
 21
111.5884749999999
 31
0.0
  0
LINE
  5
B5
330
1E
100
AcDbEntity
  8
0
100
AcDbLine
 10
3.66928500000002
 20
106.2364749999999
 30
0.0
 11
4.31906500000002
 21
106.5244749999999
 31
0.0
  0
LINE
  5
CA
330
1E
100
AcDbEntity
  8
0
100
AcDbLine
 10
4.00002500000002
 20
129.556475
 30
0.0
 11
5.000025000000019
 21
130.056475
 31
0.0
  0
LINE
  5
CC
330
1E
100
AcDbEntity
  8
0
100
AcDbLine
 10
45.500025
 20
89.55647500000001
 30
0.0
 11
46.000025
 21
88.55647500000001
 31
0.0
  0
LINE
  5
CD
330
1E
100
AcDbEntity
  8
0
100
AcDbLine
 10
45.500025
 20
94.256475
 30
0.0
 11
45.500025
 21
98.65647500000001
 31
0.0
  0
LINE
  5
CE
330
1E
100
AcDbEntity
  8
0
100
AcDbLine
 10
4.31906500000002
 20
106.5244749999999
 30
0.0
 11
4.890415000000019
 21
106.9924749999999
 31
0.0
  0
LINE
  5
CF
330
1E
100
AcDbEntity
  8
0
100
AcDbLine
 10
4.890415000000019
 20
106.9924749999999
 30
0.0
 11
5.327325000000019
 21
107.6044749999999
 31
0.0
  0
LINE
  5
D0
330
1E
100
AcDbEntity
  8
0
100
AcDbLine
 10
4.31906500000002
 20
111.5884749999999
 30
0.0
 11
4.890415000000019
 21
111.1204749999999
 31
0.0
  0
LINE
  5
D1
330
1E
100
AcDbEntity
  8
0
100
AcDbLine
 10
4.890415000000019
 20
111.1204749999999
 30
0.0
 11
5.327325000000019
 21
110.508475
 31
0.0
  0
LINE
  5
D2
330
1E
100
AcDbEntity
  8
0
100
AcDbLine
 10
5.327325000000019
 20
110.508475
 30
0.0
 11
5.596195000000009
 21
109.8124749999999
 31
0.0
  0
LINE
  5
D3
330
1E
100
AcDbEntity
  8
0
100
AcDbLine
 10
5.596195000000009
 20
109.8124749999999
 30
0.0
 11
5.697025000000018
 21
109.056475
 31
0.0
  0
LINE
  5
D4
330
1E
100
AcDbEntity
  8
0
100
AcDbLine
 10
5.327325000000019
 20
107.6044749999999
 30
0.0
 11
5.596195000000009
 21
108.300475
 31
0.0
  0
LINE
  5
D5
330
1E
100
AcDbEntity
  8
0
100
AcDbLine
 10
5.596195000000009
 20
108.300475
 30
0.0
 11
5.697025000000018
 21
109.056475
 31
0.0
  0
LINE
  5
D6
330
1E
100
AcDbEntity
  8
0
100
AcDbLine
 10
45.500025
 20
98.65647500000001
 30
0.0
 11
45.500025
 21
103.6564749999999
 31
0.0
  0
LINE
  5
D7
330
1E
100
AcDbEntity
  8
0
100
AcDbLine
 10
45.500025
 20
103.6564749999999
 30
0.0
 11
45.500025
 21
109.056475
 31
0.0
  0
LINE
  5
D8
330
1E
100
AcDbEntity
  8
0
100
AcDbLine
 10
45.500025
 20
90.856475
 30
0.0
 11
45.500025
 21
94.256475
 31
0.0
  0
LINE
  5
D9
330
1E
100
AcDbEntity
  8
0
100
AcDbLine
 10
45.500025
 20
88.85647500000001
 30
0.0
 11
45.500025
 21
90.856475
 31
0.0
  0
LINE
  5
DA
330
1E
100
AcDbEntity
  8
0
100
AcDbLine
 10
45.500025
 20
128.556475
 30
0.0
 11
46.000025
 21
129.556475
 31
0.0
  0
LINE
  5
DB
330
1E
100
AcDbEntity
  8
0
100
AcDbLine
 10
45.500025
 20
123.856475
 30
0.0
 11
45.500025
 21
127.2564749999999
 31
0.0
  0
LINE
  5
DC
330
1E
100
AcDbEntity
  8
0
100
AcDbLine
 10
45.500025
 20
127.2564749999999
 30
0.0
 11
45.500025
 21
129.2564749999999
 31
0.0
  0
LINE
  5
DD
330
1E
100
AcDbEntity
  8
0
100
AcDbLine
 10
5.000025000000019
 20
130.056475
 30
0.0
 11
45.500025
 21
130.056475
 31
0.0
  0
LINE
  5
DE
330
1E
100
AcDbEntity
  8
0
100
AcDbLine
 10
45.500025
 20
129.2564749999999
 30
0.0
 11
45.500025
 21
130.056475
 31
0.0
  0
LINE
  5
DF
330
1E
100
AcDbEntity
  8
0
100
AcDbLine
 10
45.500025
 20
119.456475
 30
0.0
 11
45.500025
 21
123.856475
 31
0.0
  0
LINE
  5
E0
330
1E
100
AcDbEntity
  8
0
100
AcDbLine
 10
45.500025
 20
114.456475
 30
0.0
 11
45.500025
 21
119.456475
 31
0.0
  0
LINE
  5
E5
330
1E
100
AcDbEntity
  8
0
100
AcDbLine
 10
46.000025
 20
98.85647500000001
 30
0.0
 11
46.000025
 21
94.55647500000001
 31
0.0
  0
LINE
  5
E6
330
1E
100
AcDbEntity
  8
0
100
AcDbLine
 10
46.000025
 20
98.85647500000001
 30
0.0
 11
46.000025
 21
103.756475
 31
0.0
  0
LINE
  5
E7
330
1E
100
AcDbEntity
  8
0
100
AcDbLine
 10
46.000025
 20
103.756475
 30
0.0
 11
46.000025
 21
98.85647500000001
 31
0.0
  0
LINE
  5
E8
330
1E
100
AcDbEntity
  8
0
100
AcDbLine
 10
46.000025
 20
103.756475
 30
0.0
 11
46.000025
 21
109.056475
 31
0.0
  0
LINE
  5
E9
330
1E
100
AcDbEntity
  8
0
100
AcDbLine
 10
46.000025
 20
126.856475
 30
0.0
 11
46.000025
 21
123.5564749999999
 31
0.0
  0
LINE
  5
EA
330
1E
100
AcDbEntity
  8
0
100
AcDbLine
 10
46.000025
 20
126.856475
 30
0.0
 11
46.000025
 21
128.8564749999999
 31
0.0
  0
LINE
  5
EB
330
1E
100
AcDbEntity
  8
0
100
AcDbLine
 10
46.000025
 20
128.8564749999999
 30
0.0
 11
46.000025
 21
126.856475
 31
0.0
  0
LINE
  5
EC
330
1E
100
AcDbEntity
  8
0
100
AcDbLine
 10
46.000025
 20
128.8564749999999
 30
0.0
 11
46.000025
 21
129.556475
 31
0.0
  0
LINE
  5
ED
330
1E
100
AcDbEntity
  8
0
100
AcDbLine
 10
46.000025
 20
123.5564749999999
 30
0.0
 11
46.000025
 21
119.256475
 31
0.0
  0
LINE
  5
EE
330
1E
100
AcDbEntity
  8
0
100
AcDbLine
 10
46.000025
 20
123.5564749999999
 30
0.0
 11
46.000025
 21
126.856475
 31
0.0
  0
LINE
  5
EF
330
1E
100
AcDbEntity
  8
0
100
AcDbLine
 10
46.000025
 20
119.256475
 30
0.0
 11
46.000025
 21
114.356475
 31
0.0
  0
LINE
  5
F0
330
1E
100
AcDbEntity
  8
0
100
AcDbLine
 10
46.000025
 20
119.256475
 30
0.0
 11
46.000025
 21
123.5564749999999
 31
0.0
  0
LINE
  5
F1
330
1E
100
AcDbEntity
  8
0
100
AcDbLine
 10
46.000025
 20
114.356475
 30
0.0
 11
46.000025
 21
109.056475
 31
0.0
  0
LINE
  5
F2
330
1E
100
AcDbEntity
  8
0
100
AcDbLine
 10
46.000025
 20
114.356475
 30
0.0
 11
46.000025
 21
119.256475
 31
0.0
  0
LINE
  5
F3
330
1E
100
AcDbEntity
  8
0
100
AcDbLine
 10
46.000025
 20
109.056475
 30
0.0
 11
46.000025
 21
103.756475
 31
0.0
  0
LINE
  5
F4
330
1E
100
AcDbEntity
  8
0
100
AcDbLine
 10
46.000025
 20
109.056475
 30
0.0
 11
46.000025
 21
114.356475
 31
0.0
  0
LINE
  5
F5
330
1E
100
AcDbEntity
  8
0
100
AcDbLine
 10
46.000025
 20
94.55647500000001
 30
0.0
 11
46.000025
 21
91.25647499999999
 31
0.0
  0
LINE
  5
F6
330
1E
100
AcDbEntity
  8
0
100
AcDbLine
 10
46.000025
 20
94.55647500000001
 30
0.0
 11
46.000025
 21
98.85647500000001
 31
0.0
  0
LINE
  5
F7
330
1E
100
AcDbEntity
  8
0
100
AcDbLine
 10
46.000025
 20
91.25647499999999
 30
0.0
 11
46.000025
 21
89.256475
 31
0.0
  0
LINE
  5
F8
330
1E
100
AcDbEntity
  8
0
100
AcDbLine
 10
46.000025
 20
91.25647499999999
 30
0.0
 11
46.000025
 21
94.55647500000001
 31
0.0
  0
LINE
  5
F9
330
1E
100
AcDbEntity
  8
0
100
AcDbLine
 10
46.000025
 20
89.256475
 30
0.0
 11
46.000025
 21
88.55647500000001
 31
0.0
  0
LINE
  5
FA
330
1E
100
AcDbEntity
  8
0
100
AcDbLine
 10
46.000025
 20
89.256475
 30
0.0
 11
46.000025
 21
91.25647499999999
 31
0.0
  0
LINE
  5
FB
330
1E
100
AcDbEntity
  8
0
100
AcDbLine
 10
46.000025
 20
129.556475
 30
0.0
 11
47.000025
 21
130.056475
 31
0.0
  0
LINE
  5
FC
330
1E
100
AcDbEntity
  8
0
100
AcDbLine
 10
46.000025
 20
129.556475
 30
0.0
 11
46.000025
 21
128.8564749999999
 31
0.0
  0
LINE
  5
185
330
1E
100
AcDbEntity
  8
0
100
AcDbLine
 10
81.000025
 20
130.056475
 30
0.0
 11
81.000025
 21
141.456475
 31
0.0
  0
LINE
  5
186
330
1E
100
AcDbEntity
  8
0
100
AcDbLine
 10
47.612025
 20
130.056475
 30
0.0
 11
139.0000249999999
 21
130.056475
 31
0.0
  0
LINE
  5
187
330
1E
100
AcDbEntity
  8
0
100
AcDbLine
 10
47.000025
 20
130.056475
 30
0.0
 11
47.612025
 21
130.056475
 31
0.0
  0
LINE
  5
188
330
1E
100
AcDbEntity
  8
0
100
AcDbLine
 10
47.000025
 20
130.056475
 30
0.0
 11
47.000025
 21
141.456475
 31
0.0
  0
LINE
  5
189
330
1E
100
AcDbEntity
  8
0
100
AcDbLine
 10
46.000025
 20
88.55647500000001
 30
0.0
 11
47.000025
 21
88.056475
 31
0.0
  0
LINE
  5
18A
330
1E
100
AcDbEntity
  8
0
100
AcDbLine
 10
46.000025
 20
88.55647500000001
 30
0.0
 11
46.000025
 21
89.256475
 31
0.0
  0
LINE
  5
18B
330
1E
100
AcDbEntity
  8
0
100
AcDbLine
 10
45.500025
 20
109.056475
 30
0.0
 11
45.500025
 21
114.456475
 31
0.0
  0
LINE
  5
18C
330
1E
100
AcDbEntity
  8
0
100
AcDbLine
 10
47.408025
 20
142.056475
 30
0.0
 11
48.020025
 21
142.056475
 31
0.0
  0
LINE
  5
18E
330
1E
100
AcDbEntity
  8
0
100
AcDbLine
 10
47.000025
 20
141.456475
 30
0.0
 11
47.000025
 21
130.056475
 31
0.0
  0
LINE
  5
18F
330
1E
100
AcDbEntity
  8
0
100
AcDbLine
 10
47.000025
 20
141.456475
 30
0.0
 11
47.408025
 21
142.056475
 31
0.0
  0
LINE
  5
190
330
1E
100
AcDbEntity
  8
0
100
AcDbLine
 10
48.000025
 20
146.056475
 30
0.0
 11
48.000025
 21
156.056475
 31
0.0
  0
LINE
  5
191
330
1E
100
AcDbEntity
  8
0
100
AcDbLine
 10
48.000025
 20
146.056475
 30
0.0
 11
48.000025
 21
145.056475
 31
0.0
  0
LINE
  5
192
330
1E
100
AcDbEntity
  8
0
100
AcDbLine
 10
48.000025
 20
144.1564749999999
 30
0.0
 11
48.000025
 21
144.2964749999999
 31
0.0
  0
LINE
  5
193
330
1E
100
AcDbEntity
  8
0
100
AcDbLine
 10
48.000025
 20
144.1564749999999
 30
0.0
 11
48.421125
 21
144.056475
 31
0.0
  0
LINE
  5
194
330
1E
100
AcDbEntity
  8
0
100
AcDbLine
 10
48.000025
 20
157.056475
 30
0.0
 11
48.000025
 21
156.056475
 31
0.0
  0
LINE
  5
196
330
1E
100
AcDbEntity
  8
0
100
AcDbLine
 10
48.000025
 20
157.056475
 30
0.0
 11
48.000025
 21
157.816475
 31
0.0
  0
LINE
  5
197
330
1E
100
AcDbEntity
  8
0
100
AcDbLine
 10
48.000025
 20
156.056475
 30
0.0
 11
48.000025
 21
146.056475
 31
0.0
  0
LINE
  5
19A
330
1E
100
AcDbEntity
  8
0
100
AcDbLine
 10
48.000025
 20
156.056475
 30
0.0
 11
48.000025
 21
157.056475
 31
0.0
  0
LINE
  5
19B
330
1E
100
AcDbEntity
  8
0
100
AcDbLine
 10
48.000025
 20
156.056475
 30
0.0
 11
49.371325
 21
157.056475
 31
0.0
  0
LINE
  5
19C
330
1E
100
AcDbEntity
  8
0
100
AcDbLine
 10
48.000025
 20
157.816475
 30
0.0
 11
48.000025
 21
157.056475
 31
0.0
  0
LINE
  5
19D
330
1E
100
AcDbEntity
  8
0
100
AcDbLine
 10
48.000025
 20
157.816475
 30
0.0
 11
48.000025
 21
157.956475
 31
0.0
  0
LINE
  5
1A1
330
1E
100
AcDbEntity
  8
0
100
AcDbLine
 10
48.000025
 20
145.056475
 30
0.0
 11
48.000025
 21
144.2964749999999
 31
0.0
  0
LINE
  5
1A2
330
1E
100
AcDbEntity
  8
0
100
AcDbLine
 10
48.000025
 20
145.056475
 30
0.0
 11
48.336825
 21
145.056475
 31
0.0
  0
LINE
  5
1A3
330
1E
100
AcDbEntity
  8
0
100
AcDbLine
 10
48.000025
 20
145.056475
 30
0.0
 11
48.000025
 21
146.056475
 31
0.0
  0
LINE
  5
1A4
330
1E
100
AcDbEntity
  8
0
100
AcDbLine
 10
30.000025
 20
184.056475
 30
0.0
 11
31.200025
 21
184.056475
 31
0.0
  0
LINE
  5
1A5
330
1E
100
AcDbEntity
  8
0
100
AcDbLine
 10
30.000025
 20
184.056475
 30
0.0
 11
30.000025
 21
159.556475
 31
0.0
  0
LINE
  5
1A6
330
1E
100
AcDbEntity
  8
0
100
AcDbLine
 10
41.000025
 20
158.056475
 30
0.0
 11
47.800025
 21
158.056475
 31
0.0
  0
LINE
  5
1A7
330
1E
100
AcDbEntity
  8
0
100
AcDbLine
 10
47.800025
 20
158.056475
 30
0.0
 11
48.421125
 21
158.056475
 31
0.0
  0
LINE
  5
1A8
330
1E
100
AcDbEntity
  8
0
100
AcDbLine
 10
35.900025
 20
158.056475
 30
0.0
 11
41.000025
 21
158.056475
 31
0.0
  0
LINE
  5
1A9
330
1E
100
AcDbEntity
  8
0
100
AcDbLine
 10
35.000025
 20
158.556475
 30
0.0
 11
40.300025
 21
158.556475
 31
0.0
  0
LINE
  5
1AA
330
1E
100
AcDbEntity
  8
0
100
AcDbLine
 10
31.700025
 20
158.556475
 30
0.0
 11
35.000025
 21
158.556475
 31
0.0
  0
LINE
  5
1AB
330
1E
100
AcDbEntity
  8
0
100
AcDbLine
 10
40.300025
 20
158.556475
 30
0.0
 11
47.300025
 21
158.556475
 31
0.0
  0
LINE
  5
1AC
330
1E
100
AcDbEntity
  8
0
100
AcDbLine
 10
47.300025
 20
158.556475
 30
0.0
 11
55.40002499999999
 21
158.556475
 31
0.0
  0
LINE
  5
1AD
330
1E
100
AcDbEntity
  8
0
100
AcDbLine
 10
32.70002499999999
 20
158.056475
 30
0.0
 11
35.900025
 21
158.056475
 31
0.0
  0
LINE
  5
1AE
330
1E
100
AcDbEntity
  8
0
100
AcDbLine
 10
31.500025
 20
158.056475
 30
0.0
 11
32.70002499999999
 21
158.056475
 31
0.0
  0
LINE
  5
1AF
330
1E
100
AcDbEntity
  8
0
100
AcDbLine
 10
34.600025
 20
184.056475
 30
0.0
 11
40.00002499999999
 21
184.056475
 31
0.0
  0
LINE
  5
1B0
330
1E
100
AcDbEntity
  8
0
100
AcDbLine
 10
31.200025
 20
184.056475
 30
0.0
 11
34.600025
 21
184.056475
 31
0.0
  0
LINE
  5
1B1
330
1E
100
AcDbEntity
  8
0
100
AcDbLine
 10
40.00002499999999
 20
184.056475
 30
0.0
 11
47.100025
 21
184.056475
 31
0.0
  0
LINE
  5
1B2
330
1E
100
AcDbEntity
  8
0
100
AcDbLine
 10
47.100025
 20
184.056475
 30
0.0
 11
55.300025
 21
184.056475
 31
0.0
  0
LINE
  5
1B3
330
1E
100
AcDbEntity
  8
0
100
AcDbLine
 10
30.500025
 20
158.556475
 30
0.0
 11
31.500025
 21
158.056475
 31
0.0
  0
LINE
  5
1B4
330
1E
100
AcDbEntity
  8
0
100
AcDbLine
 10
30.500025
 20
158.556475
 30
0.0
 11
31.700025
 21
158.556475
 31
0.0
  0
LINE
  5
1B5
330
1E
100
AcDbEntity
  8
0
100
AcDbLine
 10
30.000025
 20
159.556475
 30
0.0
 11
30.000025
 21
184.056475
 31
0.0
  0
LINE
  5
1B6
330
1E
100
AcDbEntity
  8
0
100
AcDbLine
 10
30.000025
 20
159.556475
 30
0.0
 11
30.500025
 21
158.556475
 31
0.0
  0
LINE
  5
1B7
330
1E
100
AcDbEntity
  8
0
100
AcDbLine
 10
48.000025
 20
157.956475
 30
0.0
 11
48.000025
 21
157.816475
 31
0.0
  0
LINE
  5
1B8
330
1E
100
AcDbEntity
  8
0
100
AcDbLine
 10
48.000025
 20
157.956475
 30
0.0
 11
48.421125
 21
158.056475
 31
0.0
  0
LINE
  5
1B9
330
1E
100
AcDbEntity
  8
0
100
AcDbLine
 10
48.020025
 20
142.056475
 30
0.0
 11
49.652025
 21
142.056475
 31
0.0
  0
LINE
  5
1BA
330
1E
100
AcDbEntity
  8
0
100
AcDbLine
 10
48.421125
 20
144.056475
 30
0.0
 11
49.010525
 21
144.056475
 31
0.0
  0
LINE
  5
1BC
330
1E
100
AcDbEntity
  8
0
100
AcDbLine
 10
49.010525
 20
144.056475
 30
0.0
 11
50.000025
 21
144.056475
 31
0.0
  0
LINE
  5
1BE
330
1E
100
AcDbEntity
  8
0
100
AcDbLine
 10
48.336825
 20
145.056475
 30
0.0
 11
49.371325
 21
145.056475
 31
0.0
  0
LINE
  5
1BF
330
1E
100
AcDbEntity
  8
0
100
AcDbLine
 10
49.652025
 20
142.056475
 30
0.0
 11
52.304025
 21
142.056475
 31
0.0
  0
LINE
  5
1C0
330
1E
100
AcDbEntity
  8
0
100
AcDbLine
 10
50.000025
 20
142.056475
 30
0.0
 11
50.000025
 21
144.056475
 31
0.0
  0
LINE
  5
1C2
330
1E
100
AcDbEntity
  8
0
100
AcDbLine
 10
52.304025
 20
142.056475
 30
0.0
 11
55.772025
 21
142.056475
 31
0.0
  0
LINE
  5
1C3
330
1E
100
AcDbEntity
  8
0
100
AcDbLine
 10
55.772025
 20
142.056475
 30
0.0
 11
59.716025
 21
142.056475
 31
0.0
  0
LINE
  5
1C5
330
1E
100
AcDbEntity
  8
0
100
AcDbLine
 10
50.000025
 20
144.056475
 30
0.0
 11
50.000025
 21
142.056475
 31
0.0
  0
LINE
  5
1C6
330
1E
100
AcDbEntity
  8
0
100
AcDbLine
 10
52.042125
 20
144.420475
 30
0.0
 11
55.855525
 21
144.2584749999999
 31
0.0
  0
LINE
  5
1C7
330
1E
100
AcDbEntity
  8
0
100
AcDbLine
 10
49.371325
 20
145.056475
 30
0.0
 11
52.042125
 21
144.420475
 31
0.0
  0
LINE
  5
1CE
330
1E
100
AcDbEntity
  8
0
100
AcDbLine
 10
52.042125
 20
157.692475
 30
0.0
 11
55.855525
 21
157.854475
 31
0.0
  0
LINE
  5
1D0
330
1E
100
AcDbEntity
  8
0
100
AcDbLine
 10
49.371325
 20
157.056475
 30
0.0
 11
52.042125
 21
157.692475
 31
0.0
  0
LINE
  5
1D3
330
1E
100
AcDbEntity
  8
0
100
AcDbLine
 10
55.855525
 20
144.2584749999999
 30
0.0
 11
59.648125
 21
144.4754749999999
 31
0.0
  0
LINE
  5
1D4
330
1E
100
AcDbEntity
  8
0
100
AcDbLine
 10
49.010525
 20
158.056475
 30
0.0
 11
50.526325
 21
158.056475
 31
0.0
  0
LINE
  5
1D5
330
1E
100
AcDbEntity
  8
0
100
AcDbLine
 10
50.526325
 20
158.056475
 30
0.0
 11
52.968425
 21
158.056475
 31
0.0
  0
LINE
  5
1D6
330
1E
100
AcDbEntity
  8
0
100
AcDbLine
 10
52.968425
 20
158.056475
 30
0.0
 11
56.252625
 21
158.056475
 31
0.0
  0
LINE
  5
1D9
330
1E
100
AcDbEntity
  8
0
100
AcDbLine
 10
55.855525
 20
157.854475
 30
0.0
 11
59.648125
 21
157.637475
 31
0.0
  0
LINE
  5
1DA
330
1E
100
AcDbEntity
  8
0
100
AcDbLine
 10
59.716025
 20
142.056475
 30
0.0
 11
64.00002499999999
 21
142.056475
 31
0.0
  0
LINE
  5
1DB
330
1E
100
AcDbEntity
  8
0
100
AcDbLine
 10
64.00002499999999
 20
142.056475
 30
0.0
 11
68.284025
 21
142.056475
 31
0.0
  0
LINE
  5
1DC
330
1E
100
AcDbEntity
  8
0
100
AcDbLine
 10
68.284025
 20
142.056475
 30
0.0
 11
72.228025
 21
142.056475
 31
0.0
  0
LINE
  5
1DE
330
1E
100
AcDbEntity
  8
0
100
AcDbLine
 10
75.69602500000001
 20
142.056475
 30
0.0
 11
78.34802500000001
 21
142.056475
 31
0.0
  0
LINE
  5
1DF
330
1E
100
AcDbEntity
  8
0
100
AcDbLine
 10
72.228025
 20
142.056475
 30
0.0
 11
75.69602500000001
 21
142.056475
 31
0.0
  0
LINE
  5
1E2
330
1E
100
AcDbEntity
  8
0
100
AcDbLine
 10
78.00002499999999
 20
142.056475
 30
0.0
 11
78.00002499999999
 21
144.056475
 31
0.0
  0
LINE
  5
1E3
330
1E
100
AcDbEntity
  8
0
100
AcDbLine
 10
78.34802500000001
 20
142.056475
 30
0.0
 11
79.980025
 21
142.056475
 31
0.0
  0
LINE
  5
1E5
330
1E
100
AcDbEntity
  8
0
100
AcDbLine
 10
50.000025
 20
144.056475
 30
0.0
 11
78.989525
 21
144.056475
 31
0.0
  0
LINE
  5
1E6
330
1E
100
AcDbEntity
  8
0
100
AcDbLine
 10
78.00002499999999
 20
144.056475
 30
0.0
 11
78.00002499999999
 21
142.056475
 31
0.0
  0
LINE
  5
1E7
330
1E
100
AcDbEntity
  8
0
100
AcDbLine
 10
78.989525
 20
144.056475
 30
0.0
 11
79.579025
 21
144.056475
 31
0.0
  0
LINE
  5
1E8
330
1E
100
AcDbEntity
  8
0
100
AcDbLine
 10
79.980025
 20
142.056475
 30
0.0
 11
80.59202500000001
 21
142.056475
 31
0.0
  0
LINE
  5
203
330
1E
100
AcDbEntity
  8
0
100
AcDbLine
 10
81.000025
 20
141.456475
 30
0.0
 11
81.000025
 21
130.056475
 31
0.0
  0
LINE
  5
210
330
1E
100
AcDbEntity
  8
0
100
AcDbLine
 10
80.59202500000001
 20
142.056475
 30
0.0
 11
81.000025
 21
141.456475
 31
0.0
  0
LINE
  5
211
330
1E
100
AcDbEntity
  8
0
100
AcDbLine
 10
79.579025
 20
144.056475
 30
0.0
 11
80.00002499999999
 21
144.1564749999999
 31
0.0
  0
LINE
  5
218
330
1E
100
AcDbEntity
  8
0
100
AcDbLine
 10
65.977525
 20
145.056475
 30
0.0
 11
68.35192499999999
 21
144.4754749999999
 31
0.0
  0
LINE
  5
219
330
1E
100
AcDbEntity
  8
0
100
AcDbLine
 10
68.35192499999999
 20
144.4754749999999
 30
0.0
 11
72.144525
 21
144.2584749999999
 31
0.0
  0
LINE
  5
21A
330
1E
100
AcDbEntity
  8
0
100
AcDbLine
 10
72.144525
 20
144.2584749999999
 30
0.0
 11
75.957925
 21
144.420475
 31
0.0
  0
LINE
  5
21F
330
1E
100
AcDbEntity
  8
0
100
AcDbLine
 10
78.628725
 20
145.056475
 30
0.0
 11
79.663225
 21
145.056475
 31
0.0
  0
LINE
  5
220
330
1E
100
AcDbEntity
  8
0
100
AcDbLine
 10
80.00002499999999
 20
145.056475
 30
0.0
 11
80.00002499999999
 21
144.2964749999999
 31
0.0
  0
LINE
  5
223
330
1E
100
AcDbEntity
  8
0
100
AcDbLine
 10
79.663225
 20
145.056475
 30
0.0
 11
80.00002499999999
 21
145.056475
 31
0.0
  0
LINE
  5
245
330
1E
100
AcDbEntity
  8
0
100
AcDbLine
 10
80.00002499999999
 20
144.2964749999999
 30
0.0
 11
80.00002499999999
 21
145.056475
 31
0.0
  0
LINE
  5
246
330
1E
100
AcDbEntity
  8
0
100
AcDbLine
 10
80.00002499999999
 20
144.2964749999999
 30
0.0
 11
80.00002499999999
 21
144.1564749999999
 31
0.0
  0
LINE
  5
247
330
1E
100
AcDbEntity
  8
0
100
AcDbLine
 10
80.00002499999999
 20
144.1564749999999
 30
0.0
 11
80.00002499999999
 21
144.2964749999999
 31
0.0
  0
LINE
  5
248
330
1E
100
AcDbEntity
  8
0
100
AcDbLine
 10
75.957925
 20
144.420475
 30
0.0
 11
78.628725
 21
145.056475
 31
0.0
  0
LINE
  5
24B
330
1E
100
AcDbEntity
  8
0
100
AcDbLine
 10
62.022525
 20
145.056475
 30
0.0
 11
64.00002499999999
 21
145.056475
 31
0.0
  0
LINE
  5
24D
330
1E
100
AcDbEntity
  8
0
100
AcDbLine
 10
64.00002499999999
 20
157.056475
 30
0.0
 11
65.977525
 21
157.056475
 31
0.0
  0
LINE
  5
252
330
1E
100
AcDbEntity
  8
0
100
AcDbLine
 10
80.00002499999999
 20
145.056475
 30
0.0
 11
80.00002499999999
 21
156.056475
 31
0.0
  0
LINE
  5
273
330
1E
100
AcDbEntity
  8
0
100
AcDbLine
 10
80.00002499999999
 20
156.056475
 30
0.0
 11
80.00002499999999
 21
157.056475
 31
0.0
  0
LINE
  5
274
330
1E
100
AcDbEntity
  8
0
100
AcDbLine
 10
80.00002499999999
 20
156.056475
 30
0.0
 11
80.00002499999999
 21
145.056475
 31
0.0
  0
LINE
  5
275
330
1E
100
AcDbEntity
  8
0
100
AcDbLine
 10
80.00002499999999
 20
157.056475
 30
0.0
 11
80.00002499999999
 21
157.816475
 31
0.0
  0
LINE
  5
276
330
1E
100
AcDbEntity
  8
0
100
AcDbLine
 10
80.00002499999999
 20
157.056475
 30
0.0
 11
80.00002499999999
 21
156.056475
 31
0.0
  0
LINE
  5
277
330
1E
100
AcDbEntity
  8
0
100
AcDbLine
 10
65.977525
 20
157.056475
 30
0.0
 11
68.35192499999999
 21
157.637475
 31
0.0
  0
LINE
  5
27E
330
1E
100
AcDbEntity
  8
0
100
AcDbLine
 10
68.35192499999999
 20
157.637475
 30
0.0
 11
72.144525
 21
157.854475
 31
0.0
  0
LINE
  5
282
330
1E
100
AcDbEntity
  8
0
100
AcDbLine
 10
78.628725
 20
157.056475
 30
0.0
 11
80.00002499999999
 21
156.056475
 31
0.0
  0
LINE
  5
283
330
1E
100
AcDbEntity
  8
0
100
AcDbLine
 10
62.022525
 20
157.056475
 30
0.0
 11
64.00002499999999
 21
157.056475
 31
0.0
  0
LINE
  5
285
330
1E
100
AcDbEntity
  8
0
100
AcDbLine
 10
64.00002499999999
 20
145.056475
 30
0.0
 11
65.977525
 21
145.056475
 31
0.0
  0
LINE
  5
287
330
1E
100
AcDbEntity
  8
0
100
AcDbLine
 10
59.648125
 20
144.4754749999999
 30
0.0
 11
62.022525
 21
145.056475
 31
0.0
  0
LINE
  5
296
330
1E
100
AcDbEntity
  8
0
100
AcDbLine
 10
75.957925
 20
157.692475
 30
0.0
 11
78.628725
 21
157.056475
 31
0.0
  0
LINE
  5
2A4
330
1E
100
AcDbEntity
  8
0
100
AcDbLine
 10
80.00002499999999
 20
157.816475
 30
0.0
 11
80.00002499999999
 21
157.956475
 31
0.0
  0
LINE
  5
2A5
330
1E
100
AcDbEntity
  8
0
100
AcDbLine
 10
80.00002499999999
 20
157.816475
 30
0.0
 11
80.00002499999999
 21
157.056475
 31
0.0
  0
LINE
  5
2A6
330
1E
100
AcDbEntity
  8
0
100
AcDbLine
 10
71.74732500000001
 20
158.056475
 30
0.0
 11
75.031525
 21
158.056475
 31
0.0
  0
LINE
  5
2A8
330
1E
100
AcDbEntity
  8
0
100
AcDbLine
 10
87.000025
 20
158.056475
 30
0.0
 11
92.10002499999999
 21
158.056475
 31
0.0
  0
LINE
  5
2A9
330
1E
100
AcDbEntity
  8
0
100
AcDbLine
 10
92.10002499999999
 20
158.056475
 30
0.0
 11
95.300025
 21
158.056475
 31
0.0
  0
LINE
  5
2CE
330
1E
100
AcDbEntity
  8
0
100
AcDbLine
 10
96.50002499999999
 20
158.056475
 30
0.0
 11
97.500025
 21
158.556475
 31
0.0
  0
LINE
  5
2CF
330
1E
100
AcDbEntity
  8
0
100
AcDbLine
 10
95.300025
 20
158.056475
 30
0.0
 11
96.50002499999999
 21
158.056475
 31
0.0
  0
LINE
  5
2D0
330
1E
100
AcDbEntity
  8
0
100
AcDbLine
 10
80.200025
 20
158.056475
 30
0.0
 11
87.000025
 21
158.056475
 31
0.0
  0
LINE
  5
2D1
330
1E
100
AcDbEntity
  8
0
100
AcDbLine
 10
79.579025
 20
158.056475
 30
0.0
 11
80.00002499999999
 21
157.956475
 31
0.0
  0
LINE
  5
2D2
330
1E
100
AcDbEntity
  8
0
100
AcDbLine
 10
79.579025
 20
158.056475
 30
0.0
 11
80.200025
 21
158.056475
 31
0.0
  0
LINE
  5
2D4
330
1E
100
AcDbEntity
  8
0
100
AcDbLine
 10
78.989525
 20
158.056475
 30
0.0
 11
79.579025
 21
158.056475
 31
0.0
  0
LINE
  5
2D5
330
1E
100
AcDbEntity
  8
0
100
AcDbLine
 10
75.031525
 20
158.056475
 30
0.0
 11
77.473725
 21
158.056475
 31
0.0
  0
LINE
  5
2D7
330
1E
100
AcDbEntity
  8
0
100
AcDbLine
 10
77.473725
 20
158.056475
 30
0.0
 11
78.989525
 21
158.056475
 31
0.0
  0
LINE
  5
2DB
330
1E
100
AcDbEntity
  8
0
100
AcDbLine
 10
68.042125
 20
158.056475
 30
0.0
 11
71.74732500000001
 21
158.056475
 31
0.0
  0
LINE
  5
2DC
330
1E
100
AcDbEntity
  8
0
100
AcDbLine
 10
72.144525
 20
157.854475
 30
0.0
 11
75.957925
 21
157.692475
 31
0.0
  0
LINE
  5
2DF
330
1E
100
AcDbEntity
  8
0
100
AcDbLine
 10
64.00002499999999
 20
158.056475
 30
0.0
 11
68.042125
 21
158.056475
 31
0.0
  0
LINE
  5
2E3
330
1E
100
AcDbEntity
  8
0
100
AcDbLine
 10
59.957925
 20
158.056475
 30
0.0
 11
64.00002499999999
 21
158.056475
 31
0.0
  0
LINE
  5
2E5
330
1E
100
AcDbEntity
  8
0
100
AcDbLine
 10
59.648125
 20
157.637475
 30
0.0
 11
62.022525
 21
157.056475
 31
0.0
  0
LINE
  5
2E9
330
1E
100
AcDbEntity
  8
0
100
AcDbLine
 10
56.252625
 20
158.056475
 30
0.0
 11
59.957925
 21
158.056475
 31
0.0
  0
LINE
  5
2EA
330
1E
100
AcDbEntity
  8
0
100
AcDbLine
 10
55.40002499999999
 20
158.556475
 30
0.0
 11
64.00002499999999
 21
158.556475
 31
0.0
  0
LINE
  5
2EB
330
1E
100
AcDbEntity
  8
0
100
AcDbLine
 10
87.700025
 20
158.556475
 30
0.0
 11
93.00002499999999
 21
158.556475
 31
0.0
  0
LINE
  5
2EC
330
1E
100
AcDbEntity
  8
0
100
AcDbLine
 10
93.00002499999999
 20
158.556475
 30
0.0
 11
96.30002500000001
 21
158.556475
 31
0.0
  0
LINE
  5
2ED
330
1E
100
AcDbEntity
  8
0
100
AcDbLine
 10
96.30002500000001
 20
158.556475
 30
0.0
 11
97.500025
 21
158.556475
 31
0.0
  0
LINE
  5
2EE
330
1E
100
AcDbEntity
  8
0
100
AcDbLine
 10
80.70002499999999
 20
158.556475
 30
0.0
 11
87.700025
 21
158.556475
 31
0.0
  0
LINE
  5
2EF
330
1E
100
AcDbEntity
  8
0
100
AcDbLine
 10
72.600025
 20
158.556475
 30
0.0
 11
80.70002499999999
 21
158.556475
 31
0.0
  0
LINE
  5
2F0
330
1E
100
AcDbEntity
  8
0
100
AcDbLine
 10
64.00002499999999
 20
158.556475
 30
0.0
 11
72.600025
 21
158.556475
 31
0.0
  0
LINE
  5
2F1
330
1E
100
AcDbEntity
  8
0
100
AcDbLine
 10
55.300025
 20
184.056475
 30
0.0
 11
64.00002499999999
 21
184.056475
 31
0.0
  0
LINE
  5
2F2
330
1E
100
AcDbEntity
  8
0
100
AcDbLine
 10
88.00002499999999
 20
184.056475
 30
0.0
 11
93.400025
 21
184.056475
 31
0.0
  0
LINE
  5
2F3
330
1E
100
AcDbEntity
  8
0
100
AcDbLine
 10
98.00002499999999
 20
159.556475
 30
0.0
 11
98.00002499999999
 21
184.056475
 31
0.0
  0
LINE
  5
2F4
330
1E
100
AcDbEntity
  8
0
100
AcDbLine
 10
93.400025
 20
184.056475
 30
0.0
 11
96.800025
 21
184.056475
 31
0.0
  0
LINE
  5
2F5
330
1E
100
AcDbEntity
  8
0
100
AcDbLine
 10
96.800025
 20
184.056475
 30
0.0
 11
98.00002499999999
 21
184.056475
 31
0.0
  0
LINE
  5
2F6
330
1E
100
AcDbEntity
  8
0
100
AcDbLine
 10
80.900025
 20
184.056475
 30
0.0
 11
88.00002499999999
 21
184.056475
 31
0.0
  0
LINE
  5
2F7
330
1E
100
AcDbEntity
  8
0
100
AcDbLine
 10
72.700025
 20
184.056475
 30
0.0
 11
80.900025
 21
184.056475
 31
0.0
  0
LINE
  5
2F8
330
1E
100
AcDbEntity
  8
0
100
AcDbLine
 10
64.00002499999999
 20
184.056475
 30
0.0
 11
72.700025
 21
184.056475
 31
0.0
  0
LINE
  5
2F9
330
1E
100
AcDbEntity
  8
0
100
AcDbLine
 10
97.500025
 20
158.556475
 30
0.0
 11
98.00002499999999
 21
159.556475
 31
0.0
  0
LINE
  5
319
330
1E
100
AcDbEntity
  8
0
100
AcDbLine
 10
98.00002499999999
 20
184.056475
 30
0.0
 11
98.00002499999999
 21
159.556475
 31
0.0
  0
LINE
  5
31A
330
1E
100
AcDbEntity
  8
0
100
AcDbLine
 10
48.421125
 20
158.056475
 30
0.0
 11
49.010525
 21
158.056475
 31
0.0
  0
LINE
  5
31B
330
1E
100
AcDbEntity
  8
0
100
AcDbLine
 10
48.000025
 20
144.2964749999999
 30
0.0
 11
48.000025
 21
144.1564749999999
 31
0.0
  0
LINE
  5
31C
330
1E
100
AcDbEntity
  8
0
100
AcDbLine
 10
48.000025
 20
144.2964749999999
 30
0.0
 11
48.000025
 21
145.056475
 31
0.0
  0
LINE
  5
31D
330
1E
100
AcDbEntity
  8
0
100
AcDbLine
 10
5.000025000000019
 20
130.056475
 30
0.0
 11
45.500025
 21
130.056475
 31
0.0
  0
LINE
  5
31E
330
1E
100
AcDbEntity
  8
0
100
AcDbLine
 10
4.00002500000002
 20
88.55647500000001
 30
0.0
 11
5.000025000000019
 21
88.056475
 31
0.0
  0
LINE
  5
320
330
1E
100
AcDbEntity
  8
0
100
AcDbLine
 10
5.000025000000019
 20
88.056475
 30
0.0
 11
45.500025
 21
88.056475
 31
0.0
  0
LINE
  5
321
330
1E
100
AcDbEntity
  8
0
100
AcDbLine
 10
3.50002500000002
 20
105.156475
 30
0.0
 11
3.50002500000002
 21
106.056475
 31
0.0
  0
LINE
  5
322
330
1E
100
AcDbEntity
  8
0
100
AcDbLine
 10
3.50002500000002
 20
105.156475
 30
0.0
 11
3.50002500000002
 21
104.2564749999999
 31
0.0
  0
LINE
  5
323
330
1E
100
AcDbEntity
  8
0
100
AcDbLine
 10
3.50002500000002
 20
105.156475
 30
0.0
 11
3.50002500000002
 21
105.8564749999999
 31
0.0
  0
LINE
  5
324
330
1E
100
AcDbEntity
  8
0
100
AcDbLine
 10
3.50002500000002
 20
105.156475
 30
0.0
 11
3.50002500000002
 21
104.756475
 31
0.0
  0
LINE
  5
329
330
1E
100
AcDbEntity
  8
0
100
AcDbLine
 10
230.3879749999999
 20
130.056475
 30
0.0
 11
138.999975
 21
130.056475
 31
0.0
  0
LINE
  5
32A
330
1E
100
AcDbEntity
  8
0
100
AcDbLine
 10
227.9999749999999
 20
144.056475
 30
0.0
 11
199.010475
 21
144.056475
 31
0.0
  0
LINE
  5
32B
330
1E
100
AcDbEntity
  8
0
100
AcDbLine
 10
227.473675
 20
158.056475
 30
0.0
 11
225.0315749999999
 21
158.056475
 31
0.0
  0
LINE
  5
32C
330
1E
100
AcDbEntity
  8
0
100
AcDbLine
 10
225.957875
 20
157.692475
 30
0.0
 11
222.1444749999999
 21
157.854475
 31
0.0
  0
LINE
  5
32D
330
1E
100
AcDbEntity
  8
0
100
AcDbLine
 10
225.957875
 20
144.420475
 30
0.0
 11
222.1444749999999
 21
144.2584749999999
 31
0.0
  0
LINE
  5
32E
330
1E
100
AcDbEntity
  8
0
100
AcDbLine
 10
228.347975
 20
142.056475
 30
0.0
 11
225.695975
 21
142.056475
 31
0.0
  0
LINE
  5
32F
330
1E
100
AcDbEntity
  8
0
100
AcDbLine
 10
230.8999749999999
 20
184.056475
 30
0.0
 11
222.699975
 21
184.056475
 31
0.0
  0
LINE
  5
330
330
1E
100
AcDbEntity
  8
0
100
AcDbLine
 10
230.699975
 20
158.556475
 30
0.0
 11
222.599975
 21
158.556475
 31
0.0
  0
LINE
  5
331
330
1E
100
AcDbEntity
  8
0
100
AcDbLine
 10
229.999975
 20
156.056475
 30
0.0
 11
229.999975
 21
146.056475
 31
0.0
  0
LINE
  5
332
330
1E
100
AcDbEntity
  8
0
100
AcDbLine
 10
229.999975
 20
146.056475
 30
0.0
 11
229.999975
 21
156.056475
 31
0.0
  0
LINE
  5
333
330
1E
100
AcDbEntity
  8
0
100
AcDbLine
 10
272.999975
 20
130.056475
 30
0.0
 11
232.4999749999999
 21
130.056475
 31
0.0
  0
LINE
  5
334
330
1E
100
AcDbEntity
  8
0
100
AcDbLine
 10
272.999975
 20
130.056475
 30
0.0
 11
232.4999749999999
 21
130.056475
 31
0.0
  0
LINE
  5
335
330
1E
100
AcDbEntity
  8
0
100
AcDbLine
 10
274.499975
 20
118.7564749999999
 30
0.0
 11
274.499975
 21
122.856475
 31
0.0
  0
LINE
  5
336
330
1E
100
AcDbEntity
  8
0
100
AcDbLine
 10
274.499975
 20
122.856475
 30
0.0
 11
274.499975
 21
118.7564749999999
 31
0.0
  0
LINE
  5
337
330
1E
100
AcDbEntity
  8
0
100
AcDbLine
 10
274.499975
 20
113.856475
 30
0.0
 11
274.499975
 21
112.9564749999999
 31
0.0
  0
LINE
  5
338
330
1E
100
AcDbEntity
  8
0
100
AcDbLine
 10
274.499975
 20
112.9564749999999
 30
0.0
 11
274.499975
 21
113.856475
 31
0.0
  0
LINE
  5
339
330
1E
100
AcDbEntity
  8
0
100
AcDbLine
 10
274.499975
 20
114.056475
 30
0.0
 11
274.499975
 21
112.0564749999999
 31
0.0
  0
LINE
  5
33A
330
1E
100
AcDbEntity
  8
0
100
AcDbLine
 10
274.499975
 20
112.0564749999999
 30
0.0
 11
274.499975
 21
114.056475
 31
0.0
  0
LINE
  5
33B
330
1E
100
AcDbEntity
  8
0
100
AcDbLine
 10
274.8214749999999
 20
112.0564749999999
 30
0.0
 11
272.999975
 21
112.0564749999999
 31
0.0
  0
LINE
  5
33C
330
1E
100
AcDbEntity
  8
0
100
AcDbLine
 10
274.8214749999999
 20
112.0564749999999
 30
0.0
 11
272.999975
 21
112.0564749999999
 31
0.0
  0
LINE
  5
33D
330
1E
100
AcDbEntity
  8
0
100
AcDbLine
 10
275.036495
 20
111.984475
 30
0.0
 11
274.330715
 21
111.8764749999999
 31
0.0
  0
LINE
  5
33E
330
1E
100
AcDbEntity
  8
0
100
AcDbLine
 10
277.669195
 20
109.8124749999999
 30
0.0
 11
277.400325
 21
110.508475
 31
0.0
  0
LINE
  5
33F
330
1E
100
AcDbEntity
  8
0
100
AcDbLine
 10
275.5384649999999
 20
111.948475
 30
0.0
 11
274.8214749999999
 21
112.0564749999999
 31
0.0
  0
LINE
  5
340
330
1E
100
AcDbEntity
  8
0
100
AcDbLine
 10
277.400325
 20
110.508475
 30
0.0
 11
276.9634049999999
 21
111.1204749999999
 31
0.0
  0
LINE
  5
341
330
1E
100
AcDbEntity
  8
0
100
AcDbLine
 10
276.9634049999999
 20
111.1204749999999
 30
0.0
 11
276.3920549999999
 21
111.5884749999999
 31
0.0
  0
LINE
  5
342
330
1E
100
AcDbEntity
  8
0
100
AcDbLine
 10
275.7422849999999
 20
111.8764749999999
 30
0.0
 11
275.036495
 21
111.984475
 31
0.0
  0
LINE
  5
343
330
1E
100
AcDbEntity
  8
0
100
AcDbLine
 10
275.7422849999999
 20
111.8764749999999
 30
0.0
 11
275.5384649999999
 21
111.948475
 31
0.0
  0
LINE
  5
344
330
1E
100
AcDbEntity
  8
0
100
AcDbLine
 10
276.3920549999999
 20
111.5884749999999
 30
0.0
 11
275.7422849999999
 21
111.8764749999999
 31
0.0
  0
LINE
  5
345
330
1E
100
AcDbEntity
  8
0
100
AcDbLine
 10
272.6726749999999
 20
110.508475
 30
0.0
 11
272.4038049999999
 21
109.8124749999999
 31
0.0
  0
LINE
  5
346
330
1E
100
AcDbEntity
  8
0
100
AcDbLine
 10
273.1095849999999
 20
111.1204749999999
 30
0.0
 11
272.6726749999999
 21
110.508475
 31
0.0
  0
LINE
  5
347
330
1E
100
AcDbEntity
  8
0
100
AcDbLine
 10
273.6809349999999
 20
111.5884749999999
 30
0.0
 11
273.1095849999999
 21
111.1204749999999
 31
0.0
  0
LINE
  5
348
330
1E
100
AcDbEntity
  8
0
100
AcDbLine
 10
274.330715
 20
111.8764749999999
 30
0.0
 11
273.6809349999999
 21
111.5884749999999
 31
0.0
  0
LINE
  5
349
330
1E
100
AcDbEntity
  8
0
100
AcDbLine
 10
274.499975
 20
112.9564749999999
 30
0.0
 11
274.499975
 21
112.0564749999999
 31
0.0
  0
LINE
  5
34A
330
1E
100
AcDbEntity
  8
0
100
AcDbLine
 10
274.499975
 20
112.9564749999999
 30
0.0
 11
274.499975
 21
112.256475
 31
0.0
  0
LINE
  5
34B
330
1E
100
AcDbEntity
  8
0
100
AcDbLine
 10
274.499975
 20
112.9564749999999
 30
0.0
 11
274.499975
 21
113.356475
 31
0.0
  0
LINE
  5
34C
330
1E
100
AcDbEntity
  8
0
100
AcDbLine
 10
274.499975
 20
113.356475
 30
0.0
 11
274.499975
 21
112.9564749999999
 31
0.0
  0
LINE
  5
34D
330
1E
100
AcDbEntity
  8
0
100
AcDbLine
 10
274.499975
 20
113.356475
 30
0.0
 11
274.499975
 21
113.556475
 31
0.0
  0
LINE
  5
34E
330
1E
100
AcDbEntity
  8
0
100
AcDbLine
 10
274.499975
 20
113.556475
 30
0.0
 11
274.499975
 21
113.356475
 31
0.0
  0
LINE
  5
34F
330
1E
100
AcDbEntity
  8
0
100
AcDbLine
 10
274.499975
 20
112.256475
 30
0.0
 11
274.499975
 21
112.0564749999999
 31
0.0
  0
LINE
  5
350
330
1E
100
AcDbEntity
  8
0
100
AcDbLine
 10
274.499975
 20
112.256475
 30
0.0
 11
274.499975
 21
112.9564749999999
 31
0.0
  0
LINE
  5
351
330
1E
100
AcDbEntity
  8
0
100
AcDbLine
 10
274.499975
 20
112.0564749999999
 30
0.0
 11
274.499975
 21
112.256475
 31
0.0
  0
LINE
  5
352
330
1E
100
AcDbEntity
  8
0
100
AcDbLine
 10
274.499975
 20
112.0564749999999
 30
0.0
 11
274.499975
 21
112.9564749999999
 31
0.0
  0
LINE
  5
353
330
1E
100
AcDbEntity
  8
0
100
AcDbLine
 10
274.499975
 20
118.7564749999999
 30
0.0
 11
274.499975
 21
114.056475
 31
0.0
  0
LINE
  5
354
330
1E
100
AcDbEntity
  8
0
100
AcDbLine
 10
274.499975
 20
114.056475
 30
0.0
 11
274.499975
 21
118.7564749999999
 31
0.0
  0
LINE
  5
355
330
1E
100
AcDbEntity
  8
0
100
AcDbLine
 10
274.499975
 20
114.356475
 30
0.0
 11
274.499975
 21
113.856475
 31
0.0
  0
LINE
  5
356
330
1E
100
AcDbEntity
  8
0
100
AcDbLine
 10
274.499975
 20
114.356475
 30
0.0
 11
274.499975
 21
114.556475
 31
0.0
  0
LINE
  5
357
330
1E
100
AcDbEntity
  8
0
100
AcDbLine
 10
274.499975
 20
114.556475
 30
0.0
 11
274.499975
 21
114.356475
 31
0.0
  0
LINE
  5
358
330
1E
100
AcDbEntity
  8
0
100
AcDbLine
 10
274.499975
 20
113.856475
 30
0.0
 11
274.499975
 21
114.356475
 31
0.0
  0
LINE
  5
359
330
1E
100
AcDbEntity
  8
0
100
AcDbLine
 10
274.499975
 20
128.556475
 30
0.0
 11
274.499975
 21
127.856475
 31
0.0
  0
LINE
  5
35A
330
1E
100
AcDbEntity
  8
0
100
AcDbLine
 10
274.499975
 20
127.856475
 30
0.0
 11
274.499975
 21
128.556475
 31
0.0
  0
LINE
  5
35B
330
1E
100
AcDbEntity
  8
0
100
AcDbLine
 10
274.499975
 20
122.856475
 30
0.0
 11
274.499975
 21
125.956475
 31
0.0
  0
LINE
  5
35C
330
1E
100
AcDbEntity
  8
0
100
AcDbLine
 10
274.499975
 20
125.956475
 30
0.0
 11
274.499975
 21
122.856475
 31
0.0
  0
LINE
  5
35D
330
1E
100
AcDbEntity
  8
0
100
AcDbLine
 10
274.499975
 20
127.856475
 30
0.0
 11
274.499975
 21
125.956475
 31
0.0
  0
LINE
  5
35E
330
1E
100
AcDbEntity
  8
0
100
AcDbLine
 10
274.499975
 20
125.956475
 30
0.0
 11
274.499975
 21
127.856475
 31
0.0
  0
LINE
  5
35F
330
1E
100
AcDbEntity
  8
0
100
AcDbLine
 10
273.9999749999999
 20
129.556475
 30
0.0
 11
272.999975
 21
130.056475
 31
0.0
  0
LINE
  5
360
330
1E
100
AcDbEntity
  8
0
100
AcDbLine
 10
274.499975
 20
128.556475
 30
0.0
 11
273.9999749999999
 21
129.556475
 31
0.0
  0
LINE
  5
361
330
1E
100
AcDbEntity
  8
0
100
AcDbLine
 10
231.999975
 20
119.256475
 30
0.0
 11
231.999975
 21
123.5564749999999
 31
0.0
  0
LINE
  5
362
330
1E
100
AcDbEntity
  8
0
100
AcDbLine
 10
231.999975
 20
123.5564749999999
 30
0.0
 11
231.999975
 21
119.256475
 31
0.0
  0
LINE
  5
363
330
1E
100
AcDbEntity
  8
0
100
AcDbLine
 10
232.4999749999999
 20
119.456475
 30
0.0
 11
232.4999749999999
 21
123.856475
 31
0.0
  0
LINE
  5
364
330
1E
100
AcDbEntity
  8
0
100
AcDbLine
 10
232.4999749999999
 20
109.056475
 30
0.0
 11
232.4999749999999
 21
114.456475
 31
0.0
  0
LINE
  5
365
330
1E
100
AcDbEntity
  8
0
100
AcDbLine
 10
231.999975
 20
109.056475
 30
0.0
 11
231.999975
 21
114.356475
 31
0.0
  0
LINE
  5
366
330
1E
100
AcDbEntity
  8
0
100
AcDbLine
 10
231.999975
 20
114.356475
 30
0.0
 11
231.999975
 21
109.056475
 31
0.0
  0
LINE
  5
367
330
1E
100
AcDbEntity
  8
0
100
AcDbLine
 10
231.999975
 20
114.356475
 30
0.0
 11
231.999975
 21
119.256475
 31
0.0
  0
LINE
  5
368
330
1E
100
AcDbEntity
  8
0
100
AcDbLine
 10
231.999975
 20
119.256475
 30
0.0
 11
231.999975
 21
114.356475
 31
0.0
  0
LINE
  5
369
330
1E
100
AcDbEntity
  8
0
100
AcDbLine
 10
232.4999749999999
 20
114.456475
 30
0.0
 11
232.4999749999999
 21
119.456475
 31
0.0
  0
LINE
  5
36A
330
1E
100
AcDbEntity
  8
0
100
AcDbLine
 10
230.999975
 20
141.456475
 30
0.0
 11
230.999975
 21
130.056475
 31
0.0
  0
LINE
  5
36B
330
1E
100
AcDbEntity
  8
0
100
AcDbLine
 10
230.999975
 20
130.056475
 30
0.0
 11
230.999975
 21
141.456475
 31
0.0
  0
LINE
  5
36C
330
1E
100
AcDbEntity
  8
0
100
AcDbLine
 10
231.999975
 20
128.8564749999999
 30
0.0
 11
231.999975
 21
126.856475
 31
0.0
  0
LINE
  5
36D
330
1E
100
AcDbEntity
  8
0
100
AcDbLine
 10
231.999975
 20
126.856475
 30
0.0
 11
231.999975
 21
128.8564749999999
 31
0.0
  0
LINE
  5
36E
330
1E
100
AcDbEntity
  8
0
100
AcDbLine
 10
232.4999749999999
 20
127.2564749999999
 30
0.0
 11
232.4999749999999
 21
129.2564749999999
 31
0.0
  0
LINE
  5
36F
330
1E
100
AcDbEntity
  8
0
100
AcDbLine
 10
231.999975
 20
123.5564749999999
 30
0.0
 11
231.999975
 21
126.856475
 31
0.0
  0
LINE
  5
370
330
1E
100
AcDbEntity
  8
0
100
AcDbLine
 10
231.999975
 20
126.856475
 30
0.0
 11
231.999975
 21
123.5564749999999
 31
0.0
  0
LINE
  5
371
330
1E
100
AcDbEntity
  8
0
100
AcDbLine
 10
232.4999749999999
 20
123.856475
 30
0.0
 11
232.4999749999999
 21
127.2564749999999
 31
0.0
  0
LINE
  5
372
330
1E
100
AcDbEntity
  8
0
100
AcDbLine
 10
231.999975
 20
129.556475
 30
0.0
 11
230.999975
 21
130.056475
 31
0.0
  0
LINE
  5
373
330
1E
100
AcDbEntity
  8
0
100
AcDbLine
 10
231.999975
 20
129.556475
 30
0.0
 11
231.999975
 21
128.8564749999999
 31
0.0
  0
LINE
  5
374
330
1E
100
AcDbEntity
  8
0
100
AcDbLine
 10
231.999975
 20
128.8564749999999
 30
0.0
 11
231.999975
 21
129.556475
 31
0.0
  0
LINE
  5
375
330
1E
100
AcDbEntity
  8
0
100
AcDbLine
 10
232.4999749999999
 20
129.2564749999999
 30
0.0
 11
232.4999749999999
 21
130.056475
 31
0.0
  0
LINE
  5
376
330
1E
100
AcDbEntity
  8
0
100
AcDbLine
 10
232.4999749999999
 20
128.556475
 30
0.0
 11
231.999975
 21
129.556475
 31
0.0
  0
LINE
  5
377
330
1E
100
AcDbEntity
  8
0
100
AcDbLine
 10
230.999975
 20
130.056475
 30
0.0
 11
230.3879749999999
 21
130.056475
 31
0.0
  0
LINE
  5
378
330
1E
100
AcDbEntity
  8
0
100
AcDbLine
 10
227.9999749999999
 20
144.056475
 30
0.0
 11
227.9999749999999
 21
142.056475
 31
0.0
  0
LINE
  5
379
330
1E
100
AcDbEntity
  8
0
100
AcDbLine
 10
227.9999749999999
 20
142.056475
 30
0.0
 11
227.9999749999999
 21
144.056475
 31
0.0
  0
LINE
  5
37A
330
1E
100
AcDbEntity
  8
0
100
AcDbLine
 10
229.979975
 20
142.056475
 30
0.0
 11
228.347975
 21
142.056475
 31
0.0
  0
LINE
  5
37B
330
1E
100
AcDbEntity
  8
0
100
AcDbLine
 10
230.999975
 20
141.456475
 30
0.0
 11
230.591975
 21
142.056475
 31
0.0
  0
LINE
  5
37C
330
1E
100
AcDbEntity
  8
0
100
AcDbLine
 10
230.591975
 20
142.056475
 30
0.0
 11
229.979975
 21
142.056475
 31
0.0
  0
LINE
  5
37D
330
1E
100
AcDbEntity
  8
0
100
AcDbLine
 10
229.999975
 20
145.056475
 30
0.0
 11
229.999975
 21
146.056475
 31
0.0
  0
LINE
  5
37E
330
1E
100
AcDbEntity
  8
0
100
AcDbLine
 10
229.999975
 20
146.056475
 30
0.0
 11
229.999975
 21
145.056475
 31
0.0
  0
LINE
  5
37F
330
1E
100
AcDbEntity
  8
0
100
AcDbLine
 10
229.6631749999999
 20
145.056475
 30
0.0
 11
228.6286749999999
 21
145.056475
 31
0.0
  0
LINE
  5
380
330
1E
100
AcDbEntity
  8
0
100
AcDbLine
 10
228.989475
 20
144.056475
 30
0.0
 11
227.9999749999999
 21
144.056475
 31
0.0
  0
LINE
  5
381
330
1E
100
AcDbEntity
  8
0
100
AcDbLine
 10
229.999975
 20
144.2964749999999
 30
0.0
 11
229.999975
 21
145.056475
 31
0.0
  0
LINE
  5
382
330
1E
100
AcDbEntity
  8
0
100
AcDbLine
 10
229.999975
 20
144.2964749999999
 30
0.0
 11
229.999975
 21
144.1564749999999
 31
0.0
  0
LINE
  5
383
330
1E
100
AcDbEntity
  8
0
100
AcDbLine
 10
229.5788749999999
 20
144.056475
 30
0.0
 11
228.989475
 21
144.056475
 31
0.0
  0
LINE
  5
384
330
1E
100
AcDbEntity
  8
0
100
AcDbLine
 10
229.999975
 20
145.056475
 30
0.0
 11
229.6631749999999
 21
145.056475
 31
0.0
  0
LINE
  5
385
330
1E
100
AcDbEntity
  8
0
100
AcDbLine
 10
229.999975
 20
145.056475
 30
0.0
 11
229.999975
 21
144.2964749999999
 31
0.0
  0
LINE
  5
386
330
1E
100
AcDbEntity
  8
0
100
AcDbLine
 10
229.999975
 20
144.1564749999999
 30
0.0
 11
229.5788749999999
 21
144.056475
 31
0.0
  0
LINE
  5
387
330
1E
100
AcDbEntity
  8
0
100
AcDbLine
 10
229.999975
 20
144.1564749999999
 30
0.0
 11
229.999975
 21
144.2964749999999
 31
0.0
  0
LINE
  5
388
330
1E
100
AcDbEntity
  8
0
100
AcDbLine
 10
228.6286749999999
 20
145.056475
 30
0.0
 11
225.957875
 21
144.420475
 31
0.0
  0
LINE
  5
389
330
1E
100
AcDbEntity
  8
0
100
AcDbLine
 10
247.999975
 20
159.556475
 30
0.0
 11
247.999975
 21
184.056475
 31
0.0
  0
LINE
  5
38A
330
1E
100
AcDbEntity
  8
0
100
AcDbLine
 10
247.999975
 20
184.056475
 30
0.0
 11
247.999975
 21
159.556475
 31
0.0
  0
LINE
  5
38B
330
1E
100
AcDbEntity
  8
0
100
AcDbLine
 10
247.999975
 20
159.556475
 30
0.0
 11
247.499975
 21
158.556475
 31
0.0
  0
LINE
  5
38C
330
1E
100
AcDbEntity
  8
0
100
AcDbLine
 10
237.6999749999999
 20
158.556475
 30
0.0
 11
230.699975
 21
158.556475
 31
0.0
  0
LINE
  5
38D
330
1E
100
AcDbEntity
  8
0
100
AcDbLine
 10
236.999975
 20
158.056475
 30
0.0
 11
230.1999749999999
 21
158.056475
 31
0.0
  0
LINE
  5
38E
330
1E
100
AcDbEntity
  8
0
100
AcDbLine
 10
245.299975
 20
158.056475
 30
0.0
 11
242.099975
 21
158.056475
 31
0.0
  0
LINE
  5
38F
330
1E
100
AcDbEntity
  8
0
100
AcDbLine
 10
242.9999749999999
 20
158.556475
 30
0.0
 11
237.6999749999999
 21
158.556475
 31
0.0
  0
LINE
  5
390
330
1E
100
AcDbEntity
  8
0
100
AcDbLine
 10
246.2999749999999
 20
158.556475
 30
0.0
 11
242.9999749999999
 21
158.556475
 31
0.0
  0
LINE
  5
391
330
1E
100
AcDbEntity
  8
0
100
AcDbLine
 10
247.499975
 20
158.556475
 30
0.0
 11
246.2999749999999
 21
158.556475
 31
0.0
  0
LINE
  5
392
330
1E
100
AcDbEntity
  8
0
100
AcDbLine
 10
247.499975
 20
158.556475
 30
0.0
 11
246.499975
 21
158.056475
 31
0.0
  0
LINE
  5
393
330
1E
100
AcDbEntity
  8
0
100
AcDbLine
 10
246.499975
 20
158.056475
 30
0.0
 11
245.299975
 21
158.056475
 31
0.0
  0
LINE
  5
394
330
1E
100
AcDbEntity
  8
0
100
AcDbLine
 10
242.099975
 20
158.056475
 30
0.0
 11
236.999975
 21
158.056475
 31
0.0
  0
LINE
  5
395
330
1E
100
AcDbEntity
  8
0
100
AcDbLine
 10
229.999975
 20
156.056475
 30
0.0
 11
228.6286749999999
 21
157.056475
 31
0.0
  0
LINE
  5
396
330
1E
100
AcDbEntity
  8
0
100
AcDbLine
 10
229.999975
 20
156.056475
 30
0.0
 11
229.999975
 21
157.056475
 31
0.0
  0
LINE
  5
397
330
1E
100
AcDbEntity
  8
0
100
AcDbLine
 10
229.999975
 20
157.056475
 30
0.0
 11
229.999975
 21
156.056475
 31
0.0
  0
LINE
  5
398
330
1E
100
AcDbEntity
  8
0
100
AcDbLine
 10
228.989475
 20
158.056475
 30
0.0
 11
227.473675
 21
158.056475
 31
0.0
  0
LINE
  5
399
330
1E
100
AcDbEntity
  8
0
100
AcDbLine
 10
229.5788749999999
 20
158.056475
 30
0.0
 11
228.989475
 21
158.056475
 31
0.0
  0
LINE
  5
39A
330
1E
100
AcDbEntity
  8
0
100
AcDbLine
 10
229.999975
 20
157.956475
 30
0.0
 11
229.5788749999999
 21
158.056475
 31
0.0
  0
LINE
  5
39B
330
1E
100
AcDbEntity
  8
0
100
AcDbLine
 10
229.999975
 20
157.956475
 30
0.0
 11
229.999975
 21
157.816475
 31
0.0
  0
LINE
  5
39C
330
1E
100
AcDbEntity
  8
0
100
AcDbLine
 10
230.1999749999999
 20
158.056475
 30
0.0
 11
229.5788749999999
 21
158.056475
 31
0.0
  0
LINE
  5
39D
330
1E
100
AcDbEntity
  8
0
100
AcDbLine
 10
229.999975
 20
157.816475
 30
0.0
 11
229.999975
 21
157.956475
 31
0.0
  0
LINE
  5
39E
330
1E
100
AcDbEntity
  8
0
100
AcDbLine
 10
229.999975
 20
157.816475
 30
0.0
 11
229.999975
 21
157.056475
 31
0.0
  0
LINE
  5
39F
330
1E
100
AcDbEntity
  8
0
100
AcDbLine
 10
229.999975
 20
157.056475
 30
0.0
 11
229.999975
 21
157.816475
 31
0.0
  0
LINE
  5
3A0
330
1E
100
AcDbEntity
  8
0
100
AcDbLine
 10
228.6286749999999
 20
157.056475
 30
0.0
 11
225.957875
 21
157.692475
 31
0.0
  0
LINE
  5
3A1
330
1E
100
AcDbEntity
  8
0
100
AcDbLine
 10
247.999975
 20
184.056475
 30
0.0
 11
246.799975
 21
184.056475
 31
0.0
  0
LINE
  5
3A2
330
1E
100
AcDbEntity
  8
0
100
AcDbLine
 10
237.999975
 20
184.056475
 30
0.0
 11
230.8999749999999
 21
184.056475
 31
0.0
  0
LINE
  5
3A3
330
1E
100
AcDbEntity
  8
0
100
AcDbLine
 10
243.3999749999999
 20
184.056475
 30
0.0
 11
237.999975
 21
184.056475
 31
0.0
  0
LINE
  5
3A4
330
1E
100
AcDbEntity
  8
0
100
AcDbLine
 10
246.799975
 20
184.056475
 30
0.0
 11
243.3999749999999
 21
184.056475
 31
0.0
  0
LINE
  5
3A5
330
1E
100
AcDbEntity
  8
0
100
AcDbLine
 10
197.999975
 20
156.056475
 30
0.0
 11
197.999975
 21
145.056475
 31
0.0
  0
LINE
  5
3A6
330
1E
100
AcDbEntity
  8
0
100
AcDbLine
 10
197.999975
 20
145.056475
 30
0.0
 11
197.999975
 21
156.056475
 31
0.0
  0
LINE
  5
3A7
330
1E
100
AcDbEntity
  8
0
100
AcDbLine
 10
205.855475
 20
144.2584749999999
 30
0.0
 11
202.0420749999999
 21
144.420475
 31
0.0
  0
LINE
  5
3A8
330
1E
100
AcDbEntity
  8
0
100
AcDbLine
 10
205.7719749999999
 20
142.056475
 30
0.0
 11
202.3039749999999
 21
142.056475
 31
0.0
  0
LINE
  5
3A9
330
1E
100
AcDbEntity
  8
0
100
AcDbLine
 10
215.9774749999999
 20
145.056475
 30
0.0
 11
213.999975
 21
145.056475
 31
0.0
  0
LINE
  5
3AA
330
1E
100
AcDbEntity
  8
0
100
AcDbLine
 10
218.2839749999999
 20
142.056475
 30
0.0
 11
213.999975
 21
142.056475
 31
0.0
  0
LINE
  5
3AB
330
1E
100
AcDbEntity
  8
0
100
AcDbLine
 10
222.227975
 20
142.056475
 30
0.0
 11
218.2839749999999
 21
142.056475
 31
0.0
  0
LINE
  5
3AC
330
1E
100
AcDbEntity
  8
0
100
AcDbLine
 10
225.695975
 20
142.056475
 30
0.0
 11
222.227975
 21
142.056475
 31
0.0
  0
LINE
  5
3AD
330
1E
100
AcDbEntity
  8
0
100
AcDbLine
 10
222.1444749999999
 20
144.2584749999999
 30
0.0
 11
218.351875
 21
144.4754749999999
 31
0.0
  0
LINE
  5
3AE
330
1E
100
AcDbEntity
  8
0
100
AcDbLine
 10
218.351875
 20
144.4754749999999
 30
0.0
 11
215.9774749999999
 21
145.056475
 31
0.0
  0
LINE
  5
3AF
330
1E
100
AcDbEntity
  8
0
100
AcDbLine
 10
209.715975
 20
142.056475
 30
0.0
 11
205.7719749999999
 21
142.056475
 31
0.0
  0
LINE
  5
3B0
330
1E
100
AcDbEntity
  8
0
100
AcDbLine
 10
213.999975
 20
142.056475
 30
0.0
 11
209.715975
 21
142.056475
 31
0.0
  0
LINE
  5
3B1
330
1E
100
AcDbEntity
  8
0
100
AcDbLine
 10
209.648075
 20
144.4754749999999
 30
0.0
 11
205.855475
 21
144.2584749999999
 31
0.0
  0
LINE
  5
3B2
330
1E
100
AcDbEntity
  8
0
100
AcDbLine
 10
213.999975
 20
145.056475
 30
0.0
 11
212.0224749999999
 21
145.056475
 31
0.0
  0
LINE
  5
3B3
330
1E
100
AcDbEntity
  8
0
100
AcDbLine
 10
212.0224749999999
 20
145.056475
 30
0.0
 11
209.648075
 21
144.4754749999999
 31
0.0
  0
LINE
  5
3B4
330
1E
100
AcDbEntity
  8
0
100
AcDbLine
 10
196.999975
 20
141.456475
 30
0.0
 11
196.999975
 21
130.056475
 31
0.0
  0
LINE
  5
3B5
330
1E
100
AcDbEntity
  8
0
100
AcDbLine
 10
196.999975
 20
130.056475
 30
0.0
 11
196.999975
 21
141.456475
 31
0.0
  0
LINE
  5
3B6
330
1E
100
AcDbEntity
  8
0
100
AcDbLine
 10
199.999975
 20
144.056475
 30
0.0
 11
199.999975
 21
142.056475
 31
0.0
  0
LINE
  5
3B7
330
1E
100
AcDbEntity
  8
0
100
AcDbLine
 10
199.999975
 20
142.056475
 30
0.0
 11
199.999975
 21
144.056475
 31
0.0
  0
LINE
  5
3B8
330
1E
100
AcDbEntity
  8
0
100
AcDbLine
 10
199.651975
 20
142.056475
 30
0.0
 11
198.0199749999999
 21
142.056475
 31
0.0
  0
LINE
  5
3B9
330
1E
100
AcDbEntity
  8
0
100
AcDbLine
 10
202.3039749999999
 20
142.056475
 30
0.0
 11
199.651975
 21
142.056475
 31
0.0
  0
LINE
  5
3BA
330
1E
100
AcDbEntity
  8
0
100
AcDbLine
 10
197.4079749999999
 20
142.056475
 30
0.0
 11
196.999975
 21
141.456475
 31
0.0
  0
LINE
  5
3BB
330
1E
100
AcDbEntity
  8
0
100
AcDbLine
 10
198.0199749999999
 20
142.056475
 30
0.0
 11
197.4079749999999
 21
142.056475
 31
0.0
  0
LINE
  5
3BC
330
1E
100
AcDbEntity
  8
0
100
AcDbLine
 10
199.371275
 20
145.056475
 30
0.0
 11
198.336775
 21
145.056475
 31
0.0
  0
LINE
  5
3BD
330
1E
100
AcDbEntity
  8
0
100
AcDbLine
 10
199.010475
 20
144.056475
 30
0.0
 11
198.4209749999999
 21
144.056475
 31
0.0
  0
LINE
  5
3BE
330
1E
100
AcDbEntity
  8
0
100
AcDbLine
 10
202.0420749999999
 20
144.420475
 30
0.0
 11
199.371275
 21
145.056475
 31
0.0
  0
LINE
  5
3BF
330
1E
100
AcDbEntity
  8
0
100
AcDbLine
 10
197.999975
 20
144.1564749999999
 30
0.0
 11
197.999975
 21
144.2964749999999
 31
0.0
  0
LINE
  5
3C0
330
1E
100
AcDbEntity
  8
0
100
AcDbLine
 10
197.999975
 20
144.2964749999999
 30
0.0
 11
197.999975
 21
144.1564749999999
 31
0.0
  0
LINE
  5
3C1
330
1E
100
AcDbEntity
  8
0
100
AcDbLine
 10
197.999975
 20
144.2964749999999
 30
0.0
 11
197.999975
 21
145.056475
 31
0.0
  0
LINE
  5
3C2
330
1E
100
AcDbEntity
  8
0
100
AcDbLine
 10
198.336775
 20
145.056475
 30
0.0
 11
197.999975
 21
145.056475
 31
0.0
  0
LINE
  5
3C3
330
1E
100
AcDbEntity
  8
0
100
AcDbLine
 10
197.999975
 20
145.056475
 30
0.0
 11
197.999975
 21
144.2964749999999
 31
0.0
  0
LINE
  5
3C4
330
1E
100
AcDbEntity
  8
0
100
AcDbLine
 10
198.4209749999999
 20
144.056475
 30
0.0
 11
197.999975
 21
144.1564749999999
 31
0.0
  0
LINE
  5
3C5
330
1E
100
AcDbEntity
  8
0
100
AcDbLine
 10
184.599975
 20
184.056475
 30
0.0
 11
181.199975
 21
184.056475
 31
0.0
  0
LINE
  5
3C6
330
1E
100
AcDbEntity
  8
0
100
AcDbLine
 10
184.999975
 20
158.556475
 30
0.0
 11
181.6999749999999
 21
158.556475
 31
0.0
  0
LINE
  5
3C7
330
1E
100
AcDbEntity
  8
0
100
AcDbLine
 10
182.6999749999999
 20
158.056475
 30
0.0
 11
181.499975
 21
158.056475
 31
0.0
  0
LINE
  5
3C8
330
1E
100
AcDbEntity
  8
0
100
AcDbLine
 10
205.399975
 20
158.556475
 30
0.0
 11
197.299975
 21
158.556475
 31
0.0
  0
LINE
  5
3C9
330
1E
100
AcDbEntity
  8
0
100
AcDbLine
 10
205.855475
 20
157.854475
 30
0.0
 11
202.0420749999999
 21
157.692475
 31
0.0
  0
LINE
  5
3CA
330
1E
100
AcDbEntity
  8
0
100
AcDbLine
 10
206.2526749999999
 20
158.056475
 30
0.0
 11
202.968475
 21
158.056475
 31
0.0
  0
LINE
  5
3CB
330
1E
100
AcDbEntity
  8
0
100
AcDbLine
 10
222.599975
 20
158.556475
 30
0.0
 11
213.999975
 21
158.556475
 31
0.0
  0
LINE
  5
3CC
330
1E
100
AcDbEntity
  8
0
100
AcDbLine
 10
218.042075
 20
158.056475
 30
0.0
 11
213.999975
 21
158.056475
 31
0.0
  0
LINE
  5
3CD
330
1E
100
AcDbEntity
  8
0
100
AcDbLine
 10
215.9774749999999
 20
157.056475
 30
0.0
 11
213.999975
 21
157.056475
 31
0.0
  0
LINE
  5
3CE
330
1E
100
AcDbEntity
  8
0
100
AcDbLine
 10
221.7473749999999
 20
158.056475
 30
0.0
 11
218.042075
 21
158.056475
 31
0.0
  0
LINE
  5
3CF
330
1E
100
AcDbEntity
  8
0
100
AcDbLine
 10
222.1444749999999
 20
157.854475
 30
0.0
 11
218.351875
 21
157.637475
 31
0.0
  0
LINE
  5
3D0
330
1E
100
AcDbEntity
  8
0
100
AcDbLine
 10
225.0315749999999
 20
158.056475
 30
0.0
 11
221.7473749999999
 21
158.056475
 31
0.0
  0
LINE
  5
3D1
330
1E
100
AcDbEntity
  8
0
100
AcDbLine
 10
218.351875
 20
157.637475
 30
0.0
 11
215.9774749999999
 21
157.056475
 31
0.0
  0
LINE
  5
3D2
330
1E
100
AcDbEntity
  8
0
100
AcDbLine
 10
213.999975
 20
158.556475
 30
0.0
 11
205.399975
 21
158.556475
 31
0.0
  0
LINE
  5
3D3
330
1E
100
AcDbEntity
  8
0
100
AcDbLine
 10
209.957875
 20
158.056475
 30
0.0
 11
206.2526749999999
 21
158.056475
 31
0.0
  0
LINE
  5
3D4
330
1E
100
AcDbEntity
  8
0
100
AcDbLine
 10
209.648075
 20
157.637475
 30
0.0
 11
205.855475
 21
157.854475
 31
0.0
  0
LINE
  5
3D5
330
1E
100
AcDbEntity
  8
0
100
AcDbLine
 10
213.999975
 20
158.056475
 30
0.0
 11
209.957875
 21
158.056475
 31
0.0
  0
LINE
  5
3D6
330
1E
100
AcDbEntity
  8
0
100
AcDbLine
 10
213.999975
 20
157.056475
 30
0.0
 11
212.0224749999999
 21
157.056475
 31
0.0
  0
LINE
  5
3D7
330
1E
100
AcDbEntity
  8
0
100
AcDbLine
 10
212.0224749999999
 20
157.056475
 30
0.0
 11
209.648075
 21
157.637475
 31
0.0
  0
LINE
  5
3D8
330
1E
100
AcDbEntity
  8
0
100
AcDbLine
 10
197.299975
 20
158.556475
 30
0.0
 11
190.299975
 21
158.556475
 31
0.0
  0
LINE
  5
3D9
330
1E
100
AcDbEntity
  8
0
100
AcDbLine
 10
197.799975
 20
158.056475
 30
0.0
 11
190.999975
 21
158.056475
 31
0.0
  0
LINE
  5
3DA
330
1E
100
AcDbEntity
  8
0
100
AcDbLine
 10
199.371275
 20
157.056475
 30
0.0
 11
197.999975
 21
156.056475
 31
0.0
  0
LINE
  5
3DB
330
1E
100
AcDbEntity
  8
0
100
AcDbLine
 10
197.999975
 20
157.056475
 30
0.0
 11
197.999975
 21
156.056475
 31
0.0
  0
LINE
  5
3DC
330
1E
100
AcDbEntity
  8
0
100
AcDbLine
 10
197.999975
 20
156.056475
 30
0.0
 11
197.999975
 21
157.056475
 31
0.0
  0
LINE
  5
3DD
330
1E
100
AcDbEntity
  8
0
100
AcDbLine
 10
199.010475
 20
158.056475
 30
0.0
 11
198.4209749999999
 21
158.056475
 31
0.0
  0
LINE
  5
3DE
330
1E
100
AcDbEntity
  8
0
100
AcDbLine
 10
202.968475
 20
158.056475
 30
0.0
 11
200.5262749999999
 21
158.056475
 31
0.0
  0
LINE
  5
3DF
330
1E
100
AcDbEntity
  8
0
100
AcDbLine
 10
202.0420749999999
 20
157.692475
 30
0.0
 11
199.371275
 21
157.056475
 31
0.0
  0
LINE
  5
3E0
330
1E
100
AcDbEntity
  8
0
100
AcDbLine
 10
200.5262749999999
 20
158.056475
 30
0.0
 11
199.010475
 21
158.056475
 31
0.0
  0
LINE
  5
3E1
330
1E
100
AcDbEntity
  8
0
100
AcDbLine
 10
198.4209749999999
 20
158.056475
 30
0.0
 11
197.799975
 21
158.056475
 31
0.0
  0
LINE
  5
3E2
330
1E
100
AcDbEntity
  8
0
100
AcDbLine
 10
198.4209749999999
 20
158.056475
 30
0.0
 11
197.999975
 21
157.956475
 31
0.0
  0
LINE
  5
3E3
330
1E
100
AcDbEntity
  8
0
100
AcDbLine
 10
197.999975
 20
157.816475
 30
0.0
 11
197.999975
 21
157.056475
 31
0.0
  0
LINE
  5
3E4
330
1E
100
AcDbEntity
  8
0
100
AcDbLine
 10
197.999975
 20
157.816475
 30
0.0
 11
197.999975
 21
157.956475
 31
0.0
  0
LINE
  5
3E5
330
1E
100
AcDbEntity
  8
0
100
AcDbLine
 10
197.999975
 20
157.056475
 30
0.0
 11
197.999975
 21
157.816475
 31
0.0
  0
LINE
  5
3E6
330
1E
100
AcDbEntity
  8
0
100
AcDbLine
 10
190.299975
 20
158.556475
 30
0.0
 11
184.999975
 21
158.556475
 31
0.0
  0
LINE
  5
3E7
330
1E
100
AcDbEntity
  8
0
100
AcDbLine
 10
190.999975
 20
158.056475
 30
0.0
 11
185.8999749999999
 21
158.056475
 31
0.0
  0
LINE
  5
3E8
330
1E
100
AcDbEntity
  8
0
100
AcDbLine
 10
185.8999749999999
 20
158.056475
 30
0.0
 11
182.6999749999999
 21
158.056475
 31
0.0
  0
LINE
  5
3E9
330
1E
100
AcDbEntity
  8
0
100
AcDbLine
 10
205.299975
 20
184.056475
 30
0.0
 11
197.099975
 21
184.056475
 31
0.0
  0
LINE
  5
3EA
330
1E
100
AcDbEntity
  8
0
100
AcDbLine
 10
222.699975
 20
184.056475
 30
0.0
 11
213.999975
 21
184.056475
 31
0.0
  0
LINE
  5
3EB
330
1E
100
AcDbEntity
  8
0
100
AcDbLine
 10
213.999975
 20
184.056475
 30
0.0
 11
205.299975
 21
184.056475
 31
0.0
  0
LINE
  5
3EC
330
1E
100
AcDbEntity
  8
0
100
AcDbLine
 10
197.099975
 20
184.056475
 30
0.0
 11
189.999975
 21
184.056475
 31
0.0
  0
LINE
  5
3ED
330
1E
100
AcDbEntity
  8
0
100
AcDbLine
 10
189.999975
 20
184.056475
 30
0.0
 11
184.599975
 21
184.056475
 31
0.0
  0
LINE
  5
3EE
330
1E
100
AcDbEntity
  8
0
100
AcDbLine
 10
179.999975
 20
184.056475
 30
0.0
 11
179.999975
 21
159.556475
 31
0.0
  0
LINE
  5
3EF
330
1E
100
AcDbEntity
  8
0
100
AcDbLine
 10
179.999975
 20
159.556475
 30
0.0
 11
179.999975
 21
184.056475
 31
0.0
  0
LINE
  5
3F0
330
1E
100
AcDbEntity
  8
0
100
AcDbLine
 10
180.499975
 20
158.556475
 30
0.0
 11
179.999975
 21
159.556475
 31
0.0
  0
LINE
  5
3F1
330
1E
100
AcDbEntity
  8
0
100
AcDbLine
 10
181.6999749999999
 20
158.556475
 30
0.0
 11
180.499975
 21
158.556475
 31
0.0
  0
LINE
  5
3F2
330
1E
100
AcDbEntity
  8
0
100
AcDbLine
 10
181.499975
 20
158.056475
 30
0.0
 11
180.499975
 21
158.556475
 31
0.0
  0
LINE
  5
3F3
330
1E
100
AcDbEntity
  8
0
100
AcDbLine
 10
181.199975
 20
184.056475
 30
0.0
 11
179.999975
 21
184.056475
 31
0.0
  0
LINE
  5
3F4
330
1E
100
AcDbEntity
  8
0
100
AcDbLine
 10
231.999975
 20
91.25647499999999
 30
0.0
 11
231.999975
 21
94.55647500000001
 31
0.0
  0
LINE
  5
3F5
330
1E
100
AcDbEntity
  8
0
100
AcDbLine
 10
231.999975
 20
94.55647500000001
 30
0.0
 11
231.999975
 21
91.25647499999999
 31
0.0
  0
LINE
  5
3F6
330
1E
100
AcDbEntity
  8
0
100
AcDbLine
 10
232.4999749999999
 20
90.856475
 30
0.0
 11
232.4999749999999
 21
94.256475
 31
0.0
  0
LINE
  5
3F7
330
1E
100
AcDbEntity
  8
0
100
AcDbLine
 10
274.499975
 20
90.25647499999999
 30
0.0
 11
274.499975
 21
92.15647500000001
 31
0.0
  0
LINE
  5
3F8
330
1E
100
AcDbEntity
  8
0
100
AcDbLine
 10
274.499975
 20
92.15647500000001
 30
0.0
 11
274.499975
 21
90.25647499999999
 31
0.0
  0
LINE
  5
3F9
330
1E
100
AcDbEntity
  8
0
100
AcDbLine
 10
230.999975
 20
88.056475
 30
0.0
 11
157.20250664557
 21
88.056475
 31
0.0
  0
LINE
  5
3FA
330
1E
100
AcDbEntity
  8
0
100
AcDbLine
 10
230.999975
 20
88.056475
 30
0.0
 11
157.20250664557
 21
88.056475
 31
0.0
  0
LINE
  5
3FB
330
1E
100
AcDbEntity
  8
0
100
AcDbLine
 10
272.999975
 20
88.056475
 30
0.0
 11
232.4999749999999
 21
88.056475
 31
0.0
  0
LINE
  5
3FC
330
1E
100
AcDbEntity
  8
0
100
AcDbLine
 10
272.999975
 20
88.056475
 30
0.0
 11
232.4999749999999
 21
88.056475
 31
0.0
  0
LINE
  5
3FD
330
1E
100
AcDbEntity
  8
0
100
AcDbLine
 10
273.9999749999999
 20
88.55647500000001
 30
0.0
 11
272.999975
 21
88.056475
 31
0.0
  0
LINE
  5
3FE
330
1E
100
AcDbEntity
  8
0
100
AcDbLine
 10
274.499975
 20
89.55647500000001
 30
0.0
 11
274.499975
 21
90.25647499999999
 31
0.0
  0
LINE
  5
3FF
330
1E
100
AcDbEntity
  8
0
100
AcDbLine
 10
274.499975
 20
89.55647500000001
 30
0.0
 11
273.9999749999999
 21
88.55647500000001
 31
0.0
  0
LINE
  5
400
330
1E
100
AcDbEntity
  8
0
100
AcDbLine
 10
274.499975
 20
90.25647499999999
 30
0.0
 11
274.499975
 21
89.55647500000001
 31
0.0
  0
LINE
  5
401
330
1E
100
AcDbEntity
  8
0
100
AcDbLine
 10
231.999975
 20
88.55647500000001
 30
0.0
 11
230.999975
 21
88.056475
 31
0.0
  0
LINE
  5
402
330
1E
100
AcDbEntity
  8
0
100
AcDbLine
 10
232.4999749999999
 20
88.056475
 30
0.0
 11
232.4999749999999
 21
88.85647500000001
 31
0.0
  0
LINE
  5
403
330
1E
100
AcDbEntity
  8
0
100
AcDbLine
 10
231.999975
 20
88.55647500000001
 30
0.0
 11
231.999975
 21
89.256475
 31
0.0
  0
LINE
  5
404
330
1E
100
AcDbEntity
  8
0
100
AcDbLine
 10
231.999975
 20
89.256475
 30
0.0
 11
231.999975
 21
91.25647499999999
 31
0.0
  0
LINE
  5
405
330
1E
100
AcDbEntity
  8
0
100
AcDbLine
 10
231.999975
 20
89.256475
 30
0.0
 11
231.999975
 21
88.55647500000001
 31
0.0
  0
LINE
  5
406
330
1E
100
AcDbEntity
  8
0
100
AcDbLine
 10
231.999975
 20
91.25647499999999
 30
0.0
 11
231.999975
 21
89.256475
 31
0.0
  0
LINE
  5
407
330
1E
100
AcDbEntity
  8
0
100
AcDbLine
 10
232.4999749999999
 20
88.85647500000001
 30
0.0
 11
232.4999749999999
 21
90.856475
 31
0.0
  0
LINE
  5
408
330
1E
100
AcDbEntity
  8
0
100
AcDbLine
 10
232.4999749999999
 20
89.55647500000001
 30
0.0
 11
231.999975
 21
88.55647500000001
 31
0.0
  0
LINE
  5
409
330
1E
100
AcDbEntity
  8
0
100
AcDbLine
 10
274.330715
 20
106.2364749999999
 30
0.0
 11
273.6809349999999
 21
106.5244749999999
 31
0.0
  0
LINE
  5
40A
330
1E
100
AcDbEntity
  8
0
100
AcDbLine
 10
276.3920549999999
 20
106.5244749999999
 30
0.0
 11
275.7422849999999
 21
106.2364749999999
 31
0.0
  0
LINE
  5
40B
330
1E
100
AcDbEntity
  8
0
100
AcDbLine
 10
274.499975
 20
95.25647499999999
 30
0.0
 11
274.499975
 21
99.35647500000001
 31
0.0
  0
LINE
  5
40C
330
1E
100
AcDbEntity
  8
0
100
AcDbLine
 10
274.499975
 20
99.35647500000001
 30
0.0
 11
274.499975
 21
95.25647499999999
 31
0.0
  0
LINE
  5
40D
330
1E
100
AcDbEntity
  8
0
100
AcDbLine
 10
274.499975
 20
92.15647500000001
 30
0.0
 11
274.499975
 21
95.25647499999999
 31
0.0
  0
LINE
  5
40E
330
1E
100
AcDbEntity
  8
0
100
AcDbLine
 10
274.499975
 20
95.25647499999999
 30
0.0
 11
274.499975
 21
92.15647500000001
 31
0.0
  0
LINE
  5
40F
330
1E
100
AcDbEntity
  8
0
100
AcDbLine
 10
275.036495
 20
106.1284749999999
 30
0.0
 11
274.330715
 21
106.2364749999999
 31
0.0
  0
LINE
  5
410
330
1E
100
AcDbEntity
  8
0
100
AcDbLine
 10
274.8214749999999
 20
106.056475
 30
0.0
 11
272.999975
 21
106.056475
 31
0.0
  0
LINE
  5
411
330
1E
100
AcDbEntity
  8
0
100
AcDbLine
 10
275.5384649999999
 20
106.1644749999999
 30
0.0
 11
274.8214749999999
 21
106.056475
 31
0.0
  0
LINE
  5
412
330
1E
100
AcDbEntity
  8
0
100
AcDbLine
 10
275.7422849999999
 20
106.2364749999999
 30
0.0
 11
275.036495
 21
106.1284749999999
 31
0.0
  0
LINE
  5
413
330
1E
100
AcDbEntity
  8
0
100
AcDbLine
 10
275.7422849999999
 20
106.2364749999999
 30
0.0
 11
275.5384649999999
 21
106.1644749999999
 31
0.0
  0
LINE
  5
414
330
1E
100
AcDbEntity
  8
0
100
AcDbLine
 10
274.499975
 20
104.056475
 30
0.0
 11
274.499975
 21
99.35647500000001
 31
0.0
  0
LINE
  5
415
330
1E
100
AcDbEntity
  8
0
100
AcDbLine
 10
274.499975
 20
99.35647500000001
 30
0.0
 11
274.499975
 21
104.056475
 31
0.0
  0
LINE
  5
416
330
1E
100
AcDbEntity
  8
0
100
AcDbLine
 10
274.499975
 20
105.156475
 30
0.0
 11
274.499975
 21
104.756475
 31
0.0
  0
LINE
  5
417
330
1E
100
AcDbEntity
  8
0
100
AcDbLine
 10
274.499975
 20
105.156475
 30
0.0
 11
274.499975
 21
105.8564749999999
 31
0.0
  0
LINE
  5
418
330
1E
100
AcDbEntity
  8
0
100
AcDbLine
 10
274.499975
 20
105.156475
 30
0.0
 11
274.499975
 21
104.2564749999999
 31
0.0
  0
LINE
  5
419
330
1E
100
AcDbEntity
  8
0
100
AcDbLine
 10
274.499975
 20
105.156475
 30
0.0
 11
274.499975
 21
106.056475
 31
0.0
  0
LINE
  5
41A
330
1E
100
AcDbEntity
  8
0
100
AcDbLine
 10
274.499975
 20
106.056475
 30
0.0
 11
274.499975
 21
104.056475
 31
0.0
  0
LINE
  5
41B
330
1E
100
AcDbEntity
  8
0
100
AcDbLine
 10
274.499975
 20
106.056475
 30
0.0
 11
274.499975
 21
105.8564749999999
 31
0.0
  0
LINE
  5
41C
330
1E
100
AcDbEntity
  8
0
100
AcDbLine
 10
274.499975
 20
106.056475
 30
0.0
 11
274.499975
 21
105.156475
 31
0.0
  0
LINE
  5
41D
330
1E
100
AcDbEntity
  8
0
100
AcDbLine
 10
274.499975
 20
105.8564749999999
 30
0.0
 11
274.499975
 21
105.156475
 31
0.0
  0
LINE
  5
41E
330
1E
100
AcDbEntity
  8
0
100
AcDbLine
 10
274.499975
 20
105.8564749999999
 30
0.0
 11
274.499975
 21
106.056475
 31
0.0
  0
LINE
  5
41F
330
1E
100
AcDbEntity
  8
0
100
AcDbLine
 10
274.499975
 20
103.556475
 30
0.0
 11
274.499975
 21
103.756475
 31
0.0
  0
LINE
  5
420
330
1E
100
AcDbEntity
  8
0
100
AcDbLine
 10
274.499975
 20
103.756475
 30
0.0
 11
274.499975
 21
103.556475
 31
0.0
  0
LINE
  5
421
330
1E
100
AcDbEntity
  8
0
100
AcDbLine
 10
274.499975
 20
103.756475
 30
0.0
 11
274.499975
 21
104.2564749999999
 31
0.0
  0
LINE
  5
422
330
1E
100
AcDbEntity
  8
0
100
AcDbLine
 10
274.499975
 20
104.2564749999999
 30
0.0
 11
274.499975
 21
103.756475
 31
0.0
  0
LINE
  5
423
330
1E
100
AcDbEntity
  8
0
100
AcDbLine
 10
274.499975
 20
104.2564749999999
 30
0.0
 11
274.499975
 21
105.156475
 31
0.0
  0
LINE
  5
424
330
1E
100
AcDbEntity
  8
0
100
AcDbLine
 10
274.499975
 20
104.556475
 30
0.0
 11
274.499975
 21
104.756475
 31
0.0
  0
LINE
  5
425
330
1E
100
AcDbEntity
  8
0
100
AcDbLine
 10
274.499975
 20
104.756475
 30
0.0
 11
274.499975
 21
104.556475
 31
0.0
  0
LINE
  5
426
330
1E
100
AcDbEntity
  8
0
100
AcDbLine
 10
274.499975
 20
104.756475
 30
0.0
 11
274.499975
 21
105.156475
 31
0.0
  0
LINE
  5
427
330
1E
100
AcDbEntity
  8
0
100
AcDbLine
 10
274.499975
 20
104.056475
 30
0.0
 11
274.499975
 21
106.056475
 31
0.0
  0
LINE
  5
428
330
1E
100
AcDbEntity
  8
0
100
AcDbLine
 10
277.669195
 20
108.300475
 30
0.0
 11
277.400325
 21
107.6044749999999
 31
0.0
  0
LINE
  5
429
330
1E
100
AcDbEntity
  8
0
100
AcDbLine
 10
277.7700249999999
 20
109.056475
 30
0.0
 11
277.669195
 21
109.8124749999999
 31
0.0
  0
LINE
  5
42A
330
1E
100
AcDbEntity
  8
0
100
AcDbLine
 10
277.7700249999999
 20
109.056475
 30
0.0
 11
277.669195
 21
108.300475
 31
0.0
  0
LINE
  5
42B
330
1E
100
AcDbEntity
  8
0
100
AcDbLine
 10
277.400325
 20
107.6044749999999
 30
0.0
 11
276.9634049999999
 21
106.9924749999999
 31
0.0
  0
LINE
  5
42C
330
1E
100
AcDbEntity
  8
0
100
AcDbLine
 10
276.9634049999999
 20
106.9924749999999
 30
0.0
 11
276.3920549999999
 21
106.5244749999999
 31
0.0
  0
LINE
  5
42D
330
1E
100
AcDbEntity
  8
0
100
AcDbLine
 10
272.4038049999999
 20
108.300475
 30
0.0
 11
272.302975
 21
109.056475
 31
0.0
  0
LINE
  5
42E
330
1E
100
AcDbEntity
  8
0
100
AcDbLine
 10
272.6726749999999
 20
107.6044749999999
 30
0.0
 11
272.4038049999999
 21
108.300475
 31
0.0
  0
LINE
  5
42F
330
1E
100
AcDbEntity
  8
0
100
AcDbLine
 10
272.4038049999999
 20
109.8124749999999
 30
0.0
 11
272.302975
 21
109.056475
 31
0.0
  0
LINE
  5
430
330
1E
100
AcDbEntity
  8
0
100
AcDbLine
 10
273.1095849999999
 20
106.9924749999999
 30
0.0
 11
272.6726749999999
 21
107.6044749999999
 31
0.0
  0
LINE
  5
431
330
1E
100
AcDbEntity
  8
0
100
AcDbLine
 10
273.6809349999999
 20
106.5244749999999
 30
0.0
 11
273.1095849999999
 21
106.9924749999999
 31
0.0
  0
LINE
  5
432
330
1E
100
AcDbEntity
  8
0
100
AcDbLine
 10
231.999975
 20
109.056475
 30
0.0
 11
231.999975
 21
103.756475
 31
0.0
  0
LINE
  5
433
330
1E
100
AcDbEntity
  8
0
100
AcDbLine
 10
231.999975
 20
103.756475
 30
0.0
 11
231.999975
 21
109.056475
 31
0.0
  0
LINE
  5
434
330
1E
100
AcDbEntity
  8
0
100
AcDbLine
 10
232.4999749999999
 20
103.6564749999999
 30
0.0
 11
232.4999749999999
 21
109.056475
 31
0.0
  0
LINE
  5
435
330
1E
100
AcDbEntity
  8
0
100
AcDbLine
 10
231.999975
 20
103.756475
 30
0.0
 11
231.999975
 21
98.85647500000001
 31
0.0
  0
LINE
  5
436
330
1E
100
AcDbEntity
  8
0
100
AcDbLine
 10
231.999975
 20
98.85647500000001
 30
0.0
 11
231.999975
 21
103.756475
 31
0.0
  0
LINE
  5
437
330
1E
100
AcDbEntity
  8
0
100
AcDbLine
 10
232.4999749999999
 20
98.65647500000001
 30
0.0
 11
232.4999749999999
 21
103.6564749999999
 31
0.0
  0
LINE
  5
438
330
1E
100
AcDbEntity
  8
0
100
AcDbLine
 10
231.999975
 20
94.55647500000001
 30
0.0
 11
231.999975
 21
98.85647500000001
 31
0.0
  0
LINE
  5
439
330
1E
100
AcDbEntity
  8
0
100
AcDbLine
 10
231.999975
 20
98.85647500000001
 30
0.0
 11
231.999975
 21
94.55647500000001
 31
0.0
  0
LINE
  5
43A
330
1E
100
AcDbEntity
  8
0
100
AcDbLine
 10
232.4999749999999
 20
94.256475
 30
0.0
 11
232.4999749999999
 21
98.65647500000001
 31
0.0
  0
ENDSEC
  0
SECTION
  2
OBJECTS
  0
DICTIONARY
  5
C
330
0
100
AcDbDictionary
281
     1
  3
ACAD_GROUP
350
D
  3
ACAD_LAYOUT
350
19
  3
ACAD_MLINESTYLE
350
16
  3
ACAD_PLOTSETTINGS
350
18
  3
ACAD_PLOTSTYLENAME
350
E
  3
AcDbVariableDictionary
350
43B
  0
DICTIONARY
  5
D
102
{ACAD_REACTORS
330
C
102
}
330
C
100
AcDbDictionary
281
     1
  0
DICTIONARY
  5
19
102
{ACAD_REACTORS
330
C
102
}
330
C
100
AcDbDictionary
281
     1
  3
Layout1
350
1D
  3
Model
350
21
  0
DICTIONARY
  5
16
102
{ACAD_REACTORS
330
C
102
}
330
C
100
AcDbDictionary
281
     1
  3
Standard
350
17
  0
DICTIONARY
  5
18
102
{ACAD_REACTORS
330
C
102
}
330
C
100
AcDbDictionary
281
     1
  0
ACDBDICTIONARYWDFLT
  5
E
102
{ACAD_REACTORS
330
C
102
}
330
C
100
AcDbDictionary
281
     1
  3
Normal
350
F
100
AcDbDictionaryWithDefault
340
F
  0
DICTIONARY
  5
43B
102
{ACAD_REACTORS
330
C
102
}
330
C
100
AcDbDictionary
281
     1
  3
DIMASSOC
350
43C
  0
LAYOUT
  5
1D
102
{ACAD_REACTORS
330
19
102
}
330
19
100
AcDbPlotSettings
  1

  2
hp deskjet 980c series
  4

  6

 40
0.0
 41
0.0
 42
0.0
 43
0.0
 44
0.0
 45
0.0
 46
0.0
 47
0.0
 48
0.0
 49
0.0
140
0.0
141
0.0
142
1.0
143
1.0
 70
   688
 72
     0
 73
     0
 74
     5
  7

 75
    16
147
1.0
148
0.0
149
0.0
100
AcDbLayout
  1
Layout1
 70
     1
 71
     1
 10
0.0
 20
0.0
 11
12.0
 21
9.0
 12
0.0
 22
0.0
 32
0.0
 14
1.000000000000000E+20
 24
1.000000000000000E+20
 34
1.000000000000000E+20
 15
-1.000000000000000E+20
 25
-1.000000000000000E+20
 35
-1.000000000000000E+20
146
0.0
 13
0.0
 23
0.0
 33
0.0
 16
1.0
 26
0.0
 36
0.0
 17
0.0
 27
1.0
 37
0.0
 76
     0
330
1A
  0
LAYOUT
  5
21
102
{ACAD_REACTORS
330
19
102
}
330
19
100
AcDbPlotSettings
  1

  2
hp deskjet 980c series
  4

  6

 40
0.0
 41
0.0
 42
0.0
 43
0.0
 44
0.0
 45
0.0
 46
0.0
 47
0.0
 48
0.0
 49
0.0
140
0.0
141
0.0
142
1.0
143
1.0
 70
  1712
 72
     0
 73
     0
 74
     0
  7

 75
     0
147
1.0
148
0.0
149
0.0
100
AcDbLayout
  1
Model
 70
     1
 71
     0
 10
0.0
 20
0.0
 11
12.0
 21
9.0
 12
0.0
 22
0.0
 32
0.0
 14
0.0
 24
0.0
 34
0.0
 15
0.0
 25
0.0
 35
0.0
146
0.0
 13
0.0
 23
0.0
 33
0.0
 16
1.0
 26
0.0
 36
0.0
 17
0.0
 27
1.0
 37
0.0
 76
     0
330
1E
  0
MLINESTYLE
  5
17
102
{ACAD_REACTORS
330
16
102
}
330
16
100
AcDbMlineStyle
  2
STANDARD
 70
     0
  3

 62
   256
 51
90.0
 52
90.0
 71
     2
 49
0.5
 62
   256
  6
BYLAYER
 49
-0.5
 62
   256
  6
BYLAYER
  0
ACDBPLACEHOLDER
  5
F
102
{ACAD_REACTORS
330
E
102
}
330
E
  0
DICTIONARYVAR
  5
43C
102
{ACAD_REACTORS
330
43B
102
}
330
43B
100
DictionaryVariables
280
     0
  1
1
  0
ENDSEC
  0
EOF
