  0
SECTION
  2
HEADER
  9
$ACADVER
  1
AC1014
  9
$ACADMAINTVER
 70
     9
  9
$DWGCODEPAGE
  3
ANSI_1252
  9
$INSBASE
 10
0.0
 20
0.0
 30
0.0
  9
$EXTMIN
 10
0.0
 20
-0.129000000000006
 30
0.0
  9
$EXTMAX
 10
160.0
 20
45.129
 30
0.0
  9
$LIMMIN
 10
0.0
 20
0.0
  9
$LIMMAX
 10
12.0
 20
9.0
  9
$ORTHOMODE
 70
     0
  9
$REGENMODE
 70
     1
  9
$FILLMODE
 70
     1
  9
$QTEXTMODE
 70
     0
  9
$MIRRTEXT
 70
     1
  9
$DRAGMODE
 70
     2
  9
$LTSCALE
 40
1.0
  9
$OSMODE
 70
    37
  9
$ATTMODE
 70
     1
  9
$TEXTSIZE
 40
0.2
  9
$TRACEWID
 40
0.05
  9
$TEXTSTYLE
  7
STANDARD
  9
$CLAYER
  8
0
  9
$CELTYPE
  6
CONTINUOUS
  9
$CECOLOR
 62
   256
  9
$CELTSCALE
 40
1.0
  9
$DELOBJ
 70
     1
  9
$DISPSILH
 70
     0
  9
$DIMSCALE
 40
1.0
  9
$DIMASZ
 40
0.18
  9
$DIMEXO
 40
0.0625
  9
$DIMDLI
 40
0.38
  9
$DIMRND
 40
0.0
  9
$DIMDLE
 40
0.0
  9
$DIMEXE
 40
0.18
  9
$DIMTP
 40
0.0
  9
$DIMTM
 40
0.0
  9
$DIMTXT
 40
0.18
  9
$DIMCEN
 40
0.09
  9
$DIMTSZ
 40
0.0
  9
$DIMTOL
 70
     0
  9
$DIMLIM
 70
     0
  9
$DIMTIH
 70
     1
  9
$DIMTOH
 70
     1
  9
$DIMSE1
 70
     0
  9
$DIMSE2
 70
     0
  9
$DIMTAD
 70
     0
  9
$DIMZIN
 70
     0
  9
$DIMBLK
  1

  9
$DIMASO
 70
     1
  9
$DIMSHO
 70
     1
  9
$DIMPOST
  1

  9
$DIMAPOST
  1

  9
$DIMALT
 70
     0
  9
$DIMALTD
 70
     2
  9
$DIMALTF
 40
25.4
  9
$DIMLFAC
 40
1.0
  9
$DIMTOFL
 70
     0
  9
$DIMTVP
 40
0.0
  9
$DIMTIX
 70
     0
  9
$DIMSOXD
 70
     0
  9
$DIMSAH
 70
     0
  9
$DIMBLK1
  1

  9
$DIMBLK2
  1

  9
$DIMSTYLE
  2
STANDARD
  9
$DIMCLRD
 70
     0
  9
$DIMCLRE
 70
     0
  9
$DIMCLRT
 70
     0
  9
$DIMTFAC
 40
1.0
  9
$DIMGAP
 40
0.09
  9
$DIMJUST
 70
     0
  9
$DIMSD1
 70
     0
  9
$DIMSD2
 70
     0
  9
$DIMTOLJ
 70
     1
  9
$DIMTZIN
 70
     0
  9
$DIMALTZ
 70
     0
  9
$DIMALTTZ
 70
     0
  9
$DIMFIT
 70
     3
  9
$DIMUPT
 70
     0
  9
$DIMUNIT
 70
     2
  9
$DIMDEC
 70
     4
  9
$DIMTDEC
 70
     4
  9
$DIMALTU
 70
     2
  9
$DIMALTTD
 70
     2
  9
$DIMTXSTY
  7
STANDARD
  9
$DIMAUNIT
 70
     0
  9
$LUNITS
 70
     2
  9
$LUPREC
 70
     4
  9
$SKETCHINC
 40
0.1
  9
$FILLETRAD
 40
0.0
  9
$AUNITS
 70
     0
  9
$AUPREC
 70
     0
  9
$MENU
  1
.
  9
$ELEVATION
 40
0.0
  9
$PELEVATION
 40
0.0
  9
$THICKNESS
 40
0.0
  9
$LIMCHECK
 70
     0
  9
$BLIPMODE
 70
     0
  9
$CHAMFERA
 40
0.0
  9
$CHAMFERB
 40
0.0
  9
$CHAMFERC
 40
0.0
  9
$CHAMFERD
 40
0.0
  9
$SKPOLY
 70
     0
  9
$TDCREATE
 40
2454983.611368634
  9
$TDUPDATE
 40
2454983.612142465
  9
$TDINDWG
 40
0.0007738310
  9
$TDUSRTIMER
 40
0.0007738310
  9
$USRTIMER
 70
     1
  9
$ANGBASE
 50
0.0
  9
$ANGDIR
 70
     0
  9
$PDMODE
 70
     0
  9
$PDSIZE
 40
0.0
  9
$PLINEWID
 40
0.0
  9
$COORDS
 70
     1
  9
$SPLFRAME
 70
     0
  9
$SPLINETYPE
 70
     6
  9
$SPLINESEGS
 70
     8
  9
$ATTDIA
 70
     0
  9
$ATTREQ
 70
     1
  9
$HANDLING
 70
 22529
  9
$HANDSEED
  5
265
  9
$SURFTAB1
 70
     6
  9
$SURFTAB2
 70
     6
  9
$SURFTYPE
 70
     6
  9
$SURFU
 70
     6
  9
$SURFV
 70
     6
  9
$UCSNAME
  2

  9
$UCSORG
 10
0.0
 20
0.0
 30
0.0
  9
$UCSXDIR
 10
1.0
 20
0.0
 30
0.0
  9
$UCSYDIR
 10
0.0
 20
1.0
 30
0.0
  9
$PUCSNAME
  2

  9
$PUCSORG
 10
0.0
 20
0.0
 30
0.0
  9
$PUCSXDIR
 10
1.0
 20
0.0
 30
0.0
  9
$PUCSYDIR
 10
0.0
 20
1.0
 30
0.0
  9
$USERI1
 70
     0
  9
$USERI2
 70
     0
  9
$USERI3
 70
     0
  9
$USERI4
 70
     0
  9
$USERI5
 70
     0
  9
$USERR1
 40
0.0
  9
$USERR2
 40
0.0
  9
$USERR3
 40
0.0
  9
$USERR4
 40
0.0
  9
$USERR5
 40
0.0
  9
$WORLDVIEW
 70
     1
  9
$SHADEDGE
 70
     3
  9
$SHADEDIF
 70
    70
  9
$TILEMODE
 70
     1
  9
$MAXACTVP
 70
    64
  9
$PINSBASE
 10
0.0
 20
0.0
 30
0.0
  9
$PLIMCHECK
 70
     0
  9
$PEXTMIN
 10
1.000000000000000E+20
 20
1.000000000000000E+20
 30
1.000000000000000E+20
  9
$PEXTMAX
 10
-1.000000000000000E+20
 20
-1.000000000000000E+20
 30
-1.000000000000000E+20
  9
$PLIMMIN
 10
0.0
 20
0.0
  9
$PLIMMAX
 10
12.0
 20
9.0
  9
$UNITMODE
 70
     0
  9
$VISRETAIN
 70
     1
  9
$PLINEGEN
 70
     0
  9
$PSLTSCALE
 70
     1
  9
$TREEDEPTH
 70
  3020
  9
$PICKSTYLE
 70
     1
  9
$CMLSTYLE
  2
STANDARD
  9
$CMLJUST
 70
     0
  9
$CMLSCALE
 40
1.0
  9
$PROXYGRAPHICS
 70
     1
  9
$MEASUREMENT
 70
     0
  0
ENDSEC
  0
SECTION
  2
CLASSES
  0
CLASS
  1
ACDBDICTIONARYWDFLT
  2
AcDbDictionaryWithDefault
  3
AutoCAD 2000
 90
        0
280
     0
281
     0
  0
CLASS
  1
ACDBPLACEHOLDER
  2
AcDbPlaceHolder
  3
AutoCAD 2000
 90
        0
280
     0
281
     0
  0
CLASS
  1
LAYOUT
  2
AcDbLayout
  3
AutoCAD 2000
 90
        0
280
     0
281
     0
  0
CLASS
  1
DICTIONARYVAR
  2
AcDbDictionaryVar
  3
AutoCAD 2000
 90
        0
280
     0
281
     0
  0
CLASS
  1
LONG_TRANSACTION
  2
AcDbLongTransaction
  3
AutoCAD 2000
 90
        0
280
     0
281
     0
  0
CLASS
  1
LWPOLYLINE
  2
AcDbPolyline
  3
AutoCAD 2000
 90
        0
280
     0
281
     1
  0
CLASS
  1
HATCH
  2
AcDbHatch
  3
AutoCAD 2000
 90
        0
280
     0
281
     1
  0
CLASS
  1
XRECORD
  2
AcDbXrecord
  3
AutoCAD 2000
 90
        0
280
     0
281
     0
  0
ENDSEC
  0
SECTION
  2
TABLES
  0
TABLE
  2
VPORT
  5
8
330
0
100
AcDbSymbolTable
 70
     2
  0
VPORT
  5
240
330
8
100
AcDbSymbolTableRecord
100
AcDbViewportTableRecord
  2
*ACTIVE
 70
     0
 10
0.0
 20
0.0
 11
1.0
 21
1.0
 12
80.0
 22
22.49999999999999
 13
0.0
 23
0.0
 14
1.0
 24
1.0
 15
0.0
 25
0.0
 16
0.0
 26
0.0
 36
1.0
 17
0.0
 27
0.0
 37
0.0
 40
81.54574295132004
 41
1.968387776606954
 42
50.0
 43
0.0
 44
0.0
 50
0.0
 51
0.0
 71
     0
 72
   100
 73
     1
 74
     3
 75
     0
 76
     0
 77
     0
 78
     0
  0
ENDTAB
  0
TABLE
  2
LTYPE
  5
5
330
0
100
AcDbSymbolTable
 70
     1
  0
LTYPE
  5
13
330
5
100
AcDbSymbolTableRecord
100
AcDbLinetypeTableRecord
  2
BYBLOCK
 70
     0
  3

 72
    65
 73
     0
 40
0.0
  0
LTYPE
  5
14
330
5
100
AcDbSymbolTableRecord
100
AcDbLinetypeTableRecord
  2
BYLAYER
 70
     0
  3

 72
    65
 73
     0
 40
0.0
  0
LTYPE
  5
15
330
5
100
AcDbSymbolTableRecord
100
AcDbLinetypeTableRecord
  2
CONTINUOUS
 70
     0
  3
Solid line
 72
    65
 73
     0
 40
0.0
  0
ENDTAB
  0
TABLE
  2
LAYER
  5
2
330
0
100
AcDbSymbolTable
 70
     1
  0
LAYER
  5
10
330
2
100
AcDbSymbolTableRecord
100
AcDbLayerTableRecord
  2
0
 70
     0
 62
     7
  6
CONTINUOUS
  0
ENDTAB
  0
TABLE
  2
STYLE
  5
3
330
0
100
AcDbSymbolTable
 70
     1
  0
STYLE
  5
11
330
3
100
AcDbSymbolTableRecord
100
AcDbTextStyleTableRecord
  2
STANDARD
 70
     0
 40
0.0
 41
1.0
 50
0.0
 71
     0
 42
0.2
  3
txt
  4

  0
ENDTAB
  0
TABLE
  2
VIEW
  5
6
330
0
100
AcDbSymbolTable
 70
     0
  0
ENDTAB
  0
TABLE
  2
UCS
  5
7
330
0
100
AcDbSymbolTable
 70
     0
  0
ENDTAB
  0
TABLE
  2
APPID
  5
9
330
0
100
AcDbSymbolTable
 70
     1
  0
APPID
  5
12
330
9
100
AcDbSymbolTableRecord
100
AcDbRegAppTableRecord
  2
ACAD
 70
     0
  0
ENDTAB
  0
TABLE
  2
DIMSTYLE
  5
A
330
0
100
AcDbSymbolTable
 70
     1
  0
DIMSTYLE
105
239
330
A
100
AcDbSymbolTableRecord
100
AcDbDimStyleTableRecord
  2
STANDARD
 70
     0
  3

  4

  5

  6

  7

 40
1.0
 41
0.18
 42
0.0625
 43
0.38
 44
0.18
 45
0.0
 46
0.0
 47
0.0
 48
0.0
140
0.18
141
0.09
142
0.0
143
25.4
144
1.0
145
0.0
146
1.0
147
0.09
 71
     0
 72
     0
 73
     1
 74
     1
 75
     0
 76
     0
 77
     0
 78
     0
170
     0
171
     2
172
     0
173
     0
174
     0
175
     0
176
     0
177
     0
178
     0
270
     2
271
     4
272
     4
273
     2
274
     2
340
11
275
     0
280
     0
281
     0
282
     0
283
     1
284
     0
285
     0
286
     0
287
     3
288
     0
  0
ENDTAB
  0
TABLE
  2
BLOCK_RECORD
  5
1
330
0
100
AcDbSymbolTable
 70
     0
  0
BLOCK_RECORD
  5
1E
102
{ACAD_XDICTIONARY
360
263
102
}
330
1
100
AcDbSymbolTableRecord
100
AcDbBlockTableRecord
  2
*MODEL_SPACE
  0
BLOCK_RECORD
  5
1A
102
{ACAD_XDICTIONARY
360
261
102
}
330
1
100
AcDbSymbolTableRecord
100
AcDbBlockTableRecord
  2
*PAPER_SPACE
  0
ENDTAB
  0
ENDSEC
  0
SECTION
  2
BLOCKS
  0
BLOCK
  5
1F
330
1E
100
AcDbEntity
  8
0
100
AcDbBlockBegin
  2
*MODEL_SPACE
 70
     0
 10
0.0
 20
0.0
 30
0.0
  3
*MODEL_SPACE
  1

  0
ENDBLK
  5
20
330
1E
100
AcDbEntity
  8
0
100
AcDbBlockEnd
  0
BLOCK
  5
1B
330
1A
100
AcDbEntity
 67
     1
  8
0
100
AcDbBlockBegin
  2
*PAPER_SPACE
 70
     0
 10
0.0
 20
0.0
 30
0.0
  3
*PAPER_SPACE
  1

  0
ENDBLK
  5
1C
330
1A
100
AcDbEntity
 67
     1
  8
0
100
AcDbBlockEnd
  0
ENDSEC
  0
SECTION
  2
ENTITIES
  0
LINE
  5
22
330
1E
100
AcDbEntity
  8
0
100
AcDbLine
 10
0.0
 20
16.88489999999999
 30
0.0
 11
0.0
 21
18.8349
 31
0.0
  0
LINE
  5
23
330
1E
100
AcDbEntity
  8
0
100
AcDbLine
 10
0.0
 20
16.88489999999999
 30
0.0
 11
0.0
 21
15.6614
 31
0.0
  0
LINE
  5
24
330
1E
100
AcDbEntity
  8
0
100
AcDbLine
 10
0.0
 20
15.6614
 30
0.0
 11
0.0
 21
16.88489999999999
 31
0.0
  0
LINE
  5
25
330
1E
100
AcDbEntity
  8
0
100
AcDbLine
 10
0.0
 20
15.6614
 30
0.0
 11
0.0
 21
15.2025
 31
0.0
  0
LINE
  5
26
330
1E
100
AcDbEntity
  8
0
100
AcDbLine
 10
0.0
 20
15.2025
 30
0.0
 11
0.5
 21
14.8202
 31
0.0
  0
LINE
  5
27
330
1E
100
AcDbEntity
  8
0
100
AcDbLine
 10
0.0
 20
15.2025
 30
0.0
 11
0.0
 21
15.6614
 31
0.0
  0
LINE
  5
28
330
1E
100
AcDbEntity
  8
0
100
AcDbLine
 10
0.0
 20
18.8349
 30
0.0
 11
0.0
 21
21.43489999999999
 31
0.0
  0
LINE
  5
29
330
1E
100
AcDbEntity
  8
0
100
AcDbLine
 10
0.0
 20
18.8349
 30
0.0
 11
0.0
 21
16.88489999999999
 31
0.0
  0
LINE
  5
2A
330
1E
100
AcDbEntity
  8
0
100
AcDbLine
 10
0.0
 20
21.43489999999999
 30
0.0
 11
0.0
 21
24.4172
 31
0.0
  0
LINE
  5
2B
330
1E
100
AcDbEntity
  8
0
100
AcDbLine
 10
0.0
 20
21.43489999999999
 30
0.0
 11
0.0
 21
18.8349
 31
0.0
  0
LINE
  5
2C
330
1E
100
AcDbEntity
  8
0
100
AcDbLine
 10
0.0
 20
24.4172
 30
0.0
 11
0.0
 21
27.629
 31
0.0
  0
LINE
  5
2D
330
1E
100
AcDbEntity
  8
0
100
AcDbLine
 10
0.0
 20
24.4172
 30
0.0
 11
0.0
 21
21.43489999999999
 31
0.0
  0
LINE
  5
2E
330
1E
100
AcDbEntity
  8
0
100
AcDbLine
 10
0.0
 20
33.82309999999999
 30
0.0
 11
0.0
 21
36.4231
 31
0.0
  0
LINE
  5
2F
330
1E
100
AcDbEntity
  8
0
100
AcDbLine
 10
0.0
 20
33.82309999999999
 30
0.0
 11
0.0
 21
30.8408
 31
0.0
  0
LINE
  5
30
330
1E
100
AcDbEntity
  8
0
100
AcDbLine
 10
0.0
 20
30.8408
 30
0.0
 11
0.0
 21
33.82309999999999
 31
0.0
  0
LINE
  5
31
330
1E
100
AcDbEntity
  8
0
100
AcDbLine
 10
0.0
 20
30.8408
 30
0.0
 11
0.0
 21
27.629
 31
0.0
  0
LINE
  5
32
330
1E
100
AcDbEntity
  8
0
100
AcDbLine
 10
0.0
 20
27.629
 30
0.0
 11
0.0
 21
30.8408
 31
0.0
  0
LINE
  5
33
330
1E
100
AcDbEntity
  8
0
100
AcDbLine
 10
0.0
 20
27.629
 30
0.0
 11
0.0
 21
24.4172
 31
0.0
  0
LINE
  5
34
330
1E
100
AcDbEntity
  8
0
100
AcDbLine
 10
0.0
 20
36.4231
 30
0.0
 11
0.0
 21
38.3731
 31
0.0
  0
LINE
  5
35
330
1E
100
AcDbEntity
  8
0
100
AcDbLine
 10
0.0
 20
36.4231
 30
0.0
 11
0.0
 21
33.82309999999999
 31
0.0
  0
LINE
  5
36
330
1E
100
AcDbEntity
  8
0
100
AcDbLine
 10
0.5
 20
14.8202
 30
0.0
 11
1.5
 21
14.629
 31
0.0
  0
LINE
  5
37
330
1E
100
AcDbEntity
  8
0
100
AcDbLine
 10
0.0
 20
38.3731
 30
0.0
 11
0.0
 21
39.5967
 31
0.0
  0
LINE
  5
38
330
1E
100
AcDbEntity
  8
0
100
AcDbLine
 10
0.0
 20
38.3731
 30
0.0
 11
0.0
 21
36.4231
 31
0.0
  0
LINE
  5
39
330
1E
100
AcDbEntity
  8
0
100
AcDbLine
 10
0.0
 20
40.0555
 30
0.0
 11
0.5
 21
40.4378
 31
0.0
  0
LINE
  5
3A
330
1E
100
AcDbEntity
  8
0
100
AcDbLine
 10
0.0
 20
40.0555
 30
0.0
 11
0.0
 21
39.5967
 31
0.0
  0
LINE
  5
3B
330
1E
100
AcDbEntity
  8
0
100
AcDbLine
 10
0.0
 20
39.5967
 30
0.0
 11
0.0
 21
40.0555
 31
0.0
  0
LINE
  5
3C
330
1E
100
AcDbEntity
  8
0
100
AcDbLine
 10
0.0
 20
39.5967
 30
0.0
 11
0.0
 21
38.3731
 31
0.0
  0
LINE
  5
3D
330
1E
100
AcDbEntity
  8
0
100
AcDbLine
 10
12.648
 20
4.62899999999999
 30
0.0
 11
14.37599999999999
 21
4.62899999999999
 31
0.0
  0
LINE
  5
3E
330
1E
100
AcDbEntity
  8
0
100
AcDbLine
 10
12.648
 20
6.62899999999999
 30
0.0
 11
14.37599999999999
 21
6.62899999999999
 31
0.0
  0
LINE
  5
3F
330
1E
100
AcDbEntity
  8
0
100
AcDbLine
 10
12.0
 20
6.62899999999999
 30
0.0
 11
12.0
 21
4.62899999999999
 31
0.0
  0
LINE
  5
40
330
1E
100
AcDbEntity
  8
0
100
AcDbLine
 10
12.0
 20
6.62899999999999
 30
0.0
 11
12.648
 21
6.62899999999999
 31
0.0
  0
LINE
  5
41
330
1E
100
AcDbEntity
  8
0
100
AcDbLine
 10
12.0
 20
4.62899999999999
 30
0.0
 11
12.648
 21
4.62899999999999
 31
0.0
  0
LINE
  5
42
330
1E
100
AcDbEntity
  8
0
100
AcDbLine
 10
12.0
 20
4.62899999999999
 30
0.0
 11
12.0
 21
6.62899999999999
 31
0.0
  0
LINE
  5
43
330
1E
100
AcDbEntity
  8
0
100
AcDbLine
 10
16.63269999999999
 20
-0.129000000000006
 30
0.0
 11
17.14839999999999
 21
-0.129000000000006
 31
0.0
  0
LINE
  5
44
330
1E
100
AcDbEntity
  8
0
100
AcDbLine
 10
17.14839999999999
 20
-0.129000000000006
 30
0.0
 11
18.4748
 21
-0.129000000000006
 31
0.0
  0
LINE
  5
45
330
1E
100
AcDbEntity
  8
0
100
AcDbLine
 10
16.26419999999999
 20
4.62899999999999
 30
0.0
 11
16.26419999999999
 21
1.29949999999999
 31
0.0
  0
LINE
  5
46
330
1E
100
AcDbEntity
  8
0
100
AcDbLine
 10
16.26419999999999
 20
1.29949999999999
 30
0.0
 11
16.26419999999999
 21
4.62899999999999
 31
0.0
  0
LINE
  5
47
330
1E
100
AcDbEntity
  8
0
100
AcDbLine
 10
16.26419999999999
 20
1.29949999999999
 30
0.0
 11
16.26419999999999
 21
0.5851999999999871
 31
0.0
  0
LINE
  5
48
330
1E
100
AcDbEntity
  8
0
100
AcDbLine
 10
16.26419999999999
 20
0.5851999999999871
 30
0.0
 11
16.26419999999999
 21
1.29949999999999
 31
0.0
  0
LINE
  5
49
330
1E
100
AcDbEntity
  8
0
100
AcDbLine
 10
16.26419999999999
 20
0.5851999999999871
 30
0.0
 11
16.26419999999999
 21
0.042399999999988
 31
0.0
  0
LINE
  5
4A
330
1E
100
AcDbEntity
  8
0
100
AcDbLine
 10
16.26419999999999
 20
0.5851999999999871
 30
0.0
 11
16.559
 21
0.5851999999999871
 31
0.0
  0
LINE
  5
4C
330
1E
100
AcDbEntity
  8
0
100
AcDbLine
 10
16.559
 20
0.5851999999999871
 30
0.0
 11
17.4642
 21
0.5851999999999871
 31
0.0
  0
LINE
  5
4D
330
1E
100
AcDbEntity
  8
0
100
AcDbLine
 10
16.26419999999999
 20
0.042399999999988
 30
0.0
 11
16.26419999999999
 21
0.5851999999999871
 31
0.0
  0
LINE
  5
4E
330
1E
100
AcDbEntity
  8
0
100
AcDbLine
 10
16.26419999999999
 20
0.042399999999988
 30
0.0
 11
16.26419999999999
 21
-0.0576000000000176
 31
0.0
  0
LINE
  5
4F
330
1E
100
AcDbEntity
  8
0
100
AcDbLine
 10
16.26419999999999
 20
-0.0576000000000176
 30
0.0
 11
16.26419999999999
 21
0.042399999999988
 31
0.0
  0
LINE
  5
50
330
1E
100
AcDbEntity
  8
0
100
AcDbLine
 10
16.26419999999999
 20
-0.0576000000000176
 30
0.0
 11
16.63269999999999
 21
-0.129000000000006
 31
0.0
  0
LINE
  5
51
330
1E
100
AcDbEntity
  8
0
100
AcDbLine
 10
18.4748
 20
-0.129000000000006
 30
0.0
 11
20.6116
 21
-0.129000000000006
 31
0.0
  0
LINE
  5
52
330
1E
100
AcDbEntity
  8
0
100
AcDbLine
 10
17.4642
 20
0.5851999999999871
 30
0.0
 11
19.8011
 21
0.130699999999987
 31
0.0
  0
LINE
  5
54
330
1E
100
AcDbEntity
  8
0
100
AcDbLine
 10
20.6116
 20
-0.129000000000006
 30
0.0
 11
23.48529999999999
 21
-0.129000000000006
 31
0.0
  0
LINE
  5
55
330
1E
100
AcDbEntity
  8
0
100
AcDbLine
 10
20.5859
 20
-0.129000000000006
 30
0.0
 11
22.32639999999999
 21
-0.129000000000006
 31
0.0
  0
LINE
  5
56
330
1E
100
AcDbEntity
  8
0
100
AcDbLine
 10
19.6302
 20
-0.129000000000006
 30
0.0
 11
20.5859
 21
-0.129000000000006
 31
0.0
  0
LINE
  5
57
330
1E
100
AcDbEntity
  8
0
100
AcDbLine
 10
19.54329999999999
 20
-0.129000000000006
 30
0.0
 11
20.415
 21
-0.129000000000006
 31
0.0
  0
LINE
  5
58
330
1E
100
AcDbEntity
  8
0
100
AcDbLine
 10
20.415
 20
-0.129000000000006
 30
0.0
 11
22.12369999999999
 21
-0.129000000000006
 31
0.0
  0
LINE
  5
59
330
1E
100
AcDbEntity
  8
0
100
AcDbLine
 10
22.32639999999999
 20
-0.129000000000006
 30
0.0
 11
24.7592
 21
-0.129000000000006
 31
0.0
  0
LINE
  5
5A
330
1E
100
AcDbEntity
  8
0
100
AcDbLine
 10
23.48529999999999
 20
-0.129000000000006
 30
0.0
 11
26.7274
 21
-0.129000000000006
 31
0.0
  0
LINE
  5
5B
330
1E
100
AcDbEntity
  8
0
100
AcDbLine
 10
22.12369999999999
 20
-0.129000000000006
 30
0.0
 11
24.4985
 21
-0.129000000000006
 31
0.0
  0
LINE
  5
5C
330
1E
100
AcDbEntity
  8
0
100
AcDbLine
 10
19.8011
 20
0.130699999999987
 30
0.0
 11
23.13779999999999
 21
0.0152999999999903
 31
0.0
  0
LINE
  5
5D
330
1E
100
AcDbEntity
  8
0
100
AcDbLine
 10
23.13779999999999
 20
0.0152999999999903
 30
0.0
 11
26.4563
 21
0.169999999999985
 31
0.0
  0
LINE
  5
5F
330
1E
100
AcDbEntity
  8
0
100
AcDbLine
 10
19.2537
 20
-0.129000000000006
 30
0.0
 11
19.54329999999999
 21
-0.129000000000006
 31
0.0
  0
LINE
  5
60
330
1E
100
AcDbEntity
  8
0
100
AcDbLine
 10
19.2537
 20
-0.129000000000006
 30
0.0
 11
19.6302
 21
-0.129000000000006
 31
0.0
  0
LINE
  5
61
330
1E
100
AcDbEntity
  8
0
100
AcDbLine
 10
21.072
 20
4.62899999999999
 30
0.0
 11
25.392
 21
4.62899999999999
 31
0.0
  0
LINE
  5
62
330
1E
100
AcDbEntity
  8
0
100
AcDbLine
 10
17.256
 20
4.62899999999999
 30
0.0
 11
21.072
 21
4.62899999999999
 31
0.0
  0
LINE
  5
63
330
1E
100
AcDbEntity
  8
0
100
AcDbLine
 10
21.072
 20
6.62899999999999
 30
0.0
 11
25.392
 21
6.62899999999999
 31
0.0
  0
LINE
  5
64
330
1E
100
AcDbEntity
  8
0
100
AcDbLine
 10
17.256
 20
6.62899999999999
 30
0.0
 11
21.072
 21
6.62899999999999
 31
0.0
  0
LINE
  5
65
330
1E
100
AcDbEntity
  8
0
100
AcDbLine
 10
14.37599999999999
 20
6.62899999999999
 30
0.0
 11
17.256
 21
6.62899999999999
 31
0.0
  0
LINE
  5
66
330
1E
100
AcDbEntity
  8
0
100
AcDbLine
 10
14.37599999999999
 20
4.62899999999999
 30
0.0
 11
16.26419999999999
 21
4.62899999999999
 31
0.0
  0
LINE
  5
67
330
1E
100
AcDbEntity
  8
0
100
AcDbLine
 10
14.37599999999999
 20
4.62899999999999
 30
0.0
 11
17.256
 21
4.62899999999999
 31
0.0
  0
LINE
  5
68
330
1E
100
AcDbEntity
  8
0
100
AcDbLine
 10
24.7592
 20
-0.129000000000006
 30
0.0
 11
27.5104
 21
-0.129000000000006
 31
0.0
  0
LINE
  5
69
330
1E
100
AcDbEntity
  8
0
100
AcDbLine
 10
24.4985
 20
-0.129000000000006
 30
0.0
 11
27.0731
 21
-0.129000000000006
 31
0.0
  0
LINE
  5
6A
330
1E
100
AcDbEntity
  8
0
100
AcDbLine
 10
26.7274
 20
-0.129000000000006
 30
0.0
 11
30.26419999999999
 21
-0.129000000000006
 31
0.0
  0
LINE
  5
6B
330
1E
100
AcDbEntity
  8
0
100
AcDbLine
 10
30.17199999999999
 20
-0.129000000000006
 30
0.0
 11
33.097
 21
-0.129000000000006
 31
0.0
  0
LINE
  5
6C
330
1E
100
AcDbEntity
  8
0
100
AcDbLine
 10
33.1056
 20
-0.129000000000006
 30
0.0
 11
35.828
 21
-0.129000000000006
 31
0.0
  0
LINE
  5
6D
330
1E
100
AcDbEntity
  8
0
100
AcDbLine
 10
33.097
 20
-0.129000000000006
 30
0.0
 11
35.84839999999999
 21
-0.129000000000006
 31
0.0
  0
LINE
  5
6F
330
1E
100
AcDbEntity
  8
0
100
AcDbLine
 10
33.801
 20
-0.129000000000006
 30
0.0
 11
37.0431
 21
-0.129000000000006
 31
0.0
  0
LINE
  5
71
330
1E
100
AcDbEntity
  8
0
100
AcDbLine
 10
30.3196
 20
-0.129000000000006
 30
0.0
 11
33.1056
 21
-0.129000000000006
 31
0.0
  0
LINE
  5
72
330
1E
100
AcDbEntity
  8
0
100
AcDbLine
 10
30.26419999999999
 20
-0.129000000000006
 30
0.0
 11
33.801
 21
-0.129000000000006
 31
0.0
  0
LINE
  5
73
330
1E
100
AcDbEntity
  8
0
100
AcDbLine
 10
27.5104
 20
-0.129000000000006
 30
0.0
 11
30.3196
 21
-0.129000000000006
 31
0.0
  0
LINE
  5
74
330
1E
100
AcDbEntity
  8
0
100
AcDbLine
 10
34.0721
 20
0.169999999999985
 30
0.0
 11
37.3906
 21
0.0152999999999903
 31
0.0
  0
LINE
  5
77
330
1E
100
AcDbEntity
  8
0
100
AcDbLine
 10
27.0731
 20
-0.129000000000006
 30
0.0
 11
30.17199999999999
 21
-0.129000000000006
 31
0.0
  0
LINE
  5
79
330
1E
100
AcDbEntity
  8
0
100
AcDbLine
 10
30.26419999999999
 20
0.5851999999999871
 30
0.0
 11
31.9945
 21
0.5851999999999871
 31
0.0
  0
LINE
  5
7A
330
1E
100
AcDbEntity
  8
0
100
AcDbLine
 10
31.9945
 20
0.5851999999999871
 30
0.0
 11
34.0721
 21
0.169999999999985
 31
0.0
  0
LINE
  5
7C
330
1E
100
AcDbEntity
  8
0
100
AcDbLine
 10
28.5339
 20
0.5851999999999871
 30
0.0
 11
30.26419999999999
 21
0.5851999999999871
 31
0.0
  0
LINE
  5
7E
330
1E
100
AcDbEntity
  8
0
100
AcDbLine
 10
26.4563
 20
0.169999999999985
 30
0.0
 11
28.5339
 21
0.5851999999999871
 31
0.0
  0
LINE
  5
7F
330
1E
100
AcDbEntity
  8
0
100
AcDbLine
 10
25.392
 20
4.62899999999999
 30
0.0
 11
30.0
 21
4.62899999999999
 31
0.0
  0
LINE
  5
80
330
1E
100
AcDbEntity
  8
0
100
AcDbLine
 10
25.392
 20
6.62899999999999
 30
0.0
 11
30.0
 21
6.62899999999999
 31
0.0
  0
LINE
  5
81
330
1E
100
AcDbEntity
  8
0
100
AcDbLine
 10
34.608
 20
6.62899999999999
 30
0.0
 11
38.928
 21
6.62899999999999
 31
0.0
  0
LINE
  5
82
330
1E
100
AcDbEntity
  8
0
100
AcDbLine
 10
30.0
 20
4.62899999999999
 30
0.0
 11
34.608
 21
4.62899999999999
 31
0.0
  0
LINE
  5
83
330
1E
100
AcDbEntity
  8
0
100
AcDbLine
 10
35.84839999999999
 20
-0.129000000000006
 30
0.0
 11
38.4055
 21
-0.129000000000006
 31
0.0
  0
LINE
  5
84
330
1E
100
AcDbEntity
  8
0
100
AcDbLine
 10
35.828
 20
-0.129000000000006
 30
0.0
 11
38.26069999999999
 21
-0.129000000000006
 31
0.0
  0
LINE
  5
85
330
1E
100
AcDbEntity
  8
0
100
AcDbLine
 10
34.608
 20
4.62899999999999
 30
0.0
 11
38.928
 21
4.62899999999999
 31
0.0
  0
LINE
  5
86
330
1E
100
AcDbEntity
  8
0
100
AcDbLine
 10
30.0
 20
6.62899999999999
 30
0.0
 11
35.888
 21
6.62899999999999
 31
0.0
  0
LINE
  5
87
330
1E
100
AcDbEntity
  8
0
100
AcDbLine
 10
30.0
 20
6.62899999999999
 30
0.0
 11
34.608
 21
6.62899999999999
 31
0.0
  0
LINE
  5
88
330
1E
100
AcDbEntity
  8
0
100
AcDbLine
 10
38.4055
 20
-0.129000000000006
 30
0.0
 11
40.1142
 21
-0.129000000000006
 31
0.0
  0
LINE
  5
89
330
1E
100
AcDbEntity
  8
0
100
AcDbLine
 10
38.26069999999999
 20
-0.129000000000006
 30
0.0
 11
39.91149999999999
 21
-0.129000000000006
 31
0.0
  0
LINE
  5
8A
330
1E
100
AcDbEntity
  8
0
100
AcDbLine
 10
37.0431
 20
-0.129000000000006
 30
0.0
 11
39.9168
 21
-0.129000000000006
 31
0.0
  0
LINE
  5
8C
330
1E
100
AcDbEntity
  8
0
100
AcDbLine
 10
37.3906
 20
0.0152999999999903
 30
0.0
 11
40.7274
 21
0.130699999999987
 31
0.0
  0
LINE
  5
8E
330
1E
100
AcDbEntity
  8
0
100
AcDbLine
 10
39.91149999999999
 20
-0.129000000000006
 30
0.0
 11
40.92509999999999
 21
-0.129000000000006
 31
0.0
  0
LINE
  5
8F
330
1E
100
AcDbEntity
  8
0
100
AcDbLine
 10
42.0537
 20
-0.129000000000006
 30
0.0
 11
43.38
 21
-0.129000000000006
 31
0.0
  0
LINE
  5
90
330
1E
100
AcDbEntity
  8
0
100
AcDbLine
 10
43.8958
 20
-0.129000000000006
 30
0.0
 11
44.2642
 21
-0.0576000000000176
 31
0.0
  0
LINE
  5
91
330
1E
100
AcDbEntity
  8
0
100
AcDbLine
 10
43.38
 20
-0.129000000000006
 30
0.0
 11
43.8958
 21
-0.129000000000006
 31
0.0
  0
LINE
  5
92
330
1E
100
AcDbEntity
  8
0
100
AcDbLine
 10
40.92509999999999
 20
-0.129000000000006
 30
0.0
 11
41.24369999999999
 21
-0.129000000000006
 31
0.0
  0
LINE
  5
93
330
1E
100
AcDbEntity
  8
0
100
AcDbLine
 10
44.2642
 20
-0.0576000000000176
 30
0.0
 11
44.2642
 21
0.042399999999988
 31
0.0
  0
LINE
  5
96
330
1E
100
AcDbEntity
  8
0
100
AcDbLine
 10
44.2642
 20
0.042399999999988
 30
0.0
 11
44.2642
 21
-0.0576000000000176
 31
0.0
  0
LINE
  5
97
330
1E
100
AcDbEntity
  8
0
100
AcDbLine
 10
44.2642
 20
0.042399999999988
 30
0.0
 11
44.2642
 21
0.5851999999999871
 31
0.0
  0
LINE
  5
98
330
1E
100
AcDbEntity
  8
0
100
AcDbLine
 10
40.1142
 20
-0.129000000000006
 30
0.0
 11
40.92509999999999
 21
-0.129000000000006
 31
0.0
  0
LINE
  5
99
330
1E
100
AcDbEntity
  8
0
100
AcDbLine
 10
39.9168
 20
-0.129000000000006
 30
0.0
 11
42.0537
 21
-0.129000000000006
 31
0.0
  0
LINE
  5
9A
330
1E
100
AcDbEntity
  8
0
100
AcDbLine
 10
43.0643
 20
0.5851999999999871
 30
0.0
 11
43.96949999999999
 21
0.5851999999999871
 31
0.0
  0
LINE
  5
9B
330
1E
100
AcDbEntity
  8
0
100
AcDbLine
 10
43.96949999999999
 20
0.5851999999999871
 30
0.0
 11
44.2642
 21
0.5851999999999871
 31
0.0
  0
LINE
  5
9C
330
1E
100
AcDbEntity
  8
0
100
AcDbLine
 10
44.2642
 20
1.29949999999999
 30
0.0
 11
44.2642
 21
0.5851999999999871
 31
0.0
  0
LINE
  5
9D
330
1E
100
AcDbEntity
  8
0
100
AcDbLine
 10
44.2642
 20
1.29949999999999
 30
0.0
 11
44.2642
 21
4.62899999999999
 31
0.0
  0
LINE
  5
9E
330
1E
100
AcDbEntity
  8
0
100
AcDbLine
 10
44.2642
 20
0.5851999999999871
 30
0.0
 11
44.2642
 21
0.042399999999988
 31
0.0
  0
LINE
  5
9F
330
1E
100
AcDbEntity
  8
0
100
AcDbLine
 10
44.2642
 20
0.5851999999999871
 30
0.0
 11
44.2642
 21
1.29949999999999
 31
0.0
  0
LINE
  5
A0
330
1E
100
AcDbEntity
  8
0
100
AcDbLine
 10
40.7274
 20
0.130699999999987
 30
0.0
 11
43.0643
 21
0.5851999999999871
 31
0.0
  0
LINE
  5
A1
330
1E
100
AcDbEntity
  8
0
100
AcDbLine
 10
38.928
 20
4.62899999999999
 30
0.0
 11
42.74399999999999
 21
4.62899999999999
 31
0.0
  0
LINE
  5
A2
330
1E
100
AcDbEntity
  8
0
100
AcDbLine
 10
42.74399999999999
 20
4.62899999999999
 30
0.0
 11
45.62399999999999
 21
4.62899999999999
 31
0.0
  0
LINE
  5
A3
330
1E
100
AcDbEntity
  8
0
100
AcDbLine
 10
44.2642
 20
4.62899999999999
 30
0.0
 11
45.62399999999999
 21
4.62899999999999
 31
0.0
  0
LINE
  5
A4
330
1E
100
AcDbEntity
  8
0
100
AcDbLine
 10
44.2642
 20
4.62899999999999
 30
0.0
 11
44.2642
 21
1.29949999999999
 31
0.0
  0
LINE
  5
A5
330
1E
100
AcDbEntity
  8
0
100
AcDbLine
 10
38.928
 20
6.62899999999999
 30
0.0
 11
42.74399999999999
 21
6.62899999999999
 31
0.0
  0
LINE
  5
A6
330
1E
100
AcDbEntity
  8
0
100
AcDbLine
 10
42.74399999999999
 20
6.62899999999999
 30
0.0
 11
45.62399999999999
 21
6.62899999999999
 31
0.0
  0
LINE
  5
A7
330
1E
100
AcDbEntity
  8
0
100
AcDbLine
 10
45.62399999999999
 20
6.62899999999999
 30
0.0
 11
47.35199999999999
 21
6.62899999999999
 31
0.0
  0
LINE
  5
A8
330
1E
100
AcDbEntity
  8
0
100
AcDbLine
 10
45.62399999999999
 20
4.62899999999999
 30
0.0
 11
47.35199999999999
 21
4.62899999999999
 31
0.0
  0
LINE
  5
A9
330
1E
100
AcDbEntity
  8
0
100
AcDbLine
 10
35.888
 20
6.62899999999999
 30
0.0
 11
41.408
 21
6.62899999999999
 31
0.0
  0
LINE
  5
AA
330
1E
100
AcDbEntity
  8
0
100
AcDbLine
 10
41.408
 20
6.62899999999999
 30
0.0
 11
46.284
 21
6.62899999999999
 31
0.0
  0
LINE
  5
AB
330
1E
100
AcDbEntity
  8
0
100
AcDbLine
 10
47.35199999999999
 20
6.62899999999999
 30
0.0
 11
48.0
 21
6.62899999999999
 31
0.0
  0
LINE
  5
AC
330
1E
100
AcDbEntity
  8
0
100
AcDbLine
 10
48.0
 20
4.62899999999999
 30
0.0
 11
48.0
 21
6.62899999999999
 31
0.0
  0
LINE
  5
AD
330
1E
100
AcDbEntity
  8
0
100
AcDbLine
 10
47.35199999999999
 20
4.62899999999999
 30
0.0
 11
48.0
 21
4.62899999999999
 31
0.0
  0
LINE
  5
AE
330
1E
100
AcDbEntity
  8
0
100
AcDbLine
 10
48.0
 20
6.62899999999999
 30
0.0
 11
49.964
 21
6.62899999999999
 31
0.0
  0
LINE
  5
AF
330
1E
100
AcDbEntity
  8
0
100
AcDbLine
 10
48.0
 20
6.62899999999999
 30
0.0
 11
48.0
 21
4.62899999999999
 31
0.0
  0
LINE
  5
B0
330
1E
100
AcDbEntity
  8
0
100
AcDbLine
 10
46.284
 20
6.62899999999999
 30
0.0
 11
49.964
 21
6.62899999999999
 31
0.0
  0
LINE
  5
B1
330
1E
100
AcDbEntity
  8
0
100
AcDbLine
 10
49.964
 20
6.62899999999999
 30
0.0
 11
52.172
 21
6.62899999999999
 31
0.0
  0
LINE
  5
B2
330
1E
100
AcDbEntity
  8
0
100
AcDbLine
 10
112.6479999999999
 20
4.62899999999999
 30
0.0
 11
114.376
 21
4.62899999999999
 31
0.0
  0
LINE
  5
B3
330
1E
100
AcDbEntity
  8
0
100
AcDbLine
 10
112.6479999999999
 20
6.62899999999999
 30
0.0
 11
114.376
 21
6.62899999999999
 31
0.0
  0
LINE
  5
B4
330
1E
100
AcDbEntity
  8
0
100
AcDbLine
 10
112.0
 20
6.62899999999999
 30
0.0
 11
112.0
 21
4.62899999999999
 31
0.0
  0
LINE
  5
B5
330
1E
100
AcDbEntity
  8
0
100
AcDbLine
 10
112.0
 20
6.62899999999999
 30
0.0
 11
112.6479999999999
 21
6.62899999999999
 31
0.0
  0
LINE
  5
B6
330
1E
100
AcDbEntity
  8
0
100
AcDbLine
 10
112.0
 20
4.62899999999999
 30
0.0
 11
112.6479999999999
 21
4.62899999999999
 31
0.0
  0
LINE
  5
B7
330
1E
100
AcDbEntity
  8
0
100
AcDbLine
 10
112.0
 20
4.62899999999999
 30
0.0
 11
112.0
 21
6.62899999999999
 31
0.0
  0
LINE
  5
B8
330
1E
100
AcDbEntity
  8
0
100
AcDbLine
 10
116.633
 20
-0.129000000000006
 30
0.0
 11
117.148
 21
-0.129000000000006
 31
0.0
  0
LINE
  5
B9
330
1E
100
AcDbEntity
  8
0
100
AcDbLine
 10
114.376
 20
4.62899999999999
 30
0.0
 11
116.2639999999999
 21
4.62899999999999
 31
0.0
  0
LINE
  5
BA
330
1E
100
AcDbEntity
  8
0
100
AcDbLine
 10
114.376
 20
4.62899999999999
 30
0.0
 11
117.256
 21
4.62899999999999
 31
0.0
  0
LINE
  5
BB
330
1E
100
AcDbEntity
  8
0
100
AcDbLine
 10
114.376
 20
6.62899999999999
 30
0.0
 11
117.256
 21
6.62899999999999
 31
0.0
  0
LINE
  5
BC
330
1E
100
AcDbEntity
  8
0
100
AcDbLine
 10
116.2639999999999
 20
4.62899999999999
 30
0.0
 11
116.2639999999999
 21
1.29949999999999
 31
0.0
  0
LINE
  5
BD
330
1E
100
AcDbEntity
  8
0
100
AcDbLine
 10
116.2639999999999
 20
1.29949999999999
 30
0.0
 11
116.2639999999999
 21
4.62899999999999
 31
0.0
  0
LINE
  5
BE
330
1E
100
AcDbEntity
  8
0
100
AcDbLine
 10
116.2639999999999
 20
1.29949999999999
 30
0.0
 11
116.2639999999999
 21
0.5851999999999871
 31
0.0
  0
LINE
  5
BF
330
1E
100
AcDbEntity
  8
0
100
AcDbLine
 10
116.2639999999999
 20
0.5851999999999871
 30
0.0
 11
116.2639999999999
 21
1.29949999999999
 31
0.0
  0
LINE
  5
C0
330
1E
100
AcDbEntity
  8
0
100
AcDbLine
 10
116.2639999999999
 20
0.5851999999999871
 30
0.0
 11
116.2639999999999
 21
0.042399999999988
 31
0.0
  0
LINE
  5
C1
330
1E
100
AcDbEntity
  8
0
100
AcDbLine
 10
116.2639999999999
 20
0.5851999999999871
 30
0.0
 11
116.5589999999999
 21
0.5851999999999871
 31
0.0
  0
LINE
  5
C3
330
1E
100
AcDbEntity
  8
0
100
AcDbLine
 10
116.5589999999999
 20
0.5851999999999871
 30
0.0
 11
117.4639999999999
 21
0.5851999999999871
 31
0.0
  0
LINE
  5
C4
330
1E
100
AcDbEntity
  8
0
100
AcDbLine
 10
116.2639999999999
 20
0.042399999999988
 30
0.0
 11
116.2639999999999
 21
0.5851999999999871
 31
0.0
  0
LINE
  5
C5
330
1E
100
AcDbEntity
  8
0
100
AcDbLine
 10
116.2639999999999
 20
0.042399999999988
 30
0.0
 11
116.2639999999999
 21
-0.0576000000000176
 31
0.0
  0
LINE
  5
C6
330
1E
100
AcDbEntity
  8
0
100
AcDbLine
 10
116.2639999999999
 20
-0.0576000000000176
 30
0.0
 11
116.2639999999999
 21
0.042399999999988
 31
0.0
  0
LINE
  5
C7
330
1E
100
AcDbEntity
  8
0
100
AcDbLine
 10
116.2639999999999
 20
-0.0576000000000176
 30
0.0
 11
116.633
 21
-0.129000000000006
 31
0.0
  0
LINE
  5
C8
330
1E
100
AcDbEntity
  8
0
100
AcDbLine
 10
113.716
 20
6.62899999999999
 30
0.0
 11
118.592
 21
6.62899999999999
 31
0.0
  0
LINE
  5
C9
330
1E
100
AcDbEntity
  8
0
100
AcDbLine
 10
110.036
 20
6.62899999999999
 30
0.0
 11
113.716
 21
6.62899999999999
 31
0.0
  0
LINE
  5
CA
330
1E
100
AcDbEntity
  8
0
100
AcDbLine
 10
110.036
 20
6.62899999999999
 30
0.0
 11
112.0
 21
6.62899999999999
 31
0.0
  0
LINE
  5
CB
330
1E
100
AcDbEntity
  8
0
100
AcDbLine
 10
107.8279999999999
 20
6.62899999999999
 30
0.0
 11
110.036
 21
6.62899999999999
 31
0.0
  0
LINE
  5
CC
330
1E
100
AcDbEntity
  8
0
100
AcDbLine
 10
107.0
 20
6.62899999999999
 30
0.0
 11
107.0
 21
14.629
 31
0.0
  0
LINE
  5
CD
330
1E
100
AcDbEntity
  8
0
100
AcDbLine
 10
107.0
 20
6.62899999999999
 30
0.0
 11
107.8279999999999
 21
6.62899999999999
 31
0.0
  0
LINE
  5
CE
330
1E
100
AcDbEntity
  8
0
100
AcDbLine
 10
52.172
 20
6.62899999999999
 30
0.0
 11
53.0
 21
6.62899999999999
 31
0.0
  0
LINE
  5
CF
330
1E
100
AcDbEntity
  8
0
100
AcDbLine
 10
53.0
 20
6.62899999999999
 30
0.0
 11
53.0
 21
14.629
 31
0.0
  0
LINE
  5
D0
330
1E
100
AcDbEntity
  8
0
100
AcDbLine
 10
24.112
 20
6.62899999999999
 30
0.0
 11
30.0
 21
6.62899999999999
 31
0.0
  0
LINE
  5
D1
330
1E
100
AcDbEntity
  8
0
100
AcDbLine
 10
18.59199999999999
 20
6.62899999999999
 30
0.0
 11
24.112
 21
6.62899999999999
 31
0.0
  0
LINE
  5
D2
330
1E
100
AcDbEntity
  8
0
100
AcDbLine
 10
13.71599999999999
 20
6.62899999999999
 30
0.0
 11
18.59199999999999
 21
6.62899999999999
 31
0.0
  0
LINE
  5
D3
330
1E
100
AcDbEntity
  8
0
100
AcDbLine
 10
10.036
 20
6.62899999999999
 30
0.0
 11
12.0
 21
6.62899999999999
 31
0.0
  0
LINE
  5
D4
330
1E
100
AcDbEntity
  8
0
100
AcDbLine
 10
10.036
 20
6.62899999999999
 30
0.0
 11
13.71599999999999
 21
6.62899999999999
 31
0.0
  0
LINE
  5
D5
330
1E
100
AcDbEntity
  8
0
100
AcDbLine
 10
7.827999999999999
 20
6.62899999999999
 30
0.0
 11
10.036
 21
6.62899999999999
 31
0.0
  0
LINE
  5
D6
330
1E
100
AcDbEntity
  8
0
100
AcDbLine
 10
7.0
 20
14.629
 30
0.0
 11
7.648982221368259
 21
15.3320640731489
 31
0.0
  0
LINE
  5
D7
330
1E
100
AcDbEntity
  8
0
100
AcDbLine
 10
49.964
 20
14.629
 30
0.0
 11
52.172
 21
14.629
 31
0.0
  0
LINE
  5
D8
330
1E
100
AcDbEntity
  8
0
100
AcDbLine
 10
107.8279999999999
 20
14.629
 30
0.0
 11
149.964
 21
14.629
 31
0.0
  0
LINE
  5
D9
330
1E
100
AcDbEntity
  8
0
100
AcDbLine
 10
107.0
 20
14.629
 30
0.0
 11
110.692307692308
 21
18.629
 31
0.0
  0
LINE
  5
DA
330
1E
100
AcDbEntity
  8
0
100
AcDbLine
 10
107.0
 20
14.629
 30
0.0
 11
107.8279999999999
 21
14.629
 31
0.0
  0
LINE
  5
DB
330
1E
100
AcDbEntity
  8
0
100
AcDbLine
 10
107.0
 20
14.629
 30
0.0
 11
110.692307692308
 21
18.629
 31
0.0
  0
LINE
  5
DC
330
1E
100
AcDbEntity
  8
0
100
AcDbLine
 10
107.0
 20
14.629
 30
0.0
 11
107.0
 21
6.62899999999999
 31
0.0
  0
LINE
  5
DD
330
1E
100
AcDbEntity
  8
0
100
AcDbLine
 10
53.0
 20
14.629
 30
0.0
 11
53.0
 21
6.62899999999999
 31
0.0
  0
LINE
  5
DE
330
1E
100
AcDbEntity
  8
0
100
AcDbLine
 10
52.172
 20
14.629
 30
0.0
 11
53.0
 21
14.629
 31
0.0
  0
LINE
  5
DF
330
1E
100
AcDbEntity
  8
0
100
AcDbLine
 10
7.827999999999999
 20
14.629
 30
0.0
 11
49.964
 21
14.629
 31
0.0
  0
LINE
  5
E0
330
1E
100
AcDbEntity
  8
0
100
AcDbLine
 10
7.0
 20
14.629
 30
0.0
 11
7.648982221368269
 21
15.3320640731489
 31
0.0
  0
LINE
  5
E1
330
1E
100
AcDbEntity
  8
0
100
AcDbLine
 10
7.0
 20
14.629
 30
0.0
 11
7.827999999999999
 21
14.629
 31
0.0
  0
LINE
  5
E2
330
1E
100
AcDbEntity
  8
0
100
AcDbLine
 10
7.0
 20
14.629
 30
0.0
 11
7.0
 21
6.62899999999999
 31
0.0
  0
LINE
  5
E3
330
1E
100
AcDbEntity
  8
0
100
AcDbLine
 10
7.0
 20
6.62899999999999
 30
0.0
 11
7.0
 21
14.629
 31
0.0
  0
LINE
  5
E4
330
1E
100
AcDbEntity
  8
0
100
AcDbLine
 10
7.0
 20
6.62899999999999
 30
0.0
 11
7.827999999999999
 21
6.62899999999999
 31
0.0
  0
LINE
  5
E5
330
1E
100
AcDbEntity
  8
0
100
AcDbLine
 10
1.5
 20
14.629
 30
0.0
 11
8.544758231700869
 21
15.43448556467069
 31
0.0
  0
LINE
  5
E6
330
1E
100
AcDbEntity
  8
0
100
AcDbLine
 10
3.697999999999999
 20
37.12899999999999
 30
0.0
 11
4.225999999999999
 21
37.12899999999999
 31
0.0
  0
LINE
  5
E7
330
1E
100
AcDbEntity
  8
0
100
AcDbLine
 10
3.5
 20
38.62899999999999
 30
0.0
 11
3.5
 21
37.12899999999999
 31
0.0
  0
LINE
  5
E8
330
1E
100
AcDbEntity
  8
0
100
AcDbLine
 10
3.5
 20
37.12899999999999
 30
0.0
 11
3.697999999999999
 21
37.12899999999999
 31
0.0
  0
LINE
  5
E9
330
1E
100
AcDbEntity
  8
0
100
AcDbLine
 10
3.5
 20
37.12899999999999
 30
0.0
 11
3.5
 21
38.62899999999999
 31
0.0
  0
LINE
  5
EA
330
1E
100
AcDbEntity
  8
0
100
AcDbLine
 10
5.105999999999999
 20
37.12899999999999
 30
0.0
 11
6.272
 21
37.12899999999999
 31
0.0
  0
LINE
  5
EB
330
1E
100
AcDbEntity
  8
0
100
AcDbLine
 10
4.225999999999999
 20
37.12899999999999
 30
0.0
 11
5.105999999999999
 21
37.12899999999999
 31
0.0
  0
LINE
  5
EC
330
1E
100
AcDbEntity
  8
0
100
AcDbLine
 10
6.272
 20
37.12899999999999
 30
0.0
 11
7.592
 21
37.12899999999999
 31
0.0
  0
LINE
  5
ED
330
1E
100
AcDbEntity
  8
0
100
AcDbLine
 10
7.181339999999999
 20
37.12899999999999
 30
0.0
 11
8.061339999999999
 21
37.12899999999999
 31
0.0
  0
LINE
  5
EE
330
1E
100
AcDbEntity
  8
0
100
AcDbLine
 10
6.403999999999999
 20
37.12899999999999
 30
0.0
 11
7.181339999999999
 21
37.12899999999999
 31
0.0
  0
LINE
  5
EF
330
1E
100
AcDbEntity
  8
0
100
AcDbLine
 10
5.817339999999999
 20
37.12899999999999
 30
0.0
 11
6.403999999999999
 21
37.12899999999999
 31
0.0
  0
LINE
  5
F0
330
1E
100
AcDbEntity
  8
0
100
AcDbLine
 10
5.46534
 20
37.12899999999999
 30
0.0
 11
5.817339999999999
 21
37.12899999999999
 31
0.0
  0
LINE
  5
F1
330
1E
100
AcDbEntity
  8
0
100
AcDbLine
 10
5.333339999999999
 20
37.12899999999999
 30
0.0
 11
5.46534
 21
37.12899999999999
 31
0.0
  0
LINE
  5
F2
330
1E
100
AcDbEntity
  8
0
100
AcDbLine
 10
9.0
 20
37.12899999999999
 30
0.0
 11
10.40799999999999
 21
37.12899999999999
 31
0.0
  0
LINE
  5
F3
330
1E
100
AcDbEntity
  8
0
100
AcDbLine
 10
9.0
 20
37.12899999999999
 30
0.0
 11
9.93866
 21
37.12899999999999
 31
0.0
  0
LINE
  5
F4
330
1E
100
AcDbEntity
  8
0
100
AcDbLine
 10
7.592
 20
37.12899999999999
 30
0.0
 11
9.0
 21
37.12899999999999
 31
0.0
  0
LINE
  5
F5
330
1E
100
AcDbEntity
  8
0
100
AcDbLine
 10
8.061339999999999
 20
37.12899999999999
 30
0.0
 11
9.0
 21
37.12899999999999
 31
0.0
  0
LINE
  5
F6
330
1E
100
AcDbEntity
  8
0
100
AcDbLine
 10
7.207999999999999
 20
38.62899999999999
 30
0.0
 11
9.0
 21
38.62899999999999
 31
0.0
  0
LINE
  5
F7
330
1E
100
AcDbEntity
  8
0
100
AcDbLine
 10
5.527999999999999
 20
38.62899999999999
 30
0.0
 11
7.207999999999999
 21
38.62899999999999
 31
0.0
  0
LINE
  5
F8
330
1E
100
AcDbEntity
  8
0
100
AcDbLine
 10
4.043999999999999
 20
38.62899999999999
 30
0.0
 11
5.527999999999999
 21
38.62899999999999
 31
0.0
  0
LINE
  5
F9
330
1E
100
AcDbEntity
  8
0
100
AcDbLine
 10
2.923999999999999
 20
38.62899999999999
 30
0.0
 11
4.043999999999999
 21
38.62899999999999
 31
0.0
  0
LINE
  5
FA
330
1E
100
AcDbEntity
  8
0
100
AcDbLine
 10
2.251999999999999
 20
38.62899999999999
 30
0.0
 11
2.923999999999999
 21
38.62899999999999
 31
0.0
  0
LINE
  5
FB
330
1E
100
AcDbEntity
  8
0
100
AcDbLine
 10
2.0
 20
38.62899999999999
 30
0.0
 11
2.251999999999999
 21
38.62899999999999
 31
0.0
  0
LINE
  5
FC
330
1E
100
AcDbEntity
  8
0
100
AcDbLine
 10
9.93866
 20
37.12899999999999
 30
0.0
 11
10.8186
 21
37.12899999999999
 31
0.0
  0
LINE
  5
FD
330
1E
100
AcDbEntity
  8
0
100
AcDbLine
 10
10.40799999999999
 20
37.12899999999999
 30
0.0
 11
11.728
 21
37.12899999999999
 31
0.0
  0
LINE
  5
FE
330
1E
100
AcDbEntity
  8
0
100
AcDbLine
 10
10.8186
 20
37.12899999999999
 30
0.0
 11
11.59599999999999
 21
37.12899999999999
 31
0.0
  0
LINE
  5
FF
330
1E
100
AcDbEntity
  8
0
100
AcDbLine
 10
11.728
 20
37.12899999999999
 30
0.0
 11
12.894
 21
37.12899999999999
 31
0.0
  0
LINE
  5
100
330
1E
100
AcDbEntity
  8
0
100
AcDbLine
 10
11.59599999999999
 20
37.12899999999999
 30
0.0
 11
12.1826
 21
37.12899999999999
 31
0.0
  0
LINE
  5
101
330
1E
100
AcDbEntity
  8
0
100
AcDbLine
 10
12.1826
 20
37.12899999999999
 30
0.0
 11
12.5346
 21
37.12899999999999
 31
0.0
  0
LINE
  5
102
330
1E
100
AcDbEntity
  8
0
100
AcDbLine
 10
9.0
 20
38.62899999999999
 30
0.0
 11
10.79199999999999
 21
38.62899999999999
 31
0.0
  0
LINE
  5
103
330
1E
100
AcDbEntity
  8
0
100
AcDbLine
 10
10.79199999999999
 20
38.62899999999999
 30
0.0
 11
12.472
 21
38.62899999999999
 31
0.0
  0
LINE
  5
104
330
1E
100
AcDbEntity
  8
0
100
AcDbLine
 10
14.5
 20
37.12899999999999
 30
0.0
 11
14.5
 21
38.62899999999999
 31
0.0
  0
LINE
  5
105
330
1E
100
AcDbEntity
  8
0
100
AcDbLine
 10
12.894
 20
37.12899999999999
 30
0.0
 11
13.774
 21
37.12899999999999
 31
0.0
  0
LINE
  5
106
330
1E
100
AcDbEntity
  8
0
100
AcDbLine
 10
13.774
 20
37.12899999999999
 30
0.0
 11
14.302
 21
37.12899999999999
 31
0.0
  0
LINE
  5
107
330
1E
100
AcDbEntity
  8
0
100
AcDbLine
 10
12.5346
 20
37.12899999999999
 30
0.0
 11
12.6666
 21
37.12899999999999
 31
0.0
  0
LINE
  5
108
330
1E
100
AcDbEntity
  8
0
100
AcDbLine
 10
14.5
 20
38.62899999999999
 30
0.0
 11
14.5
 21
37.12899999999999
 31
0.0
  0
LINE
  5
109
330
1E
100
AcDbEntity
  8
0
100
AcDbLine
 10
14.302
 20
37.12899999999999
 30
0.0
 11
14.5
 21
37.12899999999999
 31
0.0
  0
LINE
  5
10A
330
1E
100
AcDbEntity
  8
0
100
AcDbLine
 10
12.472
 20
38.62899999999999
 30
0.0
 11
13.95599999999999
 21
38.62899999999999
 31
0.0
  0
LINE
  5
10B
330
1E
100
AcDbEntity
  8
0
100
AcDbLine
 10
13.95599999999999
 20
38.62899999999999
 30
0.0
 11
15.076
 21
38.62899999999999
 31
0.0
  0
LINE
  5
10C
330
1E
100
AcDbEntity
  8
0
100
AcDbLine
 10
20.0
 20
38.62899999999999
 30
0.0
 11
123.1756999999999
 21
38.62899999999999
 31
0.0
  0
LINE
  5
10D
330
1E
100
AcDbEntity
  8
0
100
AcDbLine
 10
15.076
 20
38.62899999999999
 30
0.0
 11
20.0
 21
38.62899999999999
 31
0.0
  0
LINE
  5
10E
330
1E
100
AcDbEntity
  8
0
100
AcDbLine
 10
1.999999999999999
 20
38.62899999999999
 30
0.0
 11
2.0
 21
43.62899999999999
 31
0.0
  0
LINE
  5
10F
330
1E
100
AcDbEntity
  8
0
100
AcDbLine
 10
1.5
 20
40.62899999999999
 30
0.0
 11
2.0
 21
40.62899999999999
 31
0.0
  0
LINE
  5
112
330
1E
100
AcDbEntity
  8
0
100
AcDbLine
 10
49.3076923076923
 20
18.629
 30
0.0
 11
110.692307692308
 21
18.629
 31
0.0
  0
LINE
  5
113
330
1E
100
AcDbEntity
  8
0
100
AcDbLine
 10
48.7344615384615
 20
18.629
 30
0.0
 11
120.642037735849
 21
18.629
 31
0.0
  0
LINE
  5
114
330
1E
100
AcDbEntity
  8
0
100
AcDbLine
 10
48.7344615384615
 20
18.629
 30
0.0
 11
120.642037735849
 21
18.629
 31
0.0
  0
LINE
  5
115
330
1E
100
AcDbEntity
  8
0
100
AcDbLine
 10
49.3076923076923
 20
18.629
 30
0.0
 11
110.692307692308
 21
18.629
 31
0.0
  0
LINE
  5
116
330
1E
100
AcDbEntity
  8
0
100
AcDbLine
 10
49.3076923076923
 20
18.629
 30
0.0
 11
53.0
 21
14.629
 31
0.0
  0
LINE
  5
118
330
1E
100
AcDbEntity
  8
0
100
AcDbLine
 10
52.7255153846154
 20
38.62899999999999
 30
0.0
 11
123.1756999999999
 21
38.62899999999999
 31
0.0
  0
LINE
  5
119
330
1E
100
AcDbEntity
  8
0
100
AcDbLine
 10
52.7255153846154
 20
38.62899999999999
 30
0.0
 11
123.1756999999999
 21
38.62899999999999
 31
0.0
  0
LINE
  5
11C
330
1E
100
AcDbEntity
  8
0
100
AcDbLine
 10
1.5
 20
14.629
 30
0.0
 11
8.544758231700869
 21
15.43448556467069
 31
0.0
  0
LINE
  5
11D
330
1E
100
AcDbEntity
  8
0
100
AcDbLine
 10
0.5
 20
40.4378
 30
0.0
 11
1.5
 21
40.62899999999999
 31
0.0
  0
LINE
  5
11E
330
1E
100
AcDbEntity
  8
0
100
AcDbLine
 10
3.5
 20
43.62899999999999
 30
0.0
 11
3.5
 21
45.129
 31
0.0
  0
LINE
  5
11F
330
1E
100
AcDbEntity
  8
0
100
AcDbLine
 10
7.207999999999999
 20
43.62899999999999
 30
0.0
 11
9.0
 21
43.62899999999999
 31
0.0
  0
LINE
  5
120
330
1E
100
AcDbEntity
  8
0
100
AcDbLine
 10
5.527999999999999
 20
43.62899999999999
 30
0.0
 11
7.207999999999999
 21
43.62899999999999
 31
0.0
  0
LINE
  5
121
330
1E
100
AcDbEntity
  8
0
100
AcDbLine
 10
4.043999999999999
 20
43.62899999999999
 30
0.0
 11
5.527999999999999
 21
43.62899999999999
 31
0.0
  0
LINE
  5
122
330
1E
100
AcDbEntity
  8
0
100
AcDbLine
 10
2.923999999999999
 20
43.62899999999999
 30
0.0
 11
4.043999999999999
 21
43.62899999999999
 31
0.0
  0
LINE
  5
123
330
1E
100
AcDbEntity
  8
0
100
AcDbLine
 10
2.251999999999999
 20
43.62899999999999
 30
0.0
 11
2.923999999999999
 21
43.62899999999999
 31
0.0
  0
LINE
  5
124
330
1E
100
AcDbEntity
  8
0
100
AcDbLine
 10
9.0
 20
43.62899999999999
 30
0.0
 11
10.79199999999999
 21
43.62899999999999
 31
0.0
  0
LINE
  5
125
330
1E
100
AcDbEntity
  8
0
100
AcDbLine
 10
10.79199999999999
 20
43.62899999999999
 30
0.0
 11
12.472
 21
43.62899999999999
 31
0.0
  0
LINE
  5
126
330
1E
100
AcDbEntity
  8
0
100
AcDbLine
 10
12.472
 20
43.62899999999999
 30
0.0
 11
13.95599999999999
 21
43.62899999999999
 31
0.0
  0
LINE
  5
127
330
1E
100
AcDbEntity
  8
0
100
AcDbLine
 10
14.5
 20
43.62899999999999
 30
0.0
 11
14.5
 21
45.129
 31
0.0
  0
LINE
  5
128
330
1E
100
AcDbEntity
  8
0
100
AcDbLine
 10
20.0
 20
43.62899999999999
 30
0.0
 11
130.0
 21
43.62899999999999
 31
0.0
  0
LINE
  5
129
330
1E
100
AcDbEntity
  8
0
100
AcDbLine
 10
13.95599999999999
 20
43.62899999999999
 30
0.0
 11
15.076
 21
43.62899999999999
 31
0.0
  0
LINE
  5
12A
330
1E
100
AcDbEntity
  8
0
100
AcDbLine
 10
9.0
 20
45.129
 30
0.0
 11
10.40799999999999
 21
45.129
 31
0.0
  0
LINE
  5
12B
330
1E
100
AcDbEntity
  8
0
100
AcDbLine
 10
10.40799999999999
 20
45.129
 30
0.0
 11
11.728
 21
45.129
 31
0.0
  0
LINE
  5
12C
330
1E
100
AcDbEntity
  8
0
100
AcDbLine
 10
11.728
 20
45.129
 30
0.0
 11
12.894
 21
45.129
 31
0.0
  0
LINE
  5
12D
330
1E
100
AcDbEntity
  8
0
100
AcDbLine
 10
12.894
 20
45.129
 30
0.0
 11
13.774
 21
45.129
 31
0.0
  0
LINE
  5
12E
330
1E
100
AcDbEntity
  8
0
100
AcDbLine
 10
13.774
 20
45.129
 30
0.0
 11
14.302
 21
45.129
 31
0.0
  0
LINE
  5
12F
330
1E
100
AcDbEntity
  8
0
100
AcDbLine
 10
14.5
 20
45.129
 30
0.0
 11
14.5
 21
43.62899999999999
 31
0.0
  0
LINE
  5
130
330
1E
100
AcDbEntity
  8
0
100
AcDbLine
 10
14.302
 20
45.129
 30
0.0
 11
14.5
 21
45.129
 31
0.0
  0
LINE
  5
131
330
1E
100
AcDbEntity
  8
0
100
AcDbLine
 10
7.592
 20
45.129
 30
0.0
 11
9.0
 21
45.129
 31
0.0
  0
LINE
  5
132
330
1E
100
AcDbEntity
  8
0
100
AcDbLine
 10
6.272
 20
45.129
 30
0.0
 11
7.592
 21
45.129
 31
0.0
  0
LINE
  5
133
330
1E
100
AcDbEntity
  8
0
100
AcDbLine
 10
5.105999999999999
 20
45.129
 30
0.0
 11
6.272
 21
45.129
 31
0.0
  0
LINE
  5
134
330
1E
100
AcDbEntity
  8
0
100
AcDbLine
 10
4.225999999999999
 20
45.129
 30
0.0
 11
5.105999999999999
 21
45.129
 31
0.0
  0
LINE
  5
135
330
1E
100
AcDbEntity
  8
0
100
AcDbLine
 10
3.697999999999999
 20
45.129
 30
0.0
 11
4.225999999999999
 21
45.129
 31
0.0
  0
LINE
  5
136
330
1E
100
AcDbEntity
  8
0
100
AcDbLine
 10
3.5
 20
45.129
 30
0.0
 11
3.5
 21
43.62899999999999
 31
0.0
  0
LINE
  5
137
330
1E
100
AcDbEntity
  8
0
100
AcDbLine
 10
3.5
 20
45.129
 30
0.0
 11
3.697999999999999
 21
45.129
 31
0.0
  0
LINE
  5
138
330
1E
100
AcDbEntity
  8
0
100
AcDbLine
 10
15.076
 20
43.62899999999999
 30
0.0
 11
20.0
 21
43.62899999999999
 31
0.0
  0
LINE
  5
139
330
1E
100
AcDbEntity
  8
0
100
AcDbLine
 10
15.076
 20
43.62899999999999
 30
0.0
 11
15.076
 21
38.62899999999999
 31
0.0
  0
LINE
  5
13A
330
1E
100
AcDbEntity
  8
0
100
AcDbLine
 10
2.0
 20
43.62899999999999
 30
0.0
 11
1.999999999999999
 21
38.62899999999999
 31
0.0
  0
LINE
  5
13B
330
1E
100
AcDbEntity
  8
0
100
AcDbLine
 10
2.0
 20
43.62899999999999
 30
0.0
 11
2.251999999999999
 21
43.62899999999999
 31
0.0
  0
LINE
  5
13C
330
1E
100
AcDbEntity
  8
0
100
AcDbLine
 10
1.5
 20
40.62899999999999
 30
0.0
 11
2.0
 21
40.62899999999999
 31
0.0
  0
LINE
  5
13D
330
1E
100
AcDbEntity
  8
0
100
AcDbLine
 10
117.256
 20
6.62899999999999
 30
0.0
 11
121.072
 21
6.62899999999999
 31
0.0
  0
LINE
  5
13E
330
1E
100
AcDbEntity
  8
0
100
AcDbLine
 10
117.256
 20
4.62899999999999
 30
0.0
 11
121.072
 21
4.62899999999999
 31
0.0
  0
LINE
  5
13F
330
1E
100
AcDbEntity
  8
0
100
AcDbLine
 10
117.148
 20
-0.129000000000006
 30
0.0
 11
118.4749999999999
 21
-0.129000000000006
 31
0.0
  0
LINE
  5
140
330
1E
100
AcDbEntity
  8
0
100
AcDbLine
 10
118.4749999999999
 20
-0.129000000000006
 30
0.0
 11
120.612
 21
-0.129000000000006
 31
0.0
  0
LINE
  5
141
330
1E
100
AcDbEntity
  8
0
100
AcDbLine
 10
117.4639999999999
 20
0.5851999999999871
 30
0.0
 11
119.801
 21
0.130699999999987
 31
0.0
  0
LINE
  5
143
330
1E
100
AcDbEntity
  8
0
100
AcDbLine
 10
118.592
 20
6.62899999999999
 30
0.0
 11
124.112
 21
6.62899999999999
 31
0.0
  0
LINE
  5
144
330
1E
100
AcDbEntity
  8
0
100
AcDbLine
 10
120.612
 20
-0.129000000000006
 30
0.0
 11
123.485
 21
-0.129000000000006
 31
0.0
  0
LINE
  5
145
330
1E
100
AcDbEntity
  8
0
100
AcDbLine
 10
120.5859999999999
 20
-0.129000000000006
 30
0.0
 11
122.326
 21
-0.129000000000006
 31
0.0
  0
LINE
  5
146
330
1E
100
AcDbEntity
  8
0
100
AcDbLine
 10
119.6299999999999
 20
-0.129000000000006
 30
0.0
 11
120.5859999999999
 21
-0.129000000000006
 31
0.0
  0
LINE
  5
147
330
1E
100
AcDbEntity
  8
0
100
AcDbLine
 10
119.5429999999999
 20
-0.129000000000006
 30
0.0
 11
120.415
 21
-0.129000000000006
 31
0.0
  0
LINE
  5
148
330
1E
100
AcDbEntity
  8
0
100
AcDbLine
 10
120.415
 20
-0.129000000000006
 30
0.0
 11
122.1239999999999
 21
-0.129000000000006
 31
0.0
  0
LINE
  5
149
330
1E
100
AcDbEntity
  8
0
100
AcDbLine
 10
122.326
 20
-0.129000000000006
 30
0.0
 11
124.7589999999999
 21
-0.129000000000006
 31
0.0
  0
LINE
  5
14A
330
1E
100
AcDbEntity
  8
0
100
AcDbLine
 10
123.485
 20
-0.129000000000006
 30
0.0
 11
126.727
 21
-0.129000000000006
 31
0.0
  0
LINE
  5
14B
330
1E
100
AcDbEntity
  8
0
100
AcDbLine
 10
122.1239999999999
 20
-0.129000000000006
 30
0.0
 11
124.499
 21
-0.129000000000006
 31
0.0
  0
LINE
  5
14C
330
1E
100
AcDbEntity
  8
0
100
AcDbLine
 10
121.072
 20
6.62899999999999
 30
0.0
 11
125.392
 21
6.62899999999999
 31
0.0
  0
LINE
  5
14D
330
1E
100
AcDbEntity
  8
0
100
AcDbLine
 10
121.072
 20
4.62899999999999
 30
0.0
 11
125.392
 21
4.62899999999999
 31
0.0
  0
LINE
  5
14E
330
1E
100
AcDbEntity
  8
0
100
AcDbLine
 10
119.801
 20
0.130699999999987
 30
0.0
 11
123.1379999999999
 21
0.0152999999999903
 31
0.0
  0
LINE
  5
14F
330
1E
100
AcDbEntity
  8
0
100
AcDbLine
 10
123.1379999999999
 20
0.0152999999999903
 30
0.0
 11
126.456
 21
0.169999999999985
 31
0.0
  0
LINE
  5
151
330
1E
100
AcDbEntity
  8
0
100
AcDbLine
 10
119.2539999999999
 20
-0.129000000000006
 30
0.0
 11
119.5429999999999
 21
-0.129000000000006
 31
0.0
  0
LINE
  5
152
330
1E
100
AcDbEntity
  8
0
100
AcDbLine
 10
119.2539999999999
 20
-0.129000000000006
 30
0.0
 11
119.6299999999999
 21
-0.129000000000006
 31
0.0
  0
LINE
  5
153
330
1E
100
AcDbEntity
  8
0
100
AcDbLine
 10
124.7589999999999
 20
-0.129000000000006
 30
0.0
 11
127.51
 21
-0.129000000000006
 31
0.0
  0
LINE
  5
154
330
1E
100
AcDbEntity
  8
0
100
AcDbLine
 10
125.392
 20
6.62899999999999
 30
0.0
 11
130.0
 21
6.62899999999999
 31
0.0
  0
LINE
  5
155
330
1E
100
AcDbEntity
  8
0
100
AcDbLine
 10
125.392
 20
4.62899999999999
 30
0.0
 11
130.0
 21
4.62899999999999
 31
0.0
  0
LINE
  5
156
330
1E
100
AcDbEntity
  8
0
100
AcDbLine
 10
124.499
 20
-0.129000000000006
 30
0.0
 11
127.0729999999999
 21
-0.129000000000006
 31
0.0
  0
LINE
  5
157
330
1E
100
AcDbEntity
  8
0
100
AcDbLine
 10
126.727
 20
-0.129000000000006
 30
0.0
 11
130.264
 21
-0.129000000000006
 31
0.0
  0
LINE
  5
158
330
1E
100
AcDbEntity
  8
0
100
AcDbLine
 10
127.51
 20
-0.129000000000006
 30
0.0
 11
130.3199999999999
 21
-0.129000000000006
 31
0.0
  0
LINE
  5
159
330
1E
100
AcDbEntity
  8
0
100
AcDbLine
 10
130.0
 20
4.62899999999999
 30
0.0
 11
134.608
 21
4.62899999999999
 31
0.0
  0
LINE
  5
15B
330
1E
100
AcDbEntity
  8
0
100
AcDbLine
 10
128.5339999999999
 20
0.5851999999999871
 30
0.0
 11
130.264
 21
0.5851999999999871
 31
0.0
  0
LINE
  5
15C
330
1E
100
AcDbEntity
  8
0
100
AcDbLine
 10
127.0729999999999
 20
-0.129000000000006
 30
0.0
 11
130.1719999999999
 21
-0.129000000000006
 31
0.0
  0
LINE
  5
15E
330
1E
100
AcDbEntity
  8
0
100
AcDbLine
 10
126.456
 20
0.169999999999985
 30
0.0
 11
128.5339999999999
 21
0.5851999999999871
 31
0.0
  0
LINE
  5
15F
330
1E
100
AcDbEntity
  8
0
100
AcDbLine
 10
124.112
 20
6.62899999999999
 30
0.0
 11
130.0
 21
6.62899999999999
 31
0.0
  0
LINE
  5
160
330
1E
100
AcDbEntity
  8
0
100
AcDbLine
 10
130.1719999999999
 20
-0.129000000000006
 30
0.0
 11
133.097
 21
-0.129000000000006
 31
0.0
  0
LINE
  5
161
330
1E
100
AcDbEntity
  8
0
100
AcDbLine
 10
133.1059999999999
 20
-0.129000000000006
 30
0.0
 11
135.828
 21
-0.129000000000006
 31
0.0
  0
LINE
  5
162
330
1E
100
AcDbEntity
  8
0
100
AcDbLine
 10
133.097
 20
-0.129000000000006
 30
0.0
 11
135.8479999999999
 21
-0.129000000000006
 31
0.0
  0
LINE
  5
163
330
1E
100
AcDbEntity
  8
0
100
AcDbLine
 10
130.3199999999999
 20
-0.129000000000006
 30
0.0
 11
133.1059999999999
 21
-0.129000000000006
 31
0.0
  0
LINE
  5
164
330
1E
100
AcDbEntity
  8
0
100
AcDbLine
 10
130.264
 20
-0.129000000000006
 30
0.0
 11
133.801
 21
-0.129000000000006
 31
0.0
  0
LINE
  5
166
330
1E
100
AcDbEntity
  8
0
100
AcDbLine
 10
130.264
 20
0.5851999999999871
 30
0.0
 11
131.995
 21
0.5851999999999871
 31
0.0
  0
LINE
  5
167
330
1E
100
AcDbEntity
  8
0
100
AcDbLine
 10
131.995
 20
0.5851999999999871
 30
0.0
 11
134.072
 21
0.169999999999985
 31
0.0
  0
LINE
  5
16A
330
1E
100
AcDbEntity
  8
0
100
AcDbLine
 10
130.0
 20
6.62899999999999
 30
0.0
 11
135.888
 21
6.62899999999999
 31
0.0
  0
LINE
  5
16B
330
1E
100
AcDbEntity
  8
0
100
AcDbLine
 10
130.0
 20
6.62899999999999
 30
0.0
 11
134.608
 21
6.62899999999999
 31
0.0
  0
LINE
  5
16C
330
1E
100
AcDbEntity
  8
0
100
AcDbLine
 10
130.0
 20
14.629
 30
0.0
 11
133.328
 21
15.097
 31
0.0
  0
LINE
  5
16D
330
1E
100
AcDbEntity
  8
0
100
AcDbLine
 10
135.8479999999999
 20
-0.129000000000006
 30
0.0
 11
138.406
 21
-0.129000000000006
 31
0.0
  0
LINE
  5
16E
330
1E
100
AcDbEntity
  8
0
100
AcDbLine
 10
135.828
 20
-0.129000000000006
 30
0.0
 11
138.2609999999999
 21
-0.129000000000006
 31
0.0
  0
LINE
  5
170
330
1E
100
AcDbEntity
  8
0
100
AcDbLine
 10
133.801
 20
-0.129000000000006
 30
0.0
 11
137.043
 21
-0.129000000000006
 31
0.0
  0
LINE
  5
172
330
1E
100
AcDbEntity
  8
0
100
AcDbLine
 10
134.608
 20
6.62899999999999
 30
0.0
 11
138.928
 21
6.62899999999999
 31
0.0
  0
LINE
  5
173
330
1E
100
AcDbEntity
  8
0
100
AcDbLine
 10
134.608
 20
4.62899999999999
 30
0.0
 11
138.928
 21
4.62899999999999
 31
0.0
  0
LINE
  5
174
330
1E
100
AcDbEntity
  8
0
100
AcDbLine
 10
134.072
 20
0.169999999999985
 30
0.0
 11
137.3909999999999
 21
0.0152999999999903
 31
0.0
  0
LINE
  5
175
330
1E
100
AcDbEntity
  8
0
100
AcDbLine
 10
137.043
 20
-0.129000000000006
 30
0.0
 11
139.917
 21
-0.129000000000006
 31
0.0
  0
LINE
  5
177
330
1E
100
AcDbEntity
  8
0
100
AcDbLine
 10
142.054
 20
-0.129000000000006
 30
0.0
 11
143.3799999999999
 21
-0.129000000000006
 31
0.0
  0
LINE
  5
178
330
1E
100
AcDbEntity
  8
0
100
AcDbLine
 10
139.912
 20
-0.129000000000006
 30
0.0
 11
140.925
 21
-0.129000000000006
 31
0.0
  0
LINE
  5
179
330
1E
100
AcDbEntity
  8
0
100
AcDbLine
 10
143.896
 20
-0.129000000000006
 30
0.0
 11
144.264
 21
-0.0576000000000176
 31
0.0
  0
LINE
  5
17A
330
1E
100
AcDbEntity
  8
0
100
AcDbLine
 10
143.3799999999999
 20
-0.129000000000006
 30
0.0
 11
143.896
 21
-0.129000000000006
 31
0.0
  0
LINE
  5
17B
330
1E
100
AcDbEntity
  8
0
100
AcDbLine
 10
140.925
 20
-0.129000000000006
 30
0.0
 11
141.2439999999999
 21
-0.129000000000006
 31
0.0
  0
LINE
  5
17C
330
1E
100
AcDbEntity
  8
0
100
AcDbLine
 10
138.406
 20
-0.129000000000006
 30
0.0
 11
140.114
 21
-0.129000000000006
 31
0.0
  0
LINE
  5
17D
330
1E
100
AcDbEntity
  8
0
100
AcDbLine
 10
140.114
 20
-0.129000000000006
 30
0.0
 11
140.925
 21
-0.129000000000006
 31
0.0
  0
LINE
  5
17E
330
1E
100
AcDbEntity
  8
0
100
AcDbLine
 10
138.2609999999999
 20
-0.129000000000006
 30
0.0
 11
139.912
 21
-0.129000000000006
 31
0.0
  0
LINE
  5
17F
330
1E
100
AcDbEntity
  8
0
100
AcDbLine
 10
144.264
 20
-0.0576000000000176
 30
0.0
 11
144.264
 21
0.042399999999988
 31
0.0
  0
LINE
  5
182
330
1E
100
AcDbEntity
  8
0
100
AcDbLine
 10
144.264
 20
0.042399999999988
 30
0.0
 11
144.264
 21
-0.0576000000000176
 31
0.0
  0
LINE
  5
183
330
1E
100
AcDbEntity
  8
0
100
AcDbLine
 10
144.264
 20
0.042399999999988
 30
0.0
 11
144.264
 21
0.5851999999999871
 31
0.0
  0
LINE
  5
184
330
1E
100
AcDbEntity
  8
0
100
AcDbLine
 10
139.917
 20
-0.129000000000006
 30
0.0
 11
142.054
 21
-0.129000000000006
 31
0.0
  0
LINE
  5
185
330
1E
100
AcDbEntity
  8
0
100
AcDbLine
 10
137.3909999999999
 20
0.0152999999999903
 30
0.0
 11
140.727
 21
0.130699999999987
 31
0.0
  0
LINE
  5
187
330
1E
100
AcDbEntity
  8
0
100
AcDbLine
 10
143.0639999999999
 20
0.5851999999999871
 30
0.0
 11
143.97
 21
0.5851999999999871
 31
0.0
  0
LINE
  5
188
330
1E
100
AcDbEntity
  8
0
100
AcDbLine
 10
143.97
 20
0.5851999999999871
 30
0.0
 11
144.264
 21
0.5851999999999871
 31
0.0
  0
LINE
  5
189
330
1E
100
AcDbEntity
  8
0
100
AcDbLine
 10
138.928
 20
4.62899999999999
 30
0.0
 11
142.7439999999999
 21
4.62899999999999
 31
0.0
  0
LINE
  5
18A
330
1E
100
AcDbEntity
  8
0
100
AcDbLine
 10
138.928
 20
6.62899999999999
 30
0.0
 11
142.7439999999999
 21
6.62899999999999
 31
0.0
  0
LINE
  5
18B
330
1E
100
AcDbEntity
  8
0
100
AcDbLine
 10
142.7439999999999
 20
6.62899999999999
 30
0.0
 11
145.624
 21
6.62899999999999
 31
0.0
  0
LINE
  5
18C
330
1E
100
AcDbEntity
  8
0
100
AcDbLine
 10
142.7439999999999
 20
4.62899999999999
 30
0.0
 11
145.624
 21
4.62899999999999
 31
0.0
  0
LINE
  5
18D
330
1E
100
AcDbEntity
  8
0
100
AcDbLine
 10
144.264
 20
4.62899999999999
 30
0.0
 11
144.264
 21
1.29949999999999
 31
0.0
  0
LINE
  5
18E
330
1E
100
AcDbEntity
  8
0
100
AcDbLine
 10
144.264
 20
4.62899999999999
 30
0.0
 11
145.624
 21
4.62899999999999
 31
0.0
  0
LINE
  5
18F
330
1E
100
AcDbEntity
  8
0
100
AcDbLine
 10
144.264
 20
1.29949999999999
 30
0.0
 11
144.264
 21
0.5851999999999871
 31
0.0
  0
LINE
  5
190
330
1E
100
AcDbEntity
  8
0
100
AcDbLine
 10
144.264
 20
1.29949999999999
 30
0.0
 11
144.264
 21
4.62899999999999
 31
0.0
  0
LINE
  5
191
330
1E
100
AcDbEntity
  8
0
100
AcDbLine
 10
145.624
 20
6.62899999999999
 30
0.0
 11
147.352
 21
6.62899999999999
 31
0.0
  0
LINE
  5
192
330
1E
100
AcDbEntity
  8
0
100
AcDbLine
 10
145.624
 20
4.62899999999999
 30
0.0
 11
147.352
 21
4.62899999999999
 31
0.0
  0
LINE
  5
193
330
1E
100
AcDbEntity
  8
0
100
AcDbLine
 10
144.264
 20
0.5851999999999871
 30
0.0
 11
144.264
 21
0.042399999999988
 31
0.0
  0
LINE
  5
194
330
1E
100
AcDbEntity
  8
0
100
AcDbLine
 10
144.264
 20
0.5851999999999871
 30
0.0
 11
144.264
 21
1.29949999999999
 31
0.0
  0
LINE
  5
195
330
1E
100
AcDbEntity
  8
0
100
AcDbLine
 10
140.727
 20
0.130699999999987
 30
0.0
 11
143.0639999999999
 21
0.5851999999999871
 31
0.0
  0
LINE
  5
196
330
1E
100
AcDbEntity
  8
0
100
AcDbLine
 10
135.888
 20
6.62899999999999
 30
0.0
 11
141.408
 21
6.62899999999999
 31
0.0
  0
LINE
  5
197
330
1E
100
AcDbEntity
  8
0
100
AcDbLine
 10
141.408
 20
6.62899999999999
 30
0.0
 11
146.2839999999999
 21
6.62899999999999
 31
0.0
  0
LINE
  5
198
330
1E
100
AcDbEntity
  8
0
100
AcDbLine
 10
147.352
 20
6.62899999999999
 30
0.0
 11
148.0
 21
6.62899999999999
 31
0.0
  0
LINE
  5
199
330
1E
100
AcDbEntity
  8
0
100
AcDbLine
 10
148.0
 20
4.62899999999999
 30
0.0
 11
148.0
 21
6.62899999999999
 31
0.0
  0
LINE
  5
19A
330
1E
100
AcDbEntity
  8
0
100
AcDbLine
 10
147.352
 20
4.62899999999999
 30
0.0
 11
148.0
 21
4.62899999999999
 31
0.0
  0
LINE
  5
19B
330
1E
100
AcDbEntity
  8
0
100
AcDbLine
 10
148.0
 20
6.62899999999999
 30
0.0
 11
149.964
 21
6.62899999999999
 31
0.0
  0
LINE
  5
19C
330
1E
100
AcDbEntity
  8
0
100
AcDbLine
 10
148.0
 20
6.62899999999999
 30
0.0
 11
148.0
 21
4.62899999999999
 31
0.0
  0
LINE
  5
19D
330
1E
100
AcDbEntity
  8
0
100
AcDbLine
 10
146.2839999999999
 20
6.62899999999999
 30
0.0
 11
149.964
 21
6.62899999999999
 31
0.0
  0
LINE
  5
19E
330
1E
100
AcDbEntity
  8
0
100
AcDbLine
 10
149.964
 20
6.62899999999999
 30
0.0
 11
152.172
 21
6.62899999999999
 31
0.0
  0
LINE
  5
19F
330
1E
100
AcDbEntity
  8
0
100
AcDbLine
 10
153.0
 20
6.62899999999999
 30
0.0
 11
153.0
 21
14.629
 31
0.0
  0
LINE
  5
1A0
330
1E
100
AcDbEntity
  8
0
100
AcDbLine
 10
153.0
 20
14.629
 30
0.0
 11
153.0
 21
6.62899999999999
 31
0.0
  0
LINE
  5
1A1
330
1E
100
AcDbEntity
  8
0
100
AcDbLine
 10
152.172
 20
6.62899999999999
 30
0.0
 11
153.0
 21
6.62899999999999
 31
0.0
  0
LINE
  5
1A2
330
1E
100
AcDbEntity
  8
0
100
AcDbLine
 10
149.964
 20
14.629
 30
0.0
 11
152.172
 21
14.629
 31
0.0
  0
LINE
  5
1A3
330
1E
100
AcDbEntity
  8
0
100
AcDbLine
 10
152.172
 20
14.629
 30
0.0
 11
160.0
 21
14.629
 31
0.0
  0
LINE
  5
1A4
330
1E
100
AcDbEntity
  8
0
100
AcDbLine
 10
152.172
 20
14.629
 30
0.0
 11
153.0
 21
14.629
 31
0.0
  0
LINE
  5
1A5
330
1E
100
AcDbEntity
  8
0
100
AcDbLine
 10
160.0
 20
14.629
 30
0.0
 11
160.0
 21
15.097
 31
0.0
  0
LINE
  5
1A6
330
1E
100
AcDbEntity
  8
0
100
AcDbLine
 10
160.0
 20
15.097
 30
0.0
 11
160.0
 21
16.345
 31
0.0
  0
LINE
  5
1A7
330
1E
100
AcDbEntity
  8
0
100
AcDbLine
 10
160.0
 20
15.097
 30
0.0
 11
160.0
 21
14.629
 31
0.0
  0
LINE
  5
1A8
330
1E
100
AcDbEntity
  8
0
100
AcDbLine
 10
133.328
 20
15.097
 30
0.0
 11
136.4479999999999
 21
16.345
 31
0.0
  0
LINE
  5
1A9
330
1E
100
AcDbEntity
  8
0
100
AcDbLine
 10
130.0
 20
16.4861
 30
0.0
 11
132.8529999999999
 21
16.8873
 31
0.0
  0
LINE
  5
1AA
330
1E
100
AcDbEntity
  8
0
100
AcDbLine
 10
132.8529999999999
 20
16.8873
 30
0.0
 11
135.527
 21
17.957
 31
0.0
  0
LINE
  5
1AB
330
1E
100
AcDbEntity
  8
0
100
AcDbLine
 10
160.0
 20
16.345
 30
0.0
 11
160.0
 21
18.425
 31
0.0
  0
LINE
  5
1AC
330
1E
100
AcDbEntity
  8
0
100
AcDbLine
 10
160.0
 20
16.345
 30
0.0
 11
160.0
 21
15.097
 31
0.0
  0
LINE
  5
1AD
330
1E
100
AcDbEntity
  8
0
100
AcDbLine
 10
136.4479999999999
 20
16.345
 30
0.0
 11
139.204
 21
18.425
 31
0.0
  0
LINE
  5
1AE
330
1E
100
AcDbEntity
  8
0
100
AcDbLine
 10
135.527
 20
17.957
 30
0.0
 11
137.889
 21
19.73989999999999
 31
0.0
  0
LINE
  5
1AF
330
1E
100
AcDbEntity
  8
0
100
AcDbLine
 10
160.0
 20
18.425
 30
0.0
 11
160.0
 21
21.18099999999999
 31
0.0
  0
LINE
  5
1B0
330
1E
100
AcDbEntity
  8
0
100
AcDbLine
 10
160.0
 20
18.425
 30
0.0
 11
160.0
 21
16.345
 31
0.0
  0
LINE
  5
1B1
330
1E
100
AcDbEntity
  8
0
100
AcDbLine
 10
139.204
 20
18.425
 30
0.0
 11
141.2839999999999
 21
21.18099999999999
 31
0.0
  0
LINE
  5
1B2
330
1E
100
AcDbEntity
  8
0
100
AcDbLine
 10
127.147
 20
16.8873
 30
0.0
 11
130.0
 21
16.4861
 31
0.0
  0
LINE
  5
1B3
330
1E
100
AcDbEntity
  8
0
100
AcDbLine
 10
124.473
 20
17.957
 30
0.0
 11
127.147
 21
16.8873
 31
0.0
  0
LINE
  5
1B4
330
1E
100
AcDbEntity
  8
0
100
AcDbLine
 10
126.672
 20
15.097
 30
0.0
 11
130.0
 21
14.629
 31
0.0
  0
LINE
  5
1B5
330
1E
100
AcDbEntity
  8
0
100
AcDbLine
 10
123.552
 20
16.345
 30
0.0
 11
126.672
 21
15.097
 31
0.0
  0
LINE
  5
1B6
330
1E
100
AcDbEntity
  8
0
100
AcDbLine
 10
137.889
 20
19.73989999999999
 30
0.0
 11
139.6719999999999
 21
22.1021
 31
0.0
  0
LINE
  5
1B7
330
1E
100
AcDbEntity
  8
0
100
AcDbLine
 10
139.6719999999999
 20
22.1021
 30
0.0
 11
140.742
 21
24.7764
 31
0.0
  0
LINE
  5
1B8
330
1E
100
AcDbEntity
  8
0
100
AcDbLine
 10
141.2839999999999
 20
21.18099999999999
 30
0.0
 11
142.532
 21
24.30099999999999
 31
0.0
  0
LINE
  5
1B9
330
1E
100
AcDbEntity
  8
0
100
AcDbLine
 10
160.0
 20
21.18099999999999
 30
0.0
 11
160.0
 21
24.30099999999999
 31
0.0
  0
LINE
  5
1BA
330
1E
100
AcDbEntity
  8
0
100
AcDbLine
 10
160.0
 20
21.18099999999999
 30
0.0
 11
160.0
 21
18.425
 31
0.0
  0
LINE
  5
1BB
330
1E
100
AcDbEntity
  8
0
100
AcDbLine
 10
160.0
 20
24.30099999999999
 30
0.0
 11
160.0
 21
27.629
 31
0.0
  0
LINE
  5
1BC
330
1E
100
AcDbEntity
  8
0
100
AcDbLine
 10
160.0
 20
24.30099999999999
 30
0.0
 11
160.0
 21
21.18099999999999
 31
0.0
  0
LINE
  5
1BD
330
1E
100
AcDbEntity
  8
0
100
AcDbLine
 10
142.532
 20
24.30099999999999
 30
0.0
 11
143.0
 21
27.629
 31
0.0
  0
LINE
  5
1BE
330
1E
100
AcDbEntity
  8
0
100
AcDbLine
 10
122.111
 20
19.73989999999999
 30
0.0
 11
124.473
 21
17.957
 31
0.0
  0
LINE
  5
1BF
330
1E
100
AcDbEntity
  8
0
100
AcDbLine
 10
120.3279999999999
 20
22.1021
 30
0.0
 11
122.111
 21
19.73989999999999
 31
0.0
  0
LINE
  5
1C0
330
1E
100
AcDbEntity
  8
0
100
AcDbLine
 10
120.796
 20
18.425
 30
0.0
 11
123.552
 21
16.345
 31
0.0
  0
LINE
  5
1C1
330
1E
100
AcDbEntity
  8
0
100
AcDbLine
 10
118.716
 20
21.18099999999999
 30
0.0
 11
120.796
 21
18.425
 31
0.0
  0
LINE
  5
1C2
330
1E
100
AcDbEntity
  8
0
100
AcDbLine
 10
118.716
 20
34.077
 30
0.0
 11
120.796
 21
36.833
 31
0.0
  0
LINE
  5
1C3
330
1E
100
AcDbEntity
  8
0
100
AcDbLine
 10
117.4679999999999
 20
30.95699999999999
 30
0.0
 11
118.716
 21
34.077
 31
0.0
  0
LINE
  5
1C4
330
1E
100
AcDbEntity
  8
0
100
AcDbLine
 10
140.742
 20
24.7764
 30
0.0
 11
141.143
 21
27.629
 31
0.0
  0
LINE
  5
1C5
330
1E
100
AcDbEntity
  8
0
100
AcDbLine
 10
120.3279999999999
 20
33.1559
 30
0.0
 11
122.111
 21
35.51809999999999
 31
0.0
  0
LINE
  5
1C6
330
1E
100
AcDbEntity
  8
0
100
AcDbLine
 10
119.2579999999999
 20
30.4816
 30
0.0
 11
120.3279999999999
 21
33.1559
 31
0.0
  0
LINE
  5
1C7
330
1E
100
AcDbEntity
  8
0
100
AcDbLine
 10
139.6719999999999
 20
33.1559
 30
0.0
 11
140.742
 21
30.4816
 31
0.0
  0
LINE
  5
1C8
330
1E
100
AcDbEntity
  8
0
100
AcDbLine
 10
140.742
 20
30.4816
 30
0.0
 11
141.143
 21
27.629
 31
0.0
  0
LINE
  5
1C9
330
1E
100
AcDbEntity
  8
0
100
AcDbLine
 10
135.527
 20
37.301
 30
0.0
 11
137.889
 21
35.51809999999999
 31
0.0
  0
LINE
  5
1CA
330
1E
100
AcDbEntity
  8
0
100
AcDbLine
 10
137.889
 20
35.51809999999999
 30
0.0
 11
139.6719999999999
 21
33.1559
 31
0.0
  0
LINE
  5
1CB
330
1E
100
AcDbEntity
  8
0
100
AcDbLine
 10
139.204
 20
36.833
 30
0.0
 11
141.2839999999999
 21
34.077
 31
0.0
  0
LINE
  5
1CC
330
1E
100
AcDbEntity
  8
0
100
AcDbLine
 10
141.2839999999999
 20
34.077
 30
0.0
 11
142.532
 21
30.95699999999999
 31
0.0
  0
LINE
  5
1CD
330
1E
100
AcDbEntity
  8
0
100
AcDbLine
 10
147.106
 20
37.12899999999999
 30
0.0
 11
148.272
 21
37.12899999999999
 31
0.0
  0
LINE
  5
1CE
330
1E
100
AcDbEntity
  8
0
100
AcDbLine
 10
146.226
 20
37.12899999999999
 30
0.0
 11
147.106
 21
37.12899999999999
 31
0.0
  0
LINE
  5
1CF
330
1E
100
AcDbEntity
  8
0
100
AcDbLine
 10
145.6979999999999
 20
37.12899999999999
 30
0.0
 11
146.226
 21
37.12899999999999
 31
0.0
  0
LINE
  5
1D0
330
1E
100
AcDbEntity
  8
0
100
AcDbLine
 10
145.5
 20
37.12899999999999
 30
0.0
 11
145.6979999999999
 21
37.12899999999999
 31
0.0
  0
LINE
  5
1D1
330
1E
100
AcDbEntity
  8
0
100
AcDbLine
 10
145.5
 20
37.12899999999999
 30
0.0
 11
145.5
 21
38.62899999999999
 31
0.0
  0
LINE
  5
1D2
330
1E
100
AcDbEntity
  8
0
100
AcDbLine
 10
148.272
 20
37.12899999999999
 30
0.0
 11
149.592
 21
37.12899999999999
 31
0.0
  0
LINE
  5
1D3
330
1E
100
AcDbEntity
  8
0
100
AcDbLine
 10
149.592
 20
37.12899999999999
 30
0.0
 11
151.0
 21
37.12899999999999
 31
0.0
  0
LINE
  5
1D4
330
1E
100
AcDbEntity
  8
0
100
AcDbLine
 10
151.0
 20
37.12899999999999
 30
0.0
 11
152.4079999999999
 21
37.12899999999999
 31
0.0
  0
LINE
  5
1D5
330
1E
100
AcDbEntity
  8
0
100
AcDbLine
 10
151.0
 20
37.12899999999999
 30
0.0
 11
151.939
 21
37.12899999999999
 31
0.0
  0
LINE
  5
1D6
330
1E
100
AcDbEntity
  8
0
100
AcDbLine
 10
151.939
 20
37.12899999999999
 30
0.0
 11
152.8189999999999
 21
37.12899999999999
 31
0.0
  0
LINE
  5
1D7
330
1E
100
AcDbEntity
  8
0
100
AcDbLine
 10
152.4079999999999
 20
37.12899999999999
 30
0.0
 11
153.7279999999999
 21
37.12899999999999
 31
0.0
  0
LINE
  5
1D8
330
1E
100
AcDbEntity
  8
0
100
AcDbLine
 10
152.8189999999999
 20
37.12899999999999
 30
0.0
 11
153.596
 21
37.12899999999999
 31
0.0
  0
LINE
  5
1D9
330
1E
100
AcDbEntity
  8
0
100
AcDbLine
 10
153.7279999999999
 20
37.12899999999999
 30
0.0
 11
154.8939999999999
 21
37.12899999999999
 31
0.0
  0
LINE
  5
1DA
330
1E
100
AcDbEntity
  8
0
100
AcDbLine
 10
153.596
 20
37.12899999999999
 30
0.0
 11
154.183
 21
37.12899999999999
 31
0.0
  0
LINE
  5
1DB
330
1E
100
AcDbEntity
  8
0
100
AcDbLine
 10
154.183
 20
37.12899999999999
 30
0.0
 11
154.535
 21
37.12899999999999
 31
0.0
  0
LINE
  5
1DC
330
1E
100
AcDbEntity
  8
0
100
AcDbLine
 10
156.4999999999999
 20
37.12899999999999
 30
0.0
 11
156.4999999999999
 21
38.62899999999999
 31
0.0
  0
LINE
  5
1DD
330
1E
100
AcDbEntity
  8
0
100
AcDbLine
 10
154.8939999999999
 20
37.12899999999999
 30
0.0
 11
155.774
 21
37.12899999999999
 31
0.0
  0
LINE
  5
1DE
330
1E
100
AcDbEntity
  8
0
100
AcDbLine
 10
155.774
 20
37.12899999999999
 30
0.0
 11
156.302
 21
37.12899999999999
 31
0.0
  0
LINE
  5
1DF
330
1E
100
AcDbEntity
  8
0
100
AcDbLine
 10
154.535
 20
37.12899999999999
 30
0.0
 11
154.6669999999999
 21
37.12899999999999
 31
0.0
  0
LINE
  5
1E0
330
1E
100
AcDbEntity
  8
0
100
AcDbLine
 10
156.302
 20
37.12899999999999
 30
0.0
 11
156.4999999999999
 21
37.12899999999999
 31
0.0
  0
LINE
  5
1E1
330
1E
100
AcDbEntity
  8
0
100
AcDbLine
 10
150.0609999999999
 20
37.12899999999999
 30
0.0
 11
151.0
 21
37.12899999999999
 31
0.0
  0
LINE
  5
1E2
330
1E
100
AcDbEntity
  8
0
100
AcDbLine
 10
149.181
 20
37.12899999999999
 30
0.0
 11
150.0609999999999
 21
37.12899999999999
 31
0.0
  0
LINE
  5
1E3
330
1E
100
AcDbEntity
  8
0
100
AcDbLine
 10
148.404
 20
37.12899999999999
 30
0.0
 11
149.181
 21
37.12899999999999
 31
0.0
  0
LINE
  5
1E4
330
1E
100
AcDbEntity
  8
0
100
AcDbLine
 10
147.817
 20
37.12899999999999
 30
0.0
 11
148.404
 21
37.12899999999999
 31
0.0
  0
LINE
  5
1E5
330
1E
100
AcDbEntity
  8
0
100
AcDbLine
 10
147.465
 20
37.12899999999999
 30
0.0
 11
147.817
 21
37.12899999999999
 31
0.0
  0
LINE
  5
1E6
330
1E
100
AcDbEntity
  8
0
100
AcDbLine
 10
147.3329999999999
 20
37.12899999999999
 30
0.0
 11
147.465
 21
37.12899999999999
 31
0.0
  0
LINE
  5
1E7
330
1E
100
AcDbEntity
  8
0
100
AcDbLine
 10
160.0
 20
36.833
 30
0.0
 11
160.0
 21
38.913
 31
0.0
  0
LINE
  5
1E8
330
1E
100
AcDbEntity
  8
0
100
AcDbLine
 10
160.0
 20
36.833
 30
0.0
 11
160.0
 21
34.077
 31
0.0
  0
LINE
  5
1E9
330
1E
100
AcDbEntity
  8
0
100
AcDbLine
 10
160.0
 20
34.077
 30
0.0
 11
160.0
 21
36.833
 31
0.0
  0
LINE
  5
1EA
330
1E
100
AcDbEntity
  8
0
100
AcDbLine
 10
160.0
 20
34.077
 30
0.0
 11
160.0
 21
30.95699999999999
 31
0.0
  0
LINE
  5
1EB
330
1E
100
AcDbEntity
  8
0
100
AcDbLine
 10
160.0
 20
30.95699999999999
 30
0.0
 11
160.0
 21
34.077
 31
0.0
  0
LINE
  5
1EC
330
1E
100
AcDbEntity
  8
0
100
AcDbLine
 10
160.0
 20
30.95699999999999
 30
0.0
 11
160.0
 21
27.629
 31
0.0
  0
LINE
  5
1ED
330
1E
100
AcDbEntity
  8
0
100
AcDbLine
 10
160.0
 20
27.629
 30
0.0
 11
160.0
 21
24.30099999999999
 31
0.0
  0
LINE
  5
1EE
330
1E
100
AcDbEntity
  8
0
100
AcDbLine
 10
160.0
 20
27.629
 30
0.0
 11
160.0
 21
30.95699999999999
 31
0.0
  0
LINE
  5
1EF
330
1E
100
AcDbEntity
  8
0
100
AcDbLine
 10
142.532
 20
30.95699999999999
 30
0.0
 11
143.0
 21
27.629
 31
0.0
  0
LINE
  5
1F1
330
1E
100
AcDbEntity
  8
0
100
AcDbLine
 10
130.0
 20
38.7719
 30
0.0
 11
132.8529999999999
 21
38.3707
 31
0.0
  0
LINE
  5
1F2
330
1E
100
AcDbEntity
  8
0
100
AcDbLine
 10
136.8242999999999
 20
38.62899999999999
 30
0.0
 11
143.0
 21
38.62899999999999
 31
0.0
  0
LINE
  5
1F3
330
1E
100
AcDbEntity
  8
0
100
AcDbLine
 10
145.5
 20
38.62899999999999
 30
0.0
 11
145.5
 21
37.12899999999999
 31
0.0
  0
LINE
  5
1F4
330
1E
100
AcDbEntity
  8
0
100
AcDbLine
 10
151.0
 20
38.62899999999999
 30
0.0
 11
152.7919999999999
 21
38.62899999999999
 31
0.0
  0
LINE
  5
1F5
330
1E
100
AcDbEntity
  8
0
100
AcDbLine
 10
152.7919999999999
 20
38.62899999999999
 30
0.0
 11
154.472
 21
38.62899999999999
 31
0.0
  0
LINE
  5
1F6
330
1E
100
AcDbEntity
  8
0
100
AcDbLine
 10
154.472
 20
38.62899999999999
 30
0.0
 11
155.956
 21
38.62899999999999
 31
0.0
  0
LINE
  5
1F7
330
1E
100
AcDbEntity
  8
0
100
AcDbLine
 10
156.4999999999999
 20
38.62899999999999
 30
0.0
 11
156.4999999999999
 21
37.12899999999999
 31
0.0
  0
LINE
  5
1F8
330
1E
100
AcDbEntity
  8
0
100
AcDbLine
 10
155.956
 20
38.62899999999999
 30
0.0
 11
157.0759999999999
 21
38.62899999999999
 31
0.0
  0
LINE
  5
1F9
330
1E
100
AcDbEntity
  8
0
100
AcDbLine
 10
157.0759999999999
 20
38.62899999999999
 30
0.0
 11
157.7479999999999
 21
38.62899999999999
 31
0.0
  0
LINE
  5
1FA
330
1E
100
AcDbEntity
  8
0
100
AcDbLine
 10
157.7479999999999
 20
38.62899999999999
 30
0.0
 11
158.0
 21
38.62899999999999
 31
0.0
  0
LINE
  5
1FB
330
1E
100
AcDbEntity
  8
0
100
AcDbLine
 10
149.208
 20
38.62899999999999
 30
0.0
 11
151.0
 21
38.62899999999999
 31
0.0
  0
LINE
  5
1FC
330
1E
100
AcDbEntity
  8
0
100
AcDbLine
 10
147.5279999999999
 20
38.62899999999999
 30
0.0
 11
149.208
 21
38.62899999999999
 31
0.0
  0
LINE
  5
1FD
330
1E
100
AcDbEntity
  8
0
100
AcDbLine
 10
146.044
 20
38.62899999999999
 30
0.0
 11
147.5279999999999
 21
38.62899999999999
 31
0.0
  0
LINE
  5
1FE
330
1E
100
AcDbEntity
  8
0
100
AcDbLine
 10
144.924
 20
38.62899999999999
 30
0.0
 11
146.044
 21
38.62899999999999
 31
0.0
  0
LINE
  5
1FF
330
1E
100
AcDbEntity
  8
0
100
AcDbLine
 10
143.0
 20
38.62899999999999
 30
0.0
 11
144.924
 21
38.62899999999999
 31
0.0
  0
LINE
  5
200
330
1E
100
AcDbEntity
  8
0
100
AcDbLine
 10
143.0
 20
38.62899999999999
 30
0.0
 11
143.0
 21
43.62899999999999
 31
0.0
  0
LINE
  5
201
330
1E
100
AcDbEntity
  8
0
100
AcDbLine
 10
158.0
 20
38.62899999999999
 30
0.0
 11
158.0
 21
43.62899999999999
 31
0.0
  0
LINE
  5
202
330
1E
100
AcDbEntity
  8
0
100
AcDbLine
 10
160.0
 20
38.913
 30
0.0
 11
160.0
 21
40.161
 31
0.0
  0
LINE
  5
203
330
1E
100
AcDbEntity
  8
0
100
AcDbLine
 10
160.0
 20
38.913
 30
0.0
 11
160.0
 21
36.833
 31
0.0
  0
LINE
  5
204
330
1E
100
AcDbEntity
  8
0
100
AcDbLine
 10
132.8529999999999
 20
38.3707
 30
0.0
 11
135.527
 21
37.301
 31
0.0
  0
LINE
  5
205
330
1E
100
AcDbEntity
  8
0
100
AcDbLine
 10
136.4479999999999
 20
38.913
 30
0.0
 11
139.204
 21
36.833
 31
0.0
  0
LINE
  5
206
330
1E
100
AcDbEntity
  8
0
100
AcDbLine
 10
127.147
 20
38.3707
 30
0.0
 11
130.0
 21
38.7719
 31
0.0
  0
LINE
  5
207
330
1E
100
AcDbEntity
  8
0
100
AcDbLine
 10
124.473
 20
37.301
 30
0.0
 11
127.147
 21
38.3707
 31
0.0
  0
LINE
  5
208
330
1E
100
AcDbEntity
  8
0
100
AcDbLine
 10
122.111
 20
35.51809999999999
 30
0.0
 11
124.473
 21
37.301
 31
0.0
  0
LINE
  5
209
330
1E
100
AcDbEntity
  8
0
100
AcDbLine
 10
160.0
 20
40.161
 30
0.0
 11
160.0
 21
40.62899999999999
 31
0.0
  0
LINE
  5
20A
330
1E
100
AcDbEntity
  8
0
100
AcDbLine
 10
160.0
 20
40.161
 30
0.0
 11
160.0
 21
38.913
 31
0.0
  0
LINE
  5
20D
330
1E
100
AcDbEntity
  8
0
100
AcDbLine
 10
130.0
 20
43.62899999999999
 30
0.0
 11
143.0
 21
43.62899999999999
 31
0.0
  0
LINE
  5
20E
330
1E
100
AcDbEntity
  8
0
100
AcDbLine
 10
160.0
 20
40.62899999999999
 30
0.0
 11
160.0
 21
40.161
 31
0.0
  0
LINE
  5
20F
330
1E
100
AcDbEntity
  8
0
100
AcDbLine
 10
145.5
 20
43.62899999999999
 30
0.0
 11
145.5
 21
45.129
 31
0.0
  0
LINE
  5
210
330
1E
100
AcDbEntity
  8
0
100
AcDbLine
 10
151.0
 20
43.62899999999999
 30
0.0
 11
152.7919999999999
 21
43.62899999999999
 31
0.0
  0
LINE
  5
211
330
1E
100
AcDbEntity
  8
0
100
AcDbLine
 10
152.7919999999999
 20
43.62899999999999
 30
0.0
 11
154.472
 21
43.62899999999999
 31
0.0
  0
LINE
  5
212
330
1E
100
AcDbEntity
  8
0
100
AcDbLine
 10
154.472
 20
43.62899999999999
 30
0.0
 11
155.956
 21
43.62899999999999
 31
0.0
  0
LINE
  5
213
330
1E
100
AcDbEntity
  8
0
100
AcDbLine
 10
156.4999999999999
 20
43.62899999999999
 30
0.0
 11
156.4999999999999
 21
45.129
 31
0.0
  0
LINE
  5
214
330
1E
100
AcDbEntity
  8
0
100
AcDbLine
 10
155.956
 20
43.62899999999999
 30
0.0
 11
157.0759999999999
 21
43.62899999999999
 31
0.0
  0
LINE
  5
215
330
1E
100
AcDbEntity
  8
0
100
AcDbLine
 10
157.0759999999999
 20
43.62899999999999
 30
0.0
 11
157.7479999999999
 21
43.62899999999999
 31
0.0
  0
LINE
  5
216
330
1E
100
AcDbEntity
  8
0
100
AcDbLine
 10
157.7479999999999
 20
43.62899999999999
 30
0.0
 11
158.0
 21
43.62899999999999
 31
0.0
  0
LINE
  5
217
330
1E
100
AcDbEntity
  8
0
100
AcDbLine
 10
149.208
 20
43.62899999999999
 30
0.0
 11
151.0
 21
43.62899999999999
 31
0.0
  0
LINE
  5
218
330
1E
100
AcDbEntity
  8
0
100
AcDbLine
 10
147.5279999999999
 20
43.62899999999999
 30
0.0
 11
149.208
 21
43.62899999999999
 31
0.0
  0
LINE
  5
219
330
1E
100
AcDbEntity
  8
0
100
AcDbLine
 10
146.044
 20
43.62899999999999
 30
0.0
 11
147.5279999999999
 21
43.62899999999999
 31
0.0
  0
LINE
  5
21A
330
1E
100
AcDbEntity
  8
0
100
AcDbLine
 10
144.924
 20
43.62899999999999
 30
0.0
 11
146.044
 21
43.62899999999999
 31
0.0
  0
LINE
  5
21B
330
1E
100
AcDbEntity
  8
0
100
AcDbLine
 10
151.0
 20
45.129
 30
0.0
 11
152.4079999999999
 21
45.129
 31
0.0
  0
LINE
  5
21C
330
1E
100
AcDbEntity
  8
0
100
AcDbLine
 10
152.4079999999999
 20
45.129
 30
0.0
 11
153.7279999999999
 21
45.129
 31
0.0
  0
LINE
  5
21D
330
1E
100
AcDbEntity
  8
0
100
AcDbLine
 10
153.7279999999999
 20
45.129
 30
0.0
 11
154.8939999999999
 21
45.129
 31
0.0
  0
LINE
  5
21E
330
1E
100
AcDbEntity
  8
0
100
AcDbLine
 10
154.8939999999999
 20
45.129
 30
0.0
 11
155.774
 21
45.129
 31
0.0
  0
LINE
  5
21F
330
1E
100
AcDbEntity
  8
0
100
AcDbLine
 10
155.774
 20
45.129
 30
0.0
 11
156.302
 21
45.129
 31
0.0
  0
LINE
  5
220
330
1E
100
AcDbEntity
  8
0
100
AcDbLine
 10
156.4999999999999
 20
45.129
 30
0.0
 11
156.4999999999999
 21
43.62899999999999
 31
0.0
  0
LINE
  5
221
330
1E
100
AcDbEntity
  8
0
100
AcDbLine
 10
156.302
 20
45.129
 30
0.0
 11
156.4999999999999
 21
45.129
 31
0.0
  0
LINE
  5
222
330
1E
100
AcDbEntity
  8
0
100
AcDbLine
 10
149.592
 20
45.129
 30
0.0
 11
151.0
 21
45.129
 31
0.0
  0
LINE
  5
223
330
1E
100
AcDbEntity
  8
0
100
AcDbLine
 10
148.272
 20
45.129
 30
0.0
 11
149.592
 21
45.129
 31
0.0
  0
LINE
  5
224
330
1E
100
AcDbEntity
  8
0
100
AcDbLine
 10
147.106
 20
45.129
 30
0.0
 11
148.272
 21
45.129
 31
0.0
  0
LINE
  5
225
330
1E
100
AcDbEntity
  8
0
100
AcDbLine
 10
146.226
 20
45.129
 30
0.0
 11
147.106
 21
45.129
 31
0.0
  0
LINE
  5
226
330
1E
100
AcDbEntity
  8
0
100
AcDbLine
 10
145.6979999999999
 20
45.129
 30
0.0
 11
146.226
 21
45.129
 31
0.0
  0
LINE
  5
227
330
1E
100
AcDbEntity
  8
0
100
AcDbLine
 10
145.5
 20
45.129
 30
0.0
 11
145.5
 21
43.62899999999999
 31
0.0
  0
LINE
  5
228
330
1E
100
AcDbEntity
  8
0
100
AcDbLine
 10
145.5
 20
45.129
 30
0.0
 11
145.6979999999999
 21
45.129
 31
0.0
  0
LINE
  5
229
330
1E
100
AcDbEntity
  8
0
100
AcDbLine
 10
143.0
 20
43.62899999999999
 30
0.0
 11
143.0
 21
38.62899999999999
 31
0.0
  0
LINE
  5
22A
330
1E
100
AcDbEntity
  8
0
100
AcDbLine
 10
143.0
 20
43.62899999999999
 30
0.0
 11
144.924
 21
43.62899999999999
 31
0.0
  0
LINE
  5
22B
330
1E
100
AcDbEntity
  8
0
100
AcDbLine
 10
158.0
 20
43.62899999999999
 30
0.0
 11
158.0
 21
38.62899999999999
 31
0.0
  0
LINE
  5
22C
330
1E
100
AcDbEntity
  8
0
100
AcDbLine
 10
158.0
 20
40.62899999999999
 30
0.0
 11
160.0
 21
40.62899999999999
 31
0.0
  0
LINE
  5
22D
330
1E
100
AcDbEntity
  8
0
100
AcDbLine
 10
130.0
 20
40.62899999999999
 30
0.0
 11
133.328
 21
40.161
 31
0.0
  0
LINE
  5
22F
330
1E
100
AcDbEntity
  8
0
100
AcDbLine
 10
133.328
 20
40.161
 30
0.0
 11
136.4479999999999
 21
38.913
 31
0.0
  0
LINE
  5
230
330
1E
100
AcDbEntity
  8
0
100
AcDbLine
 10
126.672
 20
40.161
 30
0.0
 11
130.0
 21
40.62899999999999
 31
0.0
  0
LINE
  5
231
330
1E
100
AcDbEntity
  8
0
100
AcDbLine
 10
123.552
 20
38.913
 30
0.0
 11
126.672
 21
40.161
 31
0.0
  0
LINE
  5
232
330
1E
100
AcDbEntity
  8
0
100
AcDbLine
 10
120.796
 20
36.833
 30
0.0
 11
123.552
 21
38.913
 31
0.0
  0
LINE
  5
233
330
1E
100
AcDbEntity
  8
0
100
AcDbLine
 10
119.2579999999999
 20
24.7764
 30
0.0
 11
120.3279999999999
 21
22.1021
 31
0.0
  0
LINE
  5
234
330
1E
100
AcDbEntity
  8
0
100
AcDbLine
 10
118.857
 20
27.629
 30
0.0
 11
119.2579999999999
 21
24.7764
 31
0.0
  0
LINE
  5
235
330
1E
100
AcDbEntity
  8
0
100
AcDbLine
 10
118.857
 20
27.629
 30
0.0
 11
119.2579999999999
 21
30.4816
 31
0.0
  0
LINE
  5
236
330
1E
100
AcDbEntity
  8
0
100
AcDbLine
 10
117.4679999999999
 20
24.30099999999999
 30
0.0
 11
118.716
 21
21.18099999999999
 31
0.0
  0
LINE
  5
237
330
1E
100
AcDbEntity
  8
0
100
AcDbLine
 10
117.0
 20
27.629
 30
0.0
 11
117.4679999999999
 21
24.30099999999999
 31
0.0
  0
LINE
  5
238
330
1E
100
AcDbEntity
  8
0
100
AcDbLine
 10
117.0
 20
27.629
 30
0.0
 11
117.4679999999999
 21
30.95699999999999
 31
0.0
  0
LINE
  5
23D
330
1E
100
AcDbEntity
  8
0
100
AcDbLine
 10
48.7344615384615
 20
18.629
 30
0.0
 11
8.544758231700869
 21
15.43448556467069
 31
0.0
  0
ENDSEC
  0
SECTION
  2
OBJECTS
  0
DICTIONARY
  5
C
330
0
100
AcDbDictionary
  3
ACAD_GROUP
350
D
  3
ACAD_LAYOUT
350
19
  3
ACAD_MLINESTYLE
350
16
  3
ACAD_PLOTSETTINGS
350
18
  3
ACAD_PLOTSTYLENAME
350
E
  3
ACDBHEADERROUNDTRIPXREC
350
241
  3
ACDBVARIABLEDICTIONARY
350
23E
  0
DICTIONARY
  5
263
330
1E
100
AcDbDictionary
280
     1
  3
ACAD_LAYOUTSELFREF
360
264
  0
DICTIONARY
  5
261
330
1A
100
AcDbDictionary
280
     1
  3
ACAD_LAYOUTSELFREF
360
262
  0
DICTIONARY
  5
D
102
{ACAD_REACTORS
330
C
102
}
330
C
100
AcDbDictionary
  0
DICTIONARY
  5
19
102
{ACAD_REACTORS
330
C
102
}
330
C
100
AcDbDictionary
  0
DICTIONARY
  5
16
102
{ACAD_REACTORS
330
C
102
}
330
C
100
AcDbDictionary
  3
STANDARD
350
17
  0
DICTIONARY
  5
18
102
{ACAD_REACTORS
330
C
102
}
330
C
100
AcDbDictionary
  0
ACDBDICTIONARYWDFLT
  5
E
102
{ACAD_REACTORS
330
C
102
}
330
C
100
AcDbDictionary
281
     1
  3
Normal
350
F
100
AcDbDictionaryWithDefault
340
F
  0
DICTIONARY
  5
241
102
{ACAD_REACTORS
330
C
102
}
330
C
100
AcDbDictionary
  3
CEPSNTYPE
350
24B
  3
FINGERPRINTGUID
350
24C
  3
HYPERLINKBASE
350
244
  3
INSUNITS
350
24A
  3
LAYOUTDICT
350
246
  3
LWETCUNION
350
249
  3
PLOTSETDICT
350
247
  3
PLOTSTYLNAMDICT
350
248
  3
PSVPSCALE
350
24E
  3
PUCSBASE
350
251
  3
PUCSORGBACK
350
257
  3
PUCSORGBOTTOM
350
253
  3
PUCSORGFRONT
350
256
  3
PUCSORGLEFT
350
254
  3
PUCSORGRIGHT
350
255
  3
PUCSORGTOP
350
252
  3
PUCSORTHOREF
350
24F
  3
PUCSORTHOVIEW
350
250
  3
STYLESHEET
350
245
  3
TSTACKALIGN
350
242
  3
TSTACKSIZE
350
243
  3
UCSBASE
350
25A
  3
UCSORGBACK
350
260
  3
UCSORGBOTTOM
350
25C
  3
UCSORGFRONT
350
25F
  3
UCSORGLEFT
350
25D
  3
UCSORGRIGHT
350
25E
  3
UCSORGTOP
350
25B
  3
UCSORTHOREF
350
258
  3
UCSORTHOVIEW
350
259
  3
VERSIONGUID
350
24D
  0
DICTIONARY
  5
23E
102
{ACAD_REACTORS
330
C
102
}
330
C
100
AcDbDictionary
  3
DIMASSOC
350
23F
  0
XRECORD
  5
264
102
{ACAD_REACTORS
330
263
102
}
330
263
100
AcDbXrecord
340
1E
  0
XRECORD
  5
262
102
{ACAD_REACTORS
330
261
102
}
330
261
100
AcDbXrecord
340
1A
  0
MLINESTYLE
  5
17
102
{ACAD_REACTORS
330
16
102
}
330
16
100
AcDbMlineStyle
  2
STANDARD
 70
     0
  3

 62
   256
 51
90.0
 52
90.0
 71
     2
 49
0.5
 62
   256
  6
BYLAYER
 49
-0.5
 62
   256
  6
BYLAYER
  0
ACDBPLACEHOLDER
  5
F
102
{ACAD_REACTORS
330
E
102
}
330
E
100
AcDbPlaceHolder
280
     0
  0
XRECORD
  5
24B
102
{ACAD_REACTORS
330
241
102
}
330
241
100
AcDbXrecord
 90
        0
  0
XRECORD
  5
24C
102
{ACAD_REACTORS
330
241
102
}
330
241
100
AcDbXrecord
  1
{382270B7-9595-4D1F-BDFC-E0E8F06FA440}
  0
XRECORD
  5
244
102
{ACAD_REACTORS
330
241
102
}
330
241
100
AcDbXrecord
  1

  0
XRECORD
  5
24A
102
{ACAD_REACTORS
330
241
102
}
330
241
100
AcDbXrecord
 90
        0
  0
XRECORD
  5
246
102
{ACAD_REACTORS
330
241
102
}
330
241
100
AcDbXrecord
340
19
  0
XRECORD
  5
249
102
{ACAD_REACTORS
330
241
102
}
330
241
100
AcDbXrecord
 90
    10781
  0
XRECORD
  5
247
102
{ACAD_REACTORS
330
241
102
}
330
241
100
AcDbXrecord
340
18
  0
XRECORD
  5
248
102
{ACAD_REACTORS
330
241
102
}
330
241
100
AcDbXrecord
340
E
  0
XRECORD
  5
24E
102
{ACAD_REACTORS
330
241
102
}
330
241
100
AcDbXrecord
 40
0.0
  0
XRECORD
  5
251
102
{ACAD_REACTORS
330
241
102
}
330
241
100
AcDbXrecord
340
0
  0
XRECORD
  5
257
102
{ACAD_REACTORS
330
241
102
}
330
241
100
AcDbXrecord
 10
0.0
 20
0.0
 30
0.0
  0
XRECORD
  5
253
102
{ACAD_REACTORS
330
241
102
}
330
241
100
AcDbXrecord
 10
0.0
 20
0.0
 30
0.0
  0
XRECORD
  5
256
102
{ACAD_REACTORS
330
241
102
}
330
241
100
AcDbXrecord
 10
0.0
 20
0.0
 30
0.0
  0
XRECORD
  5
254
102
{ACAD_REACTORS
330
241
102
}
330
241
100
AcDbXrecord
 10
0.0
 20
0.0
 30
0.0
  0
XRECORD
  5
255
102
{ACAD_REACTORS
330
241
102
}
330
241
100
AcDbXrecord
 10
0.0
 20
0.0
 30
0.0
  0
XRECORD
  5
252
102
{ACAD_REACTORS
330
241
102
}
330
241
100
AcDbXrecord
 10
0.0
 20
0.0
 30
0.0
  0
XRECORD
  5
24F
102
{ACAD_REACTORS
330
241
102
}
330
241
100
AcDbXrecord
340
0
  0
XRECORD
  5
250
102
{ACAD_REACTORS
330
241
102
}
330
241
100
AcDbXrecord
 70
     0
  0
XRECORD
  5
245
102
{ACAD_REACTORS
330
241
102
}
330
241
100
AcDbXrecord
  1

  0
XRECORD
  5
242
102
{ACAD_REACTORS
330
241
102
}
330
241
100
AcDbXrecord
 90
        1
  0
XRECORD
  5
243
102
{ACAD_REACTORS
330
241
102
}
330
241
100
AcDbXrecord
 90
       70
  0
XRECORD
  5
25A
102
{ACAD_REACTORS
330
241
102
}
330
241
100
AcDbXrecord
340
0
  0
XRECORD
  5
260
102
{ACAD_REACTORS
330
241
102
}
330
241
100
AcDbXrecord
 10
0.0
 20
0.0
 30
0.0
  0
XRECORD
  5
25C
102
{ACAD_REACTORS
330
241
102
}
330
241
100
AcDbXrecord
 10
0.0
 20
0.0
 30
0.0
  0
XRECORD
  5
25F
102
{ACAD_REACTORS
330
241
102
}
330
241
100
AcDbXrecord
 10
0.0
 20
0.0
 30
0.0
  0
XRECORD
  5
25D
102
{ACAD_REACTORS
330
241
102
}
330
241
100
AcDbXrecord
 10
0.0
 20
0.0
 30
0.0
  0
XRECORD
  5
25E
102
{ACAD_REACTORS
330
241
102
}
330
241
100
AcDbXrecord
 10
0.0
 20
0.0
 30
0.0
  0
XRECORD
  5
25B
102
{ACAD_REACTORS
330
241
102
}
330
241
100
AcDbXrecord
 10
0.0
 20
0.0
 30
0.0
  0
XRECORD
  5
258
102
{ACAD_REACTORS
330
241
102
}
330
241
100
AcDbXrecord
340
0
  0
XRECORD
  5
259
102
{ACAD_REACTORS
330
241
102
}
330
241
100
AcDbXrecord
 70
     1
  0
XRECORD
  5
24D
102
{ACAD_REACTORS
330
241
102
}
330
241
100
AcDbXrecord
  1
{7838A018-3E9D-45ED-A26A-20EC4134FE80}
  0
DICTIONARYVAR
  5
23F
102
{ACAD_REACTORS
330
23E
102
}
330
23E
100
DictionaryVariables
280
     0
  1
1
  0
ENDSEC
  0
EOF
