  0
SECTION
  2
HEADER
  9
$ACADVER
  1
AC1015
  9
$ACADMAINTVER
 70
    13
  9
$DWGCODEPAGE
  3
ANSI_1252
  9
$INSBASE
 10
0.0
 20
0.0
 30
0.0
  9
$EXTMIN
 10
0.0000000000000012
 20
-0.0000044999999992
 30
0.0
  9
$EXTMAX
 10
38.0
 20
44.00000449999999
 30
0.0
  9
$LIMMIN
 10
0.0
 20
0.0
  9
$LIMMAX
 10
12.0
 20
9.0
  9
$ORTHOMODE
 70
     0
  9
$REGENMODE
 70
     1
  9
$FILLMODE
 70
     1
  9
$QTEXTMODE
 70
     0
  9
$MIRRTEXT
 70
     1
  9
$LTSCALE
 40
1.0
  9
$ATTMODE
 70
     1
  9
$TEXTSIZE
 40
0.2
  9
$TRACEWID
 40
0.05
  9
$TEXTSTYLE
  7
Standard
  9
$CLAYER
  8
0
  9
$CELTYPE
  6
Continuous
  9
$CECOLOR
 62
   256
  9
$CELTSCALE
 40
1.0
  9
$DISPSILH
 70
     0
  9
$DIMSCALE
 40
1.0
  9
$DIMASZ
 40
0.18
  9
$DIMEXO
 40
0.0625
  9
$DIMDLI
 40
0.38
  9
$DIMRND
 40
0.0
  9
$DIMDLE
 40
0.0
  9
$DIMEXE
 40
0.18
  9
$DIMTP
 40
0.0
  9
$DIMTM
 40
0.0
  9
$DIMTXT
 40
0.18
  9
$DIMCEN
 40
0.09
  9
$DIMTSZ
 40
0.0
  9
$DIMTOL
 70
     0
  9
$DIMLIM
 70
     0
  9
$DIMTIH
 70
     1
  9
$DIMTOH
 70
     1
  9
$DIMSE1
 70
     0
  9
$DIMSE2
 70
     0
  9
$DIMTAD
 70
     0
  9
$DIMZIN
 70
     0
  9
$DIMBLK
  1

  9
$DIMASO
 70
     1
  9
$DIMSHO
 70
     1
  9
$DIMPOST
  1

  9
$DIMAPOST
  1

  9
$DIMALT
 70
     0
  9
$DIMALTD
 70
     2
  9
$DIMALTF
 40
25.4
  9
$DIMLFAC
 40
1.0
  9
$DIMTOFL
 70
     0
  9
$DIMTVP
 40
0.0
  9
$DIMTIX
 70
     0
  9
$DIMSOXD
 70
     0
  9
$DIMSAH
 70
     0
  9
$DIMBLK1
  1

  9
$DIMBLK2
  1

  9
$DIMSTYLE
  2
Standard
  9
$DIMCLRD
 70
     0
  9
$DIMCLRE
 70
     0
  9
$DIMCLRT
 70
     0
  9
$DIMTFAC
 40
1.0
  9
$DIMGAP
 40
0.09
  9
$DIMJUST
 70
     0
  9
$DIMSD1
 70
     0
  9
$DIMSD2
 70
     0
  9
$DIMTOLJ
 70
     1
  9
$DIMTZIN
 70
     0
  9
$DIMALTZ
 70
     0
  9
$DIMALTTZ
 70
     0
  9
$DIMUPT
 70
     0
  9
$DIMDEC
 70
     4
  9
$DIMTDEC
 70
     4
  9
$DIMALTU
 70
     2
  9
$DIMALTTD
 70
     2
  9
$DIMTXSTY
  7
Standard
  9
$DIMAUNIT
 70
     0
  9
$DIMADEC
 70
     0
  9
$DIMALTRND
 40
0.0
  9
$DIMAZIN
 70
     0
  9
$DIMDSEP
 70
    46
  9
$DIMATFIT
 70
     3
  9
$DIMFRAC
 70
     0
  9
$DIMLDRBLK
  1

  9
$DIMLUNIT
 70
     2
  9
$DIMLWD
 70
    -2
  9
$DIMLWE
 70
    -2
  9
$DIMTMOVE
 70
     0
  9
$LUNITS
 70
     2
  9
$LUPREC
 70
     4
  9
$SKETCHINC
 40
0.1
  9
$FILLETRAD
 40
0.0
  9
$AUNITS
 70
     0
  9
$AUPREC
 70
     0
  9
$MENU
  1
.
  9
$ELEVATION
 40
0.0
  9
$PELEVATION
 40
0.0
  9
$THICKNESS
 40
0.0
  9
$LIMCHECK
 70
     0
  9
$CHAMFERA
 40
0.0
  9
$CHAMFERB
 40
0.0
  9
$CHAMFERC
 40
0.0
  9
$CHAMFERD
 40
0.0
  9
$SKPOLY
 70
     0
  9
$TDCREATE
 40
2455655.373620324
  9
$TDUCREATE
 40
2455655.290286991
  9
$TDUPDATE
 40
2455655.374191979
  9
$TDUUPDATE
 40
2455655.290858646
  9
$TDINDWG
 40
0.0005718403
  9
$TDUSRTIMER
 40
0.0005718403
  9
$USRTIMER
 70
     1
  9
$ANGBASE
 50
0.0
  9
$ANGDIR
 70
     0
  9
$PDMODE
 70
     0
  9
$PDSIZE
 40
0.0
  9
$PLINEWID
 40
0.0
  9
$SPLFRAME
 70
     0
  9
$SPLINETYPE
 70
     6
  9
$SPLINESEGS
 70
     8
  9
$HANDSEED
  5
1B0
  9
$SURFTAB1
 70
     6
  9
$SURFTAB2
 70
     6
  9
$SURFTYPE
 70
     6
  9
$SURFU
 70
     6
  9
$SURFV
 70
     6
  9
$UCSBASE
  2

  9
$UCSNAME
  2

  9
$UCSORG
 10
0.0
 20
0.0
 30
0.0
  9
$UCSXDIR
 10
1.0
 20
0.0
 30
0.0
  9
$UCSYDIR
 10
0.0
 20
1.0
 30
0.0
  9
$UCSORTHOREF
  2

  9
$UCSORTHOVIEW
 70
     1
  9
$UCSORGTOP
 10
0.0
 20
0.0
 30
0.0
  9
$UCSORGBOTTOM
 10
0.0
 20
0.0
 30
0.0
  9
$UCSORGLEFT
 10
0.0
 20
0.0
 30
0.0
  9
$UCSORGRIGHT
 10
0.0
 20
0.0
 30
0.0
  9
$UCSORGFRONT
 10
0.0
 20
0.0
 30
0.0
  9
$UCSORGBACK
 10
0.0
 20
0.0
 30
0.0
  9
$PUCSBASE
  2

  9
$PUCSNAME
  2

  9
$PUCSORG
 10
0.0
 20
0.0
 30
0.0
  9
$PUCSXDIR
 10
1.0
 20
0.0
 30
0.0
  9
$PUCSYDIR
 10
0.0
 20
1.0
 30
0.0
  9
$PUCSORTHOREF
  2

  9
$PUCSORTHOVIEW
 70
     0
  9
$PUCSORGTOP
 10
0.0
 20
0.0
 30
0.0
  9
$PUCSORGBOTTOM
 10
0.0
 20
0.0
 30
0.0
  9
$PUCSORGLEFT
 10
0.0
 20
0.0
 30
0.0
  9
$PUCSORGRIGHT
 10
0.0
 20
0.0
 30
0.0
  9
$PUCSORGFRONT
 10
0.0
 20
0.0
 30
0.0
  9
$PUCSORGBACK
 10
0.0
 20
0.0
 30
0.0
  9
$USERI1
 70
     0
  9
$USERI2
 70
     0
  9
$USERI3
 70
     0
  9
$USERI4
 70
     0
  9
$USERI5
 70
     0
  9
$USERR1
 40
0.0
  9
$USERR2
 40
0.0
  9
$USERR3
 40
0.0
  9
$USERR4
 40
0.0
  9
$USERR5
 40
0.0
  9
$WORLDVIEW
 70
     1
  9
$SHADEDGE
 70
     3
  9
$SHADEDIF
 70
    70
  9
$TILEMODE
 70
     1
  9
$MAXACTVP
 70
    64
  9
$PINSBASE
 10
0.0
 20
0.0
 30
0.0
  9
$PLIMCHECK
 70
     0
  9
$PEXTMIN
 10
1.000000000000000E+20
 20
1.000000000000000E+20
 30
1.000000000000000E+20
  9
$PEXTMAX
 10
-1.000000000000000E+20
 20
-1.000000000000000E+20
 30
-1.000000000000000E+20
  9
$PLIMMIN
 10
0.0
 20
0.0
  9
$PLIMMAX
 10
12.0
 20
9.0
  9
$UNITMODE
 70
     0
  9
$VISRETAIN
 70
     1
  9
$PLINEGEN
 70
     0
  9
$PSLTSCALE
 70
     1
  9
$TREEDEPTH
 70
  3020
  9
$CMLSTYLE
  2
Standard
  9
$CMLJUST
 70
     0
  9
$CMLSCALE
 40
1.0
  9
$PROXYGRAPHICS
 70
     1
  9
$MEASUREMENT
 70
     0
  9
$CELWEIGHT
370
    -1
  9
$ENDCAPS
280
     0
  9
$JOINSTYLE
280
     0
  9
$LWDISPLAY
290
     0
  9
$INSUNITS
 70
     0
  9
$HYPERLINKBASE
  1

  9
$STYLESHEET
  1

  9
$XEDIT
290
     1
  9
$CEPSNTYPE
380
     0
  9
$PSTYLEMODE
290
     1
  9
$FINGERPRINTGUID
  2
{7593D80C-84CB-4A9F-BD26-D7DB32935D25}
  9
$VERSIONGUID
  2
{689B52EF-29B3-41E7-9003-4D4CC86AC15F}
  9
$EXTNAMES
290
     1
  9
$PSVPSCALE
 40
0.0
  9
$OLESTARTUP
290
     0
  0
ENDSEC
  0
SECTION
  2
CLASSES
  0
CLASS
  1
ACDBDICTIONARYWDFLT
  2
AcDbDictionaryWithDefault
  3
AutoCAD 2000
 90
        0
280
     0
281
     0
  0
CLASS
  1
ACDBPLACEHOLDER
  2
AcDbPlaceHolder
  3
AutoCAD 2000
 90
        0
280
     0
281
     0
  0
CLASS
  1
LAYOUT
  2
AcDbLayout
  3
AutoCAD 2000
 90
        0
280
     0
281
     0
  0
CLASS
  1
DICTIONARYVAR
  2
AcDbDictionaryVar
  3
AutoCAD 2000
 90
        0
280
     0
281
     0
  0
ENDSEC
  0
SECTION
  2
TABLES
  0
TABLE
  2
VPORT
  5
8
330
0
100
AcDbSymbolTable
 70
     3
  0
VPORT
  5
1AF
330
8
100
AcDbSymbolTableRecord
100
AcDbViewportTableRecord
  2
*Active
 70
     0
 10
0.0
 20
0.0
 11
1.0
 21
1.0
 12
19.0
 22
21.99999999999999
 13
0.0
 23
0.0
 14
1.0
 24
1.0
 15
0.0
 25
0.0
 16
0.0
 26
0.0
 36
1.0
 17
0.0
 27
0.0
 37
0.0
 40
44.29764152987597
 41
2.073363431151241
 42
50.0
 43
0.0
 44
0.0
 50
0.0
 51
0.0
 71
     0
 72
   100
 73
     1
 74
     3
 75
     0
 76
     0
 77
     0
 78
     0
281
     0
 65
     1
110
0.0
120
0.0
130
0.0
111
1.0
121
0.0
131
0.0
112
0.0
122
1.0
132
0.0
 79
     1
146
0.0
  0
ENDTAB
  0
TABLE
  2
LTYPE
  5
5
330
0
100
AcDbSymbolTable
 70
     1
  0
LTYPE
  5
13
330
5
100
AcDbSymbolTableRecord
100
AcDbLinetypeTableRecord
  2
ByBlock
 70
     0
  3

 72
    65
 73
     0
 40
0.0
  0
LTYPE
  5
14
330
5
100
AcDbSymbolTableRecord
100
AcDbLinetypeTableRecord
  2
ByLayer
 70
     0
  3

 72
    65
 73
     0
 40
0.0
  0
LTYPE
  5
15
330
5
100
AcDbSymbolTableRecord
100
AcDbLinetypeTableRecord
  2
Continuous
 70
     0
  3
Solid line
 72
    65
 73
     0
 40
0.0
  0
ENDTAB
  0
TABLE
  2
LAYER
  5
2
330
0
100
AcDbSymbolTable
 70
     1
  0
LAYER
  5
10
330
2
100
AcDbSymbolTableRecord
100
AcDbLayerTableRecord
  2
0
 70
     0
 62
     7
  6
Continuous
370
    -3
390
F
  0
ENDTAB
  0
TABLE
  2
STYLE
  5
3
330
0
100
AcDbSymbolTable
 70
     1
  0
STYLE
  5
11
330
3
100
AcDbSymbolTableRecord
100
AcDbTextStyleTableRecord
  2
Standard
 70
     0
 40
0.0
 41
1.0
 50
0.0
 71
     0
 42
0.2
  3
txt
  4

  0
ENDTAB
  0
TABLE
  2
VIEW
  5
6
330
0
100
AcDbSymbolTable
 70
     0
  0
ENDTAB
  0
TABLE
  2
UCS
  5
7
330
0
100
AcDbSymbolTable
 70
     0
  0
ENDTAB
  0
TABLE
  2
APPID
  5
9
330
0
100
AcDbSymbolTable
 70
     1
  0
APPID
  5
12
330
9
100
AcDbSymbolTableRecord
100
AcDbRegAppTableRecord
  2
ACAD
 70
     0
  0
ENDTAB
  0
TABLE
  2
DIMSTYLE
  5
A
330
0
100
AcDbSymbolTable
 70
     1
100
AcDbDimStyleTable
 71
     0
  0
DIMSTYLE
105
1A8
330
A
100
AcDbSymbolTableRecord
100
AcDbDimStyleTableRecord
  2
Standard
 70
     0
340
11
  0
ENDTAB
  0
TABLE
  2
BLOCK_RECORD
  5
1
330
0
100
AcDbSymbolTable
 70
     0
  0
BLOCK_RECORD
  5
1E
330
1
100
AcDbSymbolTableRecord
100
AcDbBlockTableRecord
  2
*Model_Space
340
21
  0
BLOCK_RECORD
  5
1A
330
1
100
AcDbSymbolTableRecord
100
AcDbBlockTableRecord
  2
*Paper_Space
340
1D
  0
ENDTAB
  0
ENDSEC
  0
SECTION
  2
BLOCKS
  0
BLOCK
  5
1F
330
1E
100
AcDbEntity
  8
0
100
AcDbBlockBegin
  2
*Model_Space
 70
     0
 10
0.0
 20
0.0
 30
0.0
  3
*Model_Space
  1

  0
ENDBLK
  5
20
330
1E
100
AcDbEntity
  8
0
100
AcDbBlockEnd
  0
BLOCK
  5
1B
330
1A
100
AcDbEntity
 67
     1
  8
0
100
AcDbBlockBegin
  2
*Paper_Space
 70
     0
 10
0.0
 20
0.0
 30
0.0
  3
*Paper_Space
  1

  0
ENDBLK
  5
1C
330
1A
100
AcDbEntity
 67
     1
  8
0
100
AcDbBlockEnd
  0
ENDSEC
  0
SECTION
  2
ENTITIES
  0
LINE
  5
22
330
1E
100
AcDbEntity
  8
0
100
AcDbLine
 10
8.998986863364839
 20
0.994763126656991
 30
0.0
 11
9.935299999999999
 21
0.9944945000000029
 31
0.0
  0
LINE
  5
23
330
1E
100
AcDbEntity
  8
0
100
AcDbLine
 10
8.999
 20
0.993824500000003
 30
0.0
 11
9.935299999999999
 21
0.9944945000000029
 31
0.0
  0
LINE
  5
24
330
1E
100
AcDbEntity
  8
0
100
AcDbLine
 10
0.0000000000000012
 20
2.693364499999999
 30
0.0
 11
0.0000000000000012
 21
2.194204499999999
 31
0.0
  0
LINE
  5
25
330
1E
100
AcDbEntity
  8
0
100
AcDbLine
 10
0.0000000000000012
 20
2.693364499999999
 30
0.0
 11
0.0000000000000013
 21
3.387584499999999
 31
0.0
  0
LINE
  5
26
330
1E
100
AcDbEntity
  8
0
100
AcDbLine
 10
0.0000000000000012
 20
2.194204499999999
 30
0.0
 11
0.0000000000000012
 21
2.994454499999999
 31
0.0
  0
LINE
  5
27
330
1E
100
AcDbEntity
  8
0
100
AcDbLine
 10
0.0000000000000012
 20
2.194204499999999
 30
0.0
 11
0.0000000000000012
 21
2.693364499999999
 31
0.0
  0
LINE
  5
28
330
1E
100
AcDbEntity
  8
0
100
AcDbLine
 10
0.0000000000000012
 20
2.194204499999999
 30
0.0
 11
0.800000000000001
 21
1.377944499999999
 31
0.0
  0
LINE
  5
29
330
1E
100
AcDbEntity
  8
0
100
AcDbLine
 10
0.0000000000000012
 20
2.994454499999999
 30
0.0
 11
0.0000000000000013
 21
3.387584499999999
 31
0.0
  0
LINE
  5
2A
330
1E
100
AcDbEntity
  8
0
100
AcDbLine
 10
0.800000000000001
 20
2.629344499999999
 30
0.0
 11
0.800000000000001
 21
1.898104499999999
 31
0.0
  0
LINE
  5
2B
330
1E
100
AcDbEntity
  8
0
100
AcDbLine
 10
0.800000000000001
 20
2.629344499999999
 30
0.0
 11
0.800000000000001
 21
3.564634499999999
 31
0.0
  0
LINE
  5
2C
330
1E
100
AcDbEntity
  8
0
100
AcDbLine
 10
0.800000000000001
 20
1.377944499999999
 30
0.0
 11
5.0
 21
1.377944499999999
 31
0.0
  0
LINE
  5
2D
330
1E
100
AcDbEntity
  8
0
100
AcDbLine
 10
0.800000000000001
 20
1.377944499999999
 30
0.0
 11
0.800000000000001
 21
1.898104499999999
 31
0.0
  0
LINE
  5
2E
330
1E
100
AcDbEntity
  8
0
100
AcDbLine
 10
0.800000000000001
 20
1.377944499999999
 30
0.0
 11
5.0
 21
1.377944499999999
 31
0.0
  0
LINE
  5
2F
330
1E
100
AcDbEntity
  8
0
100
AcDbLine
 10
0.800000000000001
 20
1.898104499999999
 30
0.0
 11
0.800000000000001
 21
1.377944499999999
 31
0.0
  0
LINE
  5
30
330
1E
100
AcDbEntity
  8
0
100
AcDbLine
 10
0.800000000000001
 20
1.898104499999999
 30
0.0
 11
0.800000000000001
 21
2.629344499999999
 31
0.0
  0
LINE
  5
31
330
1E
100
AcDbEntity
  8
0
100
AcDbLine
 10
0.800000000000001
 20
3.564634499999999
 30
0.0
 11
0.800000000000001
 21
4.6349745
 31
0.0
  0
LINE
  5
32
330
1E
100
AcDbEntity
  8
0
100
AcDbLine
 10
0.800000000000001
 20
3.564634499999999
 30
0.0
 11
0.800000000000001
 21
2.629344499999999
 31
0.0
  0
LINE
  5
33
330
1E
100
AcDbEntity
  8
0
100
AcDbLine
 10
0.0000000000000013
 20
3.387584499999999
 30
0.0
 11
0.0000000000000013
 21
4.266864499999999
 31
0.0
  0
LINE
  5
34
330
1E
100
AcDbEntity
  8
0
100
AcDbLine
 10
0.0000000000000013
 20
5.0050945
 30
0.0
 11
0.0000000000000013
 21
5.188154499999999
 31
0.0
  0
LINE
  5
35
330
1E
100
AcDbEntity
  8
0
100
AcDbLine
 10
0.0000000000000013
 20
5.188154499999999
 30
0.0
 11
0.0000000000000013
 21
5.0050945
 31
0.0
  0
LINE
  5
36
330
1E
100
AcDbEntity
  8
0
100
AcDbLine
 10
0.0000000000000015
 20
6.463554499999999
 30
0.0
 11
0.0000000000000015
 21
7.076754499999999
 31
0.0
  0
LINE
  5
37
330
1E
100
AcDbEntity
  8
0
100
AcDbLine
 10
0.0000000000000015
 20
6.463554499999999
 30
0.0
 11
0.0000000000000016
 21
7.784974499999999
 31
0.0
  0
LINE
  5
38
330
1E
100
AcDbEntity
  8
0
100
AcDbLine
 10
0.800000000000001
 20
5.8703745
 30
0.0
 11
0.800000000000001
 21
7.2608145
 31
0.0
  0
LINE
  5
39
330
1E
100
AcDbEntity
  8
0
100
AcDbLine
 10
0.800000000000001
 20
4.6349745
 30
0.0
 11
0.800000000000001
 21
5.8703745
 31
0.0
  0
LINE
  5
3A
330
1E
100
AcDbEntity
  8
0
100
AcDbLine
 10
0.0000000000000016
 20
7.784974499999999
 30
0.0
 11
0.0000000000000016
 21
9.239444500000001
 31
0.0
  0
LINE
  5
3B
330
1E
100
AcDbEntity
  8
0
100
AcDbLine
 10
0.800000000000001
 20
7.2608145
 30
0.0
 11
0.8000000000000021
 21
8.790294499999999
 31
0.0
  0
LINE
  5
3C
330
1E
100
AcDbEntity
  8
0
100
AcDbLine
 10
0.800000000000001
 20
7.2608145
 30
0.0
 11
0.800000000000001
 21
5.8703745
 31
0.0
  0
LINE
  5
3D
330
1E
100
AcDbEntity
  8
0
100
AcDbLine
 10
0.0000000000000015
 20
7.076754499999999
 30
0.0
 11
0.0000000000000015
 21
6.463554499999999
 31
0.0
  0
LINE
  5
3E
330
1E
100
AcDbEntity
  8
0
100
AcDbLine
 10
0.0000000000000015
 20
7.076754499999999
 30
0.0
 11
0.0000000000000016
 21
8.1240845
 31
0.0
  0
LINE
  5
3F
330
1E
100
AcDbEntity
  8
0
100
AcDbLine
 10
0.0000000000000016
 20
9.239444500000001
 30
0.0
 11
0.0000000000000016
 21
8.1240845
 31
0.0
  0
LINE
  5
40
330
1E
100
AcDbEntity
  8
0
100
AcDbLine
 10
0.0000000000000016
 20
9.239444500000001
 30
0.0
 11
0.0000000000000016
 21
7.784974499999999
 31
0.0
  0
LINE
  5
41
330
1E
100
AcDbEntity
  8
0
100
AcDbLine
 10
0.0000000000000016
 20
9.239444500000001
 30
0.0
 11
0.0000000000000017
 21
10.81490449999999
 31
0.0
  0
LINE
  5
42
330
1E
100
AcDbEntity
  8
0
100
AcDbLine
 10
0.0000000000000017
 20
10.7649045
 30
0.0
 11
0.0000000000000017
 21
10.81490449999999
 31
0.0
  0
LINE
  5
43
330
1E
100
AcDbEntity
  8
0
100
AcDbLine
 10
0.0000000000000017
 20
10.7649045
 30
0.0
 11
0.0000000000000017
 21
10.81490449999999
 31
0.0
  0
LINE
  5
44
330
1E
100
AcDbEntity
  8
0
100
AcDbLine
 10
0.0000000000000016
 20
9.358474499999999
 30
0.0
 11
0.0000000000000017
 21
10.7649045
 31
0.0
  0
LINE
  5
45
330
1E
100
AcDbEntity
  8
0
100
AcDbLine
 10
0.0000000000000016
 20
9.358474499999999
 30
0.0
 11
0.0000000000000016
 21
8.1240845
 31
0.0
  0
LINE
  5
46
330
1E
100
AcDbEntity
  8
0
100
AcDbLine
 10
0.0000000000000017
 20
10.7649045
 30
0.0
 11
0.0000000000000017
 21
10.81490449999999
 31
0.0
  0
LINE
  5
47
330
1E
100
AcDbEntity
  8
0
100
AcDbLine
 10
0.000000000000002
 20
16.1026045
 30
0.0
 11
0.0000000000000021
 21
17.9992045
 31
0.0
  0
LINE
  5
48
330
1E
100
AcDbEntity
  8
0
100
AcDbLine
 10
0.000000000000002
 20
16.1026045
 30
0.0
 11
0.000000000000002
 21
14.2620045
 31
0.0
  0
LINE
  5
49
330
1E
100
AcDbEntity
  8
0
100
AcDbLine
 10
0.000000000000002
 20
14.2620045
 30
0.0
 11
0.000000000000002
 21
16.1026045
 31
0.0
  0
LINE
  5
4A
330
1E
100
AcDbEntity
  8
0
100
AcDbLine
 10
0.000000000000002
 20
14.2620045
 30
0.0
 11
0.000000000000002
 21
15.8085045
 31
0.0
  0
LINE
  5
4B
330
1E
100
AcDbEntity
  8
0
100
AcDbLine
 10
0.0000000000000018
 20
12.4935045
 30
0.0
 11
0.000000000000002
 21
14.2620045
 31
0.0
  0
LINE
  5
4C
330
1E
100
AcDbEntity
  8
0
100
AcDbLine
 10
0.0000000000000018
 20
12.32240449999999
 30
0.0
 11
0.0000000000000019
 21
12.4935045
 31
0.0
  0
LINE
  5
4D
330
1E
100
AcDbEntity
  8
0
100
AcDbLine
 10
0.8000000000000021
 20
8.790294499999999
 30
0.0
 11
0.8000000000000021
 21
10.44580449999999
 31
0.0
  0
LINE
  5
4E
330
1E
100
AcDbEntity
  8
0
100
AcDbLine
 10
0.8000000000000021
 20
12.2124045
 30
0.0
 11
0.8000000000000021
 21
10.44580449999999
 31
0.0
  0
LINE
  5
4F
330
1E
100
AcDbEntity
  8
0
100
AcDbLine
 10
0.8000000000000021
 20
12.2124045
 30
0.0
 11
0.8000000000000021
 21
14.0720045
 31
0.0
  0
LINE
  5
50
330
1E
100
AcDbEntity
  8
0
100
AcDbLine
 10
0.8000000000000021
 20
10.44580449999999
 30
0.0
 11
0.8000000000000021
 21
12.2124045
 31
0.0
  0
LINE
  5
51
330
1E
100
AcDbEntity
  8
0
100
AcDbLine
 10
0.8000000000000021
 20
16.0066045
 30
0.0
 11
0.8000000000000021
 21
17.9992045
 31
0.0
  0
LINE
  5
52
330
1E
100
AcDbEntity
  8
0
100
AcDbLine
 10
0.8000000000000021
 20
14.0720045
 30
0.0
 11
0.8000000000000021
 21
16.0066045
 31
0.0
  0
LINE
  5
53
330
1E
100
AcDbEntity
  8
0
100
AcDbLine
 10
0.000000000000002
 20
15.8085045
 30
0.0
 11
0.000000000000002
 21
16.1026045
 31
0.0
  0
LINE
  5
54
330
1E
100
AcDbEntity
  8
0
100
AcDbLine
 10
0.000000000000002
 20
15.8085045
 30
0.0
 11
0.000000000000002
 21
14.2620045
 31
0.0
  0
LINE
  5
55
330
1E
100
AcDbEntity
  8
0
100
AcDbLine
 10
0.8000000000000021
 20
17.9992045
 30
0.0
 11
5.0
 21
17.9992045
 31
0.0
  0
LINE
  5
56
330
1E
100
AcDbEntity
  8
0
100
AcDbLine
 10
0.8000000000000021
 20
17.9992045
 30
0.0
 11
5.0
 21
17.9992045
 31
0.0
  0
LINE
  5
57
330
1E
100
AcDbEntity
  8
0
100
AcDbLine
 10
0.0000000000000021
 20
17.6891045
 30
0.0
 11
0.0000000000000021
 21
17.9992045
 31
0.0
  0
LINE
  5
58
330
1E
100
AcDbEntity
  8
0
100
AcDbLine
 10
0.0000000000000017
 20
10.81490449999999
 30
0.0
 11
0.0000000000000018
 21
12.4935045
 31
0.0
  0
LINE
  5
59
330
1E
100
AcDbEntity
  8
0
100
AcDbLine
 10
0.0000000000000016
 20
8.1240845
 30
0.0
 11
0.0000000000000016
 21
9.239444500000001
 31
0.0
  0
LINE
  5
5A
330
1E
100
AcDbEntity
  8
0
100
AcDbLine
 10
0.0000000000000016
 20
8.1240845
 30
0.0
 11
0.0000000000000016
 21
9.358474499999999
 31
0.0
  0
LINE
  5
5B
330
1E
100
AcDbEntity
  8
0
100
AcDbLine
 10
0.0000000000000013
 20
5.2871845
 30
0.0
 11
0.0000000000000015
 21
6.463554499999999
 31
0.0
  0
LINE
  5
5C
330
1E
100
AcDbEntity
  8
0
100
AcDbLine
 10
0.0000000000000013
 20
5.2871845
 30
0.0
 11
0.0000000000000013
 21
4.266864499999999
 31
0.0
  0
LINE
  5
5D
330
1E
100
AcDbEntity
  8
0
100
AcDbLine
 10
0.0000000000000013
 20
4.266864499999999
 30
0.0
 11
0.0000000000000013
 21
5.2871845
 31
0.0
  0
LINE
  5
5E
330
1E
100
AcDbEntity
  8
0
100
AcDbLine
 10
0.0000000000000013
 20
4.266864499999999
 30
0.0
 11
0.0000000000000013
 21
3.387584499999999
 31
0.0
  0
LINE
  5
5F
330
1E
100
AcDbEntity
  8
0
100
AcDbLine
 10
0.0000000000000012
 20
2.994454499999999
 30
0.0
 11
0.0000000000000012
 21
2.194204499999999
 31
0.0
  0
LINE
  5
60
330
1E
100
AcDbEntity
  8
0
100
AcDbLine
 10
0.0000000000000024
 20
22.0000045
 30
0.0
 11
0.0000000000000024
 21
22.4006045
 31
0.0
  0
LINE
  5
61
330
1E
100
AcDbEntity
  8
0
100
AcDbLine
 10
0.0000000000000024
 20
22.0000045
 30
0.0
 11
0.0000000000000026
 21
26.0008045
 31
0.0
  0
LINE
  5
62
330
1E
100
AcDbEntity
  8
0
100
AcDbLine
 10
0.0000000000000024
 20
22.4006045
 30
0.0
 11
0.0000000000000025
 21
24.3723045
 31
0.0
  0
LINE
  5
63
330
1E
100
AcDbEntity
  8
0
100
AcDbLine
 10
0.0000000000000024
 20
22.4006045
 30
0.0
 11
0.0000000000000024
 21
22.0000045
 31
0.0
  0
LINE
  5
64
330
1E
100
AcDbEntity
  8
0
100
AcDbLine
 10
0.0000000000000026
 20
26.0008045
 30
0.0
 11
0.0000000000000026
 21
26.3109045
 31
0.0
  0
LINE
  5
65
330
1E
100
AcDbEntity
  8
0
100
AcDbLine
 10
0.0000000000000026
 20
26.0008045
 30
0.0
 11
0.8000000000000028
 21
26.0008045
 31
0.0
  0
LINE
  5
66
330
1E
100
AcDbEntity
  8
0
100
AcDbLine
 10
0.0000000000000026
 20
26.0008045
 30
0.0
 11
0.0000000000000028
 21
27.8974045
 31
0.0
  0
LINE
  5
67
330
1E
100
AcDbEntity
  8
0
100
AcDbLine
 10
0.0000000000000026
 20
26.0008045
 30
0.0
 11
5.0
 21
26.0008045
 31
0.0
  0
LINE
  5
68
330
1E
100
AcDbEntity
  8
0
100
AcDbLine
 10
0.0000000000000021
 20
26.0008045
 30
0.0
 11
5.0
 21
26.0008045
 31
0.0
  0
LINE
  5
69
330
1E
100
AcDbEntity
  8
0
100
AcDbLine
 10
0.0000000000000025
 20
24.3723045
 30
0.0
 11
0.0000000000000026
 21
26.3109045
 31
0.0
  0
LINE
  5
6A
330
1E
100
AcDbEntity
  8
0
100
AcDbLine
 10
0.0000000000000028
 20
27.8974045
 30
0.0
 11
0.0000000000000029
 21
29.7380045
 31
0.0
  0
LINE
  5
6B
330
1E
100
AcDbEntity
  8
0
100
AcDbLine
 10
0.0000000000000029
 20
29.7380045
 30
0.0
 11
0.000000000000003
 21
31.5065045
 31
0.0
  0
LINE
  5
6C
330
1E
100
AcDbEntity
  8
0
100
AcDbLine
 10
0.0000000000000028
 20
28.1915045
 30
0.0
 11
0.0000000000000029
 21
29.9880045
 31
0.0
  0
LINE
  5
6D
330
1E
100
AcDbEntity
  8
0
100
AcDbLine
 10
0.0000000000000026
 20
26.3109045
 30
0.0
 11
0.0000000000000028
 21
28.1915045
 31
0.0
  0
LINE
  5
6E
330
1E
100
AcDbEntity
  8
0
100
AcDbLine
 10
0.0000000000000026
 20
26.3109045
 30
0.0
 11
0.0000000000000026
 21
26.0008045
 31
0.0
  0
LINE
  5
6F
330
1E
100
AcDbEntity
  8
0
100
AcDbLine
 10
0.000000000000003
 20
31.5065045
 30
0.0
 11
0.000000000000003
 21
33.1851045
 31
0.0
  0
LINE
  5
70
330
1E
100
AcDbEntity
  8
0
100
AcDbLine
 10
0.000000000000003
 20
33.2351045
 30
0.0
 11
0.000000000000003
 21
31.67760449999999
 31
0.0
  0
LINE
  5
71
330
1E
100
AcDbEntity
  8
0
100
AcDbLine
 10
0.000000000000003
 20
33.1851045
 30
0.0
 11
0.000000000000003
 21
31.67760449999999
 31
0.0
  0
LINE
  5
72
330
1E
100
AcDbEntity
  8
0
100
AcDbLine
 10
0.000000000000003
 20
33.1851045
 30
0.0
 11
0.0000000000000032
 21
34.7606045
 31
0.0
  0
LINE
  5
73
330
1E
100
AcDbEntity
  8
0
100
AcDbLine
 10
0.000000000000003
 20
33.1851045
 30
0.0
 11
0.000000000000003
 21
31.5065045
 31
0.0
  0
LINE
  5
74
330
1E
100
AcDbEntity
  8
0
100
AcDbLine
 10
0.0000000000000029
 20
29.9880045
 30
0.0
 11
0.000000000000003
 21
31.67760449999999
 31
0.0
  0
LINE
  5
75
330
1E
100
AcDbEntity
  8
0
100
AcDbLine
 10
0.8000000000000021
 20
26.0008045
 30
0.0
 11
5.0
 21
26.0008045
 31
0.0
  0
LINE
  5
76
330
1E
100
AcDbEntity
  8
0
100
AcDbLine
 10
0.8000000000000028
 20
26.0008045
 30
0.0
 11
0.8000000000000028
 21
27.99340449999999
 31
0.0
  0
LINE
  5
77
330
1E
100
AcDbEntity
  8
0
100
AcDbLine
 10
0.8000000000000028
 20
26.0008045
 30
0.0
 11
5.0
 21
26.0008045
 31
0.0
  0
LINE
  5
78
330
1E
100
AcDbEntity
  8
0
100
AcDbLine
 10
0.8000000000000028
 20
29.9280045
 30
0.0
 11
0.8000000000000028
 21
31.78760449999999
 31
0.0
  0
LINE
  5
79
330
1E
100
AcDbEntity
  8
0
100
AcDbLine
 10
0.8000000000000028
 20
31.78760449999999
 30
0.0
 11
0.8000000000000028
 21
33.55420449999999
 31
0.0
  0
LINE
  5
7A
330
1E
100
AcDbEntity
  8
0
100
AcDbLine
 10
0.8000000000000028
 20
27.99340449999999
 30
0.0
 11
0.8000000000000028
 21
29.9280045
 31
0.0
  0
LINE
  5
7B
330
1E
100
AcDbEntity
  8
0
100
AcDbLine
 10
0.0000000000000033
 20
36.92320449999999
 30
0.0
 11
0.0000000000000033
 21
36.2150045
 31
0.0
  0
LINE
  5
7C
330
1E
100
AcDbEntity
  8
0
100
AcDbLine
 10
0.0000000000000033
 20
36.2150045
 30
0.0
 11
0.0000000000000033
 21
36.92320449999999
 31
0.0
  0
LINE
  5
7D
330
1E
100
AcDbEntity
  8
0
100
AcDbLine
 10
0.0000000000000033
 20
36.2150045
 30
0.0
 11
0.0000000000000033
 21
37.53640449999999
 31
0.0
  0
LINE
  5
7E
330
1E
100
AcDbEntity
  8
0
100
AcDbLine
 10
0.0000000000000032
 20
34.7606045
 30
0.0
 11
0.0000000000000033
 21
36.2150045
 31
0.0
  0
LINE
  5
7F
330
1E
100
AcDbEntity
  8
0
100
AcDbLine
 10
0.0000000000000034
 20
38.8119045
 30
0.0
 11
0.0000000000000034
 21
38.7128045
 31
0.0
  0
LINE
  5
80
330
1E
100
AcDbEntity
  8
0
100
AcDbLine
 10
0.0000000000000034
 20
38.8119045
 30
0.0
 11
0.0000000000000034
 21
38.9949045
 31
0.0
  0
LINE
  5
81
330
1E
100
AcDbEntity
  8
0
100
AcDbLine
 10
0.0000000000000033
 20
37.53640449999999
 30
0.0
 11
0.0000000000000034
 21
38.7128045
 31
0.0
  0
LINE
  5
82
330
1E
100
AcDbEntity
  8
0
100
AcDbLine
 10
0.0000000000000033
 20
37.53640449999999
 30
0.0
 11
0.0000000000000033
 21
36.2150045
 31
0.0
  0
LINE
  5
83
330
1E
100
AcDbEntity
  8
0
100
AcDbLine
 10
0.0000000000000034
 20
38.7128045
 30
0.0
 11
0.0000000000000034
 21
39.73310449999999
 31
0.0
  0
LINE
  5
84
330
1E
100
AcDbEntity
  8
0
100
AcDbLine
 10
0.0000000000000034
 20
38.7128045
 30
0.0
 11
0.0000000000000034
 21
38.8119045
 31
0.0
  0
LINE
  5
85
330
1E
100
AcDbEntity
  8
0
100
AcDbLine
 10
0.0000000000000034
 20
38.9949045
 30
0.0
 11
0.0000000000000034
 21
38.8119045
 31
0.0
  0
LINE
  5
86
330
1E
100
AcDbEntity
  8
0
100
AcDbLine
 10
0.8000000000000028
 20
33.55420449999999
 30
0.0
 11
0.8000000000000028
 21
31.78760449999999
 31
0.0
  0
LINE
  5
87
330
1E
100
AcDbEntity
  8
0
100
AcDbLine
 10
0.8000000000000028
 20
33.55420449999999
 30
0.0
 11
0.8000000000000028
 21
35.2097045
 31
0.0
  0
LINE
  5
88
330
1E
100
AcDbEntity
  8
0
100
AcDbLine
 10
0.8000000000000028
 20
36.7392045
 30
0.0
 11
0.8000000000000028
 21
38.1296045
 31
0.0
  0
LINE
  5
89
330
1E
100
AcDbEntity
  8
0
100
AcDbLine
 10
0.800000000000004
 20
40.4354045
 30
0.0
 11
0.800000000000004
 21
41.37070449999999
 31
0.0
  0
LINE
  5
8A
330
1E
100
AcDbEntity
  8
0
100
AcDbLine
 10
0.8000000000000028
 20
39.3650045
 30
0.0
 11
0.800000000000004
 21
40.4354045
 31
0.0
  0
LINE
  5
8B
330
1E
100
AcDbEntity
  8
0
100
AcDbLine
 10
0.8000000000000028
 20
38.1296045
 30
0.0
 11
0.8000000000000028
 21
39.3650045
 31
0.0
  0
LINE
  5
8C
330
1E
100
AcDbEntity
  8
0
100
AcDbLine
 10
0.8000000000000028
 20
38.1296045
 30
0.0
 11
0.8000000000000028
 21
36.7392045
 31
0.0
  0
LINE
  5
8D
330
1E
100
AcDbEntity
  8
0
100
AcDbLine
 10
0.8000000000000028
 20
35.2097045
 30
0.0
 11
0.8000000000000028
 21
36.7392045
 31
0.0
  0
LINE
  5
8E
330
1E
100
AcDbEntity
  8
0
100
AcDbLine
 10
0.0000000000000036
 20
40.61240449999999
 30
0.0
 11
0.0000000000000036
 21
41.30660449999999
 31
0.0
  0
LINE
  5
8F
330
1E
100
AcDbEntity
  8
0
100
AcDbLine
 10
0.0000000000000036
 20
41.30660449999999
 30
0.0
 11
0.0000000000000036
 21
41.80580449999999
 31
0.0
  0
LINE
  5
90
330
1E
100
AcDbEntity
  8
0
100
AcDbLine
 10
0.0000000000000036
 20
41.30660449999999
 30
0.0
 11
0.0000000000000036
 21
40.61240449999999
 31
0.0
  0
LINE
  5
91
330
1E
100
AcDbEntity
  8
0
100
AcDbLine
 10
0.800000000000004
 20
42.10190449999999
 30
0.0
 11
0.800000000000004
 21
41.37070449999999
 31
0.0
  0
LINE
  5
92
330
1E
100
AcDbEntity
  8
0
100
AcDbLine
 10
0.800000000000004
 20
42.10190449999999
 30
0.0
 11
0.800000000000004
 21
42.6221045
 31
0.0
  0
LINE
  5
93
330
1E
100
AcDbEntity
  8
0
100
AcDbLine
 10
0.800000000000004
 20
41.37070449999999
 30
0.0
 11
0.800000000000004
 21
40.4354045
 31
0.0
  0
LINE
  5
94
330
1E
100
AcDbEntity
  8
0
100
AcDbLine
 10
0.800000000000004
 20
41.37070449999999
 30
0.0
 11
0.800000000000004
 21
42.10190449999999
 31
0.0
  0
LINE
  5
95
330
1E
100
AcDbEntity
  8
0
100
AcDbLine
 10
0.800000000000004
 20
42.6221045
 30
0.0
 11
0.800000000000004
 21
42.10190449999999
 31
0.0
  0
LINE
  5
96
330
1E
100
AcDbEntity
  8
0
100
AcDbLine
 10
0.800000000000004
 20
42.6221045
 30
0.0
 11
5.0
 21
42.6221045
 31
0.0
  0
LINE
  5
97
330
1E
100
AcDbEntity
  8
0
100
AcDbLine
 10
0.0000000000000036
 20
41.80580449999999
 30
0.0
 11
0.800000000000004
 21
42.6221045
 31
0.0
  0
LINE
  5
98
330
1E
100
AcDbEntity
  8
0
100
AcDbLine
 10
0.0000000000000036
 20
41.80580449999999
 30
0.0
 11
0.0000000000000036
 21
41.30660449999999
 31
0.0
  0
LINE
  5
99
330
1E
100
AcDbEntity
  8
0
100
AcDbLine
 10
0.0000000000000036
 20
41.80580449999999
 30
0.0
 11
0.0000000000000036
 21
41.00560449999999
 31
0.0
  0
LINE
  5
9A
330
1E
100
AcDbEntity
  8
0
100
AcDbLine
 10
0.0000000000000036
 20
41.00560449999999
 30
0.0
 11
0.0000000000000036
 21
41.80580449999999
 31
0.0
  0
LINE
  5
9B
330
1E
100
AcDbEntity
  8
0
100
AcDbLine
 10
0.0000000000000034
 20
39.73310449999999
 30
0.0
 11
0.0000000000000036
 21
40.61240449999999
 31
0.0
  0
LINE
  5
9C
330
1E
100
AcDbEntity
  8
0
100
AcDbLine
 10
0.0000000000000034
 20
39.73310449999999
 30
0.0
 11
0.0000000000000034
 21
38.7128045
 31
0.0
  0
LINE
  5
9D
330
1E
100
AcDbEntity
  8
0
100
AcDbLine
 10
0.000000000000003
 20
33.2351045
 30
0.0
 11
0.0000000000000032
 21
34.7606045
 31
0.0
  0
LINE
  5
9E
330
1E
100
AcDbEntity
  8
0
100
AcDbLine
 10
0.000000000000003
 20
31.67760449999999
 30
0.0
 11
0.000000000000003
 21
33.2351045
 31
0.0
  0
LINE
  5
9F
330
1E
100
AcDbEntity
  8
0
100
AcDbLine
 10
0.000000000000003
 20
31.67760449999999
 30
0.0
 11
0.000000000000003
 21
33.1851045
 31
0.0
  0
LINE
  5
A0
330
1E
100
AcDbEntity
  8
0
100
AcDbLine
 10
0.0000000000000021
 20
17.9992045
 30
0.0
 11
0.0000000000000024
 21
22.0000045
 31
0.0
  0
LINE
  5
A1
330
1E
100
AcDbEntity
  8
0
100
AcDbLine
 10
0.0000000000000021
 20
17.9992045
 30
0.0
 11
0.8000000000000021
 21
17.9992045
 31
0.0
  0
LINE
  5
A3
330
1E
100
AcDbEntity
  8
0
100
AcDbLine
 10
5.0
 20
17.9992045
 30
0.0
 11
5.751
 21
18.0702045
 31
0.0
  0
LINE
  5
A5
330
1E
100
AcDbEntity
  8
0
100
AcDbLine
 10
5.0
 20
26.0008045
 30
0.0
 11
5.751
 21
25.9298045
 31
0.0
  0
LINE
  5
A7
330
1E
100
AcDbEntity
  8
0
100
AcDbLine
 10
5.751
 20
18.0702045
 30
0.0
 11
6.474999999999999
 21
18.2813045
 31
0.0
  0
LINE
  5
AA
330
1E
100
AcDbEntity
  8
0
100
AcDbLine
 10
5.751
 20
1.363934499999999
 30
0.0
 11
6.474999999999999
 21
1.3249245
 31
0.0
  0
LINE
  5
AB
330
1E
100
AcDbEntity
  8
0
100
AcDbLine
 10
5.751
 20
25.9298045
 30
0.0
 11
6.474999999999999
 21
25.7187045
 31
0.0
  0
LINE
  5
AD
330
1E
100
AcDbEntity
  8
0
100
AcDbLine
 10
5.0
 20
42.6221045
 30
0.0
 11
5.751
 21
42.6361045
 31
0.0
  0
LINE
  5
AE
330
1E
100
AcDbEntity
  8
0
100
AcDbLine
 10
5.751
 20
42.6361045
 30
0.0
 11
6.474999999999999
 21
42.67510449999999
 31
0.0
  0
LINE
  5
AF
330
1E
100
AcDbEntity
  8
0
100
AcDbLine
 10
7.667999999999999
 20
1.2058845
 30
0.0
 11
8.119999999999999
 21
1.142864499999999
 31
0.0
  0
LINE
  5
B0
330
1E
100
AcDbEntity
  8
0
100
AcDbLine
 10
6.474999999999999
 20
25.7187045
 30
0.0
 11
7.144999999999999
 21
25.3766045
 31
0.0
  0
LINE
  5
B1
330
1E
100
AcDbEntity
  8
0
100
AcDbLine
 10
6.474999999999999
 20
18.2813045
 30
0.0
 11
7.144999999999999
 21
18.6234045
 31
0.0
  0
LINE
  5
B2
330
1E
100
AcDbEntity
  8
0
100
AcDbLine
 10
6.474999999999999
 20
42.67510449999999
 30
0.0
 11
7.144999999999999
 21
42.73310449999999
 31
0.0
  0
LINE
  5
B7
330
1E
100
AcDbEntity
  8
0
100
AcDbLine
 10
8.119999999999999
 20
19.4957045
 30
0.0
 11
8.487
 21
20.0399045
 31
0.0
  0
LINE
  5
B9
330
1E
100
AcDbEntity
  8
0
100
AcDbLine
 10
7.667999999999999
 20
19.0195045
 30
0.0
 11
8.119999999999999
 21
19.4957045
 31
0.0
  0
LINE
  5
BA
330
1E
100
AcDbEntity
  8
0
100
AcDbLine
 10
7.144999999999999
 20
18.6234045
 30
0.0
 11
7.667999999999999
 21
19.0195045
 31
0.0
  0
LINE
  5
BB
330
1E
100
AcDbEntity
  8
0
100
AcDbLine
 10
7.144999999999999
 20
25.3766045
 30
0.0
 11
7.667999999999999
 21
24.9805045
 31
0.0
  0
LINE
  5
BD
330
1E
100
AcDbEntity
  8
0
100
AcDbLine
 10
8.119999999999999
 20
24.5043045
 30
0.0
 11
8.487
 21
23.96010449999999
 31
0.0
  0
LINE
  5
BE
330
1E
100
AcDbEntity
  8
0
100
AcDbLine
 10
7.667999999999999
 20
24.9805045
 30
0.0
 11
8.119999999999999
 21
24.5043045
 31
0.0
  0
LINE
  5
C1
330
1E
100
AcDbEntity
  8
0
100
AcDbLine
 10
7.667999999999999
 20
42.79410449999999
 30
0.0
 11
8.119999999999999
 21
42.85710449999999
 31
0.0
  0
LINE
  5
C2
330
1E
100
AcDbEntity
  8
0
100
AcDbLine
 10
8.119999999999999
 20
42.85710449999999
 30
0.0
 11
8.487
 21
42.9152045
 31
0.0
  0
LINE
  5
C3
330
1E
100
AcDbEntity
  8
0
100
AcDbLine
 10
7.144999999999999
 20
42.73310449999999
 30
0.0
 11
7.667999999999999
 21
42.79410449999999
 31
0.0
  0
LINE
  5
C4
330
1E
100
AcDbEntity
  8
0
100
AcDbLine
 10
7.144999999999999
 20
1.2669045
 30
0.0
 11
7.667999999999999
 21
1.2058845
 31
0.0
  0
LINE
  5
C5
330
1E
100
AcDbEntity
  8
0
100
AcDbLine
 10
6.474999999999999
 20
1.3249245
 30
0.0
 11
7.144999999999999
 21
1.2669045
 31
0.0
  0
LINE
  5
C6
330
1E
100
AcDbEntity
  8
0
100
AcDbLine
 10
8.119999999999999
 20
1.142864499999999
 30
0.0
 11
8.487
 21
1.084844499999999
 31
0.0
  0
LINE
  5
CB
330
1E
100
AcDbEntity
  8
0
100
AcDbLine
 10
8.932999999999999
 20
21.2703045
 30
0.0
 11
8.999
 21
21.9245045
 31
0.0
  0
LINE
  5
CC
330
1E
100
AcDbEntity
  8
0
100
AcDbLine
 10
8.759999999999999
 20
20.6361045
 30
0.0
 11
8.932999999999999
 21
21.2703045
 31
0.0
  0
LINE
  5
CD
330
1E
100
AcDbEntity
  8
0
100
AcDbLine
 10
8.487
 20
20.0399045
 30
0.0
 11
8.759999999999999
 21
20.6361045
 31
0.0
  0
LINE
  5
D0
330
1E
100
AcDbEntity
  8
0
100
AcDbLine
 10
8.487
 20
23.96010449999999
 30
0.0
 11
8.759999999999999
 21
23.3639045
 31
0.0
  0
LINE
  5
D2
330
1E
100
AcDbEntity
  8
0
100
AcDbLine
 10
8.932999999999999
 20
22.7297045
 30
0.0
 11
8.999
 21
22.0755045
 31
0.0
  0
LINE
  5
D3
330
1E
100
AcDbEntity
  8
0
100
AcDbLine
 10
8.759999999999999
 20
23.3639045
 30
0.0
 11
8.932999999999999
 21
22.7297045
 31
0.0
  0
LINE
  5
D8
330
1E
100
AcDbEntity
  8
0
100
AcDbLine
 10
8.9944
 20
22.0000045
 30
0.0
 11
8.999
 21
22.0755045
 31
0.0
  0
LINE
  5
D9
330
1E
100
AcDbEntity
  8
0
100
AcDbLine
 10
8.9944
 20
22.0000045
 30
0.0
 11
8.999
 21
21.9245045
 31
0.0
  0
LINE
  5
DA
330
1E
100
AcDbEntity
  8
0
100
AcDbLine
 10
8.759999999999999
 20
42.96220449999999
 30
0.0
 11
8.932999999999999
 21
42.99420449999999
 31
0.0
  0
LINE
  5
DB
330
1E
100
AcDbEntity
  8
0
100
AcDbLine
 10
8.99898602555171
 20
43.0052060256696
 30
0.0
 11
9.935299999999999
 21
43.0055045
 31
0.0
  0
LINE
  5
DC
330
1E
100
AcDbEntity
  8
0
100
AcDbLine
 10
8.999
 20
43.00620449999999
 30
0.0
 11
9.935299999999999
 21
43.0055045
 31
0.0
  0
LINE
  5
DD
330
1E
100
AcDbEntity
  8
0
100
AcDbLine
 10
8.932999999999999
 20
42.99420449999999
 30
0.0
 11
8.999
 21
43.00620449999999
 31
0.0
  0
LINE
  5
DE
330
1E
100
AcDbEntity
  8
0
100
AcDbLine
 10
8.932999999999999
 20
42.99420449999999
 30
0.0
 11
9.935299999999999
 21
43.0055045
 31
0.0
  0
LINE
  5
DF
330
1E
100
AcDbEntity
  8
0
100
AcDbLine
 10
8.487
 20
42.9152045
 30
0.0
 11
8.759999999999999
 21
42.96220449999999
 31
0.0
  0
LINE
  5
E0
330
1E
100
AcDbEntity
  8
0
100
AcDbLine
 10
8.487
 20
1.084844499999999
 30
0.0
 11
8.759999999999999
 21
1.037834499999999
 31
0.0
  0
LINE
  5
E1
330
1E
100
AcDbEntity
  8
0
100
AcDbLine
 10
8.759999999999999
 20
1.037834499999999
 30
0.0
 11
8.932999999999999
 21
1.0058245
 31
0.0
  0
LINE
  5
E2
330
1E
100
AcDbEntity
  8
0
100
AcDbLine
 10
5.0
 20
1.377944499999999
 30
0.0
 11
5.751
 21
1.363934499999999
 31
0.0
  0
LINE
  5
E3
330
1E
100
AcDbEntity
  8
0
100
AcDbLine
 10
8.932999999999999
 20
1.0058245
 30
0.0
 11
8.999
 21
0.993824500000003
 31
0.0
  0
LINE
  5
E4
330
1E
100
AcDbEntity
  8
0
100
AcDbLine
 10
8.932999999999999
 20
1.0058245
 30
0.0
 11
9.935299999999999
 21
0.9944945000000029
 31
0.0
  0
LINE
  5
E5
330
1E
100
AcDbEntity
  8
0
100
AcDbLine
 10
38.0
 20
-0.0000044999999992
 30
0.0
 11
38.0
 21
0.0915335000000008
 31
0.0
  0
LINE
  5
E6
330
1E
100
AcDbEntity
  8
0
100
AcDbLine
 10
16.0
 20
-0.0000044999999978
 30
0.0
 11
38.0
 21
-0.0000044999999992
 31
0.0
  0
LINE
  5
E7
330
1E
100
AcDbEntity
  8
0
100
AcDbLine
 10
16.0
 20
1.062844499999999
 30
0.0
 11
16.0
 21
1.354934499999999
 31
0.0
  0
LINE
  5
E8
330
1E
100
AcDbEntity
  8
0
100
AcDbLine
 10
16.0
 20
1.874104499999999
 30
0.0
 11
16.0
 21
1.354934499999999
 31
0.0
  0
LINE
  5
E9
330
1E
100
AcDbEntity
  8
0
100
AcDbLine
 10
16.0
 20
1.874104499999999
 30
0.0
 11
16.0
 21
2.6133345
 31
0.0
  0
LINE
  5
EA
330
1E
100
AcDbEntity
  8
0
100
AcDbLine
 10
16.0
 20
2.6133345
 30
0.0
 11
16.0
 21
1.874104499999999
 31
0.0
  0
LINE
  5
EB
330
1E
100
AcDbEntity
  8
0
100
AcDbLine
 10
16.0
 20
2.6133345
 30
0.0
 11
16.0
 21
3.5656345
 31
0.0
  0
LINE
  5
EC
330
1E
100
AcDbEntity
  8
0
100
AcDbLine
 10
16.0
 20
1.354934499999999
 30
0.0
 11
16.0
 21
1.874104499999999
 31
0.0
  0
LINE
  5
ED
330
1E
100
AcDbEntity
  8
0
100
AcDbLine
 10
16.0
 20
1.354934499999999
 30
0.0
 11
16.0
 21
1.062844499999999
 31
0.0
  0
LINE
  5
EE
330
1E
100
AcDbEntity
  8
0
100
AcDbLine
 10
16.0
 20
1.719054499999999
 30
0.0
 11
16.0
 21
0.958809500000002
 31
0.0
  0
LINE
  5
EF
330
1E
100
AcDbEntity
  8
0
100
AcDbLine
 10
16.0
 20
1.719054499999999
 30
0.0
 11
16.0
 21
2.687354499999999
 31
0.0
  0
LINE
  5
F0
330
1E
100
AcDbEntity
  8
0
100
AcDbLine
 10
16.0
 20
3.5656345
 30
0.0
 11
16.0
 21
4.719004499999999
 31
0.0
  0
LINE
  5
F1
330
1E
100
AcDbEntity
  8
0
100
AcDbLine
 10
16.0
 20
3.5656345
 30
0.0
 11
16.0
 21
2.6133345
 31
0.0
  0
LINE
  5
F2
330
1E
100
AcDbEntity
  8
0
100
AcDbLine
 10
16.0
 20
6.061434499999999
 30
0.0
 11
16.0
 21
4.719004499999999
 31
0.0
  0
LINE
  5
F3
330
1E
100
AcDbEntity
  8
0
100
AcDbLine
 10
16.0
 20
6.061434499999999
 30
0.0
 11
16.0
 21
7.5789145
 31
0.0
  0
LINE
  5
F4
330
1E
100
AcDbEntity
  8
0
100
AcDbLine
 10
16.0
 20
4.719004499999999
 30
0.0
 11
16.0
 21
6.061434499999999
 31
0.0
  0
LINE
  5
F5
330
1E
100
AcDbEntity
  8
0
100
AcDbLine
 10
16.0
 20
4.719004499999999
 30
0.0
 11
16.0
 21
3.5656345
 31
0.0
  0
LINE
  5
F6
330
1E
100
AcDbEntity
  8
0
100
AcDbLine
 10
16.0
 20
5.2061545
 30
0.0
 11
16.0
 21
3.8537245
 31
0.0
  0
LINE
  5
F7
330
1E
100
AcDbEntity
  8
0
100
AcDbLine
 10
16.0
 20
5.2061545
 30
0.0
 11
16.0
 21
6.7316445
 31
0.0
  0
LINE
  5
F8
330
1E
100
AcDbEntity
  8
0
100
AcDbLine
 10
16.0
 20
2.687354499999999
 30
0.0
 11
16.0
 21
1.719054499999999
 31
0.0
  0
LINE
  5
F9
330
1E
100
AcDbEntity
  8
0
100
AcDbLine
 10
16.0
 20
2.687354499999999
 30
0.0
 11
16.0
 21
3.8537245
 31
0.0
  0
LINE
  5
FA
330
1E
100
AcDbEntity
  8
0
100
AcDbLine
 10
16.0
 20
3.8537245
 30
0.0
 11
16.0
 21
2.687354499999999
 31
0.0
  0
LINE
  5
FB
330
1E
100
AcDbEntity
  8
0
100
AcDbLine
 10
16.0
 20
3.8537245
 30
0.0
 11
16.0
 21
5.2061545
 31
0.0
  0
LINE
  5
FC
330
1E
100
AcDbEntity
  8
0
100
AcDbLine
 10
16.0
 20
11.07000449999999
 30
0.0
 11
16.0
 21
13.0056045
 31
0.0
  0
LINE
  5
FD
330
1E
100
AcDbEntity
  8
0
100
AcDbLine
 10
16.0
 20
11.07000449999999
 30
0.0
 11
16.0
 21
9.254444499999999
 31
0.0
  0
LINE
  5
FE
330
1E
100
AcDbEntity
  8
0
100
AcDbLine
 10
16.0
 20
15.0393045
 30
0.0
 11
16.0
 21
17.1490045
 31
0.0
  0
LINE
  5
FF
330
1E
100
AcDbEntity
  8
0
100
AcDbLine
 10
16.0
 20
15.0393045
 30
0.0
 11
16.0
 21
13.0056045
 31
0.0
  0
LINE
  5
100
330
1E
100
AcDbEntity
  8
0
100
AcDbLine
 10
16.0
 20
13.0056045
 30
0.0
 11
16.0
 21
15.0393045
 31
0.0
  0
LINE
  5
101
330
1E
100
AcDbEntity
  8
0
100
AcDbLine
 10
16.0
 20
13.0056045
 30
0.0
 11
16.0
 21
11.07000449999999
 31
0.0
  0
LINE
  5
102
330
1E
100
AcDbEntity
  8
0
100
AcDbLine
 10
16.0
 20
12.1764045
 30
0.0
 11
16.0
 21
10.2338045
 31
0.0
  0
LINE
  5
103
330
1E
100
AcDbEntity
  8
0
100
AcDbLine
 10
16.0
 20
12.1764045
 30
0.0
 11
16.0
 21
14.2190045
 31
0.0
  0
LINE
  5
104
330
1E
100
AcDbEntity
  8
0
100
AcDbLine
 10
16.0
 20
10.2338045
 30
0.0
 11
16.0
 21
8.4131745
 31
0.0
  0
LINE
  5
105
330
1E
100
AcDbEntity
  8
0
100
AcDbLine
 10
16.0
 20
10.2338045
 30
0.0
 11
16.0
 21
12.1764045
 31
0.0
  0
LINE
  5
106
330
1E
100
AcDbEntity
  8
0
100
AcDbLine
 10
16.0
 20
14.2190045
 30
0.0
 11
16.0
 21
12.1764045
 31
0.0
  0
LINE
  5
107
330
1E
100
AcDbEntity
  8
0
100
AcDbLine
 10
16.0
 20
14.2190045
 30
0.0
 11
16.0
 21
16.3407045
 31
0.0
  0
LINE
  5
108
330
1E
100
AcDbEntity
  8
0
100
AcDbLine
 10
16.0
 20
17.1490045
 30
0.0
 11
16.0
 21
15.0393045
 31
0.0
  0
LINE
  5
109
330
1E
100
AcDbEntity
  8
0
100
AcDbLine
 10
16.0
 20
17.1490045
 30
0.0
 11
16.0
 21
19.3116045
 31
0.0
  0
LINE
  5
10A
330
1E
100
AcDbEntity
  8
0
100
AcDbLine
 10
16.0
 20
16.3407045
 30
0.0
 11
16.0
 21
14.2190045
 31
0.0
  0
LINE
  5
10B
330
1E
100
AcDbEntity
  8
0
100
AcDbLine
 10
16.0
 20
16.3407045
 30
0.0
 11
16.0
 21
18.5224045
 31
0.0
  0
LINE
  5
10C
330
1E
100
AcDbEntity
  8
0
100
AcDbLine
 10
16.0
 20
8.4131745
 30
0.0
 11
16.0
 21
6.7316445
 31
0.0
  0
LINE
  5
10D
330
1E
100
AcDbEntity
  8
0
100
AcDbLine
 10
16.0
 20
8.4131745
 30
0.0
 11
16.0
 21
10.2338045
 31
0.0
  0
LINE
  5
10E
330
1E
100
AcDbEntity
  8
0
100
AcDbLine
 10
16.0
 20
7.5789145
 30
0.0
 11
16.0
 21
9.254444499999999
 31
0.0
  0
LINE
  5
10F
330
1E
100
AcDbEntity
  8
0
100
AcDbLine
 10
16.0
 20
7.5789145
 30
0.0
 11
16.0
 21
6.061434499999999
 31
0.0
  0
LINE
  5
110
330
1E
100
AcDbEntity
  8
0
100
AcDbLine
 10
16.0
 20
9.254444499999999
 30
0.0
 11
16.0
 21
7.5789145
 31
0.0
  0
LINE
  5
111
330
1E
100
AcDbEntity
  8
0
100
AcDbLine
 10
16.0
 20
9.254444499999999
 30
0.0
 11
16.0
 21
11.07000449999999
 31
0.0
  0
LINE
  5
112
330
1E
100
AcDbEntity
  8
0
100
AcDbLine
 10
16.0
 20
6.7316445
 30
0.0
 11
16.0
 21
8.4131745
 31
0.0
  0
LINE
  5
113
330
1E
100
AcDbEntity
  8
0
100
AcDbLine
 10
16.0
 20
6.7316445
 30
0.0
 11
16.0
 21
5.2061545
 31
0.0
  0
LINE
  5
114
330
1E
100
AcDbEntity
  8
0
100
AcDbLine
 10
9.935299999999999
 20
43.0055045
 30
0.0
 11
16.0
 21
42.9867045
 31
0.0
  0
LINE
  5
115
330
1E
100
AcDbEntity
  8
0
100
AcDbLine
 10
16.0
 20
1.0132645
 30
0.0
 11
16.0
 21
0.958809500000002
 31
0.0
  0
LINE
  5
116
330
1E
100
AcDbEntity
  8
0
100
AcDbLine
 10
16.0
 20
0.958809500000002
 30
0.0
 11
16.0
 21
1.0132645
 31
0.0
  0
LINE
  5
117
330
1E
100
AcDbEntity
  8
0
100
AcDbLine
 10
16.0
 20
0.958809500000002
 30
0.0
 11
16.0
 21
0.414636500000002
 31
0.0
  0
LINE
  5
118
330
1E
100
AcDbEntity
  8
0
100
AcDbLine
 10
16.0
 20
0.958809500000002
 30
0.0
 11
16.0
 21
1.719054499999999
 31
0.0
  0
LINE
  5
119
330
1E
100
AcDbEntity
  8
0
100
AcDbLine
 10
16.0
 20
0.414636500000002
 30
0.0
 11
16.0
 21
0.958809500000002
 31
0.0
  0
LINE
  5
11A
330
1E
100
AcDbEntity
  8
0
100
AcDbLine
 10
16.0
 20
0.414636500000002
 30
0.0
 11
16.0
 21
0.0915335000000022
 31
0.0
  0
LINE
  5
11B
330
1E
100
AcDbEntity
  8
0
100
AcDbLine
 10
16.0
 20
19.3116045
 30
0.0
 11
16.0
 21
21.50430449999999
 31
0.0
  0
LINE
  5
11C
330
1E
100
AcDbEntity
  8
0
100
AcDbLine
 10
16.0
 20
18.5224045
 30
0.0
 11
16.0
 21
20.7381045
 31
0.0
  0
LINE
  5
11D
330
1E
100
AcDbEntity
  8
0
100
AcDbLine
 10
16.0
 20
21.50430449999999
 30
0.0
 11
16.0
 21
19.3116045
 31
0.0
  0
LINE
  5
11E
330
1E
100
AcDbEntity
  8
0
100
AcDbLine
 10
16.0
 20
21.50430449999999
 30
0.0
 11
16.0
 21
22.0000045
 31
0.0
  0
LINE
  5
11F
330
1E
100
AcDbEntity
  8
0
100
AcDbLine
 10
16.0
 20
20.7381045
 30
0.0
 11
16.0
 21
18.5224045
 31
0.0
  0
LINE
  5
120
330
1E
100
AcDbEntity
  8
0
100
AcDbLine
 10
16.0
 20
20.7381045
 30
0.0
 11
16.0
 21
22.0000045
 31
0.0
  0
LINE
  5
121
330
1E
100
AcDbEntity
  8
0
100
AcDbLine
 10
16.0
 20
24.6884045
 30
0.0
 11
16.0
 21
22.4957045
 31
0.0
  0
LINE
  5
122
330
1E
100
AcDbEntity
  8
0
100
AcDbLine
 10
16.0
 20
24.6884045
 30
0.0
 11
16.0
 21
26.8510045
 31
0.0
  0
LINE
  5
123
330
1E
100
AcDbEntity
  8
0
100
AcDbLine
 10
16.0
 20
26.8510045
 30
0.0
 11
16.0
 21
28.96070449999999
 31
0.0
  0
LINE
  5
124
330
1E
100
AcDbEntity
  8
0
100
AcDbLine
 10
16.0
 20
26.8510045
 30
0.0
 11
16.0
 21
24.6884045
 31
0.0
  0
LINE
  5
125
330
1E
100
AcDbEntity
  8
0
100
AcDbLine
 10
16.0
 20
28.96070449999999
 30
0.0
 11
16.0
 21
30.99440449999999
 31
0.0
  0
LINE
  5
126
330
1E
100
AcDbEntity
  8
0
100
AcDbLine
 10
16.0
 20
28.96070449999999
 30
0.0
 11
16.0
 21
26.8510045
 31
0.0
  0
LINE
  5
127
330
1E
100
AcDbEntity
  8
0
100
AcDbLine
 10
16.0
 20
25.4776045
 30
0.0
 11
16.0
 21
23.26190449999999
 31
0.0
  0
LINE
  5
128
330
1E
100
AcDbEntity
  8
0
100
AcDbLine
 10
16.0
 20
25.4776045
 30
0.0
 11
16.0
 21
27.65930449999999
 31
0.0
  0
LINE
  5
129
330
1E
100
AcDbEntity
  8
0
100
AcDbLine
 10
16.0
 20
27.65930449999999
 30
0.0
 11
16.0
 21
25.4776045
 31
0.0
  0
LINE
  5
12A
330
1E
100
AcDbEntity
  8
0
100
AcDbLine
 10
16.0
 20
27.65930449999999
 30
0.0
 11
16.0
 21
29.78100449999999
 31
0.0
  0
LINE
  5
12B
330
1E
100
AcDbEntity
  8
0
100
AcDbLine
 10
16.0
 20
32.93000449999999
 30
0.0
 11
16.0
 21
30.99440449999999
 31
0.0
  0
LINE
  5
12C
330
1E
100
AcDbEntity
  8
0
100
AcDbLine
 10
16.0
 20
32.93000449999999
 30
0.0
 11
16.0
 21
34.7456045
 31
0.0
  0
LINE
  5
12D
330
1E
100
AcDbEntity
  8
0
100
AcDbLine
 10
16.0
 20
30.99440449999999
 30
0.0
 11
16.0
 21
28.96070449999999
 31
0.0
  0
LINE
  5
12E
330
1E
100
AcDbEntity
  8
0
100
AcDbLine
 10
16.0
 20
30.99440449999999
 30
0.0
 11
16.0
 21
32.93000449999999
 31
0.0
  0
LINE
  5
12F
330
1E
100
AcDbEntity
  8
0
100
AcDbLine
 10
16.0
 20
31.8236045
 30
0.0
 11
16.0
 21
29.78100449999999
 31
0.0
  0
LINE
  5
130
330
1E
100
AcDbEntity
  8
0
100
AcDbLine
 10
16.0
 20
31.8236045
 30
0.0
 11
16.0
 21
33.7662045
 31
0.0
  0
LINE
  5
131
330
1E
100
AcDbEntity
  8
0
100
AcDbLine
 10
16.0
 20
29.78100449999999
 30
0.0
 11
16.0
 21
27.65930449999999
 31
0.0
  0
LINE
  5
132
330
1E
100
AcDbEntity
  8
0
100
AcDbLine
 10
16.0
 20
29.78100449999999
 30
0.0
 11
16.0
 21
31.8236045
 31
0.0
  0
LINE
  5
133
330
1E
100
AcDbEntity
  8
0
100
AcDbLine
 10
16.0
 20
33.7662045
 30
0.0
 11
16.0
 21
31.8236045
 31
0.0
  0
LINE
  5
134
330
1E
100
AcDbEntity
  8
0
100
AcDbLine
 10
16.0
 20
33.7662045
 30
0.0
 11
16.0
 21
35.5868045
 31
0.0
  0
LINE
  5
135
330
1E
100
AcDbEntity
  8
0
100
AcDbLine
 10
16.0
 20
37.93860449999999
 30
0.0
 11
16.0
 21
39.2810045
 31
0.0
  0
LINE
  5
136
330
1E
100
AcDbEntity
  8
0
100
AcDbLine
 10
16.0
 20
37.93860449999999
 30
0.0
 11
16.0
 21
36.4211045
 31
0.0
  0
LINE
  5
137
330
1E
100
AcDbEntity
  8
0
100
AcDbLine
 10
16.0
 20
40.4344045
 30
0.0
 11
16.0
 21
41.3867045
 31
0.0
  0
LINE
  5
138
330
1E
100
AcDbEntity
  8
0
100
AcDbLine
 10
16.0
 20
40.4344045
 30
0.0
 11
16.0
 21
39.2810045
 31
0.0
  0
LINE
  5
139
330
1E
100
AcDbEntity
  8
0
100
AcDbLine
 10
16.0
 20
39.2810045
 30
0.0
 11
16.0
 21
37.93860449999999
 31
0.0
  0
LINE
  5
13A
330
1E
100
AcDbEntity
  8
0
100
AcDbLine
 10
16.0
 20
39.2810045
 30
0.0
 11
16.0
 21
40.4344045
 31
0.0
  0
LINE
  5
13B
330
1E
100
AcDbEntity
  8
0
100
AcDbLine
 10
16.0
 20
38.79390449999999
 30
0.0
 11
16.0
 21
37.26840449999999
 31
0.0
  0
LINE
  5
13C
330
1E
100
AcDbEntity
  8
0
100
AcDbLine
 10
16.0
 20
38.79390449999999
 30
0.0
 11
16.0
 21
40.1463045
 31
0.0
  0
LINE
  5
13D
330
1E
100
AcDbEntity
  8
0
100
AcDbLine
 10
16.0
 20
40.1463045
 30
0.0
 11
16.0
 21
38.79390449999999
 31
0.0
  0
LINE
  5
13E
330
1E
100
AcDbEntity
  8
0
100
AcDbLine
 10
16.0
 20
40.1463045
 30
0.0
 11
16.0
 21
41.3126045
 31
0.0
  0
LINE
  5
13F
330
1E
100
AcDbEntity
  8
0
100
AcDbLine
 10
16.0
 20
41.3867045
 30
0.0
 11
16.0
 21
42.12590449999999
 31
0.0
  0
LINE
  5
140
330
1E
100
AcDbEntity
  8
0
100
AcDbLine
 10
16.0
 20
41.3867045
 30
0.0
 11
16.0
 21
40.4344045
 31
0.0
  0
LINE
  5
141
330
1E
100
AcDbEntity
  8
0
100
AcDbLine
 10
16.0
 20
41.3126045
 30
0.0
 11
16.0
 21
40.1463045
 31
0.0
  0
LINE
  5
142
330
1E
100
AcDbEntity
  8
0
100
AcDbLine
 10
16.0
 20
41.3126045
 30
0.0
 11
16.0
 21
42.28090449999999
 31
0.0
  0
LINE
  5
143
330
1E
100
AcDbEntity
  8
0
100
AcDbLine
 10
16.0
 20
37.26840449999999
 30
0.0
 11
16.0
 21
35.5868045
 31
0.0
  0
LINE
  5
144
330
1E
100
AcDbEntity
  8
0
100
AcDbLine
 10
16.0
 20
37.26840449999999
 30
0.0
 11
16.0
 21
38.79390449999999
 31
0.0
  0
LINE
  5
145
330
1E
100
AcDbEntity
  8
0
100
AcDbLine
 10
16.0
 20
35.5868045
 30
0.0
 11
16.0
 21
37.26840449999999
 31
0.0
  0
LINE
  5
146
330
1E
100
AcDbEntity
  8
0
100
AcDbLine
 10
16.0
 20
35.5868045
 30
0.0
 11
16.0
 21
33.7662045
 31
0.0
  0
LINE
  5
147
330
1E
100
AcDbEntity
  8
0
100
AcDbLine
 10
16.0
 20
36.4211045
 30
0.0
 11
16.0
 21
34.7456045
 31
0.0
  0
LINE
  5
148
330
1E
100
AcDbEntity
  8
0
100
AcDbLine
 10
16.0
 20
36.4211045
 30
0.0
 11
16.0
 21
37.93860449999999
 31
0.0
  0
LINE
  5
149
330
1E
100
AcDbEntity
  8
0
100
AcDbLine
 10
16.0
 20
34.7456045
 30
0.0
 11
16.0
 21
36.4211045
 31
0.0
  0
LINE
  5
14A
330
1E
100
AcDbEntity
  8
0
100
AcDbLine
 10
16.0
 20
34.7456045
 30
0.0
 11
16.0
 21
32.93000449999999
 31
0.0
  0
LINE
  5
14B
330
1E
100
AcDbEntity
  8
0
100
AcDbLine
 10
16.0
 20
23.26190449999999
 30
0.0
 11
16.0
 21
22.0000045
 31
0.0
  0
LINE
  5
14C
330
1E
100
AcDbEntity
  8
0
100
AcDbLine
 10
16.0
 20
23.26190449999999
 30
0.0
 11
16.0
 21
25.4776045
 31
0.0
  0
LINE
  5
14D
330
1E
100
AcDbEntity
  8
0
100
AcDbLine
 10
16.0
 20
22.4957045
 30
0.0
 11
16.0
 21
22.0000045
 31
0.0
  0
LINE
  5
14E
330
1E
100
AcDbEntity
  8
0
100
AcDbLine
 10
16.0
 20
22.4957045
 30
0.0
 11
16.0
 21
24.6884045
 31
0.0
  0
LINE
  5
14F
330
1E
100
AcDbEntity
  8
0
100
AcDbLine
 10
38.0
 20
0.0915335000000008
 30
0.0
 11
38.0
 21
0.414636500000001
 31
0.0
  0
LINE
  5
150
330
1E
100
AcDbEntity
  8
0
100
AcDbLine
 10
38.0
 20
0.0915335000000008
 30
0.0
 11
38.0
 21
-0.0000044999999992
 31
0.0
  0
LINE
  5
151
330
1E
100
AcDbEntity
  8
0
100
AcDbLine
 10
38.0
 20
0.414636500000001
 30
0.0
 11
38.0
 21
0.9588095000000011
 31
0.0
  0
LINE
  5
152
330
1E
100
AcDbEntity
  8
0
100
AcDbLine
 10
38.0
 20
0.414636500000001
 30
0.0
 11
38.0
 21
0.0915335000000008
 31
0.0
  0
LINE
  5
153
330
1E
100
AcDbEntity
  8
0
100
AcDbLine
 10
38.0
 20
0.9588095000000011
 30
0.0
 11
38.0
 21
1.719054499999999
 31
0.0
  0
LINE
  5
154
330
1E
100
AcDbEntity
  8
0
100
AcDbLine
 10
38.0
 20
0.9588095000000011
 30
0.0
 11
38.0
 21
0.414636500000001
 31
0.0
  0
LINE
  5
155
330
1E
100
AcDbEntity
  8
0
100
AcDbLine
 10
38.0
 20
1.719054499999999
 30
0.0
 11
38.0
 21
2.687354499999999
 31
0.0
  0
LINE
  5
156
330
1E
100
AcDbEntity
  8
0
100
AcDbLine
 10
38.0
 20
1.719054499999999
 30
0.0
 11
38.0
 21
0.9588095000000011
 31
0.0
  0
LINE
  5
157
330
1E
100
AcDbEntity
  8
0
100
AcDbLine
 10
38.0
 20
3.8537245
 30
0.0
 11
38.0
 21
5.207154499999999
 31
0.0
  0
LINE
  5
158
330
1E
100
AcDbEntity
  8
0
100
AcDbLine
 10
38.0
 20
3.8537245
 30
0.0
 11
38.0
 21
2.687354499999999
 31
0.0
  0
LINE
  5
159
330
1E
100
AcDbEntity
  8
0
100
AcDbLine
 10
38.0
 20
2.687354499999999
 30
0.0
 11
38.0
 21
3.8537245
 31
0.0
  0
LINE
  5
15A
330
1E
100
AcDbEntity
  8
0
100
AcDbLine
 10
38.0
 20
2.687354499999999
 30
0.0
 11
38.0
 21
1.719054499999999
 31
0.0
  0
LINE
  5
15B
330
1E
100
AcDbEntity
  8
0
100
AcDbLine
 10
38.0
 20
5.207154499999999
 30
0.0
 11
38.0
 21
6.7316445
 31
0.0
  0
LINE
  5
15C
330
1E
100
AcDbEntity
  8
0
100
AcDbLine
 10
38.0
 20
5.207154499999999
 30
0.0
 11
38.0
 21
3.8537245
 31
0.0
  0
LINE
  5
15D
330
1E
100
AcDbEntity
  8
0
100
AcDbLine
 10
38.0
 20
6.7316445
 30
0.0
 11
38.0
 21
8.4131745
 31
0.0
  0
LINE
  5
15E
330
1E
100
AcDbEntity
  8
0
100
AcDbLine
 10
38.0
 20
6.7316445
 30
0.0
 11
38.0
 21
5.207154499999999
 31
0.0
  0
LINE
  5
15F
330
1E
100
AcDbEntity
  8
0
100
AcDbLine
 10
38.0
 20
8.4131745
 30
0.0
 11
38.0
 21
6.7316445
 31
0.0
  0
LINE
  5
160
330
1E
100
AcDbEntity
  8
0
100
AcDbLine
 10
38.0
 20
8.4131745
 30
0.0
 11
38.0
 21
10.2338045
 31
0.0
  0
LINE
  5
161
330
1E
100
AcDbEntity
  8
0
100
AcDbLine
 10
38.0
 20
10.2338045
 30
0.0
 11
38.0
 21
12.1764045
 31
0.0
  0
LINE
  5
162
330
1E
100
AcDbEntity
  8
0
100
AcDbLine
 10
38.0
 20
10.2338045
 30
0.0
 11
38.0
 21
8.4131745
 31
0.0
  0
LINE
  5
163
330
1E
100
AcDbEntity
  8
0
100
AcDbLine
 10
38.0
 20
16.3417045
 30
0.0
 11
38.0
 21
18.5224045
 31
0.0
  0
LINE
  5
164
330
1E
100
AcDbEntity
  8
0
100
AcDbLine
 10
38.0
 20
16.3417045
 30
0.0
 11
38.0
 21
14.2190045
 31
0.0
  0
LINE
  5
165
330
1E
100
AcDbEntity
  8
0
100
AcDbLine
 10
38.0
 20
12.1764045
 30
0.0
 11
38.0
 21
14.2190045
 31
0.0
  0
LINE
  5
166
330
1E
100
AcDbEntity
  8
0
100
AcDbLine
 10
38.0
 20
12.1764045
 30
0.0
 11
38.0
 21
10.2338045
 31
0.0
  0
LINE
  5
167
330
1E
100
AcDbEntity
  8
0
100
AcDbLine
 10
38.0
 20
14.2190045
 30
0.0
 11
38.0
 21
16.3417045
 31
0.0
  0
LINE
  5
168
330
1E
100
AcDbEntity
  8
0
100
AcDbLine
 10
38.0
 20
14.2190045
 30
0.0
 11
38.0
 21
12.1764045
 31
0.0
  0
LINE
  5
169
330
1E
100
AcDbEntity
  8
0
100
AcDbLine
 10
38.0
 20
20.7381045
 30
0.0
 11
38.0
 21
22.0000045
 31
0.0
  0
LINE
  5
16A
330
1E
100
AcDbEntity
  8
0
100
AcDbLine
 10
38.0
 20
20.7381045
 30
0.0
 11
38.0
 21
18.5224045
 31
0.0
  0
LINE
  5
16B
330
1E
100
AcDbEntity
  8
0
100
AcDbLine
 10
38.0
 20
18.5224045
 30
0.0
 11
38.0
 21
20.7381045
 31
0.0
  0
LINE
  5
16C
330
1E
100
AcDbEntity
  8
0
100
AcDbLine
 10
38.0
 20
18.5224045
 30
0.0
 11
38.0
 21
16.3417045
 31
0.0
  0
LINE
  5
16D
330
1E
100
AcDbEntity
  8
0
100
AcDbLine
 10
38.0
 20
22.0000045
 30
0.0
 11
38.0
 21
23.26190449999999
 31
0.0
  0
LINE
  5
16E
330
1E
100
AcDbEntity
  8
0
100
AcDbLine
 10
38.0
 20
22.0000045
 30
0.0
 11
38.0
 21
20.7381045
 31
0.0
  0
LINE
  5
16F
330
1E
100
AcDbEntity
  8
0
100
AcDbLine
 10
38.0
 20
29.78100449999999
 30
0.0
 11
38.0
 21
31.8236045
 31
0.0
  0
LINE
  5
170
330
1E
100
AcDbEntity
  8
0
100
AcDbLine
 10
38.0
 20
29.78100449999999
 30
0.0
 11
38.0
 21
27.6583045
 31
0.0
  0
LINE
  5
171
330
1E
100
AcDbEntity
  8
0
100
AcDbLine
 10
38.0
 20
25.4776045
 30
0.0
 11
38.0
 21
27.6583045
 31
0.0
  0
LINE
  5
172
330
1E
100
AcDbEntity
  8
0
100
AcDbLine
 10
38.0
 20
25.4776045
 30
0.0
 11
38.0
 21
23.26190449999999
 31
0.0
  0
LINE
  5
173
330
1E
100
AcDbEntity
  8
0
100
AcDbLine
 10
38.0
 20
27.6583045
 30
0.0
 11
38.0
 21
29.78100449999999
 31
0.0
  0
LINE
  5
174
330
1E
100
AcDbEntity
  8
0
100
AcDbLine
 10
38.0
 20
27.6583045
 30
0.0
 11
38.0
 21
25.4776045
 31
0.0
  0
LINE
  5
175
330
1E
100
AcDbEntity
  8
0
100
AcDbLine
 10
38.0
 20
31.8236045
 30
0.0
 11
38.0
 21
33.7662045
 31
0.0
  0
LINE
  5
176
330
1E
100
AcDbEntity
  8
0
100
AcDbLine
 10
38.0
 20
31.8236045
 30
0.0
 11
38.0
 21
29.78100449999999
 31
0.0
  0
LINE
  5
177
330
1E
100
AcDbEntity
  8
0
100
AcDbLine
 10
38.0
 20
33.7662045
 30
0.0
 11
38.0
 21
35.5868045
 31
0.0
  0
LINE
  5
178
330
1E
100
AcDbEntity
  8
0
100
AcDbLine
 10
38.0
 20
33.7662045
 30
0.0
 11
38.0
 21
31.8236045
 31
0.0
  0
LINE
  5
179
330
1E
100
AcDbEntity
  8
0
100
AcDbLine
 10
38.0
 20
38.7929045
 30
0.0
 11
38.0
 21
40.1463045
 31
0.0
  0
LINE
  5
17A
330
1E
100
AcDbEntity
  8
0
100
AcDbLine
 10
38.0
 20
38.7929045
 30
0.0
 11
38.0
 21
37.26840449999999
 31
0.0
  0
LINE
  5
17B
330
1E
100
AcDbEntity
  8
0
100
AcDbLine
 10
38.0
 20
40.1463045
 30
0.0
 11
38.0
 21
41.3126045
 31
0.0
  0
LINE
  5
17C
330
1E
100
AcDbEntity
  8
0
100
AcDbLine
 10
38.0
 20
40.1463045
 30
0.0
 11
38.0
 21
38.7929045
 31
0.0
  0
LINE
  5
17D
330
1E
100
AcDbEntity
  8
0
100
AcDbLine
 10
38.0
 20
41.3126045
 30
0.0
 11
38.0
 21
42.28090449999999
 31
0.0
  0
LINE
  5
17E
330
1E
100
AcDbEntity
  8
0
100
AcDbLine
 10
38.0
 20
41.3126045
 30
0.0
 11
38.0
 21
40.1463045
 31
0.0
  0
LINE
  5
17F
330
1E
100
AcDbEntity
  8
0
100
AcDbLine
 10
38.0
 20
35.5868045
 30
0.0
 11
38.0
 21
37.26840449999999
 31
0.0
  0
LINE
  5
180
330
1E
100
AcDbEntity
  8
0
100
AcDbLine
 10
38.0
 20
35.5868045
 30
0.0
 11
38.0
 21
33.7662045
 31
0.0
  0
LINE
  5
181
330
1E
100
AcDbEntity
  8
0
100
AcDbLine
 10
38.0
 20
37.26840449999999
 30
0.0
 11
38.0
 21
35.5868045
 31
0.0
  0
LINE
  5
182
330
1E
100
AcDbEntity
  8
0
100
AcDbLine
 10
38.0
 20
37.26840449999999
 30
0.0
 11
38.0
 21
38.7929045
 31
0.0
  0
LINE
  5
183
330
1E
100
AcDbEntity
  8
0
100
AcDbLine
 10
38.0
 20
23.26190449999999
 30
0.0
 11
38.0
 21
22.0000045
 31
0.0
  0
LINE
  5
184
330
1E
100
AcDbEntity
  8
0
100
AcDbLine
 10
38.0
 20
23.26190449999999
 30
0.0
 11
38.0
 21
25.4776045
 31
0.0
  0
LINE
  5
185
330
1E
100
AcDbEntity
  8
0
100
AcDbLine
 10
16.0
 20
22.0000045
 30
0.0
 11
16.0
 21
22.4957045
 31
0.0
  0
LINE
  5
186
330
1E
100
AcDbEntity
  8
0
100
AcDbLine
 10
16.0
 20
22.0000045
 30
0.0
 11
16.0
 21
23.26190449999999
 31
0.0
  0
LINE
  5
187
330
1E
100
AcDbEntity
  8
0
100
AcDbLine
 10
16.0
 20
22.0000045
 30
0.0
 11
16.0
 21
20.7381045
 31
0.0
  0
LINE
  5
188
330
1E
100
AcDbEntity
  8
0
100
AcDbLine
 10
16.0
 20
22.0000045
 30
0.0
 11
16.0
 21
21.50430449999999
 31
0.0
  0
LINE
  5
189
330
1E
100
AcDbEntity
  8
0
100
AcDbLine
 10
16.0
 20
42.12590449999999
 30
0.0
 11
16.0
 21
42.64510449999999
 31
0.0
  0
LINE
  5
18A
330
1E
100
AcDbEntity
  8
0
100
AcDbLine
 10
16.0
 20
42.12590449999999
 30
0.0
 11
16.0
 21
41.3867045
 31
0.0
  0
LINE
  5
18B
330
1E
100
AcDbEntity
  8
0
100
AcDbLine
 10
16.0
 20
42.9372045
 30
0.0
 11
16.0
 21
42.64510449999999
 31
0.0
  0
LINE
  5
18C
330
1E
100
AcDbEntity
  8
0
100
AcDbLine
 10
16.0
 20
42.64510449999999
 30
0.0
 11
16.0
 21
42.12590449999999
 31
0.0
  0
LINE
  5
18D
330
1E
100
AcDbEntity
  8
0
100
AcDbLine
 10
16.0
 20
42.64510449999999
 30
0.0
 11
16.0
 21
42.9372045
 31
0.0
  0
LINE
  5
18E
330
1E
100
AcDbEntity
  8
0
100
AcDbLine
 10
16.0
 20
42.28090449999999
 30
0.0
 11
16.0
 21
41.3126045
 31
0.0
  0
LINE
  5
18F
330
1E
100
AcDbEntity
  8
0
100
AcDbLine
 10
16.0
 20
42.28090449999999
 30
0.0
 11
16.0
 21
43.0412045
 31
0.0
  0
LINE
  5
190
330
1E
100
AcDbEntity
  8
0
100
AcDbLine
 10
16.0
 20
43.9085045
 30
0.0
 11
16.0
 21
44.00000449999999
 31
0.0
  0
LINE
  5
191
330
1E
100
AcDbEntity
  8
0
100
AcDbLine
 10
16.0
 20
43.9085045
 30
0.0
 11
16.0
 21
43.58540449999999
 31
0.0
  0
LINE
  5
192
330
1E
100
AcDbEntity
  8
0
100
AcDbLine
 10
16.0
 20
44.00000449999999
 30
0.0
 11
38.0
 21
44.00000449999999
 31
0.0
  0
LINE
  5
193
330
1E
100
AcDbEntity
  8
0
100
AcDbLine
 10
16.0
 20
44.00000449999999
 30
0.0
 11
16.0
 21
43.9085045
 31
0.0
  0
LINE
  5
194
330
1E
100
AcDbEntity
  8
0
100
AcDbLine
 10
16.0
 20
43.58540449999999
 30
0.0
 11
16.0
 21
43.9085045
 31
0.0
  0
LINE
  5
195
330
1E
100
AcDbEntity
  8
0
100
AcDbLine
 10
16.0
 20
43.58540449999999
 30
0.0
 11
16.0
 21
43.0412045
 31
0.0
  0
LINE
  5
196
330
1E
100
AcDbEntity
  8
0
100
AcDbLine
 10
16.0
 20
43.0412045
 30
0.0
 11
16.0
 21
43.58540449999999
 31
0.0
  0
LINE
  5
197
330
1E
100
AcDbEntity
  8
0
100
AcDbLine
 10
16.0
 20
43.0412045
 30
0.0
 11
16.0
 21
42.9867045
 31
0.0
  0
LINE
  5
198
330
1E
100
AcDbEntity
  8
0
100
AcDbLine
 10
16.0
 20
43.0412045
 30
0.0
 11
16.0
 21
42.28090449999999
 31
0.0
  0
LINE
  5
199
330
1E
100
AcDbEntity
  8
0
100
AcDbLine
 10
38.0
 20
42.28090449999999
 30
0.0
 11
38.0
 21
43.0412045
 31
0.0
  0
LINE
  5
19A
330
1E
100
AcDbEntity
  8
0
100
AcDbLine
 10
38.0
 20
42.28090449999999
 30
0.0
 11
38.0
 21
41.3126045
 31
0.0
  0
LINE
  5
19B
330
1E
100
AcDbEntity
  8
0
100
AcDbLine
 10
38.0
 20
43.0412045
 30
0.0
 11
38.0
 21
43.58540449999999
 31
0.0
  0
LINE
  5
19C
330
1E
100
AcDbEntity
  8
0
100
AcDbLine
 10
38.0
 20
43.0412045
 30
0.0
 11
38.0
 21
42.28090449999999
 31
0.0
  0
LINE
  5
19D
330
1E
100
AcDbEntity
  8
0
100
AcDbLine
 10
38.0
 20
43.58540449999999
 30
0.0
 11
38.0
 21
43.9085045
 31
0.0
  0
LINE
  5
19E
330
1E
100
AcDbEntity
  8
0
100
AcDbLine
 10
38.0
 20
43.58540449999999
 30
0.0
 11
38.0
 21
43.0412045
 31
0.0
  0
LINE
  5
19F
330
1E
100
AcDbEntity
  8
0
100
AcDbLine
 10
38.0
 20
44.00000449999999
 30
0.0
 11
38.0
 21
43.9085045
 31
0.0
  0
LINE
  5
1A0
330
1E
100
AcDbEntity
  8
0
100
AcDbLine
 10
38.0
 20
43.9085045
 30
0.0
 11
38.0
 21
44.00000449999999
 31
0.0
  0
LINE
  5
1A1
330
1E
100
AcDbEntity
  8
0
100
AcDbLine
 10
38.0
 20
43.9085045
 30
0.0
 11
38.0
 21
43.58540449999999
 31
0.0
  0
LINE
  5
1A2
330
1E
100
AcDbEntity
  8
0
100
AcDbLine
 10
16.0
 20
42.9867045
 30
0.0
 11
16.0
 21
43.0412045
 31
0.0
  0
LINE
  5
1A3
330
1E
100
AcDbEntity
  8
0
100
AcDbLine
 10
16.0
 20
0.0915335000000022
 30
0.0
 11
16.0
 21
0.414636500000002
 31
0.0
  0
LINE
  5
1A4
330
1E
100
AcDbEntity
  8
0
100
AcDbLine
 10
16.0
 20
0.0915335000000022
 30
0.0
 11
16.0
 21
-0.0000044999999978
 31
0.0
  0
LINE
  5
1A5
330
1E
100
AcDbEntity
  8
0
100
AcDbLine
 10
16.0
 20
-0.0000044999999978
 30
0.0
 11
16.0
 21
0.0915335000000022
 31
0.0
  0
LINE
  5
1A6
330
1E
100
AcDbEntity
  8
0
100
AcDbLine
 10
16.0
 20
-0.0000044999999978
 30
0.0
 11
38.0
 21
-0.0000044999999992
 31
0.0
  0
LINE
  5
1A7
330
1E
100
AcDbEntity
  8
0
100
AcDbLine
 10
9.935299999999999
 20
0.9944945000000029
 30
0.0
 11
16.0
 21
1.0132645
 31
0.0
  0
ENDSEC
  0
SECTION
  2
OBJECTS
  0
DICTIONARY
  5
C
330
0
100
AcDbDictionary
281
     1
  3
ACAD_GROUP
350
D
  3
ACAD_LAYOUT
350
19
  3
ACAD_MLINESTYLE
350
16
  3
ACAD_PLOTSETTINGS
350
18
  3
ACAD_PLOTSTYLENAME
350
E
  3
AcDbVariableDictionary
350
1AD
  0
DICTIONARY
  5
D
102
{ACAD_REACTORS
330
C
102
}
330
C
100
AcDbDictionary
281
     1
  0
DICTIONARY
  5
19
102
{ACAD_REACTORS
330
C
102
}
330
C
100
AcDbDictionary
281
     1
  3
Layout1
350
1D
  3
Model
350
21
  0
DICTIONARY
  5
16
102
{ACAD_REACTORS
330
C
102
}
330
C
100
AcDbDictionary
281
     1
  3
Standard
350
17
  0
DICTIONARY
  5
18
102
{ACAD_REACTORS
330
C
102
}
330
C
100
AcDbDictionary
281
     1
  0
ACDBDICTIONARYWDFLT
  5
E
102
{ACAD_REACTORS
330
C
102
}
330
C
100
AcDbDictionary
281
     1
  3
Normal
350
F
100
AcDbDictionaryWithDefault
340
F
  0
DICTIONARY
  5
1AD
102
{ACAD_REACTORS
330
C
102
}
330
C
100
AcDbDictionary
281
     1
  3
DIMASSOC
350
1AE
  0
LAYOUT
  5
1D
102
{ACAD_REACTORS
330
19
102
}
330
19
100
AcDbPlotSettings
  1

  2
C:\Programme\AutoCAD LT 2002 Deu\plotters\DWF ePlot (optimized for plotting).pc3
  4

  6

 40
0.0
 41
0.0
 42
0.0
 43
0.0
 44
0.0
 45
0.0
 46
0.0
 47
0.0
 48
0.0
 49
0.0
140
0.0
141
0.0
142
1.0
143
1.0
 70
   688
 72
     0
 73
     0
 74
     5
  7

 75
    16
147
1.0
148
0.0
149
0.0
100
AcDbLayout
  1
Layout1
 70
     1
 71
     1
 10
0.0
 20
0.0
 11
12.0
 21
9.0
 12
0.0
 22
0.0
 32
0.0
 14
1.000000000000000E+20
 24
1.000000000000000E+20
 34
1.000000000000000E+20
 15
-1.000000000000000E+20
 25
-1.000000000000000E+20
 35
-1.000000000000000E+20
146
0.0
 13
0.0
 23
0.0
 33
0.0
 16
1.0
 26
0.0
 36
0.0
 17
0.0
 27
1.0
 37
0.0
 76
     0
330
1A
  0
LAYOUT
  5
21
102
{ACAD_REACTORS
330
19
102
}
330
19
100
AcDbPlotSettings
  1

  2
C:\Programme\AutoCAD LT 2002 Deu\plotters\DWF ePlot (optimized for plotting).pc3
  4

  6

 40
0.0
 41
0.0
 42
0.0
 43
0.0
 44
0.0
 45
0.0
 46
0.0
 47
0.0
 48
0.0
 49
0.0
140
0.0
141
0.0
142
1.0
143
1.0
 70
  1712
 72
     0
 73
     0
 74
     0
  7

 75
     0
147
1.0
148
0.0
149
0.0
100
AcDbLayout
  1
Model
 70
     1
 71
     0
 10
0.0
 20
0.0
 11
12.0
 21
9.0
 12
0.0
 22
0.0
 32
0.0
 14
0.0
 24
0.0
 34
0.0
 15
0.0
 25
0.0
 35
0.0
146
0.0
 13
0.0
 23
0.0
 33
0.0
 16
1.0
 26
0.0
 36
0.0
 17
0.0
 27
1.0
 37
0.0
 76
     0
330
1E
  0
MLINESTYLE
  5
17
102
{ACAD_REACTORS
330
16
102
}
330
16
100
AcDbMlineStyle
  2
STANDARD
 70
     0
  3

 62
   256
 51
90.0
 52
90.0
 71
     2
 49
0.5
 62
   256
  6
BYLAYER
 49
-0.5
 62
   256
  6
BYLAYER
  0
ACDBPLACEHOLDER
  5
F
102
{ACAD_REACTORS
330
E
102
}
330
E
  0
DICTIONARYVAR
  5
1AE
102
{ACAD_REACTORS
330
1AD
102
}
330
1AD
100
DictionaryVariables
280
     0
  1
1
  0
ENDSEC
  0
EOF
